999
"DXF R12 Output" (www.mydxf.blogspot.com)
 0 
SECTION
 2 
HEADER
 9 
$ACADVER
 1 
AC1009
 9 
$EXTMIN
 10 
 0 
 20 
 0 
 9 
$EXTMAX
 10 
 8.5 
 20 
 11 
 0 
ENDSEC
 0 
SECTION
 2 
ENTITIES
0
LINE
8
Calque 1
10
152.793093
20
125.812388
11
152.344624
21
126.109202
0
LINE
8
Calque 1
10
152.344624
20
126.109202
11
152.158093
21
126.392766
0
LINE
8
Calque 1
10
152.158093
20
126.392766
11
153.145871
21
128.854605
0
LINE
8
Calque 1
10
153.145871
20
128.854605
11
154.133649
21
131.340204
0
LINE
8
Calque 1
10
154.133649
20
131.340204
11
151.821236
21
136.596350
0
LINE
8
Calque 1
10
151.821236
20
136.596350
11
149.508820
21
141.554605
0
LINE
8
Calque 1
10
149.508820
20
141.554605
11
147.870124
21
141.554605
0
LINE
8
Calque 1
10
147.870124
20
141.554605
11
146.231427
21
141.554605
0
LINE
8
Calque 1
10
146.231427
20
141.554605
11
146.235587
21
137.956272
0
LINE
8
Calque 1
10
146.235587
20
137.956272
11
146.330320
21
135.102249
0
LINE
8
Calque 1
10
146.330320
20
135.102249
11
146.596075
21
133.653636
0
LINE
8
Calque 1
10
146.596075
20
133.653636
11
147.221497
21
132.913840
0
LINE
8
Calque 1
10
147.221497
20
132.913840
11
148.241809
21
132.268570
0
LINE
8
Calque 1
10
148.241809
20
132.268570
11
149.538132
21
131.776203
0
LINE
8
Calque 1
10
149.538132
20
131.776203
11
150.991590
21
131.495116
0
LINE
8
Calque 1
10
150.991590
20
131.495116
11
152.722538
21
131.314197
0
LINE
8
Calque 1
10
152.722538
20
131.314197
11
152.722538
21
130.366622
0
LINE
8
Calque 1
10
152.722538
20
130.366622
11
152.722538
21
129.419049
0
LINE
8
Calque 1
10
152.722538
20
129.419049
11
151.221539
21
129.419049
0
LINE
8
Calque 1
10
151.221539
20
129.419049
11
150.000183
21
129.496920
0
LINE
8
Calque 1
10
150.000183
20
129.496920
11
148.827984
21
129.720930
0
LINE
8
Calque 1
10
148.827984
20
129.720930
11
146.733624
21
130.549759
0
LINE
8
Calque 1
10
146.733624
20
130.549759
11
145.862748
21
131.125774
0
LINE
8
Calque 1
10
145.862748
20
131.125774
11
145.143597
21
131.790320
0
LINE
8
Calque 1
10
145.143597
20
131.790320
11
144.601813
21
132.528993
0
LINE
8
Calque 1
10
144.601813
20
132.528993
11
144.263039
21
133.327393
0
LINE
8
Calque 1
10
144.263039
20
133.327393
11
144.060417
21
135.112226
0
LINE
8
Calque 1
10
144.060417
20
135.112226
11
143.975224
21
137.956272
0
LINE
8
Calque 1
10
143.975224
20
137.956272
11
143.895055
21
140.884065
0
LINE
8
Calque 1
10
143.895055
20
140.884065
11
143.765899
21
141.415600
0
LINE
8
Calque 1
10
143.765899
20
141.415600
11
143.550315
21
141.554605
0
LINE
8
Calque 1
10
143.550315
20
141.554605
11
143.223996
21
141.813308
0
LINE
8
Calque 1
10
143.223996
20
141.813308
11
143.126982
21
142.683494
0
LINE
8
Calque 1
10
143.126982
20
142.683494
11
143.223996
21
143.553679
0
LINE
8
Calque 1
10
143.223996
20
143.553679
11
143.550315
21
143.812383
0
LINE
8
Calque 1
10
143.550315
20
143.812383
11
143.758203
21
143.900577
0
LINE
8
Calque 1
10
143.758203
20
143.900577
11
143.887975
21
144.212197
0
LINE
8
Calque 1
10
143.887975
20
144.212197
11
143.973649
21
145.787938
0
LINE
8
Calque 1
10
143.973649
20
145.787938
11
143.973649
21
147.763494
0
LINE
8
Calque 1
10
143.973649
20
147.763494
11
145.102538
21
147.763494
0
LINE
8
Calque 1
10
145.102538
20
147.763494
11
146.231427
21
147.763494
0
LINE
8
Calque 1
10
146.231427
20
147.763494
11
146.231427
21
145.787938
0
LINE
8
Calque 1
10
146.231427
20
145.787938
11
146.231427
21
143.812383
0
LINE
8
Calque 1
10
146.231427
20
143.812383
11
148.501856
21
143.812383
0
LINE
8
Calque 1
10
148.501856
20
143.812383
11
150.772283
21
143.812383
0
LINE
8
Calque 1
10
150.772283
20
143.812383
11
153.087967
21
139.028044
0
LINE
8
Calque 1
10
153.087967
20
139.028044
11
155.576738
21
134.230267
0
LINE
8
Calque 1
10
155.576738
20
134.230267
11
157.975627
21
139.014255
0
LINE
8
Calque 1
10
157.975627
20
139.014255
11
160.201427
21
143.811683
0
LINE
8
Calque 1
10
160.201427
20
143.811683
11
161.431066
21
143.812033
0
LINE
8
Calque 1
10
161.431066
20
143.812033
11
162.339403
21
143.729617
0
LINE
8
Calque 1
10
162.339403
20
143.729617
11
162.514100
21
143.620125
0
LINE
8
Calque 1
10
162.514100
20
143.620125
11
162.519484
21
143.459605
0
LINE
8
Calque 1
10
162.519484
20
143.459605
11
157.816261
21
133.477503
0
LINE
8
Calque 1
10
157.816261
20
133.477503
11
155.055437
21
127.917868
0
LINE
8
Calque 1
10
155.055437
20
127.917868
11
153.736127
21
125.487039
0
LINE
8
Calque 1
10
153.736127
20
125.487039
11
152.793093
21
125.812388
0
LINE
8
Calque 1
10
152.793093
20
125.812388
11
152.793093
21
125.812388
0
LINE
8
Calque 1
10
87.058585
20
127.119240
11
85.480946
21
127.832853
0
LINE
8
Calque 1
10
85.480946
20
127.832853
11
84.006795
21
128.854184
0
LINE
8
Calque 1
10
84.006795
20
128.854184
11
82.615406
21
130.200356
0
LINE
8
Calque 1
10
82.615406
20
130.200356
11
81.286054
21
131.888494
0
LINE
8
Calque 1
10
81.286054
20
131.888494
11
80.393568
21
132.894145
0
LINE
8
Calque 1
10
80.393568
20
132.894145
11
79.930667
21
133.052748
0
LINE
8
Calque 1
10
79.930667
20
133.052748
11
79.279194
21
133.087938
0
LINE
8
Calque 1
10
79.279194
20
133.087938
11
77.969656
21
133.265490
0
LINE
8
Calque 1
10
77.969656
20
133.265490
11
76.735136
21
133.770585
0
LINE
8
Calque 1
10
76.735136
20
133.770585
11
75.649614
21
134.561886
0
LINE
8
Calque 1
10
75.649614
20
134.561886
11
74.787071
21
135.598054
0
LINE
8
Calque 1
10
74.787071
20
135.598054
11
73.683517
21
137.882903
0
LINE
8
Calque 1
10
73.683517
20
137.882903
11
73.035338
21
140.423552
0
LINE
8
Calque 1
10
73.035338
20
140.423552
11
72.879556
21
142.985058
0
LINE
8
Calque 1
10
72.879556
20
142.985058
11
72.997882
21
144.200212
0
LINE
8
Calque 1
10
72.997882
20
144.200212
11
73.253191
21
145.332477
0
LINE
8
Calque 1
10
73.253191
20
145.332477
11
74.052359
21
147.092950
0
LINE
8
Calque 1
10
74.052359
20
147.092950
11
75.184390
21
148.431634
0
LINE
8
Calque 1
10
75.184390
20
148.431634
11
76.489083
21
149.209385
0
LINE
8
Calque 1
10
76.489083
20
149.209385
11
77.156115
21
149.344429
0
LINE
8
Calque 1
10
77.156115
20
149.344429
11
77.806237
21
149.287059
0
LINE
8
Calque 1
10
77.806237
20
149.287059
11
78.413615
21
148.953403
0
LINE
8
Calque 1
10
78.413615
20
148.953403
11
79.068472
21
147.922175
0
LINE
8
Calque 1
10
79.068472
20
147.922175
11
81.608524
21
141.554605
0
LINE
8
Calque 1
10
81.608524
20
141.554605
11
83.764213
21
135.942486
0
LINE
8
Calque 1
10
83.764213
20
135.942486
11
84.097109
21
136.027674
0
LINE
8
Calque 1
10
84.097109
20
136.027674
11
84.952261
21
136.582541
0
LINE
8
Calque 1
10
84.952261
20
136.582541
11
88.516982
21
139.304811
0
LINE
8
Calque 1
10
88.516982
20
139.304811
11
90.823387
21
141.092575
0
LINE
8
Calque 1
10
90.823387
20
141.092575
11
92.191952
21
142.022368
0
LINE
8
Calque 1
10
92.191952
20
142.022368
11
92.989905
21
142.298616
0
LINE
8
Calque 1
10
92.989905
20
142.298616
11
93.584474
21
142.125744
0
LINE
8
Calque 1
10
93.584474
20
142.125744
11
94.321353
21
141.529856
0
LINE
8
Calque 1
10
94.321353
20
141.529856
11
94.854842
21
140.617644
0
LINE
8
Calque 1
10
94.854842
20
140.617644
11
95.202018
21
139.346777
0
LINE
8
Calque 1
10
95.202018
20
139.346777
11
95.379958
21
137.674924
0
LINE
8
Calque 1
10
95.379958
20
137.674924
11
95.385303
21
135.611905
0
LINE
8
Calque 1
10
95.385303
20
135.611905
11
95.183886
21
133.710920
0
LINE
8
Calque 1
10
95.183886
20
133.710920
11
94.786003
21
131.993410
0
LINE
8
Calque 1
10
94.786003
20
131.993410
11
94.201949
21
130.480815
0
LINE
8
Calque 1
10
94.201949
20
130.480815
11
93.442020
21
129.194576
0
LINE
8
Calque 1
10
93.442020
20
129.194576
11
92.516511
21
128.156132
0
LINE
8
Calque 1
10
92.516511
20
128.156132
11
91.435718
21
127.386925
0
LINE
8
Calque 1
10
91.435718
20
127.386925
11
90.209937
21
126.908395
0
LINE
8
Calque 1
10
90.209937
20
126.908395
11
88.716898
21
126.641688
0
LINE
8
Calque 1
10
88.716898
20
126.641688
11
87.058585
21
127.119240
0
LINE
8
Calque 1
10
87.058585
20
127.119240
11
87.058585
21
127.119240
0
LINE
8
Calque 1
10
91.771210
20
131.369668
11
92.655664
21
132.550447
0
LINE
8
Calque 1
10
92.655664
20
132.550447
11
93.307419
21
133.839112
0
LINE
8
Calque 1
10
93.307419
20
133.839112
11
93.711625
21
135.645275
0
LINE
8
Calque 1
10
93.711625
20
135.645275
11
93.946379
21
137.928285
0
LINE
8
Calque 1
10
93.946379
20
137.928285
11
93.970071
21
139.988845
0
LINE
8
Calque 1
10
93.970071
20
139.988845
11
93.741093
21
141.127656
0
LINE
8
Calque 1
10
93.741093
20
141.127656
11
93.368958
21
141.461039
0
LINE
8
Calque 1
10
93.368958
20
141.461039
11
92.943351
21
141.442399
0
LINE
8
Calque 1
10
92.943351
20
141.442399
11
92.293265
21
140.998152
0
LINE
8
Calque 1
10
92.293265
20
140.998152
11
91.247697
21
140.054710
0
LINE
8
Calque 1
10
91.247697
20
140.054710
11
88.070742
21
137.263072
0
LINE
8
Calque 1
10
88.070742
20
137.263072
11
85.133815
21
134.913086
0
LINE
8
Calque 1
10
85.133815
20
134.913086
11
84.340336
21
134.339345
0
LINE
8
Calque 1
10
84.340336
20
134.339345
11
85.051496
21
133.219753
0
LINE
8
Calque 1
10
85.051496
20
133.219753
11
86.297470
21
131.648072
0
LINE
8
Calque 1
10
86.297470
20
131.648072
11
86.983218
21
131.137836
0
LINE
8
Calque 1
10
86.983218
20
131.137836
11
87.819823
21
130.712606
0
LINE
8
Calque 1
10
87.819823
20
130.712606
11
89.005777
21
130.322127
0
LINE
8
Calque 1
10
89.005777
20
130.322127
11
90.005736
21
130.292510
0
LINE
8
Calque 1
10
90.005736
20
130.292510
11
90.900586
21
130.637207
0
LINE
8
Calque 1
10
90.900586
20
130.637207
11
91.771210
21
131.369668
0
LINE
8
Calque 1
10
91.771210
20
131.369668
11
91.771210
21
131.369668
0
LINE
8
Calque 1
10
79.626982
20
134.643076
11
77.704950
21
139.369941
0
LINE
8
Calque 1
10
77.704950
20
139.369941
11
75.482865
21
144.336441
0
LINE
8
Calque 1
10
75.482865
20
144.336441
11
75.062044
21
144.778041
0
LINE
8
Calque 1
10
75.062044
20
144.778041
11
74.734893
21
144.621453
0
LINE
8
Calque 1
10
74.734893
20
144.621453
11
74.494823
21
143.855969
0
LINE
8
Calque 1
10
74.494823
20
143.855969
11
74.335248
21
142.470879
0
LINE
8
Calque 1
10
74.335248
20
142.470879
11
74.319739
21
141.195722
0
LINE
8
Calque 1
10
74.319739
20
141.195722
11
74.451679
21
139.970917
0
LINE
8
Calque 1
10
74.451679
20
139.970917
11
74.721203
21
138.818124
0
LINE
8
Calque 1
10
74.721203
20
138.818124
11
75.118445
21
137.758999
0
LINE
8
Calque 1
10
75.118445
20
137.758999
11
75.633540
21
136.815200
0
LINE
8
Calque 1
10
75.633540
20
136.815200
11
76.256623
21
136.008387
0
LINE
8
Calque 1
10
76.256623
20
136.008387
11
76.977828
21
135.360216
0
LINE
8
Calque 1
10
76.977828
20
135.360216
11
77.787291
21
134.892346
0
LINE
8
Calque 1
10
77.787291
20
134.892346
11
79.032487
21
134.528265
0
LINE
8
Calque 1
10
79.032487
20
134.528265
11
79.461537
21
134.518971
0
LINE
8
Calque 1
10
79.461537
20
134.518971
11
79.626982
21
134.643076
0
LINE
8
Calque 1
10
79.626982
20
134.643076
11
79.626982
21
134.643076
0
LINE
8
Calque 1
10
159.059711
20
128.982889
11
158.579738
21
129.552797
0
LINE
8
Calque 1
10
158.579738
20
129.552797
11
158.404679
21
130.054811
0
LINE
8
Calque 1
10
158.404679
20
130.054811
11
158.530187
21
130.579000
0
LINE
8
Calque 1
10
158.530187
20
130.579000
11
158.951910
21
131.215433
0
LINE
8
Calque 1
10
158.951910
20
131.215433
11
159.531373
21
131.731193
0
LINE
8
Calque 1
10
159.531373
20
131.731193
11
160.179905
21
131.935497
0
LINE
8
Calque 1
10
160.179905
20
131.935497
11
160.844318
21
131.824561
0
LINE
8
Calque 1
10
160.844318
20
131.824561
11
161.471427
21
131.394605
0
LINE
8
Calque 1
10
161.471427
20
131.394605
11
161.883505
21
130.788314
0
LINE
8
Calque 1
10
161.883505
20
130.788314
11
162.011093
21
130.121854
0
LINE
8
Calque 1
10
162.011093
20
130.121854
11
161.855544
21
129.459518
0
LINE
8
Calque 1
10
161.855544
20
129.459518
11
161.418211
21
128.865600
0
LINE
8
Calque 1
10
161.418211
20
128.865600
11
160.823726
21
128.444265
0
LINE
8
Calque 1
10
160.823726
20
128.444265
11
160.248985
21
128.322547
0
LINE
8
Calque 1
10
160.248985
20
128.322547
11
159.669233
21
128.501678
0
LINE
8
Calque 1
10
159.669233
20
128.501678
11
159.059711
21
128.982889
0
LINE
8
Calque 1
10
159.059711
20
128.982889
11
159.059711
21
128.982889
0
LINE
8
Calque 1
10
161.237538
20
129.039458
11
161.547096
21
129.421323
0
LINE
8
Calque 1
10
161.547096
20
129.421323
11
161.708235
21
129.846138
0
LINE
8
Calque 1
10
161.708235
20
129.846138
11
161.630896
21
130.708890
0
LINE
8
Calque 1
10
161.630896
20
130.708890
11
161.096812
21
131.396268
0
LINE
8
Calque 1
10
161.096812
20
131.396268
11
160.687018
21
131.601866
0
LINE
8
Calque 1
10
160.687018
20
131.601866
11
160.197272
21
131.676827
0
LINE
8
Calque 1
10
160.197272
20
131.676827
11
159.674731
21
131.522078
0
LINE
8
Calque 1
10
159.674731
20
131.522078
11
159.173767
21
131.129577
0
LINE
8
Calque 1
10
159.173767
20
131.129577
11
158.797538
21
130.606947
0
LINE
8
Calque 1
10
158.797538
20
130.606947
11
158.649204
21
130.061808
0
LINE
8
Calque 1
10
158.649204
20
130.061808
11
158.821129
21
129.610879
0
LINE
8
Calque 1
10
158.821129
20
129.610879
11
159.241049
21
129.123134
0
LINE
8
Calque 1
10
159.241049
20
129.123134
11
159.765185
21
128.732370
0
LINE
8
Calque 1
10
159.765185
20
128.732370
11
160.249760
21
128.572383
0
LINE
8
Calque 1
10
160.249760
20
128.572383
11
160.734482
21
128.709585
0
LINE
8
Calque 1
10
160.734482
20
128.709585
11
161.237538
21
129.039458
0
LINE
8
Calque 1
10
161.237538
20
129.039458
11
161.237538
21
129.039458
0
LINE
8
Calque 1
10
159.588429
20
130.102789
11
159.682926
21
130.849318
0
LINE
8
Calque 1
10
159.682926
20
130.849318
11
159.897815
21
131.238688
0
LINE
8
Calque 1
10
159.897815
20
131.238688
11
160.252561
21
131.285815
0
LINE
8
Calque 1
10
160.252561
20
131.285815
11
160.766630
21
131.005615
0
LINE
8
Calque 1
10
160.766630
20
131.005615
11
161.131819
21
130.607495
0
LINE
8
Calque 1
10
161.131819
20
130.607495
11
160.973601
21
130.204875
0
LINE
8
Calque 1
10
160.973601
20
130.204875
11
160.781157
21
129.802644
0
LINE
8
Calque 1
10
160.781157
20
129.802644
11
160.984252
21
129.405712
0
LINE
8
Calque 1
10
160.984252
20
129.405712
11
161.056327
21
129.269610
0
LINE
8
Calque 1
10
161.056327
20
129.269610
11
160.743649
21
129.497092
0
LINE
8
Calque 1
10
160.743649
20
129.497092
11
160.001243
21
129.953136
0
LINE
8
Calque 1
10
160.001243
20
129.953136
11
159.816077
21
129.836516
0
LINE
8
Calque 1
10
159.816077
20
129.836516
11
159.679677
21
129.489605
0
LINE
8
Calque 1
10
159.679677
20
129.489605
11
159.629225
21
129.385192
0
LINE
8
Calque 1
10
159.629225
20
129.385192
11
159.595203
21
129.465999
0
LINE
8
Calque 1
10
159.595203
20
129.465999
11
159.588429
21
130.102789
0
LINE
8
Calque 1
10
159.588429
20
130.102789
11
159.588429
21
130.102789
0
LINE
8
Calque 1
10
160.765871
20
130.547938
11
160.718360
21
130.747258
0
LINE
8
Calque 1
10
160.718360
20
130.747258
11
160.359194
21
130.830160
0
LINE
8
Calque 1
10
160.359194
20
130.830160
11
159.948792
21
130.747258
0
LINE
8
Calque 1
10
159.948792
20
130.747258
11
159.778093
21
130.547938
0
LINE
8
Calque 1
10
159.778093
20
130.547938
11
159.897554
21
130.348619
0
LINE
8
Calque 1
10
159.897554
20
130.348619
11
160.184770
21
130.265716
0
LINE
8
Calque 1
10
160.184770
20
130.265716
11
160.765871
21
130.547938
0
LINE
8
Calque 1
10
160.765871
20
130.547938
11
160.765871
21
130.547938
0
LINE
8
Calque 1
10
98.818093
20
138.732383
11
98.818093
21
147.763494
0
LINE
8
Calque 1
10
98.818093
20
147.763494
11
99.946982
21
147.763494
0
LINE
8
Calque 1
10
99.946982
20
147.763494
11
101.075871
21
147.763494
0
LINE
8
Calque 1
10
101.075871
20
147.763494
11
101.075871
21
138.732383
0
LINE
8
Calque 1
10
101.075871
20
138.732383
11
101.075871
21
129.701272
0
LINE
8
Calque 1
10
101.075871
20
129.701272
11
99.946982
21
129.701272
0
LINE
8
Calque 1
10
99.946982
20
129.701272
11
98.818093
21
129.701272
0
LINE
8
Calque 1
10
98.818093
20
129.701272
11
98.818093
21
138.732383
0
LINE
8
Calque 1
10
98.818093
20
138.732383
11
98.818093
21
138.732383
0
LINE
8
Calque 1
10
102.204760
20
136.756827
11
102.204760
21
143.812383
0
LINE
8
Calque 1
10
102.204760
20
143.812383
11
103.333649
21
143.812383
0
LINE
8
Calque 1
10
103.333649
20
143.812383
11
104.203834
21
143.715368
0
LINE
8
Calque 1
10
104.203834
20
143.715368
11
104.462538
21
143.389049
0
LINE
8
Calque 1
10
104.462538
20
143.389049
11
104.479480
21
143.095825
0
LINE
8
Calque 1
10
104.479480
20
143.095825
11
104.616368
21
143.001335
0
LINE
8
Calque 1
10
104.616368
20
143.001335
11
105.766334
21
143.421358
0
LINE
8
Calque 1
10
105.766334
20
143.421358
11
107.092617
21
143.745661
0
LINE
8
Calque 1
10
107.092617
20
143.745661
11
108.986614
21
143.753712
0
LINE
8
Calque 1
10
108.986614
20
143.753712
11
110.862481
21
143.475941
0
LINE
8
Calque 1
10
110.862481
20
143.475941
11
112.501664
21
142.887572
0
LINE
8
Calque 1
10
112.501664
20
142.887572
11
113.855253
21
142.012520
0
LINE
8
Calque 1
10
113.855253
20
142.012520
11
114.874339
21
140.874701
0
LINE
8
Calque 1
10
114.874339
20
140.874701
11
115.292179
21
140.146584
0
LINE
8
Calque 1
10
115.292179
20
140.146584
11
115.522009
21
139.229186
0
LINE
8
Calque 1
10
115.522009
20
139.229186
11
115.698685
21
134.732509
0
LINE
8
Calque 1
10
115.698685
20
134.732509
11
115.787057
21
129.701272
0
LINE
8
Calque 1
10
115.787057
20
129.701272
11
114.640352
21
129.701272
0
LINE
8
Calque 1
10
114.640352
20
129.701272
11
113.493649
21
129.701272
0
LINE
8
Calque 1
10
113.493649
20
129.701272
11
113.493649
21
134.033981
0
LINE
8
Calque 1
10
113.493649
20
134.033981
11
113.397560
21
137.852239
0
LINE
8
Calque 1
10
113.397560
20
137.852239
11
113.206955
21
138.677465
0
LINE
8
Calque 1
10
113.206955
20
138.677465
11
112.858649
21
139.299697
0
LINE
8
Calque 1
10
112.858649
20
139.299697
11
112.021523
21
140.349695
0
LINE
8
Calque 1
10
112.021523
20
140.349695
11
111.138475
21
140.996344
0
LINE
8
Calque 1
10
111.138475
20
140.996344
11
110.039541
21
141.323119
0
LINE
8
Calque 1
10
110.039541
20
141.323119
11
108.554760
21
141.413494
0
LINE
8
Calque 1
10
108.554760
20
141.413494
11
107.034374
21
141.303740
0
LINE
8
Calque 1
10
107.034374
20
141.303740
11
105.904519
21
140.965828
0
LINE
8
Calque 1
10
105.904519
20
140.965828
11
105.138358
21
140.386776
0
LINE
8
Calque 1
10
105.138358
20
140.386776
11
104.709053
21
139.553607
0
LINE
8
Calque 1
10
104.709053
20
139.553607
11
104.490670
21
134.287383
0
LINE
8
Calque 1
10
104.490670
20
134.287383
11
104.462538
21
129.701272
0
LINE
8
Calque 1
10
104.462538
20
129.701272
11
103.333649
21
129.701272
0
LINE
8
Calque 1
10
103.333649
20
129.701272
11
102.204760
21
129.701272
0
LINE
8
Calque 1
10
102.204760
20
129.701272
11
102.204760
21
136.756827
0
LINE
8
Calque 1
10
102.204760
20
136.756827
11
102.204760
21
136.756827
0
LINE
8
Calque 1
10
116.880315
20
135.627938
11
116.880315
21
141.554605
0
LINE
8
Calque 1
10
116.880315
20
141.554605
11
115.751427
21
141.554605
0
LINE
8
Calque 1
10
115.751427
20
141.554605
11
115.098788
21
141.572244
0
LINE
8
Calque 1
10
115.098788
20
141.572244
11
114.763649
21
141.695716
0
LINE
8
Calque 1
10
114.763649
20
141.695716
11
114.640177
21
142.030855
0
LINE
8
Calque 1
10
114.640177
20
142.030855
11
114.622538
21
142.683494
0
LINE
8
Calque 1
10
114.622538
20
142.683494
11
114.640177
21
143.336133
0
LINE
8
Calque 1
10
114.640177
20
143.336133
11
114.763649
21
143.671272
0
LINE
8
Calque 1
10
114.763649
20
143.671272
11
115.098788
21
143.794744
0
LINE
8
Calque 1
10
115.098788
20
143.794744
11
115.751427
21
143.812383
0
LINE
8
Calque 1
10
115.751427
20
143.812383
11
116.684718
21
143.923013
0
LINE
8
Calque 1
10
116.684718
20
143.923013
11
116.844797
21
144.115436
0
LINE
8
Calque 1
10
116.844797
20
144.115436
11
116.886513
21
144.447383
0
LINE
8
Calque 1
10
116.886513
20
144.447383
11
117.068396
21
145.389843
0
LINE
8
Calque 1
10
117.068396
20
145.389843
11
117.548496
21
146.446038
0
LINE
8
Calque 1
10
117.548496
20
146.446038
11
118.253155
21
147.485668
0
LINE
8
Calque 1
10
118.253155
20
147.485668
11
119.108714
21
148.378428
0
LINE
8
Calque 1
10
119.108714
20
148.378428
11
120.059291
21
149.042266
0
LINE
8
Calque 1
10
120.059291
20
149.042266
11
121.238044
21
149.611758
0
LINE
8
Calque 1
10
121.238044
20
149.611758
11
122.611838
21
150.073517
0
LINE
8
Calque 1
10
122.611838
20
150.073517
11
124.147538
21
150.414156
0
LINE
8
Calque 1
10
124.147538
20
150.414156
11
124.672682
21
150.485033
0
LINE
8
Calque 1
10
124.672682
20
150.485033
11
124.945552
21
150.407942
0
LINE
8
Calque 1
10
124.945552
20
150.407942
11
125.048720
21
150.097864
0
LINE
8
Calque 1
10
125.048720
20
150.097864
11
125.064760
21
149.469781
0
LINE
8
Calque 1
10
125.064760
20
149.469781
11
125.064760
21
148.367957
0
LINE
8
Calque 1
10
125.064760
20
148.367957
11
123.575950
21
148.058879
0
LINE
8
Calque 1
10
123.575950
20
148.058879
11
122.279116
21
147.694430
0
LINE
8
Calque 1
10
122.279116
20
147.694430
11
121.203294
21
147.184503
0
LINE
8
Calque 1
10
121.203294
20
147.184503
11
120.345067
21
146.527035
0
LINE
8
Calque 1
10
120.345067
20
146.527035
11
119.701014
21
145.719962
0
LINE
8
Calque 1
10
119.701014
20
145.719962
11
119.237926
21
144.824108
0
LINE
8
Calque 1
10
119.237926
20
144.824108
11
119.150902
21
144.234799
0
LINE
8
Calque 1
10
119.150902
20
144.234799
11
119.449408
21
143.911177
0
LINE
8
Calque 1
10
119.449408
20
143.911177
11
120.142909
21
143.812383
0
LINE
8
Calque 1
10
120.142909
20
143.812383
11
120.715383
21
143.793436
0
LINE
8
Calque 1
10
120.715383
20
143.793436
11
121.004536
21
143.673664
0
LINE
8
Calque 1
10
121.004536
20
143.673664
11
121.092182
21
143.358668
0
LINE
8
Calque 1
10
121.092182
20
143.358668
11
121.060131
21
142.754049
0
LINE
8
Calque 1
10
121.060131
20
142.754049
11
120.841753
21
141.848612
0
LINE
8
Calque 1
10
120.841753
20
141.848612
11
120.554343
21
141.684650
0
LINE
8
Calque 1
10
120.554343
20
141.684650
11
120.055315
21
141.607279
0
LINE
8
Calque 1
10
120.055315
20
141.607279
11
119.138093
21
141.518842
0
LINE
8
Calque 1
10
119.138093
20
141.518842
11
119.138093
21
135.610057
0
LINE
8
Calque 1
10
119.138093
20
135.610057
11
119.138093
21
129.701272
0
LINE
8
Calque 1
10
119.138093
20
129.701272
11
118.009204
21
129.701272
0
LINE
8
Calque 1
10
118.009204
20
129.701272
11
116.880315
21
129.701272
0
LINE
8
Calque 1
10
116.880315
20
129.701272
11
116.880315
21
135.627938
0
LINE
8
Calque 1
10
116.880315
20
135.627938
11
116.880315
21
135.627938
0
LINE
8
Calque 1
10
121.960315
20
136.756827
11
121.960315
21
143.812383
0
LINE
8
Calque 1
10
121.960315
20
143.812383
11
123.089204
21
143.812383
0
LINE
8
Calque 1
10
123.089204
20
143.812383
11
124.218093
21
143.812383
0
LINE
8
Calque 1
10
124.218093
20
143.812383
11
124.218093
21
136.756827
0
LINE
8
Calque 1
10
124.218093
20
136.756827
11
124.218093
21
129.701272
0
LINE
8
Calque 1
10
124.218093
20
129.701272
11
123.089204
21
129.701272
0
LINE
8
Calque 1
10
123.089204
20
129.701272
11
121.960315
21
129.701272
0
LINE
8
Calque 1
10
121.960315
20
129.701272
11
121.960315
21
136.756827
0
LINE
8
Calque 1
10
121.960315
20
136.756827
11
121.960315
21
136.756827
0
LINE
8
Calque 1
10
125.346982
20
136.756827
11
125.346982
21
143.812383
0
LINE
8
Calque 1
10
125.346982
20
143.812383
11
126.475871
21
143.812383
0
LINE
8
Calque 1
10
126.475871
20
143.812383
11
127.340322
21
143.716151
0
LINE
8
Calque 1
10
127.340322
20
143.716151
11
127.604760
21
143.401569
0
LINE
8
Calque 1
10
127.604760
20
143.401569
11
127.643364
21
143.199291
0
LINE
8
Calque 1
10
127.643364
20
143.199291
11
127.804735
21
143.131865
0
LINE
8
Calque 1
10
127.804735
20
143.131865
11
128.769133
21
143.401569
0
LINE
8
Calque 1
10
128.769133
20
143.401569
11
130.810696
21
143.807468
0
LINE
8
Calque 1
10
130.810696
20
143.807468
11
132.962158
21
143.695882
0
LINE
8
Calque 1
10
132.962158
20
143.695882
11
135.014493
21
143.101893
0
LINE
8
Calque 1
10
135.014493
20
143.101893
11
136.758680
21
142.060584
0
LINE
8
Calque 1
10
136.758680
20
142.060584
11
137.870524
21
140.941828
0
LINE
8
Calque 1
10
137.870524
20
140.941828
11
138.513933
21
139.572803
0
LINE
8
Calque 1
10
138.513933
20
139.572803
11
138.811908
21
137.504368
0
LINE
8
Calque 1
10
138.811908
20
137.504368
11
138.887451
21
134.287383
0
LINE
8
Calque 1
10
138.887451
20
134.287383
11
138.893649
21
129.701272
0
LINE
8
Calque 1
10
138.893649
20
129.701272
11
137.764760
21
129.701272
0
LINE
8
Calque 1
10
137.764760
20
129.701272
11
136.635871
21
129.701272
0
LINE
8
Calque 1
10
136.635871
20
129.701272
11
136.635871
21
133.733694
0
LINE
8
Calque 1
10
136.635871
20
133.733694
11
136.532192
21
137.313139
0
LINE
8
Calque 1
10
136.532192
20
137.313139
11
136.340639
21
138.230157
0
LINE
8
Calque 1
10
136.340639
20
138.230157
11
136.000871
21
139.024198
0
LINE
8
Calque 1
10
136.000871
20
139.024198
11
135.500512
21
139.795920
0
LINE
8
Calque 1
10
135.500512
20
139.795920
11
134.857192
21
140.440660
0
LINE
8
Calque 1
10
134.857192
20
140.440660
11
134.097194
21
140.949822
0
LINE
8
Calque 1
10
134.097194
20
140.949822
11
133.246805
21
141.314809
0
LINE
8
Calque 1
10
133.246805
20
141.314809
11
132.332308
21
141.527025
0
LINE
8
Calque 1
10
132.332308
20
141.527025
11
131.379989
21
141.577874
0
LINE
8
Calque 1
10
131.379989
20
141.577874
11
130.416132
21
141.458758
0
LINE
8
Calque 1
10
130.416132
20
141.458758
11
129.467023
21
141.161083
0
LINE
8
Calque 1
10
129.467023
20
141.161083
11
128.441360
21
140.588867
0
LINE
8
Calque 1
10
128.441360
20
140.588867
11
128.112495
21
140.189681
0
LINE
8
Calque 1
10
128.112495
20
140.189681
11
127.882838
21
139.632256
0
LINE
8
Calque 1
10
127.882838
20
139.632256
11
127.650844
21
137.794129
0
LINE
8
Calque 1
10
127.650844
20
137.794129
11
127.604760
21
134.577363
0
LINE
8
Calque 1
10
127.604760
20
134.577363
11
127.604760
21
129.701272
0
LINE
8
Calque 1
10
127.604760
20
129.701272
11
126.475871
21
129.701272
0
LINE
8
Calque 1
10
126.475871
20
129.701272
11
125.346982
21
129.701272
0
LINE
8
Calque 1
10
125.346982
20
129.701272
11
125.346982
21
136.756827
0
LINE
8
Calque 1
10
125.346982
20
136.756827
11
125.346982
21
136.756827
0
LINE
8
Calque 1
10
140.304760
20
136.756827
11
140.304760
21
143.812383
0
LINE
8
Calque 1
10
140.304760
20
143.812383
11
141.433649
21
143.812383
0
LINE
8
Calque 1
10
141.433649
20
143.812383
11
142.562538
21
143.812383
0
LINE
8
Calque 1
10
142.562538
20
143.812383
11
142.562538
21
136.756827
0
LINE
8
Calque 1
10
142.562538
20
136.756827
11
142.562538
21
129.701272
0
LINE
8
Calque 1
10
142.562538
20
129.701272
11
141.433649
21
129.701272
0
LINE
8
Calque 1
10
141.433649
20
129.701272
11
140.304760
21
129.701272
0
LINE
8
Calque 1
10
140.304760
20
129.701272
11
140.304760
21
136.756827
0
LINE
8
Calque 1
10
140.304760
20
136.756827
11
140.304760
21
136.756827
0
LINE
8
Calque 1
10
121.960315
20
145.929049
11
121.960315
21
147.199049
0
LINE
8
Calque 1
10
121.960315
20
147.199049
11
123.089204
21
147.199049
0
LINE
8
Calque 1
10
123.089204
20
147.199049
11
124.218093
21
147.199049
0
LINE
8
Calque 1
10
124.218093
20
147.199049
11
124.218093
21
145.929049
0
LINE
8
Calque 1
10
124.218093
20
145.929049
11
124.218093
21
144.659049
0
LINE
8
Calque 1
10
124.218093
20
144.659049
11
123.089204
21
144.659049
0
LINE
8
Calque 1
10
123.089204
20
144.659049
11
121.960315
21
144.659049
0
LINE
8
Calque 1
10
121.960315
20
144.659049
11
121.960315
21
145.929049
0
LINE
8
Calque 1
10
121.960315
20
145.929049
11
121.960315
21
145.929049
0
LINE
8
Calque 1
10
140.304760
20
145.929049
11
140.304760
21
147.199049
0
LINE
8
Calque 1
10
140.304760
20
147.199049
11
141.433649
21
147.199049
0
LINE
8
Calque 1
10
141.433649
20
147.199049
11
142.562538
21
147.199049
0
LINE
8
Calque 1
10
142.562538
20
147.199049
11
142.562538
21
145.929049
0
LINE
8
Calque 1
10
142.562538
20
145.929049
11
142.562538
21
144.659049
0
LINE
8
Calque 1
10
142.562538
20
144.659049
11
141.433649
21
144.659049
0
LINE
8
Calque 1
10
141.433649
20
144.659049
11
140.304760
21
144.659049
0
LINE
8
Calque 1
10
140.304760
20
144.659049
11
140.304760
21
145.929049
0
LINE
8
Calque 1
10
140.304760
20
145.929049
11
140.304760
21
145.929049
 0 
ENDSEC
 0 
EOF
