  0
SECTION
  2
ENTITIES
  0
POLYLINE
  5
3E8
  100
AcDbEntity
  8
Layer 1
  62
0
  100
AcDb2dPolyline
 66
     1
  10
0
  20
0
  30
0
  70
1
  0
VERTEX
  5
3E9
  100
AcDbEntity
  8
Layer 1
  62
0
  100
AcDb2dVertex
  10
14.22316
  20
19.38225
  30
0.00000
  42
-0.2193
  70
32
  0
VERTEX
  5
3EA
  100
AcDbEntity
  8
Layer 1
  62
0
  100
AcDb2dVertex
  10
13.25929
  20
17.96814
  30
0.00000
  42
-0.1603
  70
32
  0
VERTEX
  5
3EB
  100
AcDbEntity
  8
Layer 1
  62
0
  100
AcDb2dVertex
  10
11.89442
  20
17.70370
  30
0.00000
  42
-0.3398
  70
32
  0
VERTEX
  5
3EC
  100
AcDbEntity
  8
Layer 1
  62
0
  100
AcDb2dVertex
  10
10.10107
  20
19.34521
  30
0.00000
  42
-0.1437
  70
32
  0
VERTEX
  5
3ED
  100
AcDbEntity
  8
Layer 1
  62
0
  100
AcDb2dVertex
  10
10.41919
  20
20.85228
  30
0.00000
  70
32
  0
VERTEX
  5
3EE
  100
AcDbEntity
  8
Layer 1
  62
0
  100
AcDb2dVertex
  10
11.08383
  20
21.90507
  30
0.00000
  42
0.0431
  70
32
  0
VERTEX
  5
3EF
  100
AcDbEntity
  8
Layer 1
  62
0
  100
AcDb2dVertex
  10
12.08104
  20
23.68124
  30
0.00000
  42
-0.1548
  70
32
  0
VERTEX
  5
3F0
  100
AcDbEntity
  8
Layer 1
  62
0
  100
AcDb2dVertex
  10
12.12380
  20
23.74153
  30
0.00000
  42
-0.3418
  70
32
  0
VERTEX
  5
3F1
  100
AcDbEntity
  8
Layer 1
  62
0
  100
AcDb2dVertex
  10
12.14943
  20
23.74153
  30
0.00000
  70
32
  0
VERTEX
  5
3F2
  100
AcDbEntity
  8
Layer 1
  62
0
  100
AcDb2dVertex
  10
12.17951
  20
23.70758
  30
0.00000
  42
-0.0339
  70
32
  0
VERTEX
  5
3F3
  100
AcDbEntity
  8
Layer 1
  62
0
  100
AcDb2dVertex
  10
12.25406
  20
23.56785
  30
0.00000
  42
0.0213
  70
32
  0
VERTEX
  5
3F4
  100
AcDbEntity
  8
Layer 1
  62
0
  100
AcDb2dVertex
  10
13.81001
  20
21.02843
  30
0.00000
  42
-0.1541
  70
32
  0
VERTEX
  5
3F5
  100
AcDbEntity
  8
Layer 1
  62
0
  100
AcDb2dVertex
  10
14.22316
  20
19.38225
  30
0.00000
  70
32
  0
SEQEND
  5
3F6
  100
AcDbEntity
  8
Layer 1
  62
0
  0
POLYLINE
  5
3F7
  100
AcDbEntity
  8
Layer 1
  62
0
  100
AcDb2dPolyline
 66
     1
  10
0
  20
0
  30
0
  70
1
  0
VERTEX
  5
3F8
  100
AcDbEntity
  8
Layer 1
  62
0
  100
AcDb2dVertex
  10
4.05619
  20
13.12353
  30
0.00000
  70
32
  0
VERTEX
  5
3F9
  100
AcDbEntity
  8
Layer 1
  62
0
  100
AcDb2dVertex
  10
4.05910
  20
9.42797
  30
0.00000
  70
32
  0
VERTEX
  5
3FA
  100
AcDbEntity
  8
Layer 1
  62
0
  100
AcDb2dVertex
  10
4.06504
  20
9.34584
  30
0.00000
  70
32
  0
VERTEX
  5
3FB
  100
AcDbEntity
  8
Layer 1
  62
0
  100
AcDb2dVertex
  10
4.08112
  20
9.31788
  30
0.00000
  42
0.0527
  70
32
  0
VERTEX
  5
3FC
  100
AcDbEntity
  8
Layer 1
  62
0
  100
AcDb2dVertex
  10
4.17122
  20
9.14376
  30
0.00000
  42
0.2273
  70
32
  0
VERTEX
  5
3FD
  100
AcDbEntity
  8
Layer 1
  62
0
  100
AcDb2dVertex
  10
4.47423
  20
9.05111
  30
0.00000
  70
32
  0
VERTEX
  5
3FE
  100
AcDbEntity
  8
Layer 1
  62
0
  100
AcDb2dVertex
  10
4.60405
  20
9.05274
  30
0.00000
  42
0.1408
  70
32
  0
VERTEX
  5
3FF
  100
AcDbEntity
  8
Layer 1
  62
0
  100
AcDb2dVertex
  10
4.67011
  20
9.07475
  30
0.00000
  70
32
  0
VERTEX
  5
400
  100
AcDbEntity
  8
Layer 1
  62
0
  100
AcDb2dVertex
  10
4.69186
  20
9.09708
  30
0.00000
  42
0.2772
  70
32
  0
VERTEX
  5
401
  100
AcDbEntity
  8
Layer 1
  62
0
  100
AcDb2dVertex
  10
4.89258
  20
9.64499
  30
0.00000
  70
32
  0
VERTEX
  5
402
  100
AcDbEntity
  8
Layer 1
  62
0
  100
AcDb2dVertex
  10
4.89258
  20
10.08531
  30
0.00000
  70
32
  0
VERTEX
  5
403
  100
AcDbEntity
  8
Layer 1
  62
0
  100
AcDb2dVertex
  10
4.88937
  20
13.20874
  30
0.00000
  70
32
  0
VERTEX
  5
404
  100
AcDbEntity
  8
Layer 1
  62
0
  100
AcDb2dVertex
  10
4.88342
  20
13.29083
  30
0.00000
  70
32
  0
VERTEX
  5
405
  100
AcDbEntity
  8
Layer 1
  62
0
  100
AcDb2dVertex
  10
4.86735
  20
13.31883
  30
0.00000
  42
0.2182
  70
32
  0
VERTEX
  5
406
  100
AcDbEntity
  8
Layer 1
  62
0
  100
AcDb2dVertex
  10
4.64919
  20
13.58504
  30
0.00000
  42
0.2736
  70
32
  0
VERTEX
  5
407
  100
AcDbEntity
  8
Layer 1
  62
0
  100
AcDb2dVertex
  10
4.21619
  20
13.52969
  30
0.00000
  42
0.2736
  70
32
  0
VERTEX
  5
408
  100
AcDbEntity
  8
Layer 1
  62
0
  100
AcDb2dVertex
  10
4.05619
  20
13.12353
  30
0.00000
  70
32
  0
SEQEND
  5
409
  100
AcDbEntity
  8
Layer 1
  62
0
  0
POLYLINE
  5
40A
  100
AcDbEntity
  8
Layer 1
  62
0
  100
AcDb2dPolyline
 66
     1
  10
0
  20
0
  30
0
  70
1
  0
VERTEX
  5
40B
  100
AcDbEntity
  8
Layer 1
  62
0
  100
AcDb2dVertex
  10
3.86292
  20
15.25447
  30
0.00000
  42
-0.0077
  70
32
  0
VERTEX
  5
40C
  100
AcDbEntity
  8
Layer 1
  62
0
  100
AcDb2dVertex
  10
5.21766
  20
15.25447
  30
0.00000
  42
-0.1989
  70
32
  0
VERTEX
  5
40D
  100
AcDbEntity
  8
Layer 1
  62
0
  100
AcDb2dVertex
  10
5.84342
  20
14.86739
  30
0.00000
  42
-0.1158
  70
32
  0
VERTEX
  5
40E
  100
AcDbEntity
  8
Layer 1
  62
0
  100
AcDb2dVertex
  10
6.03234
  20
14.30768
  30
0.00000
  70
32
  0
VERTEX
  5
40F
  100
AcDbEntity
  8
Layer 1
  62
0
  100
AcDb2dVertex
  10
6.03754
  20
5.50549
  30
0.00000
  42
-0.1036
  70
32
  0
VERTEX
  5
410
  100
AcDbEntity
  8
Layer 1
  62
0
  100
AcDb2dVertex
  10
5.96003
  20
4.79034
  30
0.00000
  42
-0.4725
  70
32
  0
VERTEX
  5
411
  100
AcDbEntity
  8
Layer 1
  62
0
  100
AcDb2dVertex
  10
5.43274
  20
4.46037
  30
0.00000
  42
-0.0725
  70
32
  0
VERTEX
  5
412
  100
AcDbEntity
  8
Layer 1
  62
0
  100
AcDb2dVertex
  10
5.33814
  20
4.49784
  30
0.00000
  42
-0.0196
  70
32
  0
VERTEX
  5
413
  100
AcDbEntity
  8
Layer 1
  62
0
  100
AcDb2dVertex
  10
5.09075
  20
4.73485
  30
0.00000
  42
-0.1103
  70
32
  0
VERTEX
  5
414
  100
AcDbEntity
  8
Layer 1
  62
0
  100
AcDb2dVertex
  10
3.31911
  20
7.93936
  30
0.00000
  42
-0.0365
  70
32
  0
VERTEX
  5
415
  100
AcDbEntity
  8
Layer 1
  62
0
  100
AcDb2dVertex
  10
3.04000
  20
9.37768
  30
0.00000
  42
0.0331
  70
32
  0
VERTEX
  5
416
  100
AcDbEntity
  8
Layer 1
  62
0
  100
AcDb2dVertex
  10
3.00420
  20
9.56206
  30
0.00000
  70
32
  0
VERTEX
  5
417
  100
AcDbEntity
  8
Layer 1
  62
0
  100
AcDb2dVertex
  10
2.99900
  20
13.52017
  30
0.00000
  42
-0.0558
  70
32
  0
VERTEX
  5
418
  100
AcDbEntity
  8
Layer 1
  62
0
  100
AcDb2dVertex
  10
3.03894
  20
14.31693
  30
0.00000
  42
-0.3199
  70
32
  0
VERTEX
  5
419
  100
AcDbEntity
  8
Layer 1
  62
0
  100
AcDb2dVertex
  10
3.86292
  20
15.25447
  30
0.00000
  70
32
  0
SEQEND
  5
41A
  100
AcDbEntity
  8
Layer 1
  62
0
  0
POLYLINE
  5
41B
  100
AcDbEntity
  8
Layer 1
  62
0
  100
AcDb2dPolyline
 66
     1
  10
0
  20
0
  30
0
  70
1
  0
VERTEX
  5
41C
  100
AcDbEntity
  8
Layer 1
  62
0
  100
AcDb2dVertex
  10
19.24854
  20
12.77155
  30
0.00000
  42
0.1898
  70
32
  0
VERTEX
  5
41D
  100
AcDbEntity
  8
Layer 1
  62
0
  100
AcDb2dVertex
  10
19.38387
  20
12.15825
  30
0.00000
  42
0.0113
  70
32
  0
VERTEX
  5
41E
  100
AcDbEntity
  8
Layer 1
  62
0
  100
AcDb2dVertex
  10
19.75294
  20
11.86677
  30
0.00000
  42
0.0150
  70
32
  0
VERTEX
  5
41F
  100
AcDbEntity
  8
Layer 1
  62
0
  100
AcDb2dVertex
  10
20.43674
  20
11.31754
  30
0.00000
  42
-0.0941
  70
32
  0
VERTEX
  5
420
  100
AcDbEntity
  8
Layer 1
  62
0
  100
AcDb2dVertex
  10
20.92106
  20
10.83310
  30
0.00000
  42
-0.1518
  70
32
  0
VERTEX
  5
421
  100
AcDbEntity
  8
Layer 1
  62
0
  100
AcDb2dVertex
  10
21.01001
  20
10.26145
  30
0.00000
  42
-0.0263
  70
32
  0
VERTEX
  5
422
  100
AcDbEntity
  8
Layer 1
  62
0
  100
AcDb2dVertex
  10
20.98799
  20
9.35870
  30
0.00000
  42
-0.0506
  70
32
  0
VERTEX
  5
423
  100
AcDbEntity
  8
Layer 1
  62
0
  100
AcDb2dVertex
  10
20.74165
  20
8.06380
  30
0.00000
  42
-0.0845
  70
32
  0
VERTEX
  5
424
  100
AcDbEntity
  8
Layer 1
  62
0
  100
AcDb2dVertex
  10
19.01123
  20
4.86212
  30
0.00000
  70
32
  0
VERTEX
  5
425
  100
AcDbEntity
  8
Layer 1
  62
0
  100
AcDb2dVertex
  10
18.32157
  20
4.02441
  30
0.00000
  70
32
  0
VERTEX
  5
426
  100
AcDbEntity
  8
Layer 1
  62
0
  100
AcDb2dVertex
  10
18.30977
  20
4.00437
  30
0.00000
  42
-0.5100
  70
32
  0
VERTEX
  5
427
  100
AcDbEntity
  8
Layer 1
  62
0
  100
AcDb2dVertex
  10
18.24209
  20
4.01560
  30
0.00000
  70
32
  0
VERTEX
  5
428
  100
AcDbEntity
  8
Layer 1
  62
0
  100
AcDb2dVertex
  10
18.23618
  20
4.06465
  30
0.00000
  70
32
  0
VERTEX
  5
429
  100
AcDbEntity
  8
Layer 1
  62
0
  100
AcDb2dVertex
  10
18.23777
  20
10.62973
  30
0.00000
  42
-0.1736
  70
32
  0
VERTEX
  5
42A
  100
AcDbEntity
  8
Layer 1
  62
0
  100
AcDb2dVertex
  10
18.25085
  20
10.66465
  30
0.00000
  42
-0.1736
  70
32
  0
VERTEX
  5
42B
  100
AcDbEntity
  8
Layer 1
  62
0
  100
AcDb2dVertex
  10
18.28577
  20
10.67773
  30
0.00000
  42
-0.0050
  70
32
  0
VERTEX
  5
42C
  100
AcDbEntity
  8
Layer 1
  62
0
  100
AcDb2dVertex
  10
19.11040
  20
10.67773
  30
0.00000
  42
-0.1736
  70
32
  0
VERTEX
  5
42D
  100
AcDbEntity
  8
Layer 1
  62
0
  100
AcDb2dVertex
  10
19.14532
  20
10.66465
  30
0.00000
  42
-0.1736
  70
32
  0
VERTEX
  5
42E
  100
AcDbEntity
  8
Layer 1
  62
0
  100
AcDb2dVertex
  10
19.15840
  20
10.62973
  30
0.00000
  70
32
  0
VERTEX
  5
42F
  100
AcDbEntity
  8
Layer 1
  62
0
  100
AcDb2dVertex
  10
19.16078
  20
9.55718
  30
0.00000
  42
0.4185
  70
32
  0
VERTEX
  5
430
  100
AcDbEntity
  8
Layer 1
  62
0
  100
AcDb2dVertex
  10
19.50259
  20
9.06308
  30
0.00000
  42
0.2717
  70
32
  0
VERTEX
  5
431
  100
AcDbEntity
  8
Layer 1
  62
0
  100
AcDb2dVertex
  10
19.88479
  20
9.22888
  30
0.00000
  42
0.1408
  70
32
  0
VERTEX
  5
432
  100
AcDbEntity
  8
Layer 1
  62
0
  100
AcDb2dVertex
  10
19.90681
  20
9.29494
  30
0.00000
  70
32
  0
VERTEX
  5
433
  100
AcDbEntity
  8
Layer 1
  62
0
  100
AcDb2dVertex
  10
19.90681
  20
10.34724
  30
0.00000
  42
0.1408
  70
32
  0
VERTEX
  5
434
  100
AcDbEntity
  8
Layer 1
  62
0
  100
AcDb2dVertex
  10
19.88479
  20
10.41329
  30
0.00000
  42
0.0257
  70
32
  0
VERTEX
  5
435
  100
AcDbEntity
  8
Layer 1
  62
0
  100
AcDb2dVertex
  10
19.25348
  20
10.92694
  30
0.00000
  42
-0.0282
  70
32
  0
VERTEX
  5
436
  100
AcDbEntity
  8
Layer 1
  62
0
  100
AcDb2dVertex
  10
18.37036
  20
11.67323
  30
0.00000
  42
-0.1628
  70
32
  0
VERTEX
  5
437
  100
AcDbEntity
  8
Layer 1
  62
0
  100
AcDb2dVertex
  10
18.32897
  20
11.76390
  30
0.00000
  70
32
  0
VERTEX
  5
438
  100
AcDbEntity
  8
Layer 1
  62
0
  100
AcDb2dVertex
  10
18.32408
  20
11.80309
  30
0.00000
  42
0.0166
  70
32
  0
VERTEX
  5
439
  100
AcDbEntity
  8
Layer 1
  62
0
  100
AcDb2dVertex
  10
18.28493
  20
11.98408
  30
0.00000
  70
32
  0
VERTEX
  5
43A
  100
AcDbEntity
  8
Layer 1
  62
0
  100
AcDb2dVertex
  10
18.27974
  20
14.00457
  30
0.00000
  42
-0.0573
  70
32
  0
VERTEX
  5
43B
  100
AcDbEntity
  8
Layer 1
  62
0
  100
AcDb2dVertex
  10
18.31166
  20
14.63320
  30
0.00000
  42
-0.3562
  70
32
  0
VERTEX
  5
43C
  100
AcDbEntity
  8
Layer 1
  62
0
  100
AcDb2dVertex
  10
18.87943
  20
15.25447
  30
0.00000
  42
-0.0054
  70
32
  0
VERTEX
  5
43D
  100
AcDbEntity
  8
Layer 1
  62
0
  100
AcDb2dVertex
  10
19.84304
  20
15.25962
  30
0.00000
  42
-0.0580
  70
32
  0
VERTEX
  5
43E
  100
AcDbEntity
  8
Layer 1
  62
0
  100
AcDb2dVertex
  10
20.47136
  20
15.22739
  30
0.00000
  42
-0.3255
  70
32
  0
VERTEX
  5
43F
  100
AcDbEntity
  8
Layer 1
  62
0
  100
AcDb2dVertex
  10
21.04921
  20
14.74835
  30
0.00000
  42
0.0322
  70
32
  0
VERTEX
  5
440
  100
AcDbEntity
  8
Layer 1
  62
0
  100
AcDb2dVertex
  10
21.09289
  20
14.52786
  30
0.00000
  70
32
  0
VERTEX
  5
441
  100
AcDbEntity
  8
Layer 1
  62
0
  100
AcDb2dVertex
  10
21.09580
  20
12.64173
  30
0.00000
  42
-0.4265
  70
32
  0
VERTEX
  5
442
  100
AcDbEntity
  8
Layer 1
  62
0
  100
AcDb2dVertex
  10
20.98399
  20
12.53335
  30
0.00000
  42
-0.0064
  70
32
  0
VERTEX
  5
443
  100
AcDbEntity
  8
Layer 1
  62
0
  100
AcDb2dVertex
  10
20.04724
  20
12.53141
  30
0.00000
  42
-0.1734
  70
32
  0
VERTEX
  5
444
  100
AcDbEntity
  8
Layer 1
  62
0
  100
AcDb2dVertex
  10
20.01232
  20
12.54449
  30
0.00000
  42
-0.1738
  70
32
  0
VERTEX
  5
445
  100
AcDbEntity
  8
Layer 1
  62
0
  100
AcDb2dVertex
  10
19.99924
  20
12.57946
  30
0.00000
  70
32
  0
VERTEX
  5
446
  100
AcDbEntity
  8
Layer 1
  62
0
  100
AcDb2dVertex
  10
19.99708
  20
13.07976
  30
0.00000
  42
0.0868
  70
32
  0
VERTEX
  5
447
  100
AcDbEntity
  8
Layer 1
  62
0
  100
AcDb2dVertex
  10
19.97194
  20
13.31883
  30
0.00000
  70
32
  0
VERTEX
  5
448
  100
AcDbEntity
  8
Layer 1
  62
0
  100
AcDb2dVertex
  10
19.95934
  20
13.35023
  30
0.00000
  42
0.3216
  70
32
  0
VERTEX
  5
449
  100
AcDbEntity
  8
Layer 1
  62
0
  100
AcDb2dVertex
  10
19.70569
  20
13.58099
  30
0.00000
  42
0.2931
  70
32
  0
VERTEX
  5
44A
  100
AcDbEntity
  8
Layer 1
  62
0
  100
AcDb2dVertex
  10
19.34653
  20
13.46623
  30
0.00000
  42
0.1427
  70
32
  0
VERTEX
  5
44B
  100
AcDbEntity
  8
Layer 1
  62
0
  100
AcDb2dVertex
  10
19.24854
  20
12.77155
  30
0.00000
  70
32
  0
SEQEND
  5
44C
  100
AcDbEntity
  8
Layer 1
  62
0
  0
POLYLINE
  5
44D
  100
AcDbEntity
  8
Layer 1
  62
0
  100
AcDb2dPolyline
 66
     1
  10
0
  20
0
  30
0
  70
1
  0
VERTEX
  5
44E
  100
AcDbEntity
  8
Layer 1
  62
0
  100
AcDb2dVertex
  10
7.57882
  20
9.64494
  30
0.00000
  42
0.1928
  70
32
  0
VERTEX
  5
44F
  100
AcDbEntity
  8
Layer 1
  62
0
  100
AcDb2dVertex
  10
7.66275
  20
9.20043
  30
0.00000
  42
0.0920
  70
32
  0
VERTEX
  5
450
  100
AcDbEntity
  8
Layer 1
  62
0
  100
AcDb2dVertex
  10
7.69807
  20
9.14768
  30
0.00000
  42
-0.0243
  70
32
  0
VERTEX
  5
451
  100
AcDbEntity
  8
Layer 1
  62
0
  100
AcDb2dVertex
  10
7.81111
  20
9.08462
  30
0.00000
  70
32
  0
VERTEX
  5
452
  100
AcDbEntity
  8
Layer 1
  62
0
  100
AcDb2dVertex
  10
7.84075
  20
9.07017
  30
0.00000
  42
-0.2194
  70
32
  0
VERTEX
  5
453
  100
AcDbEntity
  8
Layer 1
  62
0
  100
AcDb2dVertex
  10
7.88479
  20
8.98210
  30
0.00000
  70
32
  0
VERTEX
  5
454
  100
AcDbEntity
  8
Layer 1
  62
0
  100
AcDb2dVertex
  10
7.88699
  20
3.30374
  30
0.00000
  42
-0.0868
  70
32
  0
VERTEX
  5
455
  100
AcDbEntity
  8
Layer 1
  62
0
  100
AcDb2dVertex
  10
7.86184
  20
3.06467
  30
0.00000
  42
-0.0257
  70
32
  0
VERTEX
  5
456
  100
AcDbEntity
  8
Layer 1
  62
0
  100
AcDb2dVertex
  10
7.83533
  20
3.00311
  30
0.00000
  42
-0.3980
  70
32
  0
VERTEX
  5
457
  100
AcDbEntity
  8
Layer 1
  62
0
  100
AcDb2dVertex
  10
7.36150
  20
2.73470
  30
0.00000
  70
32
  0
VERTEX
  5
458
  100
AcDbEntity
  8
Layer 1
  62
0
  100
AcDb2dVertex
  10
7.33032
  20
2.74708
  30
0.00000
  42
-0.0882
  70
32
  0
VERTEX
  5
459
  100
AcDbEntity
  8
Layer 1
  62
0
  100
AcDb2dVertex
  10
5.53318
  20
4.16065
  30
0.00000
  42
-0.0294
  70
32
  0
VERTEX
  5
45A
  100
AcDbEntity
  8
Layer 1
  62
0
  100
AcDb2dVertex
  10
5.48210
  20
4.21535
  30
0.00000
  42
-0.3447
  70
32
  0
VERTEX
  5
45B
  100
AcDbEntity
  8
Layer 1
  62
0
  100
AcDb2dVertex
  10
5.48223
  20
4.23737
  30
0.00000
  42
-0.1756
  70
32
  0
VERTEX
  5
45C
  100
AcDbEntity
  8
Layer 1
  62
0
  100
AcDb2dVertex
  10
5.51420
  20
4.24758
  30
0.00000
  42
-0.1038
  70
32
  0
VERTEX
  5
45D
  100
AcDbEntity
  8
Layer 1
  62
0
  100
AcDb2dVertex
  10
5.60435
  20
4.22420
  30
0.00000
  42
0.1701
  70
32
  0
VERTEX
  5
45E
  100
AcDbEntity
  8
Layer 1
  62
0
  100
AcDb2dVertex
  10
5.65111
  20
4.23133
  30
0.00000
  42
-0.0992
  70
32
  0
VERTEX
  5
45F
  100
AcDbEntity
  8
Layer 1
  62
0
  100
AcDb2dVertex
  10
5.71329
  20
4.24622
  30
0.00000
  42
0.0270
  70
32
  0
VERTEX
  5
460
  100
AcDbEntity
  8
Layer 1
  62
0
  100
AcDb2dVertex
  10
5.82752
  20
4.26229
  30
0.00000
  42
0.2514
  70
32
  0
VERTEX
  5
461
  100
AcDbEntity
  8
Layer 1
  62
0
  100
AcDb2dVertex
  10
6.20849
  20
4.85014
  30
0.00000
  70
32
  0
VERTEX
  5
462
  100
AcDbEntity
  8
Layer 1
  62
0
  100
AcDb2dVertex
  10
6.21597
  20
8.98210
  30
0.00000
  42
-0.3125
  70
32
  0
VERTEX
  5
463
  100
AcDbEntity
  8
Layer 1
  62
0
  100
AcDb2dVertex
  10
6.28890
  20
9.08532
  30
0.00000
  42
0.2504
  70
32
  0
VERTEX
  5
464
  100
AcDbEntity
  8
Layer 1
  62
0
  100
AcDb2dVertex
  10
6.58478
  20
9.40595
  30
0.00000
  70
32
  0
VERTEX
  5
465
  100
AcDbEntity
  8
Layer 1
  62
0
  100
AcDb2dVertex
  10
6.60085
  20
9.43392
  30
0.00000
  70
32
  0
VERTEX
  5
466
  100
AcDbEntity
  8
Layer 1
  62
0
  100
AcDb2dVertex
  10
6.60680
  20
9.51605
  30
0.00000
  70
32
  0
VERTEX
  5
467
  100
AcDbEntity
  8
Layer 1
  62
0
  100
AcDb2dVertex
  10
6.60992
  20
13.07976
  30
0.00000
  42
0.0868
  70
32
  0
VERTEX
  5
468
  100
AcDbEntity
  8
Layer 1
  62
0
  100
AcDb2dVertex
  10
6.58478
  20
13.31883
  30
0.00000
  70
32
  0
VERTEX
  5
469
  100
AcDbEntity
  8
Layer 1
  62
0
  100
AcDb2dVertex
  10
6.57218
  20
13.35023
  30
0.00000
  42
0.3466
  70
32
  0
VERTEX
  5
46A
  100
AcDbEntity
  8
Layer 1
  62
0
  100
AcDb2dVertex
  10
6.26362
  20
13.58816
  30
0.00000
  42
-0.1703
  70
32
  0
VERTEX
  5
46B
  100
AcDbEntity
  8
Layer 1
  62
0
  100
AcDb2dVertex
  10
6.22883
  20
13.60137
  30
0.00000
  42
-0.1737
  70
32
  0
VERTEX
  5
46C
  100
AcDbEntity
  8
Layer 1
  62
0
  100
AcDb2dVertex
  10
6.21575
  20
13.63634
  30
0.00000
  70
32
  0
VERTEX
  5
46D
  100
AcDbEntity
  8
Layer 1
  62
0
  100
AcDb2dVertex
  10
6.21575
  20
15.20955
  30
0.00000
  42
-0.1736
  70
32
  0
VERTEX
  5
46E
  100
AcDbEntity
  8
Layer 1
  62
0
  100
AcDb2dVertex
  10
6.22883
  20
15.24447
  30
0.00000
  42
-0.1736
  70
32
  0
VERTEX
  5
46F
  100
AcDbEntity
  8
Layer 1
  62
0
  100
AcDb2dVertex
  10
6.26375
  20
15.25755
  30
0.00000
  70
32
  0
VERTEX
  5
470
  100
AcDbEntity
  8
Layer 1
  62
0
  100
AcDb2dVertex
  10
7.88104
  20
15.25755
  30
0.00000
  42
-0.1736
  70
32
  0
VERTEX
  5
471
  100
AcDbEntity
  8
Layer 1
  62
0
  100
AcDb2dVertex
  10
7.91596
  20
15.24447
  30
0.00000
  42
-0.1736
  70
32
  0
VERTEX
  5
472
  100
AcDbEntity
  8
Layer 1
  62
0
  100
AcDb2dVertex
  10
7.92904
  20
15.20955
  30
0.00000
  70
32
  0
VERTEX
  5
473
  100
AcDbEntity
  8
Layer 1
  62
0
  100
AcDb2dVertex
  10
7.93089
  20
13.70209
  30
0.00000
  42
-0.0893
  70
32
  0
VERTEX
  5
474
  100
AcDbEntity
  8
Layer 1
  62
0
  100
AcDb2dVertex
  10
7.92468
  20
13.61560
  30
0.00000
  42
-0.2344
  70
32
  0
VERTEX
  5
475
  100
AcDbEntity
  8
Layer 1
  62
0
  100
AcDb2dVertex
  10
7.90192
  20
13.59252
  30
0.00000
  70
32
  0
VERTEX
  5
476
  100
AcDbEntity
  8
Layer 1
  62
0
  100
AcDb2dVertex
  10
7.88021
  20
13.58755
  30
0.00000
  42
0.3195
  70
32
  0
VERTEX
  5
477
  100
AcDbEntity
  8
Layer 1
  62
0
  100
AcDb2dVertex
  10
7.58406
  20
13.29475
  30
0.00000
  70
32
  0
VERTEX
  5
478
  100
AcDbEntity
  8
Layer 1
  62
0
  100
AcDb2dVertex
  10
7.57882
  20
9.64494
  30
0.00000
  70
32
  0
SEQEND
  5
479
  100
AcDbEntity
  8
Layer 1
  62
0
  0
POLYLINE
  5
47A
  100
AcDbEntity
  8
Layer 1
  62
0
  100
AcDb2dPolyline
 66
     1
  10
0
  20
0
  30
0
  70
1
  0
VERTEX
  5
47B
  100
AcDbEntity
  8
Layer 1
  62
0
  100
AcDb2dVertex
  10
15.90176
  20
13.03577
  30
0.00000
  42
0.0529
  70
32
  0
VERTEX
  5
47C
  100
AcDbEntity
  8
Layer 1
  62
0
  100
AcDb2dVertex
  10
15.93558
  20
12.40904
  30
0.00000
  42
-0.0277
  70
32
  0
VERTEX
  5
47D
  100
AcDbEntity
  8
Layer 1
  62
0
  100
AcDb2dVertex
  10
15.94443
  20
12.37702
  30
0.00000
  42
0.1868
  70
32
  0
VERTEX
  5
47E
  100
AcDbEntity
  8
Layer 1
  62
0
  100
AcDb2dVertex
  10
15.99212
  20
12.28943
  30
0.00000
  70
32
  0
VERTEX
  5
47F
  100
AcDbEntity
  8
Layer 1
  62
0
  100
AcDb2dVertex
  10
16.02189
  20
12.27521
  30
0.00000
  42
0.1486
  70
32
  0
VERTEX
  5
480
  100
AcDbEntity
  8
Layer 1
  62
0
  100
AcDb2dVertex
  10
16.27365
  20
12.22382
  30
0.00000
  42
0.1674
  70
32
  0
VERTEX
  5
481
  100
AcDbEntity
  8
Layer 1
  62
0
  100
AcDb2dVertex
  10
16.38387
  20
12.24540
  30
0.00000
  42
0.2823
  70
32
  0
VERTEX
  5
482
  100
AcDbEntity
  8
Layer 1
  62
0
  100
AcDb2dVertex
  10
16.56222
  20
12.68356
  30
0.00000
  42
0.0082
  70
32
  0
VERTEX
  5
483
  100
AcDbEntity
  8
Layer 1
  62
0
  100
AcDb2dVertex
  10
16.55909
  20
13.25278
  30
0.00000
  70
32
  0
VERTEX
  5
484
  100
AcDbEntity
  8
Layer 1
  62
0
  100
AcDb2dVertex
  10
16.55315
  20
13.33486
  30
0.00000
  70
32
  0
VERTEX
  5
485
  100
AcDbEntity
  8
Layer 1
  62
0
  100
AcDb2dVertex
  10
16.53773
  20
13.36349
  30
0.00000
  42
0.1232
  70
32
  0
VERTEX
  5
486
  100
AcDbEntity
  8
Layer 1
  62
0
  100
AcDb2dVertex
  10
16.38387
  20
13.56192
  30
0.00000
  42
0.1408
  70
32
  0
VERTEX
  5
487
  100
AcDbEntity
  8
Layer 1
  62
0
  100
AcDb2dVertex
  10
16.31781
  20
13.58394
  30
0.00000
  70
32
  0
VERTEX
  5
488
  100
AcDbEntity
  8
Layer 1
  62
0
  100
AcDb2dVertex
  10
16.14625
  20
13.58394
  30
0.00000
  42
0.1408
  70
32
  0
VERTEX
  5
489
  100
AcDbEntity
  8
Layer 1
  62
0
  100
AcDb2dVertex
  10
16.08019
  20
13.56192
  30
0.00000
  42
0.2571
  70
32
  0
VERTEX
  5
48A
  100
AcDbEntity
  8
Layer 1
  62
0
  100
AcDb2dVertex
  10
15.90176
  20
13.03577
  30
0.00000
  70
32
  0
SEQEND
  5
48B
  100
AcDbEntity
  8
Layer 1
  62
0
  0
POLYLINE
  5
48C
  100
AcDbEntity
  8
Layer 1
  62
0
  100
AcDb2dPolyline
 66
     1
  10
0
  20
0
  30
0
  70
1
  0
VERTEX
  5
48D
  100
AcDbEntity
  8
Layer 1
  62
0
  100
AcDb2dVertex
  10
16.56231
  20
10.43760
  30
0.00000
  42
0.1150
  70
32
  0
VERTEX
  5
48E
  100
AcDbEntity
  8
Layer 1
  62
0
  100
AcDb2dVertex
  10
16.49383
  20
11.07376
  30
0.00000
  42
0.3596
  70
32
  0
VERTEX
  5
48F
  100
AcDbEntity
  8
Layer 1
  62
0
  100
AcDb2dVertex
  10
16.10221
  20
11.24999
  30
0.00000
  42
0.1408
  70
32
  0
VERTEX
  5
490
  100
AcDbEntity
  8
Layer 1
  62
0
  100
AcDb2dVertex
  10
16.03616
  20
11.22797
  30
0.00000
  42
0.1589
  70
32
  0
VERTEX
  5
491
  100
AcDbEntity
  8
Layer 1
  62
0
  100
AcDb2dVertex
  10
15.86292
  20
10.87282
  30
0.00000
  70
32
  0
VERTEX
  5
492
  100
AcDbEntity
  8
Layer 1
  62
0
  100
AcDb2dVertex
  10
15.85772
  20
9.73306
  30
0.00000
  42
0.4103
  70
32
  0
VERTEX
  5
493
  100
AcDbEntity
  8
Layer 1
  62
0
  100
AcDb2dVertex
  10
16.33525
  20
9.04912
  30
0.00000
  70
32
  0
VERTEX
  5
494
  100
AcDbEntity
  8
Layer 1
  62
0
  100
AcDb2dVertex
  10
16.35696
  20
9.04419
  30
0.00000
  42
-0.2943
  70
32
  0
VERTEX
  5
495
  100
AcDbEntity
  8
Layer 1
  62
0
  100
AcDb2dVertex
  10
16.38409
  20
9.00038
  30
0.00000
  70
32
  0
VERTEX
  5
496
  100
AcDbEntity
  8
Layer 1
  62
0
  100
AcDb2dVertex
  10
16.38616
  20
3.43577
  30
0.00000
  42
-0.1648
  70
32
  0
VERTEX
  5
497
  100
AcDbEntity
  8
Layer 1
  62
0
  100
AcDb2dVertex
  10
16.17430
  20
2.54675
  30
0.00000
  42
-0.0961
  70
32
  0
VERTEX
  5
498
  100
AcDbEntity
  8
Layer 1
  62
0
  100
AcDb2dVertex
  10
16.11674
  20
2.47216
  30
0.00000
  42
0.0112
  70
32
  0
VERTEX
  5
499
  100
AcDbEntity
  8
Layer 1
  62
0
  100
AcDb2dVertex
  10
16.06412
  20
2.43671
  30
0.00000
  42
-0.0381
  70
32
  0
VERTEX
  5
49A
  100
AcDbEntity
  8
Layer 1
  62
0
  100
AcDb2dVertex
  10
15.35152
  20
2.13646
  30
0.00000
  42
-0.0199
  70
32
  0
VERTEX
  5
49B
  100
AcDbEntity
  8
Layer 1
  62
0
  100
AcDb2dVertex
  10
14.29882
  20
1.78034
  30
0.00000
  42
-0.0508
  70
32
  0
VERTEX
  5
49C
  100
AcDbEntity
  8
Layer 1
  62
0
  100
AcDb2dVertex
  10
14.14544
  20
1.74335
  30
0.00000
  42
-0.1841
  70
32
  0
VERTEX
  5
49D
  100
AcDbEntity
  8
Layer 1
  62
0
  100
AcDb2dVertex
  10
14.11144
  20
1.75533
  30
0.00000
  70
32
  0
VERTEX
  5
49E
  100
AcDbEntity
  8
Layer 1
  62
0
  100
AcDb2dVertex
  10
14.10497
  20
1.76937
  30
0.00000
  42
-0.2323
  70
32
  0
VERTEX
  5
49F
  100
AcDbEntity
  8
Layer 1
  62
0
  100
AcDb2dVertex
  10
14.11298
  20
1.81768
  30
0.00000
  42
-0.0190
  70
32
  0
VERTEX
  5
4A0
  100
AcDbEntity
  8
Layer 1
  62
0
  100
AcDb2dVertex
  10
14.14236
  20
1.85547
  30
0.00000
  42
0.1146
  70
32
  0
VERTEX
  5
4A1
  100
AcDbEntity
  8
Layer 1
  62
0
  100
AcDb2dVertex
  10
14.35527
  20
2.47216
  30
0.00000
  70
32
  0
VERTEX
  5
4A2
  100
AcDbEntity
  8
Layer 1
  62
0
  100
AcDb2dVertex
  10
14.36276
  20
8.98210
  30
0.00000
  42
-0.3163
  70
32
  0
VERTEX
  5
4A3
  100
AcDbEntity
  8
Layer 1
  62
0
  100
AcDb2dVertex
  10
14.43599
  20
9.08506
  30
0.00000
  70
32
  0
VERTEX
  5
4A4
  100
AcDbEntity
  8
Layer 1
  62
0
  100
AcDb2dVertex
  10
14.50976
  20
9.09937
  30
0.00000
  42
0.2402
  70
32
  0
VERTEX
  5
4A5
  100
AcDbEntity
  8
Layer 1
  62
0
  100
AcDb2dVertex
  10
14.79560
  20
9.43000
  30
0.00000
  70
32
  0
VERTEX
  5
4A6
  100
AcDbEntity
  8
Layer 1
  62
0
  100
AcDb2dVertex
  10
14.80053
  20
13.07950
  30
0.00000
  42
0.3568
  70
32
  0
VERTEX
  5
4A7
  100
AcDbEntity
  8
Layer 1
  62
0
  100
AcDb2dVertex
  10
14.48047
  20
13.59618
  30
0.00000
  70
32
  0
VERTEX
  5
4A8
  100
AcDbEntity
  8
Layer 1
  62
0
  100
AcDb2dVertex
  10
14.45083
  20
13.61053
  30
0.00000
  42
-0.2194
  70
32
  0
VERTEX
  5
4A9
  100
AcDbEntity
  8
Layer 1
  62
0
  100
AcDb2dVertex
  10
14.40680
  20
13.69861
  30
0.00000
  70
32
  0
VERTEX
  5
4AA
  100
AcDbEntity
  8
Layer 1
  62
0
  100
AcDb2dVertex
  10
14.40658
  20
15.20955
  30
0.00000
  42
-0.1736
  70
32
  0
VERTEX
  5
4AB
  100
AcDbEntity
  8
Layer 1
  62
0
  100
AcDb2dVertex
  10
14.41966
  20
15.24447
  30
0.00000
  42
-0.1736
  70
32
  0
VERTEX
  5
4AC
  100
AcDbEntity
  8
Layer 1
  62
0
  100
AcDb2dVertex
  10
14.45458
  20
15.25755
  30
0.00000
  70
32
  0
VERTEX
  5
4AD
  100
AcDbEntity
  8
Layer 1
  62
0
  100
AcDb2dVertex
  10
16.49625
  20
15.25962
  30
0.00000
  42
-0.1514
  70
32
  0
VERTEX
  5
4AE
  100
AcDbEntity
  8
Layer 1
  62
0
  100
AcDb2dVertex
  10
17.35880
  20
15.10932
  30
0.00000
  42
-0.2362
  70
32
  0
VERTEX
  5
4AF
  100
AcDbEntity
  8
Layer 1
  62
0
  100
AcDb2dVertex
  10
17.70206
  20
14.52786
  30
0.00000
  70
32
  0
VERTEX
  5
4B0
  100
AcDbEntity
  8
Layer 1
  62
0
  100
AcDb2dVertex
  10
17.70726
  20
12.50737
  30
0.00000
  42
-0.3079
  70
32
  0
VERTEX
  5
4B1
  100
AcDbEntity
  8
Layer 1
  62
0
  100
AcDb2dVertex
  10
17.38566
  20
11.81952
  30
0.00000
  42
0.4221
  70
32
  0
VERTEX
  5
4B2
  100
AcDbEntity
  8
Layer 1
  62
0
  100
AcDb2dVertex
  10
17.37201
  20
11.78966
  30
0.00000
  70
32
  0
VERTEX
  5
4B3
  100
AcDbEntity
  8
Layer 1
  62
0
  100
AcDb2dVertex
  10
17.40327
  20
11.75518
  30
0.00000
  42
-0.1688
  70
32
  0
VERTEX
  5
4B4
  100
AcDbEntity
  8
Layer 1
  62
0
  100
AcDb2dVertex
  10
17.70206
  20
11.22511
  30
0.00000
  70
32
  0
VERTEX
  5
4B5
  100
AcDbEntity
  8
Layer 1
  62
0
  100
AcDb2dVertex
  10
17.70735
  20
9.55696
  30
0.00000
  42
0.3497
  70
32
  0
VERTEX
  5
4B6
  100
AcDbEntity
  8
Layer 1
  62
0
  100
AcDb2dVertex
  10
17.94915
  20
9.09417
  30
0.00000
  70
32
  0
VERTEX
  5
4B7
  100
AcDbEntity
  8
Layer 1
  62
0
  100
AcDb2dVertex
  10
17.98434
  20
9.08532
  30
0.00000
  42
-0.3125
  70
32
  0
VERTEX
  5
4B8
  100
AcDbEntity
  8
Layer 1
  62
0
  100
AcDb2dVertex
  10
18.05726
  20
8.98210
  30
0.00000
  70
32
  0
VERTEX
  5
4B9
  100
AcDbEntity
  8
Layer 1
  62
0
  100
AcDb2dVertex
  10
18.05955
  20
4.80090
  30
0.00000
  42
-0.0548
  70
32
  0
VERTEX
  5
4BA
  100
AcDbEntity
  8
Layer 1
  62
0
  100
AcDb2dVertex
  10
18.02032
  20
4.00344
  30
0.00000
  42
-0.2363
  70
32
  0
VERTEX
  5
4BB
  100
AcDbEntity
  8
Layer 1
  62
0
  100
AcDb2dVertex
  10
17.81735
  20
3.58990
  30
0.00000
  42
-0.0593
  70
32
  0
VERTEX
  5
4BC
  100
AcDbEntity
  8
Layer 1
  62
0
  100
AcDb2dVertex
  10
16.55156
  20
2.68186
  30
0.00000
  42
-0.2509
  70
32
  0
VERTEX
  5
4BD
  100
AcDbEntity
  8
Layer 1
  62
0
  100
AcDb2dVertex
  10
16.50330
  20
2.67380
  30
0.00000
  42
-0.3967
  70
32
  0
VERTEX
  5
4BE
  100
AcDbEntity
  8
Layer 1
  62
0
  100
AcDb2dVertex
  10
16.48013
  20
2.71136
  30
0.00000
  42
0.0170
  70
32
  0
VERTEX
  5
4BF
  100
AcDbEntity
  8
Layer 1
  62
0
  100
AcDb2dVertex
  10
16.55711
  20
3.04463
  30
0.00000
  70
32
  0
VERTEX
  5
4C0
  100
AcDbEntity
  8
Layer 1
  62
0
  100
AcDb2dVertex
  10
16.56231
  20
10.43760
  30
0.00000
  70
32
  0
SEQEND
  5
4C1
  100
AcDbEntity
  8
Layer 1
  62
0
  0
POLYLINE
  5
4C2
  100
AcDbEntity
  8
Layer 1
  62
0
  100
AcDb2dPolyline
 66
     1
  10
0
  20
0
  30
0
  70
1
  0
VERTEX
  5
4C3
  100
AcDbEntity
  8
Layer 1
  62
0
  100
AcDb2dVertex
  10
9.47764
  20
13.20667
  30
0.00000
  70
32
  0
VERTEX
  5
4C4
  100
AcDbEntity
  8
Layer 1
  62
0
  100
AcDb2dVertex
  10
9.47759
  20
9.38592
  30
0.00000
  42
0.3826
  70
32
  0
VERTEX
  5
4C5
  100
AcDbEntity
  8
Layer 1
  62
0
  100
AcDb2dVertex
  10
9.76749
  20
9.05991
  30
0.00000
  42
0.1389
  70
32
  0
VERTEX
  5
4C6
  100
AcDbEntity
  8
Layer 1
  62
0
  100
AcDb2dVertex
  10
9.83786
  20
9.05991
  30
0.00000
  42
-0.0578
  70
32
  0
VERTEX
  5
4C7
  100
AcDbEntity
  8
Layer 1
  62
0
  100
AcDb2dVertex
  10
9.97420
  20
9.09911
  30
0.00000
  42
0.1432
  70
32
  0
VERTEX
  5
4C8
  100
AcDbEntity
  8
Layer 1
  62
0
  100
AcDb2dVertex
  10
10.08561
  20
9.16384
  30
0.00000
  42
0.2317
  70
32
  0
VERTEX
  5
4C9
  100
AcDbEntity
  8
Layer 1
  62
0
  100
AcDb2dVertex
  10
10.13066
  20
9.25090
  30
0.00000
  70
32
  0
VERTEX
  5
4CA
  100
AcDbEntity
  8
Layer 1
  62
0
  100
AcDb2dVertex
  10
10.13524
  20
10.65550
  30
0.00000
  42
-0.4267
  70
32
  0
VERTEX
  5
4CB
  100
AcDbEntity
  8
Layer 1
  62
0
  100
AcDb2dVertex
  10
10.24705
  20
10.76387
  30
0.00000
  42
-0.0089
  70
32
  0
VERTEX
  5
4CC
  100
AcDbEntity
  8
Layer 1
  62
0
  100
AcDb2dVertex
  10
10.91958
  20
10.76581
  30
0.00000
  42
-0.1736
  70
32
  0
VERTEX
  5
4CD
  100
AcDbEntity
  8
Layer 1
  62
0
  100
AcDb2dVertex
  10
10.95450
  20
10.75273
  30
0.00000
  42
-0.1736
  70
32
  0
VERTEX
  5
4CE
  100
AcDbEntity
  8
Layer 1
  62
0
  100
AcDb2dVertex
  10
10.96758
  20
10.71781
  30
0.00000
  70
32
  0
VERTEX
  5
4CF
  100
AcDbEntity
  8
Layer 1
  62
0
  100
AcDb2dVertex
  10
10.96965
  20
2.51100
  30
0.00000
  42
-0.0057
  70
32
  0
VERTEX
  5
4D0
  100
AcDbEntity
  8
Layer 1
  62
0
  100
AcDb2dVertex
  10
10.96854
  20
2.29191
  30
0.00000
  42
-0.1900
  70
32
  0
VERTEX
  5
4D1
  100
AcDbEntity
  8
Layer 1
  62
0
  100
AcDb2dVertex
  10
10.74449
  20
1.81139
  30
0.00000
  42
-0.0828
  70
32
  0
VERTEX
  5
4D2
  100
AcDbEntity
  8
Layer 1
  62
0
  100
AcDb2dVertex
  10
10.54672
  20
1.70094
  30
0.00000
  42
0.0290
  70
32
  0
VERTEX
  5
4D3
  100
AcDbEntity
  8
Layer 1
  62
0
  100
AcDb2dVertex
  10
10.44090
  20
1.67465
  30
0.00000
  42
-0.1064
  70
32
  0
VERTEX
  5
4D4
  100
AcDbEntity
  8
Layer 1
  62
0
  100
AcDb2dVertex
  10
10.02286
  20
1.69632
  30
0.00000
  42
-0.0787
  70
32
  0
VERTEX
  5
4D5
  100
AcDbEntity
  8
Layer 1
  62
0
  100
AcDb2dVertex
  10
7.70331
  20
2.53557
  30
0.00000
  42
-0.4352
  70
32
  0
VERTEX
  5
4D6
  100
AcDbEntity
  8
Layer 1
  62
0
  100
AcDb2dVertex
  10
7.67456
  20
2.59330
  30
0.00000
  42
-0.1826
  70
32
  0
VERTEX
  5
4D7
  100
AcDbEntity
  8
Layer 1
  62
0
  100
AcDb2dVertex
  10
7.70331
  20
2.61858
  30
0.00000
  42
0.2319
  70
32
  0
VERTEX
  5
4D8
  100
AcDbEntity
  8
Layer 1
  62
0
  100
AcDb2dVertex
  10
8.03799
  20
2.97660
  30
0.00000
  70
32
  0
VERTEX
  5
4D9
  100
AcDbEntity
  8
Layer 1
  62
0
  100
AcDb2dVertex
  10
8.05406
  20
3.00456
  30
0.00000
  70
32
  0
VERTEX
  5
4DA
  100
AcDbEntity
  8
Layer 1
  62
0
  100
AcDb2dVertex
  10
8.06001
  20
3.08669
  30
0.00000
  70
32
  0
VERTEX
  5
4DB
  100
AcDbEntity
  8
Layer 1
  62
0
  100
AcDb2dVertex
  10
8.06529
  20
9.04441
  30
0.00000
  42
-0.1736
  70
32
  0
VERTEX
  5
4DC
  100
AcDbEntity
  8
Layer 1
  62
0
  100
AcDb2dVertex
  10
8.07837
  20
9.07933
  30
0.00000
  42
-0.1704
  70
32
  0
VERTEX
  5
4DD
  100
AcDbEntity
  8
Layer 1
  62
0
  100
AcDb2dVertex
  10
8.11316
  20
9.09259
  30
0.00000
  42
0.3302
  70
32
  0
VERTEX
  5
4DE
  100
AcDbEntity
  8
Layer 1
  62
0
  100
AcDb2dVertex
  10
8.49835
  20
9.43000
  30
0.00000
  70
32
  0
VERTEX
  5
4DF
  100
AcDbEntity
  8
Layer 1
  62
0
  100
AcDb2dVertex
  10
8.50350
  20
13.07976
  30
0.00000
  42
0.0868
  70
32
  0
VERTEX
  5
4E0
  100
AcDbEntity
  8
Layer 1
  62
0
  100
AcDb2dVertex
  10
8.47836
  20
13.31883
  30
0.00000
  42
0.0259
  70
32
  0
VERTEX
  5
4E1
  100
AcDbEntity
  8
Layer 1
  62
0
  100
AcDb2dVertex
  10
8.45185
  20
13.38035
  30
0.00000
  42
0.0961
  70
32
  0
VERTEX
  5
4E2
  100
AcDbEntity
  8
Layer 1
  62
0
  100
AcDb2dVertex
  10
8.36624
  20
13.51493
  30
0.00000
  42
0.0885
  70
32
  0
VERTEX
  5
4E3
  100
AcDbEntity
  8
Layer 1
  62
0
  100
AcDb2dVertex
  10
8.18247
  20
13.59539
  30
0.00000
  42
-0.3125
  70
32
  0
VERTEX
  5
4E4
  100
AcDbEntity
  8
Layer 1
  62
0
  100
AcDb2dVertex
  10
8.10955
  20
13.69861
  30
0.00000
  70
32
  0
VERTEX
  5
4E5
  100
AcDbEntity
  8
Layer 1
  62
0
  100
AcDb2dVertex
  10
8.10955
  20
15.14724
  30
0.00000
  42
-0.4267
  70
32
  0
VERTEX
  5
4E6
  100
AcDbEntity
  8
Layer 1
  62
0
  100
AcDb2dVertex
  10
8.22136
  20
15.25561
  30
0.00000
  70
32
  0
VERTEX
  5
4E7
  100
AcDbEntity
  8
Layer 1
  62
0
  100
AcDb2dVertex
  10
9.95077
  20
15.25755
  30
0.00000
  42
-0.1736
  70
32
  0
VERTEX
  5
4E8
  100
AcDbEntity
  8
Layer 1
  62
0
  100
AcDb2dVertex
  10
9.98569
  20
15.24447
  30
0.00000
  42
-0.1736
  70
32
  0
VERTEX
  5
4E9
  100
AcDbEntity
  8
Layer 1
  62
0
  100
AcDb2dVertex
  10
9.99877
  20
15.20955
  30
0.00000
  70
32
  0
VERTEX
  5
4EA
  100
AcDbEntity
  8
Layer 1
  62
0
  100
AcDb2dVertex
  10
9.99877
  20
13.63634
  30
0.00000
  42
-0.1736
  70
32
  0
VERTEX
  5
4EB
  100
AcDbEntity
  8
Layer 1
  62
0
  100
AcDb2dVertex
  10
9.98569
  20
13.60137
  30
0.00000
  42
-0.1703
  70
32
  0
VERTEX
  5
4EC
  100
AcDbEntity
  8
Layer 1
  62
0
  100
AcDb2dVertex
  10
9.95090
  20
13.58816
  30
0.00000
  42
0.3161
  70
32
  0
VERTEX
  5
4ED
  100
AcDbEntity
  8
Layer 1
  62
0
  100
AcDb2dVertex
  10
9.47764
  20
13.20667
  30
0.00000
  70
32
  0
SEQEND
  5
4EE
  100
AcDbEntity
  8
Layer 1
  62
0
  0
POLYLINE
  5
4EF
  100
AcDbEntity
  8
Layer 1
  62
0
  100
AcDb2dPolyline
 66
     1
  10
0
  20
0
  30
0
  70
1
  0
VERTEX
  5
4F0
  100
AcDbEntity
  8
Layer 1
  62
0
  100
AcDb2dVertex
  10
11.14060
  20
2.16390
  30
0.00000
  70
32
  0
VERTEX
  5
4F1
  100
AcDbEntity
  8
Layer 1
  62
0
  100
AcDb2dVertex
  10
11.14808
  20
8.98210
  30
0.00000
  42
-0.2264
  70
32
  0
VERTEX
  5
4F2
  100
AcDbEntity
  8
Layer 1
  62
0
  100
AcDb2dVertex
  10
11.19212
  20
9.07017
  30
0.00000
  42
0.0976
  70
32
  0
VERTEX
  5
4F3
  100
AcDbEntity
  8
Layer 1
  62
0
  100
AcDb2dVertex
  10
11.38570
  20
9.22888
  30
0.00000
  70
32
  0
VERTEX
  5
4F4
  100
AcDbEntity
  8
Layer 1
  62
0
  100
AcDb2dVertex
  10
11.40539
  20
9.29727
  30
0.00000
  42
-0.0261
  70
32
  0
VERTEX
  5
4F5
  100
AcDbEntity
  8
Layer 1
  62
0
  100
AcDb2dVertex
  10
11.44885
  20
9.47399
  30
0.00000
  70
32
  0
VERTEX
  5
4F6
  100
AcDbEntity
  8
Layer 1
  62
0
  100
AcDb2dVertex
  10
11.45396
  20
12.99169
  30
0.00000
  42
0.3569
  70
32
  0
VERTEX
  5
4F7
  100
AcDbEntity
  8
Layer 1
  62
0
  100
AcDb2dVertex
  10
11.16662
  20
13.54104
  30
0.00000
  42
0.0995
  70
32
  0
VERTEX
  5
4F8
  100
AcDbEntity
  8
Layer 1
  62
0
  100
AcDb2dVertex
  10
10.84357
  20
13.58830
  30
0.00000
  42
-0.1734
  70
32
  0
VERTEX
  5
4F9
  100
AcDbEntity
  8
Layer 1
  62
0
  100
AcDb2dVertex
  10
10.80865
  20
13.60137
  30
0.00000
  42
-0.1738
  70
32
  0
VERTEX
  5
4FA
  100
AcDbEntity
  8
Layer 1
  62
0
  100
AcDb2dVertex
  10
10.79557
  20
13.63634
  30
0.00000
  70
32
  0
VERTEX
  5
4FB
  100
AcDbEntity
  8
Layer 1
  62
0
  100
AcDb2dVertex
  10
10.79557
  20
15.20955
  30
0.00000
  42
-0.1736
  70
32
  0
VERTEX
  5
4FC
  100
AcDbEntity
  8
Layer 1
  62
0
  100
AcDb2dVertex
  10
10.80865
  20
15.24447
  30
0.00000
  42
-0.1736
  70
32
  0
VERTEX
  5
4FD
  100
AcDbEntity
  8
Layer 1
  62
0
  100
AcDb2dVertex
  10
10.84357
  20
15.25755
  30
0.00000
  70
32
  0
VERTEX
  5
4FE
  100
AcDbEntity
  8
Layer 1
  62
0
  100
AcDb2dVertex
  10
14.11598
  20
15.25733
  30
0.00000
  42
-0.4084
  70
32
  0
VERTEX
  5
4FF
  100
AcDbEntity
  8
Layer 1
  62
0
  100
AcDb2dVertex
  10
14.22607
  20
15.14724
  30
0.00000
  70
32
  0
VERTEX
  5
500
  100
AcDbEntity
  8
Layer 1
  62
0
  100
AcDb2dVertex
  10
14.22629
  20
12.62350
  30
0.00000
  42
-0.1738
  70
32
  0
VERTEX
  5
501
  100
AcDbEntity
  8
Layer 1
  62
0
  100
AcDb2dVertex
  10
14.21321
  20
12.58853
  30
0.00000
  42
-0.1735
  70
32
  0
VERTEX
  5
502
  100
AcDbEntity
  8
Layer 1
  62
0
  100
AcDb2dVertex
  10
14.17829
  20
12.57545
  30
0.00000
  42
-0.0050
  70
32
  0
VERTEX
  5
503
  100
AcDbEntity
  8
Layer 1
  62
0
  100
AcDb2dVertex
  10
13.35366
  20
12.57545
  30
0.00000
  42
-0.1734
  70
32
  0
VERTEX
  5
504
  100
AcDbEntity
  8
Layer 1
  62
0
  100
AcDb2dVertex
  10
13.31874
  20
12.58853
  30
0.00000
  42
-0.1738
  70
32
  0
VERTEX
  5
505
  100
AcDbEntity
  8
Layer 1
  62
0
  100
AcDb2dVertex
  10
13.30566
  20
12.62350
  30
0.00000
  70
32
  0
VERTEX
  5
506
  100
AcDbEntity
  8
Layer 1
  62
0
  100
AcDb2dVertex
  10
13.29839
  20
13.29483
  30
0.00000
  42
0.3826
  70
32
  0
VERTEX
  5
507
  100
AcDbEntity
  8
Layer 1
  62
0
  100
AcDb2dVertex
  10
13.00850
  20
13.62084
  30
0.00000
  42
0.1389
  70
32
  0
VERTEX
  5
508
  100
AcDbEntity
  8
Layer 1
  62
0
  100
AcDb2dVertex
  10
12.93813
  20
13.62084
  30
0.00000
  42
0.0474
  70
32
  0
VERTEX
  5
509
  100
AcDbEntity
  8
Layer 1
  62
0
  100
AcDb2dVertex
  10
12.68937
  20
13.51788
  30
0.00000
  42
0.1402
  70
32
  0
VERTEX
  5
50A
  100
AcDbEntity
  8
Layer 1
  62
0
  100
AcDb2dVertex
  10
12.65220
  20
13.46697
  30
0.00000
  42
0.0169
  70
32
  0
VERTEX
  5
50B
  100
AcDbEntity
  8
Layer 1
  62
0
  100
AcDb2dVertex
  10
12.60420
  20
13.29483
  30
0.00000
  42
0.0072
  70
32
  0
VERTEX
  5
50C
  100
AcDbEntity
  8
Layer 1
  62
0
  100
AcDb2dVertex
  10
12.60107
  20
12.31524
  30
0.00000
  42
0.1738
  70
32
  0
VERTEX
  5
50D
  100
AcDbEntity
  8
Layer 1
  62
0
  100
AcDb2dVertex
  10
12.61415
  20
12.28027
  30
0.00000
  42
0.1735
  70
32
  0
VERTEX
  5
50E
  100
AcDbEntity
  8
Layer 1
  62
0
  100
AcDb2dVertex
  10
12.64907
  20
12.26719
  30
0.00000
  70
32
  0
VERTEX
  5
50F
  100
AcDbEntity
  8
Layer 1
  62
0
  100
AcDb2dVertex
  10
13.38563
  20
12.26305
  30
0.00000
  42
-0.1736
  70
32
  0
VERTEX
  5
510
  100
AcDbEntity
  8
Layer 1
  62
0
  100
AcDb2dVertex
  10
13.42055
  20
12.24998
  30
0.00000
  42
-0.1735
  70
32
  0
VERTEX
  5
511
  100
AcDbEntity
  8
Layer 1
  62
0
  100
AcDb2dVertex
  10
13.43363
  20
12.21505
  30
0.00000
  70
32
  0
VERTEX
  5
512
  100
AcDbEntity
  8
Layer 1
  62
0
  100
AcDb2dVertex
  10
13.43363
  20
11.08221
  30
0.00000
  42
-0.1738
  70
32
  0
VERTEX
  5
513
  100
AcDbEntity
  8
Layer 1
  62
0
  100
AcDb2dVertex
  10
13.42055
  20
11.04725
  30
0.00000
  42
-0.1735
  70
32
  0
VERTEX
  5
514
  100
AcDbEntity
  8
Layer 1
  62
0
  100
AcDb2dVertex
  10
13.38563
  20
11.03417
  30
0.00000
  70
32
  0
VERTEX
  5
515
  100
AcDbEntity
  8
Layer 1
  62
0
  100
AcDb2dVertex
  10
12.64907
  20
11.03003
  30
0.00000
  42
0.1736
  70
32
  0
VERTEX
  5
516
  100
AcDbEntity
  8
Layer 1
  62
0
  100
AcDb2dVertex
  10
12.61415
  20
11.01695
  30
0.00000
  42
0.1736
  70
32
  0
VERTEX
  5
517
  100
AcDbEntity
  8
Layer 1
  62
0
  100
AcDb2dVertex
  10
12.60107
  20
10.98203
  30
0.00000
  70
32
  0
VERTEX
  5
518
  100
AcDbEntity
  8
Layer 1
  62
0
  100
AcDb2dVertex
  10
12.59931
  20
9.42507
  30
0.00000
  42
0.2265
  70
32
  0
VERTEX
  5
519
  100
AcDbEntity
  8
Layer 1
  62
0
  100
AcDb2dVertex
  10
12.69232
  20
9.12174
  30
0.00000
  42
0.2691
  70
32
  0
VERTEX
  5
51A
  100
AcDbEntity
  8
Layer 1
  62
0
  100
AcDb2dVertex
  10
13.13942
  20
9.10457
  30
0.00000
  70
32
  0
VERTEX
  5
51B
  100
AcDbEntity
  8
Layer 1
  62
0
  100
AcDb2dVertex
  10
13.16919
  20
9.11879
  30
0.00000
  42
0.1402
  70
32
  0
VERTEX
  5
51C
  100
AcDbEntity
  8
Layer 1
  62
0
  100
AcDb2dVertex
  10
13.20636
  20
9.16970
  30
0.00000
  42
0.0169
  70
32
  0
VERTEX
  5
51D
  100
AcDbEntity
  8
Layer 1
  62
0
  100
AcDb2dVertex
  10
13.25436
  20
9.34188
  30
0.00000
  70
32
  0
VERTEX
  5
51E
  100
AcDbEntity
  8
Layer 1
  62
0
  100
AcDb2dVertex
  10
13.26162
  20
10.67377
  30
0.00000
  42
-0.1736
  70
32
  0
VERTEX
  5
51F
  100
AcDbEntity
  8
Layer 1
  62
0
  100
AcDb2dVertex
  10
13.27470
  20
10.70869
  30
0.00000
  42
-0.1736
  70
32
  0
VERTEX
  5
520
  100
AcDbEntity
  8
Layer 1
  62
0
  100
AcDb2dVertex
  10
13.30962
  20
10.72177
  30
0.00000
  42
-0.0050
  70
32
  0
VERTEX
  5
521
  100
AcDbEntity
  8
Layer 1
  62
0
  100
AcDb2dVertex
  10
14.13425
  20
10.72177
  30
0.00000
  42
-0.1736
  70
32
  0
VERTEX
  5
522
  100
AcDbEntity
  8
Layer 1
  62
0
  100
AcDb2dVertex
  10
14.16918
  20
10.70869
  30
0.00000
  42
-0.1736
  70
32
  0
VERTEX
  5
523
  100
AcDbEntity
  8
Layer 1
  62
0
  100
AcDb2dVertex
  10
14.18225
  20
10.67377
  30
0.00000
  70
32
  0
VERTEX
  5
524
  100
AcDbEntity
  8
Layer 1
  62
0
  100
AcDb2dVertex
  10
14.18432
  20
2.86329
  30
0.00000
  42
-0.0605
  70
32
  0
VERTEX
  5
525
  100
AcDbEntity
  8
Layer 1
  62
0
  100
AcDb2dVertex
  10
14.15086
  20
2.23625
  30
0.00000
  42
-0.3068
  70
32
  0
VERTEX
  5
526
  100
AcDbEntity
  8
Layer 1
  62
0
  100
AcDb2dVertex
  10
13.15025
  20
1.56341
  30
0.00000
  42
0.0936
  70
32
  0
VERTEX
  5
527
  100
AcDbEntity
  8
Layer 1
  62
0
  100
AcDb2dVertex
  10
12.96116
  20
1.53237
  30
0.00000
  42
0.0210
  70
32
  0
VERTEX
  5
528
  100
AcDbEntity
  8
Layer 1
  62
0
  100
AcDb2dVertex
  10
12.46689
  20
1.49815
  30
0.00000
  42
-0.0334
  70
32
  0
VERTEX
  5
529
  100
AcDbEntity
  8
Layer 1
  62
0
  100
AcDb2dVertex
  10
11.69938
  20
1.47926
  30
0.00000
  42
-0.0334
  70
32
  0
VERTEX
  5
52A
  100
AcDbEntity
  8
Layer 1
  62
0
  100
AcDb2dVertex
  10
11.51491
  20
1.51502
  30
0.00000
  42
-0.0550
  70
32
  0
VERTEX
  5
52B
  100
AcDbEntity
  8
Layer 1
  62
0
  100
AcDb2dVertex
  10
10.81666
  20
1.55831
  30
0.00000
  42
-0.0364
  70
32
  0
VERTEX
  5
52C
  100
AcDbEntity
  8
Layer 1
  62
0
  100
AcDb2dVertex
  10
10.73524
  20
1.57015
  30
0.00000
  42
-0.4830
  70
32
  0
VERTEX
  5
52D
  100
AcDbEntity
  8
Layer 1
  62
0
  100
AcDb2dVertex
  10
10.72260
  20
1.59917
  30
0.00000
  42
-0.1077
  70
32
  0
VERTEX
  5
52E
  100
AcDbEntity
  8
Layer 1
  62
0
  100
AcDb2dVertex
  10
10.75651
  20
1.62921
  30
0.00000
  42
0.2324
  70
32
  0
VERTEX
  5
52F
  100
AcDbEntity
  8
Layer 1
  62
0
  100
AcDb2dVertex
  10
11.14060
  20
2.16390
  30
0.00000
  70
32
  0
SEQEND
  5
530
  100
AcDbEntity
  8
Layer 1
  62
0
  0
POLYLINE
  5
531
  100
AcDbEntity
  8
Layer 1
  62
0
  100
AcDb2dPolyline
 66
     1
  10
0
  20
0
  30
0
  70
1
  0
VERTEX
  5
532
  100
AcDbEntity
  8
Layer 1
  62
0
  100
AcDb2dVertex
  10
20.61293
  20
1.61414
  30
0.00000
  42
0.1706
  70
32
  0
VERTEX
  5
533
  100
AcDbEntity
  8
Layer 1
  62
0
  100
AcDb2dVertex
  10
20.67824
  20
1.65752
  30
0.00000
  42
0.3831
  70
32
  0
VERTEX
  5
534
  100
AcDbEntity
  8
Layer 1
  62
0
  100
AcDb2dVertex
  10
20.67036
  20
1.69980
  30
0.00000
  70
32
  0
VERTEX
  5
535
  100
AcDbEntity
  8
Layer 1
  62
0
  100
AcDb2dVertex
  10
20.65737
  20
1.71261
  30
0.00000
  42
0.1991
  70
32
  0
VERTEX
  5
536
  100
AcDbEntity
  8
Layer 1
  62
0
  100
AcDb2dVertex
  10
20.59660
  20
1.73608
  30
0.00000
  42
0.0279
  70
32
  0
VERTEX
  5
537
  100
AcDbEntity
  8
Layer 1
  62
0
  100
AcDb2dVertex
  10
20.51865
  20
1.73547
  30
0.00000
  42
0.2610
  70
32
  0
VERTEX
  5
538
  100
AcDbEntity
  8
Layer 1
  62
0
  100
AcDb2dVertex
  10
20.48787
  20
1.70869
  30
0.00000
  70
32
  0
VERTEX
  5
539
  100
AcDbEntity
  8
Layer 1
  62
0
  100
AcDb2dVertex
  10
20.48668
  20
1.68368
  30
0.00000
  42
0.0941
  70
32
  0
VERTEX
  5
53A
  100
AcDbEntity
  8
Layer 1
  62
0
  100
AcDb2dVertex
  10
20.49549
  20
1.62837
  30
0.00000
  42
0.2357
  70
32
  0
VERTEX
  5
53B
  100
AcDbEntity
  8
Layer 1
  62
0
  100
AcDb2dVertex
  10
20.51244
  20
1.61216
  30
0.00000
  42
0.0381
  70
32
  0
VERTEX
  5
53C
  100
AcDbEntity
  8
Layer 1
  62
0
  100
AcDb2dVertex
  10
20.61293
  20
1.61414
  30
0.00000
  70
32
  0
SEQEND
  5
53D
  100
AcDbEntity
  8
Layer 1
  62
0
  0
POLYLINE
  5
53E
  100
AcDbEntity
  8
Layer 1
  62
0
  100
AcDb2dPolyline
 66
     1
  10
0
  20
0
  30
0
  70
1
  0
VERTEX
  5
53F
  100
AcDbEntity
  8
Layer 1
  62
0
  100
AcDb2dVertex
  10
20.39398
  20
1.33438
  30
0.00000
  42
-0.0076
  70
32
  0
VERTEX
  5
540
  100
AcDbEntity
  8
Layer 1
  62
0
  100
AcDb2dVertex
  10
20.39557
  20
1.82239
  30
0.00000
  42
-0.1736
  70
32
  0
VERTEX
  5
541
  100
AcDbEntity
  8
Layer 1
  62
0
  100
AcDb2dVertex
  10
20.40865
  20
1.85732
  30
0.00000
  42
-0.1736
  70
32
  0
VERTEX
  5
542
  100
AcDbEntity
  8
Layer 1
  62
0
  100
AcDb2dVertex
  10
20.44357
  20
1.87039
  30
0.00000
  42
-0.0196
  70
32
  0
VERTEX
  5
543
  100
AcDbEntity
  8
Layer 1
  62
0
  100
AcDb2dVertex
  10
20.63174
  20
1.86850
  30
0.00000
  42
-0.1137
  70
32
  0
VERTEX
  5
544
  100
AcDbEntity
  8
Layer 1
  62
0
  100
AcDb2dVertex
  10
20.69775
  20
1.84648
  30
0.00000
  42
-0.0282
  70
32
  0
VERTEX
  5
545
  100
AcDbEntity
  8
Layer 1
  62
0
  100
AcDb2dVertex
  10
20.76623
  20
1.78298
  30
0.00000
  42
-0.0527
  70
32
  0
VERTEX
  5
546
  100
AcDbEntity
  8
Layer 1
  62
0
  100
AcDb2dVertex
  10
20.80956
  20
1.73811
  30
0.00000
  42
-0.2273
  70
32
  0
VERTEX
  5
547
  100
AcDbEntity
  8
Layer 1
  62
0
  100
AcDb2dVertex
  10
20.82413
  20
1.63942
  30
0.00000
  42
0.0160
  70
32
  0
VERTEX
  5
548
  100
AcDbEntity
  8
Layer 1
  62
0
  100
AcDb2dVertex
  10
20.77336
  20
1.55941
  30
0.00000
  42
0.2537
  70
32
  0
VERTEX
  5
549
  100
AcDbEntity
  8
Layer 1
  62
0
  100
AcDb2dVertex
  10
20.75526
  20
1.46297
  30
0.00000
  42
-0.1218
  70
32
  0
VERTEX
  5
54A
  100
AcDbEntity
  8
Layer 1
  62
0
  100
AcDb2dVertex
  10
20.78763
  20
1.30593
  30
0.00000
  42
-0.1731
  70
32
  0
VERTEX
  5
54B
  100
AcDbEntity
  8
Layer 1
  62
0
  100
AcDb2dVertex
  10
20.77481
  20
1.27110
  30
0.00000
  70
32
  0
VERTEX
  5
54C
  100
AcDbEntity
  8
Layer 1
  62
0
  100
AcDb2dVertex
  10
20.76006
  20
1.26383
  30
0.00000
  42
-0.0745
  70
32
  0
VERTEX
  5
54D
  100
AcDbEntity
  8
Layer 1
  62
0
  100
AcDb2dVertex
  10
20.70510
  20
1.26079
  30
0.00000
  42
-0.1907
  70
32
  0
VERTEX
  5
54E
  100
AcDbEntity
  8
Layer 1
  62
0
  100
AcDb2dVertex
  10
20.67181
  20
1.27405
  30
0.00000
  42
-0.0709
  70
32
  0
VERTEX
  5
54F
  100
AcDbEntity
  8
Layer 1
  62
0
  100
AcDb2dVertex
  10
20.61236
  20
1.42523
  30
0.00000
  42
0.0878
  70
32
  0
VERTEX
  5
550
  100
AcDbEntity
  8
Layer 1
  62
0
  100
AcDb2dVertex
  10
20.59858
  20
1.45702
  30
0.00000
  42
0.1677
  70
32
  0
VERTEX
  5
551
  100
AcDbEntity
  8
Layer 1
  62
0
  100
AcDb2dVertex
  10
20.58391
  20
1.46825
  30
0.00000
  42
0.1127
  70
32
  0
VERTEX
  5
552
  100
AcDbEntity
  8
Layer 1
  62
0
  100
AcDb2dVertex
  10
20.51134
  20
1.46825
  30
0.00000
  70
32
  0
VERTEX
  5
553
  100
AcDbEntity
  8
Layer 1
  62
0
  100
AcDb2dVertex
  10
20.49659
  20
1.46099
  30
0.00000
  42
0.1700
  70
32
  0
VERTEX
  5
554
  100
AcDbEntity
  8
Layer 1
  62
0
  100
AcDb2dVertex
  10
20.48364
  20
1.42620
  30
0.00000
  70
32
  0
VERTEX
  5
555
  100
AcDbEntity
  8
Layer 1
  62
0
  100
AcDb2dVertex
  10
20.47950
  20
1.30593
  30
0.00000
  42
-0.3551
  70
32
  0
VERTEX
  5
556
  100
AcDbEntity
  8
Layer 1
  62
0
  100
AcDb2dVertex
  10
20.44806
  20
1.26328
  30
0.00000
  42
-0.3550
  70
32
  0
VERTEX
  5
557
  100
AcDbEntity
  8
Layer 1
  62
0
  100
AcDb2dVertex
  10
20.39988
  20
1.28532
  30
0.00000
  70
32
  0
VERTEX
  5
558
  100
AcDbEntity
  8
Layer 1
  62
0
  100
AcDb2dVertex
  10
20.39398
  20
1.33438
  30
0.00000
  70
32
  0
SEQEND
  5
559
  100
AcDbEntity
  8
Layer 1
  62
0
  0
POLYLINE
  5
55A
  100
AcDbEntity
  8
Layer 1
  62
0
  100
AcDb2dPolyline
 66
     1
  10
0
  20
0
  30
0
  70
1
  0
VERTEX
  5
55B
  100
AcDbEntity
  8
Layer 1
  62
0
  100
AcDb2dVertex
  10
20.13047
  20
1.71719
  30
0.00000
  42
0.3340
  70
32
  0
VERTEX
  5
55C
  100
AcDbEntity
  8
Layer 1
  62
0
  100
AcDb2dVertex
  10
20.26614
  20
1.19465
  30
0.00000
  42
0.4361
  70
32
  0
VERTEX
  5
55D
  100
AcDbEntity
  8
Layer 1
  62
0
  100
AcDb2dVertex
  10
21.01569
  20
1.31637
  30
0.00000
  42
0.4150
  70
32
  0
VERTEX
  5
55E
  100
AcDbEntity
  8
Layer 1
  62
0
  100
AcDb2dVertex
  10
20.88992
  20
1.90655
  30
0.00000
  42
0.4336
  70
32
  0
VERTEX
  5
55F
  100
AcDbEntity
  8
Layer 1
  62
0
  100
AcDb2dVertex
  10
20.13047
  20
1.71719
  30
0.00000
  70
32
  0
SEQEND
  5
560
  100
AcDbEntity
  8
Layer 1
  62
0
  0
POLYLINE
  5
561
  100
AcDbEntity
  8
Layer 1
  62
0
  100
AcDb2dPolyline
 66
     1
  10
0
  20
0
  30
0
  70
1
  0
VERTEX
  5
562
  100
AcDbEntity
  8
Layer 1
  62
0
  100
AcDb2dVertex
  10
20.50672
  20
2.08952
  30
0.00000
  42
-0.3728
  70
32
  0
VERTEX
  5
563
  100
AcDbEntity
  8
Layer 1
  62
0
  100
AcDb2dVertex
  10
21.17436
  20
1.70658
  30
0.00000
  42
-0.0210
  70
32
  0
VERTEX
  5
564
  100
AcDbEntity
  8
Layer 1
  62
0
  100
AcDb2dVertex
  10
21.20598
  20
1.60824
  30
0.00000
  70
32
  0
VERTEX
  5
565
  100
AcDbEntity
  8
Layer 1
  62
0
  100
AcDb2dVertex
  10
21.22073
  20
1.57742
  30
0.00000
  42
-0.1391
  70
32
  0
VERTEX
  5
566
  100
AcDbEntity
  8
Layer 1
  62
0
  100
AcDb2dVertex
  10
21.22073
  20
1.50700
  30
0.00000
  42
-0.0594
  70
32
  0
VERTEX
  5
567
  100
AcDbEntity
  8
Layer 1
  62
0
  100
AcDb2dVertex
  10
21.11566
  20
1.26044
  30
0.00000
  42
-0.3103
  70
32
  0
VERTEX
  5
568
  100
AcDbEntity
  8
Layer 1
  62
0
  100
AcDb2dVertex
  10
20.46277
  20
0.99494
  30
0.00000
  42
-0.3183
  70
32
  0
VERTEX
  5
569
  100
AcDbEntity
  8
Layer 1
  62
0
  100
AcDb2dVertex
  10
19.97638
  20
1.43320
  30
0.00000
  42
-0.4541
  70
32
  0
VERTEX
  5
56A
  100
AcDbEntity
  8
Layer 1
  62
0
  100
AcDb2dVertex
  10
20.50672
  20
2.08952
  30
0.00000
  70
32
  0
SEQEND
  5
56B
  100
AcDbEntity
  8
Layer 1
  62
0
  0
POLYLINE
  5
56C
  100
AcDbEntity
  8
Layer 1
  62
0
  100
AcDb2dPolyline
 66
     1
  10
0
  20
0
  30
0
  70
1
  0
VERTEX
  5
56D
  100
AcDbEntity
  8
Layer 1
  62
0
  100
AcDb2dVertex
  10
22.81530
  20
10.74612
  30
0.00000
  42
-0.0835
  70
32
  0
VERTEX
  5
56E
  100
AcDbEntity
  8
Layer 1
  62
0
  100
AcDb2dVertex
  10
22.84740
  20
11.02228
  30
0.00000
  42
-0.0178
  70
32
  0
VERTEX
  5
56F
  100
AcDbEntity
  8
Layer 1
  62
0
  100
AcDb2dVertex
  10
22.88157
  20
11.60457
  30
0.00000
  42
0.0631
  70
32
  0
VERTEX
  5
570
  100
AcDbEntity
  8
Layer 1
  62
0
  100
AcDb2dVertex
  10
22.85986
  20
12.63974
  30
0.00000
  42
0.0681
  70
32
  0
VERTEX
  5
571
  100
AcDbEntity
  8
Layer 1
  62
0
  100
AcDb2dVertex
  10
22.81662
  20
13.21301
  30
0.00000
  42
0.0423
  70
32
  0
VERTEX
  5
572
  100
AcDbEntity
  8
Layer 1
  62
0
  100
AcDb2dVertex
  10
22.63937
  20
14.35687
  30
0.00000
  42
0.1915
  70
32
  0
VERTEX
  5
573
  100
AcDbEntity
  8
Layer 1
  62
0
  100
AcDb2dVertex
  10
18.15172
  20
21.01050
  30
0.00000
  42
0.0657
  70
32
  0
VERTEX
  5
574
  100
AcDbEntity
  8
Layer 1
  62
0
  100
AcDb2dVertex
  10
15.26476
  20
22.42540
  30
0.00000
  42
0.4911
  70
32
  0
VERTEX
  5
575
  100
AcDbEntity
  8
Layer 1
  62
0
  100
AcDb2dVertex
  10
15.25354
  20
22.41417
  30
0.00000
  70
32
  0
VERTEX
  5
576
  100
AcDbEntity
  8
Layer 1
  62
0
  100
AcDb2dVertex
  10
15.25820
  20
22.40246
  30
0.00000
  42
-0.0119
  70
32
  0
VERTEX
  5
577
  100
AcDbEntity
  8
Layer 1
  62
0
  100
AcDb2dVertex
  10
15.39040
  20
22.25652
  30
0.00000
  42
-0.1796
  70
32
  0
VERTEX
  5
578
  100
AcDbEntity
  8
Layer 1
  62
0
  100
AcDb2dVertex
  10
16.19786
  20
19.38925
  30
0.00000
  42
0.0932
  70
32
  0
VERTEX
  5
579
  100
AcDbEntity
  8
Layer 1
  62
0
  100
AcDb2dVertex
  10
16.16082
  20
19.11803
  30
0.00000
  42
-0.1386
  70
32
  0
VERTEX
  5
57A
  100
AcDbEntity
  8
Layer 1
  62
0
  100
AcDb2dVertex
  10
15.05625
  20
16.96384
  30
0.00000
  42
-0.1693
  70
32
  0
VERTEX
  5
57B
  100
AcDbEntity
  8
Layer 1
  62
0
  100
AcDb2dVertex
  10
12.94143
  20
15.86398
  30
0.00000
  70
32
  0
VERTEX
  5
57C
  100
AcDbEntity
  8
Layer 1
  62
0
  100
AcDb2dVertex
  10
12.47676
  20
15.80026
  30
0.00000
  42
-0.0473
  70
32
  0
VERTEX
  5
57D
  100
AcDbEntity
  8
Layer 1
  62
0
  100
AcDb2dVertex
  10
11.76231
  20
15.81008
  30
0.00000
  42
0.0586
  70
32
  0
VERTEX
  5
57E
  100
AcDbEntity
  8
Layer 1
  62
0
  100
AcDb2dVertex
  10
11.48126
  20
15.83729
  30
0.00000
  42
0.0280
  70
32
  0
VERTEX
  5
57F
  100
AcDbEntity
  8
Layer 1
  62
0
  100
AcDb2dVertex
  10
11.29790
  20
15.87411
  30
0.00000
  42
-0.2007
  70
32
  0
VERTEX
  5
580
  100
AcDbEntity
  8
Layer 1
  62
0
  100
AcDb2dVertex
  10
8.90195
  20
17.44146
  30
0.00000
  42
-0.2095
  70
32
  0
VERTEX
  5
581
  100
AcDbEntity
  8
Layer 1
  62
0
  100
AcDb2dVertex
  10
8.22757
  20
20.53381
  30
0.00000
  42
-0.1172
  70
32
  0
VERTEX
  5
582
  100
AcDbEntity
  8
Layer 1
  62
0
  100
AcDb2dVertex
  10
9.05814
  20
22.34543
  30
0.00000
  42
-0.0246
  70
32
  0
VERTEX
  5
583
  100
AcDbEntity
  8
Layer 1
  62
0
  100
AcDb2dVertex
  10
9.19114
  20
22.53461
  30
0.00000
  42
0.3372
  70
32
  0
VERTEX
  5
584
  100
AcDbEntity
  8
Layer 1
  62
0
  100
AcDb2dVertex
  10
9.19100
  20
22.55663
  30
0.00000
  42
0.1771
  70
32
  0
VERTEX
  5
585
  100
AcDbEntity
  8
Layer 1
  62
0
  100
AcDb2dVertex
  10
9.15894
  20
22.56681
  30
0.00000
  42
0.0749
  70
32
  0
VERTEX
  5
586
  100
AcDbEntity
  8
Layer 1
  62
0
  100
AcDb2dVertex
  10
9.00975
  20
22.52559
  30
0.00000
  42
0.1349
  70
32
  0
VERTEX
  5
587
  100
AcDbEntity
  8
Layer 1
  62
0
  100
AcDb2dVertex
  10
4.09992
  20
19.42109
  30
0.00000
  42
0.1355
  70
32
  0
VERTEX
  5
588
  100
AcDbEntity
  8
Layer 1
  62
0
  100
AcDb2dVertex
  10
1.33072
  20
14.04350
  30
0.00000
  42
0.0155
  70
32
  0
VERTEX
  5
589
  100
AcDbEntity
  8
Layer 1
  62
0
  100
AcDb2dVertex
  10
1.19460
  20
13.16678
  30
0.00000
  42
0.0057
  70
32
  0
VERTEX
  5
58A
  100
AcDbEntity
  8
Layer 1
  62
0
  100
AcDb2dVertex
  10
1.14946
  20
12.46329
  30
0.00000
  42
0.0101
  70
32
  0
VERTEX
  5
58B
  100
AcDbEntity
  8
Layer 1
  62
0
  100
AcDb2dVertex
  10
1.16162
  20
11.24246
  30
0.00000
  42
-0.0569
  70
32
  0
VERTEX
  5
58C
  100
AcDbEntity
  8
Layer 1
  62
0
  100
AcDb2dVertex
  10
1.19870
  20
10.75105
  30
0.00000
  42
-0.0319
  70
32
  0
VERTEX
  5
58D
  100
AcDbEntity
  8
Layer 1
  62
0
  100
AcDb2dVertex
  10
1.23472
  20
10.56689
  30
0.00000
  42
0.1258
  70
32
  0
VERTEX
  5
58E
  100
AcDbEntity
  8
Layer 1
  62
0
  100
AcDb2dVertex
  10
3.24609
  20
5.57643
  30
0.00000
  42
0.0263
  70
32
  0
VERTEX
  5
58F
  100
AcDbEntity
  8
Layer 1
  62
0
  100
AcDb2dVertex
  10
4.22322
  20
4.43980
  30
0.00000
  42
0.0458
  70
32
  0
VERTEX
  5
590
  100
AcDbEntity
  8
Layer 1
  62
0
  100
AcDb2dVertex
  10
4.60634
  20
4.07430
  30
0.00000
  42
0.0448
  70
32
  0
VERTEX
  5
591
  100
AcDbEntity
  8
Layer 1
  62
0
  100
AcDb2dVertex
  10
5.09101
  20
3.63420
  30
0.00000
  42
0.1031
  70
32
  0
VERTEX
  5
592
  100
AcDbEntity
  8
Layer 1
  62
0
  100
AcDb2dVertex
  10
9.15392
  20
1.53197
  30
0.00000
  42
0.0351
  70
32
  0
VERTEX
  5
593
  100
AcDbEntity
  8
Layer 1
  62
0
  100
AcDb2dVertex
  10
10.85986
  20
1.21222
  30
0.00000
  70
32
  0
VERTEX
  5
594
  100
AcDbEntity
  8
Layer 1
  62
0
  100
AcDb2dVertex
  10
11.56414
  20
1.16788
  30
0.00000
  42
0.0087
  70
32
  0
VERTEX
  5
595
  100
AcDbEntity
  8
Layer 1
  62
0
  100
AcDb2dVertex
  10
12.62071
  20
1.16819
  30
0.00000
  42
0.0663
  70
32
  0
VERTEX
  5
596
  100
AcDbEntity
  8
Layer 1
  62
0
  100
AcDb2dVertex
  10
12.81919
  20
1.18990
  30
0.00000
  42
-0.0210
  70
32
  0
VERTEX
  5
597
  100
AcDbEntity
  8
Layer 1
  62
0
  100
AcDb2dVertex
  10
13.31345
  20
1.22411
  30
0.00000
  42
-0.0932
  70
32
  0
VERTEX
  5
598
  100
AcDbEntity
  8
Layer 1
  62
0
  100
AcDb2dVertex
  10
13.58468
  20
1.26115
  30
0.00000
  42
-0.0280
  70
32
  0
VERTEX
  5
599
  100
AcDbEntity
  8
Layer 1
  62
0
  100
AcDb2dVertex
  10
13.76800
  20
1.29796
  30
0.00000
  42
0.3354
  70
32
  0
VERTEX
  5
59A
  100
AcDbEntity
  8
Layer 1
  62
0
  100
AcDb2dVertex
  10
22.81530
  20
10.74612
  30
0.00000
  70
32
  0
SEQEND
  5
59B
  100
AcDbEntity
  8
Layer 1
  62
0
  0
POLYLINE
  5
59C
  100
AcDbEntity
  8
Layer 1
  62
0
  100
AcDb2dPolyline
 66
     1
  10
0
  20
0
  30
0
  70
1
  0
VERTEX
  5
59D
  100
AcDbEntity
  8
Layer 1
  62
0
  100
AcDb2dVertex
  10
12.50107
  20
16.96490
  30
0.00000
  42
0.1950
  70
32
  0
VERTEX
  5
59E
  100
AcDbEntity
  8
Layer 1
  62
0
  100
AcDb2dVertex
  10
14.33845
  20
17.81375
  30
0.00000
  42
0.2132
  70
32
  0
VERTEX
  5
59F
  100
AcDbEntity
  8
Layer 1
  62
0
  100
AcDb2dVertex
  10
15.10901
  20
19.77334
  30
0.00000
  42
0.1280
  70
32
  0
VERTEX
  5
5A0
  100
AcDbEntity
  8
Layer 1
  62
0
  100
AcDb2dVertex
  10
14.39566
  20
21.83425
  30
0.00000
  42
-0.0126
  70
32
  0
VERTEX
  5
5A1
  100
AcDbEntity
  8
Layer 1
  62
0
  100
AcDb2dVertex
  10
13.05566
  20
23.94300
  30
0.00000
  42
-0.2931
  70
32
  0
VERTEX
  5
5A2
  100
AcDbEntity
  8
Layer 1
  62
0
  100
AcDb2dVertex
  10
13.05641
  20
23.96568
  30
0.00000
  42
-0.2209
  70
32
  0
VERTEX
  5
5A3
  100
AcDbEntity
  8
Layer 1
  62
0
  100
AcDb2dVertex
  10
13.08570
  20
23.97307
  30
0.00000
  70
32
  0
VERTEX
  5
5A4
  100
AcDbEntity
  8
Layer 1
  62
0
  100
AcDb2dVertex
  10
13.10807
  20
23.96590
  30
0.00000
  42
0.1314
  70
32
  0
VERTEX
  5
5A5
  100
AcDbEntity
  8
Layer 1
  62
0
  100
AcDb2dVertex
  10
13.24093
  20
23.93789
  30
0.00000
  42
-0.0083
  70
32
  0
VERTEX
  5
5A6
  100
AcDbEntity
  8
Layer 1
  62
0
  100
AcDb2dVertex
  10
13.90090
  20
23.84959
  30
0.00000
  42
-0.1405
  70
32
  0
VERTEX
  5
5A7
  100
AcDbEntity
  8
Layer 1
  62
0
  100
AcDb2dVertex
  10
19.87827
  20
21.06366
  30
0.00000
  42
-0.0151
  70
32
  0
VERTEX
  5
5A8
  100
AcDbEntity
  8
Layer 1
  62
0
  100
AcDb2dVertex
  10
21.04524
  20
19.89668
  30
0.00000
  42
-0.1409
  70
32
  0
VERTEX
  5
5A9
  100
AcDbEntity
  8
Layer 1
  62
0
  100
AcDb2dVertex
  10
23.84047
  20
14.01668
  30
0.00000
  42
-0.0421
  70
32
  0
VERTEX
  5
5AA
  100
AcDbEntity
  8
Layer 1
  62
0
  100
AcDb2dVertex
  10
23.88455
  20
13.66448
  30
0.00000
  42
-0.0922
  70
32
  0
VERTEX
  5
5AB
  100
AcDbEntity
  8
Layer 1
  62
0
  100
AcDb2dVertex
  10
23.91925
  20
13.43492
  30
0.00000
  42
0.0319
  70
32
  0
VERTEX
  5
5AC
  100
AcDbEntity
  8
Layer 1
  62
0
  100
AcDb2dVertex
  10
23.95527
  20
13.25080
  30
0.00000
  42
0.0685
  70
32
  0
VERTEX
  5
5AD
  100
AcDbEntity
  8
Layer 1
  62
0
  100
AcDb2dVertex
  10
23.99235
  20
12.80343
  30
0.00000
  42
-0.0099
  70
32
  0
VERTEX
  5
5AE
  100
AcDbEntity
  8
Layer 1
  62
0
  100
AcDb2dVertex
  10
24.00138
  20
11.27743
  30
0.00000
  42
-0.0334
  70
32
  0
VERTEX
  5
5AF
  100
AcDbEntity
  8
Layer 1
  62
0
  100
AcDb2dVertex
  10
23.96567
  20
11.09300
  30
0.00000
  42
-0.0622
  70
32
  0
VERTEX
  5
5B0
  100
AcDbEntity
  8
Layer 1
  62
0
  100
AcDb2dVertex
  10
23.91643
  20
10.52568
  30
0.00000
  42
-0.1291
  70
32
  0
VERTEX
  5
5B1
  100
AcDbEntity
  8
Layer 1
  62
0
  100
AcDb2dVertex
  10
21.68849
  20
4.91509
  30
0.00000
  42
-0.1844
  70
32
  0
VERTEX
  5
5B2
  100
AcDbEntity
  8
Layer 1
  62
0
  100
AcDb2dVertex
  10
14.42450
  20
0.24513
  30
0.00000
  42
-0.0265
  70
32
  0
VERTEX
  5
5B3
  100
AcDbEntity
  8
Layer 1
  62
0
  100
AcDb2dVertex
  10
13.46987
  20
0.09884
  30
0.00000
  42
-0.0804
  70
32
  0
VERTEX
  5
5B4
  100
AcDbEntity
  8
Layer 1
  62
0
  100
AcDb2dVertex
  10
13.19451
  20
0.06595
  30
0.00000
  42
-0.0688
  70
32
  0
VERTEX
  5
5B5
  100
AcDbEntity
  8
Layer 1
  62
0
  100
AcDb2dVertex
  10
12.62102
  20
0.02292
  30
0.00000
  70
32
  0
VERTEX
  5
5B6
  100
AcDbEntity
  8
Layer 1
  62
0
  100
AcDb2dVertex
  10
11.87240
  20
0.02292
  30
0.00000
  42
-0.0263
  70
32
  0
VERTEX
  5
5B7
  100
AcDbEntity
  8
Layer 1
  62
0
  100
AcDb2dVertex
  10
10.96965
  20
0.04494
  30
0.00000
  42
-0.1412
  70
32
  0
VERTEX
  5
5B8
  100
AcDbEntity
  8
Layer 1
  62
0
  100
AcDb2dVertex
  10
4.79134
  20
2.40980
  30
0.00000
  42
-0.0808
  70
32
  0
VERTEX
  5
5B9
  100
AcDbEntity
  8
Layer 1
  62
0
  100
AcDb2dVertex
  10
2.03020
  20
5.32934
  30
0.00000
  42
-0.1143
  70
32
  0
VERTEX
  5
5BA
  100
AcDbEntity
  8
Layer 1
  62
0
  100
AcDb2dVertex
  10
0.12446
  20
10.33737
  30
0.00000
  42
-0.0419
  70
32
  0
VERTEX
  5
5BB
  100
AcDbEntity
  8
Layer 1
  62
0
  100
AcDb2dVertex
  10
0.08043
  20
10.68967
  30
0.00000
  42
-0.1052
  70
32
  0
VERTEX
  5
5BC
  100
AcDbEntity
  8
Layer 1
  62
0
  100
AcDb2dVertex
  10
0.04885
  20
10.92231
  30
0.00000
  42
0.0558
  70
32
  0
VERTEX
  5
5BD
  100
AcDbEntity
  8
Layer 1
  62
0
  100
AcDb2dVertex
  10
0.00561
  20
11.36347
  30
0.00000
  42
-0.0371
  70
32
  0
VERTEX
  5
5BE
  100
AcDbEntity
  8
Layer 1
  62
0
  100
AcDb2dVertex
  10
0.07056
  20
13.27797
  30
0.00000
  42
-0.0719
  70
32
  0
VERTEX
  5
5BF
  100
AcDbEntity
  8
Layer 1
  62
0
  100
AcDb2dVertex
  10
0.87357
  20
16.48230
  30
0.00000
  42
-0.1087
  70
32
  0
VERTEX
  5
5C0
  100
AcDbEntity
  8
Layer 1
  62
0
  100
AcDb2dVertex
  10
3.70359
  20
20.65412
  30
0.00000
  42
-0.1441
  70
32
  0
VERTEX
  5
5C1
  100
AcDbEntity
  8
Layer 1
  62
0
  100
AcDb2dVertex
  10
9.58249
  20
23.75870
  30
0.00000
  42
-0.0294
  70
32
  0
VERTEX
  5
5C2
  100
AcDbEntity
  8
Layer 1
  62
0
  100
AcDb2dVertex
  10
10.85436
  20
23.94005
  30
0.00000
  42
-0.0872
  70
32
  0
VERTEX
  5
5C3
  100
AcDbEntity
  8
Layer 1
  62
0
  100
AcDb2dVertex
  10
11.20608
  20
23.97871
  30
0.00000
  42
-0.0890
  70
32
  0
VERTEX
  5
5C4
  100
AcDbEntity
  8
Layer 1
  62
0
  100
AcDb2dVertex
  10
11.29257
  20
23.97250
  30
0.00000
  42
-0.2332
  70
32
  0
VERTEX
  5
5C5
  100
AcDbEntity
  8
Layer 1
  62
0
  100
AcDb2dVertex
  10
11.31318
  20
23.94991
  30
0.00000
  42
-0.2326
  70
32
  0
VERTEX
  5
5C6
  100
AcDbEntity
  8
Layer 1
  62
0
  100
AcDb2dVertex
  10
11.30521
  20
23.90156
  30
0.00000
  70
32
  0
VERTEX
  5
5C7
  100
AcDbEntity
  8
Layer 1
  62
0
  100
AcDb2dVertex
  10
10.20310
  20
22.16929
  30
0.00000
  42
0.1217
  70
32
  0
VERTEX
  5
5C8
  100
AcDbEntity
  8
Layer 1
  62
0
  100
AcDb2dVertex
  10
9.29907
  20
20.12286
  30
0.00000
  42
0.1011
  70
32
  0
VERTEX
  5
5C9
  100
AcDbEntity
  8
Layer 1
  62
0
  100
AcDb2dVertex
  10
9.29828
  20
19.20293
  30
0.00000
  42
0.3192
  70
32
  0
VERTEX
  5
5CA
  100
AcDbEntity
  8
Layer 1
  62
0
  100
AcDb2dVertex
  10
11.65503
  20
16.97987
  30
0.00000
  42
0.0923
  70
32
  0
VERTEX
  5
5CB
  100
AcDbEntity
  8
Layer 1
  62
0
  100
AcDb2dVertex
  10
12.50107
  20
16.96490
  30
0.00000
  70
32
  0
SEQEND
  5
5CC
  100
AcDbEntity
  8
Layer 1
  62
0
 0
ENDSEC
 0
EOF
