999
"DXF R12 Output" (www.mydxf.blogspot.com)
 0 
SECTION
 2 
HEADER
 9 
$ACADVER
 1 
AC1009
 9 
$EXTMIN
 10 
 0 
 20 
 0 
 9 
$EXTMAX
 10 
 8.5 
 20 
 11 
 0 
ENDSEC
 0 
SECTION
 2 
ENTITIES
0
LINE
8
Calque 1
10
70.999048
20
117.446878
11
67.719612
21
119.577754
0
LINE
8
Calque 1
10
67.719612
20
119.577754
11
67.153354
21
119.231876
0
LINE
8
Calque 1
10
67.153354
20
119.231876
11
66.182274
21
118.013281
0
LINE
8
Calque 1
10
66.182274
20
118.013281
11
64.663932
21
116.045958
0
LINE
8
Calque 1
10
64.663932
20
116.045958
11
61.635406
21
115.918108
0
LINE
8
Calque 1
10
61.635406
20
115.918108
11
54.771270
21
115.904847
0
LINE
8
Calque 1
10
54.771270
20
115.904847
11
46.454806
21
116.039870
0
LINE
8
Calque 1
10
46.454806
20
116.039870
11
45.324908
21
116.215980
0
LINE
8
Calque 1
10
45.324908
20
116.215980
11
45.150105
21
116.355183
0
LINE
8
Calque 1
10
45.150105
20
116.355183
11
45.095612
21
116.537626
0
LINE
8
Calque 1
10
45.095612
20
116.537626
11
45.890156
21
118.429137
0
LINE
8
Calque 1
10
45.890156
20
118.429137
11
47.817085
21
121.903135
0
LINE
8
Calque 1
10
47.817085
20
121.903135
11
49.948246
21
125.371736
0
LINE
8
Calque 1
10
49.948246
20
125.371736
11
51.355490
21
127.247056
0
LINE
8
Calque 1
10
51.355490
20
127.247056
11
51.929614
21
127.567817
0
LINE
8
Calque 1
10
51.929614
20
127.567817
11
52.919166
21
127.730819
0
LINE
8
Calque 1
10
52.919166
20
127.730819
11
58.382047
21
127.740756
0
LINE
8
Calque 1
10
58.382047
20
127.740756
11
64.732100
21
127.555316
0
LINE
8
Calque 1
10
64.732100
20
127.555316
11
64.362381
21
126.547921
0
LINE
8
Calque 1
10
64.362381
20
126.547921
11
63.892983
21
125.640207
0
LINE
8
Calque 1
10
63.892983
20
125.640207
11
60.315314
21
125.838070
0
LINE
8
Calque 1
10
60.315314
20
125.838070
11
57.568156
21
125.922489
0
LINE
8
Calque 1
10
57.568156
20
125.922489
11
55.987250
21
125.847598
0
LINE
8
Calque 1
10
55.987250
20
125.847598
11
55.523367
21
125.591347
0
LINE
8
Calque 1
10
55.523367
20
125.591347
11
54.954378
21
124.957145
0
LINE
8
Calque 1
10
54.954378
20
124.957145
11
53.099061
21
122.022445
0
LINE
8
Calque 1
10
53.099061
20
122.022445
11
50.961270
21
118.126822
0
LINE
8
Calque 1
10
50.961270
20
118.126822
11
51.166764
21
117.825440
0
LINE
8
Calque 1
10
51.166764
20
117.825440
11
51.923949
21
117.641748
0
LINE
8
Calque 1
10
51.923949
20
117.641748
11
55.937630
21
117.525403
0
LINE
8
Calque 1
10
55.937630
20
117.525403
11
60.021160
21
117.525403
0
LINE
8
Calque 1
10
60.021160
20
117.525403
11
60.993201
21
118.583737
0
LINE
8
Calque 1
10
60.993201
20
118.583737
11
61.966588
21
119.853737
0
LINE
8
Calque 1
10
61.966588
20
119.853737
11
61.262867
21
120.003226
0
LINE
8
Calque 1
10
61.262867
20
120.003226
11
59.569048
21
120.065403
0
LINE
8
Calque 1
10
59.569048
20
120.065403
11
57.874833
21
120.139122
0
LINE
8
Calque 1
10
57.874833
20
120.139122
11
57.170159
21
120.316361
0
LINE
8
Calque 1
10
57.170159
20
120.316361
11
57.664048
21
121.164066
0
LINE
8
Calque 1
10
57.664048
20
121.164066
11
58.112647
21
121.503796
0
LINE
8
Calque 1
10
58.112647
20
121.503796
11
59.267884
21
121.689720
0
LINE
8
Calque 1
10
59.267884
20
121.689720
11
66.883212
21
121.830331
0
LINE
8
Calque 1
10
66.883212
20
121.830331
11
75.608485
21
121.899848
0
LINE
8
Calque 1
10
75.608485
20
121.899848
11
76.709784
21
123.700829
0
LINE
8
Calque 1
10
76.709784
20
123.700829
11
77.435582
21
125.073684
0
LINE
8
Calque 1
10
77.435582
20
125.073684
11
77.556273
21
125.756623
0
LINE
8
Calque 1
10
77.556273
20
125.756623
11
76.433820
21
125.913012
0
LINE
8
Calque 1
10
76.433820
20
125.913012
11
74.092971
21
125.931195
0
LINE
8
Calque 1
10
74.092971
20
125.931195
11
70.884477
21
125.850959
0
LINE
8
Calque 1
10
70.884477
20
125.850959
11
69.922331
21
124.228181
0
LINE
8
Calque 1
10
69.922331
20
124.228181
11
68.960182
21
122.605403
0
LINE
8
Calque 1
10
68.960182
20
122.605403
11
66.287207
21
122.605403
0
LINE
8
Calque 1
10
66.287207
20
122.605403
11
64.427053
21
122.671075
0
LINE
8
Calque 1
10
64.427053
20
122.671075
11
63.708308
21
122.828966
0
LINE
8
Calque 1
10
63.708308
20
122.828966
11
65.213492
21
125.355086
0
LINE
8
Calque 1
10
65.213492
20
125.355086
11
66.624604
21
127.657644
0
LINE
8
Calque 1
10
66.624604
20
127.657644
11
74.494740
21
127.742079
0
LINE
8
Calque 1
10
74.494740
20
127.742079
11
80.130319
21
127.753702
0
LINE
8
Calque 1
10
80.130319
20
127.753702
11
81.803542
21
127.655113
0
LINE
8
Calque 1
10
81.803542
20
127.655113
11
82.838688
21
127.438939
0
LINE
8
Calque 1
10
82.838688
20
127.438939
11
83.329484
21
127.069192
0
LINE
8
Calque 1
10
83.329484
20
127.069192
11
83.369656
21
126.509883
0
LINE
8
Calque 1
10
83.369656
20
126.509883
11
83.052931
21
125.725025
0
LINE
8
Calque 1
10
83.052931
20
125.725025
11
82.473035
21
124.678628
0
LINE
8
Calque 1
10
82.473035
20
124.678628
11
80.596407
21
121.547070
0
LINE
8
Calque 1
10
80.596407
20
121.547070
11
79.663567
21
120.065403
0
LINE
8
Calque 1
10
79.663567
20
120.065403
11
76.812973
21
120.062234
0
LINE
8
Calque 1
10
76.812973
20
120.062234
11
73.962381
21
120.059065
0
LINE
8
Calque 1
10
73.962381
20
120.059065
11
75.937937
21
118.799575
0
LINE
8
Calque 1
10
75.937937
20
118.799575
11
77.285661
21
118.024122
0
LINE
8
Calque 1
10
77.285661
20
118.024122
11
78.336215
21
117.621722
0
LINE
8
Calque 1
10
78.336215
20
117.621722
11
79.150073
21
117.577899
0
LINE
8
Calque 1
10
79.150073
20
117.577899
11
79.787708
21
117.878181
0
LINE
8
Calque 1
10
79.787708
20
117.878181
11
81.998922
21
121.335403
0
LINE
8
Calque 1
10
81.998922
20
121.335403
11
84.092432
21
124.647194
0
LINE
8
Calque 1
10
84.092432
20
124.647194
11
85.107698
21
124.795853
0
LINE
8
Calque 1
10
85.107698
20
124.795853
11
87.260343
21
124.851506
0
LINE
8
Calque 1
10
87.260343
20
124.851506
11
93.135512
21
124.677595
0
LINE
8
Calque 1
10
93.135512
20
124.677595
11
95.493690
21
124.446150
0
LINE
8
Calque 1
10
95.493690
20
124.446150
11
96.077226
21
124.294715
0
LINE
8
Calque 1
10
96.077226
20
124.294715
11
96.315152
21
124.110297
0
LINE
8
Calque 1
10
96.315152
20
124.110297
11
96.068060
21
123.302682
0
LINE
8
Calque 1
10
96.068060
20
123.302682
11
95.268299
21
121.896995
0
LINE
8
Calque 1
10
95.268299
20
121.896995
11
94.074971
21
120.065403
0
LINE
8
Calque 1
10
94.074971
20
120.065403
11
90.176229
21
120.065403
0
LINE
8
Calque 1
10
90.176229
20
120.065403
11
86.277484
21
120.065403
0
LINE
8
Calque 1
10
86.277484
20
120.065403
11
85.693820
21
119.245726
0
LINE
8
Calque 1
10
85.693820
20
119.245726
11
85.108801
21
118.279716
0
LINE
8
Calque 1
10
85.108801
20
118.279716
11
85.095835
21
117.975145
0
LINE
8
Calque 1
10
85.095835
20
117.975145
11
85.319337
21
117.765823
0
LINE
8
Calque 1
10
85.319337
20
117.765823
11
86.626054
21
117.561800
0
LINE
8
Calque 1
10
86.626054
20
117.561800
11
89.329579
21
117.525403
0
LINE
8
Calque 1
10
89.329579
20
117.525403
11
93.548999
21
117.525403
0
LINE
8
Calque 1
10
93.548999
20
117.525403
11
95.721297
21
121.053181
0
LINE
8
Calque 1
10
95.721297
20
121.053181
11
97.893595
21
124.580959
0
LINE
8
Calque 1
10
97.893595
20
124.580959
11
102.913965
21
124.580959
0
LINE
8
Calque 1
10
102.913965
20
124.580959
11
107.934334
21
124.580959
0
LINE
8
Calque 1
10
107.934334
20
124.580959
11
108.728358
21
126.062626
0
LINE
8
Calque 1
10
108.728358
20
126.062626
11
109.522381
21
127.544292
0
LINE
8
Calque 1
10
109.522381
20
127.544292
11
111.850715
21
127.626261
0
LINE
8
Calque 1
10
111.850715
20
127.626261
11
113.495100
21
127.627568
0
LINE
8
Calque 1
10
113.495100
20
127.627568
11
114.179048
21
127.515602
0
LINE
8
Calque 1
10
114.179048
20
127.515602
11
108.598962
21
118.160403
0
LINE
8
Calque 1
10
108.598962
20
118.160403
11
108.338059
21
117.624399
0
LINE
8
Calque 1
10
108.338059
20
117.624399
11
108.741944
21
117.525403
0
LINE
8
Calque 1
10
108.741944
20
117.525403
11
109.119212
21
117.716151
0
LINE
8
Calque 1
10
109.119212
20
117.716151
11
109.678380
21
118.327048
0
LINE
8
Calque 1
10
109.678380
20
118.327048
11
111.526069
21
121.041209
0
LINE
8
Calque 1
10
111.526069
20
121.041209
11
113.755715
21
124.557015
0
LINE
8
Calque 1
10
113.755715
20
124.557015
11
118.326004
21
124.568987
0
LINE
8
Calque 1
10
118.326004
20
124.568987
11
122.896294
21
124.580959
0
LINE
8
Calque 1
10
122.896294
20
124.580959
11
123.824718
21
126.133181
0
LINE
8
Calque 1
10
123.824718
20
126.133181
11
124.753141
21
127.685403
0
LINE
8
Calque 1
10
124.753141
20
127.685403
11
127.109113
21
127.685403
0
LINE
8
Calque 1
10
127.109113
20
127.685403
11
129.465084
21
127.685403
0
LINE
8
Calque 1
10
129.465084
20
127.685403
11
128.908121
21
126.768181
0
LINE
8
Calque 1
10
128.908121
20
126.768181
11
125.802465
21
121.341905
0
LINE
8
Calque 1
10
125.802465
20
121.341905
11
123.843175
21
117.644978
0
LINE
8
Calque 1
10
123.843175
20
117.644978
11
126.523984
21
117.359440
0
LINE
8
Calque 1
10
126.523984
20
117.359440
11
128.770269
21
117.287801
0
LINE
8
Calque 1
10
128.770269
20
117.287801
11
129.371164
21
117.403790
0
LINE
8
Calque 1
10
129.371164
20
117.403790
11
129.840378
21
117.639249
0
LINE
8
Calque 1
10
129.840378
20
117.639249
11
130.367008
21
118.106519
0
LINE
8
Calque 1
10
130.367008
20
118.106519
11
130.391898
21
118.281946
0
LINE
8
Calque 1
10
130.391898
20
118.281946
11
130.253143
21
118.421144
0
LINE
8
Calque 1
10
130.253143
20
118.421144
11
129.470621
21
118.598582
0
LINE
8
Calque 1
10
129.470621
20
118.598582
11
127.991280
21
118.654292
0
LINE
8
Calque 1
10
127.991280
20
118.654292
11
126.408387
21
118.727052
0
LINE
8
Calque 1
10
126.408387
20
118.727052
11
125.983736
21
118.872896
0
LINE
8
Calque 1
10
125.983736
20
118.872896
11
125.792558
21
119.140508
0
LINE
8
Calque 1
10
125.792558
20
119.140508
11
125.826560
21
119.566484
0
LINE
8
Calque 1
10
125.826560
20
119.566484
11
126.077449
21
120.187420
0
LINE
8
Calque 1
10
126.077449
20
120.187420
11
127.196717
21
122.160551
0
LINE
8
Calque 1
10
127.196717
20
122.160551
11
128.643278
21
124.580959
0
LINE
8
Calque 1
10
128.643278
20
124.580959
11
131.006717
21
124.580959
0
LINE
8
Calque 1
10
131.006717
20
124.580959
11
133.370159
21
124.420101
0
LINE
8
Calque 1
10
133.370159
20
124.420101
11
132.077023
21
122.129015
0
LINE
8
Calque 1
10
132.077023
20
122.129015
11
131.179402
21
120.463547
0
LINE
8
Calque 1
10
131.179402
20
120.463547
11
131.023678
21
119.974619
0
LINE
8
Calque 1
10
131.023678
20
119.974619
11
131.064655
21
119.718019
0
LINE
8
Calque 1
10
131.064655
20
119.718019
11
131.389580
21
119.558311
0
LINE
8
Calque 1
10
131.389580
20
119.558311
11
131.798458
21
119.824293
0
LINE
8
Calque 1
10
131.798458
20
119.824293
11
133.389520
21
122.187125
0
LINE
8
Calque 1
10
133.389520
20
122.187125
11
134.857530
21
124.580959
0
LINE
8
Calque 1
10
134.857530
20
124.580959
11
137.665141
21
124.580959
0
LINE
8
Calque 1
10
137.665141
20
124.580959
11
139.620382
21
124.508201
0
LINE
8
Calque 1
10
139.620382
20
124.508201
11
140.378677
21
124.333272
0
LINE
8
Calque 1
10
140.378677
20
124.333272
11
137.324231
21
119.958828
0
LINE
8
Calque 1
10
137.324231
20
119.958828
11
134.363855
21
115.832070
0
LINE
8
Calque 1
10
134.363855
20
115.832070
11
106.675919
21
115.832070
0
LINE
8
Calque 1
10
106.675919
20
115.832070
11
76.475181
21
115.670738
0
LINE
8
Calque 1
10
76.475181
20
115.670738
11
73.962381
21
115.509403
0
LINE
8
Calque 1
10
73.962381
20
115.509403
11
70.999048
21
117.446878
0
LINE
8
Calque 1
10
70.999048
20
117.446878
11
70.999048
21
117.446878
0
LINE
8
Calque 1
10
105.042549
20
120.277070
11
106.683711
21
123.127515
0
LINE
8
Calque 1
10
106.683711
20
123.127515
11
104.442534
21
123.224267
0
LINE
8
Calque 1
10
104.442534
20
123.224267
11
102.215939
21
123.127515
0
LINE
8
Calque 1
10
102.215939
20
123.127515
11
100.262564
21
120.009152
0
LINE
8
Calque 1
10
100.262564
20
120.009152
11
99.111884
21
117.756292
0
LINE
8
Calque 1
10
99.111884
20
117.756292
11
99.808943
21
117.593227
0
LINE
8
Calque 1
10
99.808943
20
117.593227
11
101.284467
21
117.525403
0
LINE
8
Calque 1
10
101.284467
20
117.525403
11
103.314353
21
117.525403
0
LINE
8
Calque 1
10
103.314353
20
117.525403
11
105.042549
21
120.277070
0
LINE
8
Calque 1
10
105.042549
20
120.277070
11
105.042549
21
120.277070
0
LINE
8
Calque 1
10
120.280704
20
120.122999
11
122.020976
21
122.905454
0
LINE
8
Calque 1
10
122.020976
20
122.905454
11
121.699496
21
123.109691
0
LINE
8
Calque 1
10
121.699496
20
123.109691
11
120.783409
21
123.262427
0
LINE
8
Calque 1
10
120.783409
20
123.262427
11
118.598625
21
123.263613
0
LINE
8
Calque 1
10
118.598625
20
123.263613
11
118.008543
21
123.104562
0
LINE
8
Calque 1
10
118.008543
20
123.104562
11
117.502298
21
122.747845
0
LINE
8
Calque 1
10
117.502298
20
122.747845
11
116.120785
21
120.832602
0
LINE
8
Calque 1
10
116.120785
20
120.832602
11
114.921200
21
118.906865
0
LINE
8
Calque 1
10
114.921200
20
118.906865
11
114.560992
21
117.926570
0
LINE
8
Calque 1
10
114.560992
20
117.926570
11
114.707344
21
117.691205
0
LINE
8
Calque 1
10
114.707344
20
117.691205
11
115.077570
21
117.572491
0
LINE
8
Calque 1
10
115.077570
20
117.572491
11
116.508344
21
117.525403
0
LINE
8
Calque 1
10
116.508344
20
117.525403
11
118.621248
21
117.525403
0
LINE
8
Calque 1
10
118.621248
20
117.525403
11
120.280704
21
120.122999
0
LINE
8
Calque 1
10
120.280704
20
120.122999
11
120.280704
21
120.122999
0
LINE
8
Calque 1
10
90.838878
20
122.464292
11
91.309915
21
123.452070
0
LINE
8
Calque 1
10
91.309915
20
123.452070
11
89.673419
21
123.452070
0
LINE
8
Calque 1
10
89.673419
20
123.452070
11
88.736774
21
123.432894
0
LINE
8
Calque 1
10
88.736774
20
123.432894
11
88.194378
21
123.318620
0
LINE
8
Calque 1
10
88.194378
20
123.318620
11
87.864620
21
123.024126
0
LINE
8
Calque 1
10
87.864620
20
123.024126
11
87.565885
21
122.464292
0
LINE
8
Calque 1
10
87.565885
20
122.464292
11
87.094847
21
121.476515
0
LINE
8
Calque 1
10
87.094847
20
121.476515
11
88.731344
21
121.476515
0
LINE
8
Calque 1
10
88.731344
20
121.476515
11
89.667989
21
121.495690
0
LINE
8
Calque 1
10
89.667989
20
121.495690
11
90.210384
21
121.609965
0
LINE
8
Calque 1
10
90.210384
20
121.609965
11
90.540143
21
121.904458
0
LINE
8
Calque 1
10
90.540143
20
121.904458
11
90.838878
21
122.464292
0
LINE
8
Calque 1
10
90.838878
20
122.464292
11
90.838878
21
122.464292
 0 
ENDSEC
 0 
EOF
