999
"DXF R12 Output" (www.mydxf.blogspot.com)
 0 
SECTION
 2 
HEADER
 9 
$ACADVER
 1 
AC1009
 9 
$EXTMIN
 10 
 0 
 20 
 0 
 9 
$EXTMAX
 10 
 8.5 
 20 
 11 
 0 
ENDSEC
 0 
SECTION
 2 
ENTITIES
0
LINE
8
Calque 1
10
135.819444
20
122.583712
11
135.129639
21
122.872352
0
LINE
8
Calque 1
10
135.129639
20
122.872352
11
134.773151
21
123.166835
0
LINE
8
Calque 1
10
134.773151
20
123.166835
11
134.639949
21
123.639551
0
LINE
8
Calque 1
10
134.639949
20
123.639551
11
134.620000
21
124.462888
0
LINE
8
Calque 1
10
134.620000
20
124.462888
11
134.620000
21
125.881191
0
LINE
8
Calque 1
10
134.620000
20
125.881191
11
133.895445
21
124.814910
0
LINE
8
Calque 1
10
133.895445
20
124.814910
11
133.399297
21
124.162128
0
LINE
8
Calque 1
10
133.399297
20
124.162128
11
132.910279
21
123.920442
0
LINE
8
Calque 1
10
132.910279
20
123.920442
11
132.164421
21
124.070202
0
LINE
8
Calque 1
10
132.164421
20
124.070202
11
130.897754
21
124.591757
0
LINE
8
Calque 1
10
130.897754
20
124.591757
11
129.854271
21
125.044608
0
LINE
8
Calque 1
10
129.854271
20
125.044608
11
131.801799
21
128.149052
0
LINE
8
Calque 1
10
131.801799
20
128.149052
11
134.138306
21
131.505033
0
LINE
8
Calque 1
10
134.138306
20
131.505033
11
135.220772
21
131.373368
0
LINE
8
Calque 1
10
135.220772
20
131.373368
11
137.187259
21
130.727748
0
LINE
8
Calque 1
10
137.187259
20
130.727748
11
139.189401
21
129.886102
0
LINE
8
Calque 1
10
139.189401
20
129.886102
11
140.378835
21
129.166359
0
LINE
8
Calque 1
10
140.378835
20
129.166359
11
140.696685
21
128.519367
0
LINE
8
Calque 1
10
140.696685
20
128.519367
11
140.828889
21
127.662177
0
LINE
8
Calque 1
10
140.828889
20
127.662177
11
140.627050
21
126.681801
0
LINE
8
Calque 1
10
140.627050
20
126.681801
11
139.831290
21
125.779399
0
LINE
8
Calque 1
10
139.831290
20
125.779399
11
138.587774
21
124.903497
0
LINE
8
Calque 1
10
138.587774
20
124.903497
11
138.357083
21
124.488983
0
LINE
8
Calque 1
10
138.357083
20
124.488983
11
138.147778
21
123.492386
0
LINE
8
Calque 1
10
138.147778
20
123.492386
11
137.965092
21
122.573894
0
LINE
8
Calque 1
10
137.965092
20
122.573894
11
137.630760
21
122.161016
0
LINE
8
Calque 1
10
137.630760
20
122.161016
11
136.972853
21
122.186655
0
LINE
8
Calque 1
10
136.972853
20
122.186655
11
135.819444
21
122.583712
0
LINE
8
Calque 1
10
135.819444
20
122.583712
11
135.819444
21
122.583712
0
LINE
8
Calque 1
10
136.854760
20
127.829585
11
137.412591
21
129.011572
0
LINE
8
Calque 1
10
137.412591
20
129.011572
11
137.389663
21
129.315918
0
LINE
8
Calque 1
10
137.389663
20
129.315918
11
137.163539
21
129.419052
0
LINE
8
Calque 1
10
137.163539
20
129.419052
11
136.220811
21
128.355402
0
LINE
8
Calque 1
10
136.220811
20
128.355402
11
135.466667
21
127.025771
0
LINE
8
Calque 1
10
135.466667
20
127.025771
11
135.866982
21
126.879052
0
LINE
8
Calque 1
10
135.866982
20
126.879052
11
136.322271
21
127.158272
0
LINE
8
Calque 1
10
136.322271
20
127.158272
11
136.854760
21
127.829585
0
LINE
8
Calque 1
10
136.854760
20
127.829585
11
136.854760
21
127.829585
0
LINE
8
Calque 1
10
52.133384
20
123.140124
11
51.481803
21
124.218437
0
LINE
8
Calque 1
10
51.481803
20
124.218437
11
51.137571
21
125.570507
0
LINE
8
Calque 1
10
51.137571
20
125.570507
11
51.123778
21
127.015903
0
LINE
8
Calque 1
10
51.123778
20
127.015903
11
51.463516
21
128.374192
0
LINE
8
Calque 1
10
51.463516
20
128.374192
11
52.028204
21
129.278056
0
LINE
8
Calque 1
10
52.028204
20
129.278056
11
52.850421
21
130.169696
0
LINE
8
Calque 1
10
52.850421
20
130.169696
11
54.253511
21
131.106072
0
LINE
8
Calque 1
10
54.253511
20
131.106072
11
55.650238
21
131.592432
0
LINE
8
Calque 1
10
55.650238
20
131.592432
11
56.721951
21
131.569016
0
LINE
8
Calque 1
10
56.721951
20
131.569016
11
57.036349
21
131.347466
0
LINE
8
Calque 1
10
57.036349
20
131.347466
11
57.150000
21
130.976061
0
LINE
8
Calque 1
10
57.150000
20
130.976061
11
57.097751
21
130.698432
0
LINE
8
Calque 1
10
57.097751
20
130.698432
11
56.920025
21
130.497350
0
LINE
8
Calque 1
10
56.920025
20
130.497350
11
56.062270
21
130.239599
0
LINE
8
Calque 1
10
56.062270
20
130.239599
11
55.223858
21
130.001138
0
LINE
8
Calque 1
10
55.223858
20
130.001138
11
54.735549
21
129.676095
0
LINE
8
Calque 1
10
54.735549
20
129.676095
11
54.634548
21
128.822842
0
LINE
8
Calque 1
10
54.634548
20
128.822842
11
54.643220
21
127.225799
0
LINE
8
Calque 1
10
54.643220
20
127.225799
11
54.905269
21
124.414366
0
LINE
8
Calque 1
10
54.905269
20
124.414366
11
55.108117
21
124.217500
0
LINE
8
Calque 1
10
55.108117
20
124.217500
11
55.445985
21
124.232894
0
LINE
8
Calque 1
10
55.445985
20
124.232894
11
55.649431
21
124.396202
0
LINE
8
Calque 1
10
55.649431
20
124.396202
11
55.783553
21
124.726116
0
LINE
8
Calque 1
10
55.783553
20
124.726116
11
55.880000
21
126.036052
0
LINE
8
Calque 1
10
55.880000
20
126.036052
11
55.880000
21
127.672661
0
LINE
8
Calque 1
10
55.880000
20
127.672661
11
57.200275
21
128.122523
0
LINE
8
Calque 1
10
57.200275
20
128.122523
11
58.418009
21
128.501859
0
LINE
8
Calque 1
10
58.418009
20
128.501859
11
59.030978
21
128.451685
0
LINE
8
Calque 1
10
59.030978
20
128.451685
11
59.230521
21
127.808789
0
LINE
8
Calque 1
10
59.230521
20
127.808789
11
59.207981
21
126.409957
0
LINE
8
Calque 1
10
59.207981
20
126.409957
11
59.125556
21
124.247528
0
LINE
8
Calque 1
10
59.125556
20
124.247528
11
56.739432
21
123.446623
0
LINE
8
Calque 1
10
56.739432
20
123.446623
11
54.948471
21
122.911194
0
LINE
8
Calque 1
10
54.948471
20
122.911194
11
53.642086
21
122.685513
0
LINE
8
Calque 1
10
53.642086
20
122.685513
11
52.732863
21
122.763761
0
LINE
8
Calque 1
10
52.732863
20
122.763761
11
52.133384
21
123.140124
0
LINE
8
Calque 1
10
52.133384
20
123.140124
11
52.133384
21
123.140124
0
LINE
8
Calque 1
10
125.236111
20
125.814058
11
124.139704
21
126.162478
0
LINE
8
Calque 1
10
124.139704
20
126.162478
11
123.945219
21
126.403180
0
LINE
8
Calque 1
10
123.945219
20
126.403180
11
123.895556
21
126.751863
0
LINE
8
Calque 1
10
123.895556
20
126.751863
11
123.848212
21
127.095395
0
LINE
8
Calque 1
10
123.848212
20
127.095395
11
123.669352
21
127.333830
0
LINE
8
Calque 1
10
123.669352
20
127.333830
11
122.696111
21
127.663322
0
LINE
8
Calque 1
10
122.696111
20
127.663322
11
121.615536
21
127.772043
0
LINE
8
Calque 1
10
121.615536
20
127.772043
11
120.924630
21
127.407666
0
LINE
8
Calque 1
10
120.924630
20
127.407666
11
120.388678
21
127.136695
0
LINE
8
Calque 1
10
120.388678
20
127.136695
11
119.763217
21
127.058092
0
LINE
8
Calque 1
10
119.763217
20
127.058092
11
119.276503
21
127.165870
0
LINE
8
Calque 1
10
119.276503
20
127.165870
11
119.156793
21
127.454040
0
LINE
8
Calque 1
10
119.156793
20
127.454040
11
120.156458
21
128.698189
0
LINE
8
Calque 1
10
120.156458
20
128.698189
11
122.172230
21
130.861749
0
LINE
8
Calque 1
10
122.172230
20
130.861749
11
124.226072
21
132.928148
0
LINE
8
Calque 1
10
124.226072
20
132.928148
11
125.339946
21
133.880816
0
LINE
8
Calque 1
10
125.339946
20
133.880816
11
127.007374
21
133.650401
0
LINE
8
Calque 1
10
127.007374
20
133.650401
11
128.187354
21
133.332664
0
LINE
8
Calque 1
10
128.187354
20
133.332664
11
128.028356
21
132.151968
0
LINE
8
Calque 1
10
128.028356
20
132.151968
11
127.540944
21
128.219608
0
LINE
8
Calque 1
10
127.540944
20
128.219608
11
127.215338
21
126.214332
0
LINE
8
Calque 1
10
127.215338
20
126.214332
11
126.894598
21
125.501305
0
LINE
8
Calque 1
10
126.894598
20
125.501305
11
125.236111
21
125.814058
0
LINE
8
Calque 1
10
125.236111
20
125.814058
11
125.236111
21
125.814058
0
LINE
8
Calque 1
10
124.176375
20
129.912941
11
124.174975
21
130.971274
0
LINE
8
Calque 1
10
124.174975
20
130.971274
11
123.495108
21
130.124608
0
LINE
8
Calque 1
10
123.495108
20
130.124608
11
123.007045
21
129.387211
0
LINE
8
Calque 1
10
123.007045
20
129.387211
11
123.056766
21
129.214500
0
LINE
8
Calque 1
10
123.056766
20
129.214500
11
123.284841
21
129.086112
0
LINE
8
Calque 1
10
123.284841
20
129.086112
11
123.767218
21
128.922745
0
LINE
8
Calque 1
10
123.767218
20
128.922745
11
124.035922
21
128.968370
0
LINE
8
Calque 1
10
124.035922
20
128.968370
11
124.151970
21
129.279573
0
LINE
8
Calque 1
10
124.151970
20
129.279573
11
124.176375
21
129.912941
0
LINE
8
Calque 1
10
124.176375
20
129.912941
11
124.176375
21
129.912941
0
LINE
8
Calque 1
10
62.177707
20
126.432368
11
61.348677
21
126.997012
0
LINE
8
Calque 1
10
61.348677
20
126.997012
11
60.781376
21
127.820147
0
LINE
8
Calque 1
10
60.781376
20
127.820147
11
60.482608
21
128.886919
0
LINE
8
Calque 1
10
60.482608
20
128.886919
11
60.459183
21
130.182475
0
LINE
8
Calque 1
10
60.459183
20
130.182475
11
60.656205
21
131.328194
0
LINE
8
Calque 1
10
60.656205
20
131.328194
11
61.061741
21
132.282701
0
LINE
8
Calque 1
10
61.061741
20
132.282701
11
61.711269
21
133.105772
0
LINE
8
Calque 1
10
61.711269
20
133.105772
11
62.640266
21
133.857180
0
LINE
8
Calque 1
10
62.640266
20
133.857180
11
63.831890
21
134.480732
0
LINE
8
Calque 1
10
63.831890
20
134.480732
11
64.982149
21
134.740898
0
LINE
8
Calque 1
10
64.982149
20
134.740898
11
66.045044
21
134.666168
0
LINE
8
Calque 1
10
66.045044
20
134.666168
11
66.974570
21
134.285030
0
LINE
8
Calque 1
10
66.974570
20
134.285030
11
67.724728
21
133.625972
0
LINE
8
Calque 1
10
67.724728
20
133.625972
11
68.249514
21
132.717482
0
LINE
8
Calque 1
10
68.249514
20
132.717482
11
68.502926
21
131.588048
0
LINE
8
Calque 1
10
68.502926
20
131.588048
11
68.438962
21
130.266159
0
LINE
8
Calque 1
10
68.438962
20
130.266159
11
68.128695
21
129.201982
0
LINE
8
Calque 1
10
68.128695
20
129.201982
11
67.601689
21
128.254865
0
LINE
8
Calque 1
10
67.601689
20
128.254865
11
66.898829
21
127.449845
0
LINE
8
Calque 1
10
66.898829
20
127.449845
11
66.061001
21
126.811954
0
LINE
8
Calque 1
10
66.061001
20
126.811954
11
65.129090
21
126.366227
0
LINE
8
Calque 1
10
65.129090
20
126.366227
11
64.143981
21
126.137697
0
LINE
8
Calque 1
10
64.143981
20
126.137697
11
63.146558
21
126.151399
0
LINE
8
Calque 1
10
63.146558
20
126.151399
11
62.177707
21
126.432368
0
LINE
8
Calque 1
10
62.177707
20
126.432368
11
62.177707
21
126.432368
0
LINE
8
Calque 1
10
65.029046
20
127.908198
11
65.097461
21
129.001678
0
LINE
8
Calque 1
10
65.097461
20
129.001678
11
65.015711
21
130.852557
0
LINE
8
Calque 1
10
65.015711
20
130.852557
11
64.844577
21
132.596747
0
LINE
8
Calque 1
10
64.844577
20
132.596747
11
64.644840
21
133.370163
0
LINE
8
Calque 1
10
64.644840
20
133.370163
11
64.144190
21
133.095595
0
LINE
8
Calque 1
10
64.144190
20
133.095595
11
63.864678
21
132.267565
0
LINE
8
Calque 1
10
63.864678
20
132.267565
11
63.805311
21
130.879584
0
LINE
8
Calque 1
10
63.805311
20
130.879584
11
63.965097
21
128.925163
0
LINE
8
Calque 1
10
63.965097
20
128.925163
11
64.154546
21
128.009206
0
LINE
8
Calque 1
10
64.154546
20
128.009206
11
64.426002
21
127.504779
0
LINE
8
Calque 1
10
64.426002
20
127.504779
11
64.732993
21
127.456304
0
LINE
8
Calque 1
10
64.732993
20
127.456304
11
65.029046
21
127.908198
0
LINE
8
Calque 1
10
65.029046
20
127.908198
11
65.029046
21
127.908198
0
LINE
8
Calque 1
10
90.212285
20
128.200840
11
90.443312
21
128.544831
0
LINE
8
Calque 1
10
90.443312
20
128.544831
11
91.235674
21
129.134953
0
LINE
8
Calque 1
10
91.235674
20
129.134953
11
94.735252
21
132.037496
0
LINE
8
Calque 1
10
94.735252
20
132.037496
11
97.652202
21
134.500825
0
LINE
8
Calque 1
10
97.652202
20
134.500825
11
98.183474
21
134.693896
0
LINE
8
Calque 1
10
98.183474
20
134.693896
11
98.435456
21
134.620058
0
LINE
8
Calque 1
10
98.435456
20
134.620058
11
98.367144
21
134.354976
0
LINE
8
Calque 1
10
98.367144
20
134.354976
11
97.937532
21
133.974314
0
LINE
8
Calque 1
10
97.937532
20
133.974314
11
94.833087
21
131.308380
0
LINE
8
Calque 1
10
94.833087
20
131.308380
11
91.771821
21
128.822004
0
LINE
8
Calque 1
10
91.771821
20
128.822004
11
90.748595
21
128.240783
0
LINE
8
Calque 1
10
90.748595
20
128.240783
11
90.212285
21
128.200840
0
LINE
8
Calque 1
10
90.212285
20
128.200840
11
90.212285
21
128.200840
0
LINE
8
Calque 1
10
113.171111
20
128.606930
11
110.147952
21
129.266774
0
LINE
8
Calque 1
10
110.147952
20
129.266774
11
110.098672
21
129.540947
0
LINE
8
Calque 1
10
110.098672
20
129.540947
11
110.298625
21
130.240939
0
LINE
8
Calque 1
10
110.298625
20
130.240939
11
111.457396
21
132.949779
0
LINE
8
Calque 1
10
111.457396
20
132.949779
11
113.253983
21
136.651555
0
LINE
8
Calque 1
10
113.253983
20
136.651555
11
114.338547
21
136.566392
0
LINE
8
Calque 1
10
114.338547
20
136.566392
11
116.532127
21
136.168784
0
LINE
8
Calque 1
10
116.532127
20
136.168784
11
118.688694
21
135.689694
0
LINE
8
Calque 1
10
118.688694
20
135.689694
11
119.662222
21
135.360084
0
LINE
8
Calque 1
10
119.662222
20
135.360084
11
119.288743
21
134.660616
0
LINE
8
Calque 1
10
119.288743
20
134.660616
11
119.047994
21
134.402488
0
LINE
8
Calque 1
10
119.047994
20
134.402488
11
118.748373
21
134.287571
0
LINE
8
Calque 1
10
118.748373
20
134.287571
11
117.576916
21
134.435295
0
LINE
8
Calque 1
10
117.576916
20
134.435295
11
116.385756
21
134.581272
0
LINE
8
Calque 1
10
116.385756
20
134.581272
11
116.146186
21
134.399200
0
LINE
8
Calque 1
10
116.146186
20
134.399200
11
115.963903
21
133.998311
0
LINE
8
Calque 1
10
115.963903
20
133.998311
11
115.856076
21
133.484405
0
LINE
8
Calque 1
10
115.856076
20
133.484405
11
115.977384
21
133.114448
0
LINE
8
Calque 1
10
115.977384
20
133.114448
11
116.327101
21
132.889355
0
LINE
8
Calque 1
10
116.327101
20
132.889355
11
116.904505
21
132.810040
0
LINE
8
Calque 1
10
116.904505
20
132.810040
11
117.247561
21
132.680271
0
LINE
8
Calque 1
10
117.247561
20
132.680271
11
117.070872
21
132.100163
0
LINE
8
Calque 1
10
117.070872
20
132.100163
11
116.604845
21
131.533952
0
LINE
8
Calque 1
10
116.604845
20
131.533952
11
115.696004
21
131.394608
0
LINE
8
Calque 1
10
115.696004
20
131.394608
11
114.863779
21
131.282678
0
LINE
8
Calque 1
10
114.863779
20
131.282678
11
114.471306
21
130.948191
0
LINE
8
Calque 1
10
114.471306
20
130.948191
11
114.330330
21
130.465156
0
LINE
8
Calque 1
10
114.330330
20
130.465156
11
114.397002
21
130.159334
0
LINE
8
Calque 1
10
114.397002
20
130.159334
11
114.722582
21
129.965420
0
LINE
8
Calque 1
10
114.722582
20
129.965420
11
115.358333
21
129.818106
0
LINE
8
Calque 1
10
115.358333
20
129.818106
11
116.617691
21
129.513018
0
LINE
8
Calque 1
10
116.617691
20
129.513018
11
116.656014
21
129.221539
0
LINE
8
Calque 1
10
116.656014
20
129.221539
11
116.499988
21
128.709541
0
LINE
8
Calque 1
10
116.499988
20
128.709541
11
116.253037
21
128.231196
0
LINE
8
Calque 1
10
116.253037
20
128.231196
11
116.018587
21
128.040679
0
LINE
8
Calque 1
10
116.018587
20
128.040679
11
113.171111
21
128.606930
0
LINE
8
Calque 1
10
113.171111
20
128.606930
11
113.171111
21
128.606930
0
LINE
8
Calque 1
10
71.771454
20
128.841950
11
70.953064
21
129.464118
0
LINE
8
Calque 1
10
70.953064
20
129.464118
11
70.365665
21
130.452666
0
LINE
8
Calque 1
10
70.365665
20
130.452666
11
70.067067
21
131.664048
0
LINE
8
Calque 1
10
70.067067
20
131.664048
11
70.115083
21
132.954718
0
LINE
8
Calque 1
10
70.115083
20
132.954718
11
70.489808
21
133.927507
0
LINE
8
Calque 1
10
70.489808
20
133.927507
11
71.185342
21
134.925704
0
LINE
8
Calque 1
10
71.185342
20
134.925704
11
72.069858
21
135.793612
0
LINE
8
Calque 1
10
72.069858
20
135.793612
11
73.011527
21
136.375536
0
LINE
8
Calque 1
10
73.011527
20
136.375536
11
74.107141
21
136.705953
0
LINE
8
Calque 1
10
74.107141
20
136.705953
11
75.124345
21
136.769213
0
LINE
8
Calque 1
10
75.124345
20
136.769213
11
76.036723
21
136.584766
0
LINE
8
Calque 1
10
76.036723
20
136.584766
11
76.817859
21
136.172063
0
LINE
8
Calque 1
10
76.817859
20
136.172063
11
77.441336
21
135.550554
0
LINE
8
Calque 1
10
77.441336
20
135.550554
11
77.880739
21
134.739689
0
LINE
8
Calque 1
10
77.880739
20
134.739689
11
78.109651
21
133.758918
0
LINE
8
Calque 1
10
78.109651
20
133.758918
11
78.101656
21
132.627690
0
LINE
8
Calque 1
10
78.101656
20
132.627690
11
77.663323
21
131.058540
0
LINE
8
Calque 1
10
77.663323
20
131.058540
11
76.775836
21
129.839854
0
LINE
8
Calque 1
10
76.775836
20
129.839854
11
75.496688
21
129.025577
0
LINE
8
Calque 1
10
75.496688
20
129.025577
11
73.883370
21
128.669653
0
LINE
8
Calque 1
10
73.883370
20
128.669653
11
72.646979
21
128.682225
0
LINE
8
Calque 1
10
72.646979
20
128.682225
11
71.771454
21
128.841950
0
LINE
8
Calque 1
10
71.771454
20
128.841950
11
71.771454
21
128.841950
0
LINE
8
Calque 1
10
74.617583
20
130.429913
11
74.784823
21
133.058657
0
LINE
8
Calque 1
10
74.784823
20
133.058657
11
74.744174
21
134.628496
0
LINE
8
Calque 1
10
74.744174
20
134.628496
11
74.620185
21
135.420347
0
LINE
8
Calque 1
10
74.620185
20
135.420347
11
74.055740
21
135.437190
0
LINE
8
Calque 1
10
74.055740
20
135.437190
11
73.867497
21
135.139682
0
LINE
8
Calque 1
10
73.867497
20
135.139682
11
73.732830
21
134.492229
0
LINE
8
Calque 1
10
73.732830
20
134.492229
11
73.624454
21
132.627836
0
LINE
8
Calque 1
10
73.624454
20
132.627836
11
73.731071
21
130.804696
0
LINE
8
Calque 1
10
73.731071
20
130.804696
11
73.865145
21
130.208811
0
LINE
8
Calque 1
10
73.865145
20
130.208811
11
74.053138
21
129.983497
0
LINE
8
Calque 1
10
74.053138
20
129.983497
11
74.381114
21
130.114631
0
LINE
8
Calque 1
10
74.381114
20
130.114631
11
74.617583
21
130.429913
0
LINE
8
Calque 1
10
74.617583
20
130.429913
11
74.617583
21
130.429913
0
LINE
8
Calque 1
10
89.746667
20
129.155660
11
90.426548
21
130.355104
0
LINE
8
Calque 1
10
90.426548
20
130.355104
11
91.139411
21
131.590639
0
LINE
8
Calque 1
10
91.139411
20
131.590639
11
91.898586
21
133.299608
0
LINE
8
Calque 1
10
91.898586
20
133.299608
11
92.521652
21
134.744674
0
LINE
8
Calque 1
10
92.521652
20
134.744674
11
92.907282
21
135.345719
0
LINE
8
Calque 1
10
92.907282
20
135.345719
11
93.856265
21
133.900321
0
LINE
8
Calque 1
10
93.856265
20
133.900321
11
94.588703
21
132.454919
0
LINE
8
Calque 1
10
94.588703
20
132.454919
11
93.649351
21
131.466391
0
LINE
8
Calque 1
10
93.649351
20
131.466391
11
92.264643
21
130.170969
0
LINE
8
Calque 1
10
92.264643
20
130.170969
11
91.009197
21
129.269117
0
LINE
8
Calque 1
10
91.009197
20
129.269117
11
90.098157
21
128.888220
0
LINE
8
Calque 1
10
90.098157
20
128.888220
11
89.839021
21
128.932936
0
LINE
8
Calque 1
10
89.839021
20
128.932936
11
89.746667
21
129.155660
0
LINE
8
Calque 1
10
89.746667
20
129.155660
11
89.746667
21
129.155660
0
LINE
8
Calque 1
10
80.328493
20
131.009668
11
80.828628
21
135.204608
0
LINE
8
Calque 1
10
80.828628
20
135.204608
11
81.138889
21
137.744608
0
LINE
8
Calque 1
10
81.138889
20
137.744608
11
84.043983
21
138.138486
0
LINE
8
Calque 1
10
84.043983
20
138.138486
11
86.547945
21
138.389756
0
LINE
8
Calque 1
10
86.547945
20
138.389756
11
87.189821
21
138.330431
0
LINE
8
Calque 1
10
87.189821
20
138.330431
11
87.666393
21
138.148465
0
LINE
8
Calque 1
10
87.666393
20
138.148465
11
88.375876
21
137.591635
0
LINE
8
Calque 1
10
88.375876
20
137.591635
11
88.858170
21
136.808497
0
LINE
8
Calque 1
10
88.858170
20
136.808497
11
89.108246
21
135.811276
0
LINE
8
Calque 1
10
89.108246
20
135.811276
11
89.121076
21
134.612192
0
LINE
8
Calque 1
10
89.121076
20
134.612192
11
88.956659
21
133.585999
0
LINE
8
Calque 1
10
88.956659
20
133.585999
11
88.642056
21
132.688887
0
LINE
8
Calque 1
10
88.642056
20
132.688887
11
88.173625
21
131.917827
0
LINE
8
Calque 1
10
88.173625
20
131.917827
11
87.547727
21
131.269789
0
LINE
8
Calque 1
10
87.547727
20
131.269789
11
86.760722
21
130.741742
0
LINE
8
Calque 1
10
86.760722
20
130.741742
11
85.808970
21
130.330658
0
LINE
8
Calque 1
10
85.808970
20
130.330658
11
83.396667
21
129.847257
0
LINE
8
Calque 1
10
83.396667
20
129.847257
11
80.779866
21
129.506606
0
LINE
8
Calque 1
10
80.779866
20
129.506606
11
80.418906
21
129.451442
0
LINE
8
Calque 1
10
80.418906
20
129.451442
11
80.249633
21
129.596064
0
LINE
8
Calque 1
10
80.249633
20
129.596064
11
80.328493
21
131.009668
0
LINE
8
Calque 1
10
80.328493
20
131.009668
11
80.328493
21
131.009668
0
LINE
8
Calque 1
10
85.078288
20
131.888497
11
85.319074
21
133.115986
0
LINE
8
Calque 1
10
85.319074
20
133.115986
11
85.447249
21
134.839521
0
LINE
8
Calque 1
10
85.447249
20
134.839521
11
85.437883
21
136.375183
0
LINE
8
Calque 1
10
85.437883
20
136.375183
11
85.266045
21
137.039052
0
LINE
8
Calque 1
10
85.266045
20
137.039052
11
84.930230
21
136.839305
0
LINE
8
Calque 1
10
84.930230
20
136.839305
11
84.653969
21
136.217383
0
LINE
8
Calque 1
10
84.653969
20
136.217383
11
84.239845
21
133.570942
0
LINE
8
Calque 1
10
84.239845
20
133.570942
11
84.150874
21
131.791611
0
LINE
8
Calque 1
10
84.150874
20
131.791611
11
84.250865
21
131.475474
0
LINE
8
Calque 1
10
84.250865
20
131.475474
11
84.462202
21
131.394608
0
LINE
8
Calque 1
10
84.462202
20
131.394608
11
84.819026
21
131.539688
0
LINE
8
Calque 1
10
84.819026
20
131.539688
11
85.078288
21
131.888497
0
LINE
8
Calque 1
10
85.078288
20
131.888497
11
85.078288
21
131.888497
0
LINE
8
Calque 1
10
101.882222
20
130.010615
11
102.318456
21
131.820554
0
LINE
8
Calque 1
10
102.318456
20
131.820554
11
102.544644
21
132.701603
0
LINE
8
Calque 1
10
102.544644
20
132.701603
11
102.604948
21
133.427010
0
LINE
8
Calque 1
10
102.604948
20
133.427010
11
102.188783
21
135.530205
0
LINE
8
Calque 1
10
102.188783
20
135.530205
11
101.851265
21
137.152506
0
LINE
8
Calque 1
10
101.851265
20
137.152506
11
101.834462
21
137.950847
0
LINE
8
Calque 1
10
101.834462
20
137.950847
11
102.475323
21
138.038892
0
LINE
8
Calque 1
10
102.475323
20
138.038892
11
103.718998
21
137.953458
0
LINE
8
Calque 1
10
103.718998
20
137.953458
11
104.672157
21
137.814867
0
LINE
8
Calque 1
10
104.672157
20
137.814867
11
105.204767
21
137.632556
0
LINE
8
Calque 1
10
105.204767
20
137.632556
11
105.485542
21
137.299660
0
LINE
8
Calque 1
10
105.485542
20
137.299660
11
105.683197
21
136.709312
0
LINE
8
Calque 1
10
105.683197
20
136.709312
11
106.157045
21
135.491958
0
LINE
8
Calque 1
10
106.157045
20
135.491958
11
106.600306
21
135.739300
0
LINE
8
Calque 1
10
106.600306
20
135.739300
11
107.409604
21
136.589794
0
LINE
8
Calque 1
10
107.409604
20
136.589794
11
108.415626
21
137.602082
0
LINE
8
Calque 1
10
108.415626
20
137.602082
11
108.792288
21
137.736906
0
LINE
8
Calque 1
10
108.792288
20
137.736906
11
109.202559
21
137.696952
0
LINE
8
Calque 1
10
109.202559
20
137.696952
11
110.028104
21
137.437728
0
LINE
8
Calque 1
10
110.028104
20
137.437728
11
108.400246
21
135.259407
0
LINE
8
Calque 1
10
108.400246
20
135.259407
11
106.949423
21
133.255068
0
LINE
8
Calque 1
10
106.949423
20
133.255068
11
106.084565
21
131.434362
0
LINE
8
Calque 1
10
106.084565
20
131.434362
11
105.499292
21
129.701274
0
LINE
8
Calque 1
10
105.499292
20
129.701274
11
103.690759
21
129.701274
0
LINE
8
Calque 1
10
103.690759
20
129.701274
11
102.365274
21
129.783898
0
LINE
8
Calque 1
10
102.365274
20
129.783898
11
101.882222
21
130.010615
0
LINE
8
Calque 1
10
101.882222
20
130.010615
11
101.882222
21
130.010615
0
LINE
8
Calque 1
10
94.036238
20
134.083268
11
93.415556
21
135.591049
0
LINE
8
Calque 1
10
93.415556
20
135.591049
11
93.700264
21
135.906976
0
LINE
8
Calque 1
10
93.700264
20
135.906976
11
94.384774
21
136.343239
0
LINE
8
Calque 1
10
94.384774
20
136.343239
11
95.301641
21
136.714856
0
LINE
8
Calque 1
10
95.301641
20
136.714856
11
95.571179
21
136.570079
0
LINE
8
Calque 1
10
95.571179
20
136.570079
11
95.904651
21
136.185166
0
LINE
8
Calque 1
10
95.904651
20
136.185166
11
96.443893
21
135.687443
0
LINE
8
Calque 1
10
96.443893
20
135.687443
11
96.938298
21
135.905984
0
LINE
8
Calque 1
10
96.938298
20
135.905984
11
97.391537
21
136.144579
0
LINE
8
Calque 1
10
97.391537
20
136.144579
11
97.729709
21
135.755720
0
LINE
8
Calque 1
10
97.729709
20
135.755720
11
97.932034
21
135.063497
0
LINE
8
Calque 1
10
97.932034
20
135.063497
11
94.763483
21
132.805719
0
LINE
8
Calque 1
10
94.763483
20
132.805719
11
94.036238
21
134.083268
0
LINE
8
Calque 1
10
94.036238
20
134.083268
11
94.036238
21
134.083268
0
LINE
8
Calque 1
10
93.133333
20
136.756830
11
93.317368
21
137.206139
0
LINE
8
Calque 1
10
93.317368
20
137.206139
11
94.050556
21
137.311885
0
LINE
8
Calque 1
10
94.050556
20
137.311885
11
94.967778
21
137.302495
0
LINE
8
Calque 1
10
94.967778
20
137.302495
11
94.301513
21
136.747440
0
LINE
8
Calque 1
10
94.301513
20
136.747440
11
93.400158
21
136.220968
0
LINE
8
Calque 1
10
93.400158
20
136.220968
11
93.196887
21
136.356031
0
LINE
8
Calque 1
10
93.196887
20
136.356031
11
93.133333
21
136.756830
0
LINE
8
Calque 1
10
93.133333
20
136.756830
11
93.133333
21
136.756830
0
LINE
8
Calque 1
10
96.117342
20
136.827386
11
95.744463
21
138.842717
0
LINE
8
Calque 1
10
95.744463
20
138.842717
11
95.632236
21
140.174033
0
LINE
8
Calque 1
10
95.632236
20
140.174033
11
95.784613
21
141.037319
0
LINE
8
Calque 1
10
95.784613
20
141.037319
11
96.205545
21
141.648560
0
LINE
8
Calque 1
10
96.205545
20
141.648560
11
96.664273
21
141.986764
0
LINE
8
Calque 1
10
96.664273
20
141.986764
11
97.454674
21
142.188326
0
LINE
8
Calque 1
10
97.454674
20
142.188326
11
101.607617
21
142.401274
0
LINE
8
Calque 1
10
101.607617
20
142.401274
11
104.603316
21
142.453469
0
LINE
8
Calque 1
10
104.603316
20
142.453469
11
106.097472
21
142.335118
0
LINE
8
Calque 1
10
106.097472
20
142.335118
11
106.365300
21
142.189026
0
LINE
8
Calque 1
10
106.365300
20
142.189026
11
106.358337
21
141.972744
0
LINE
8
Calque 1
10
106.358337
20
141.972744
11
105.654162
21
141.292869
0
LINE
8
Calque 1
10
105.654162
20
141.292869
11
104.738567
21
140.841003
0
LINE
8
Calque 1
10
104.738567
20
140.841003
11
103.410924
21
140.707941
0
LINE
8
Calque 1
10
103.410924
20
140.707941
11
102.057353
21
140.568371
0
LINE
8
Calque 1
10
102.057353
20
140.568371
11
101.149997
21
140.002386
0
LINE
8
Calque 1
10
101.149997
20
140.002386
11
100.426160
21
139.504087
0
LINE
8
Calque 1
10
100.426160
20
139.504087
11
99.754941
21
139.296830
0
LINE
8
Calque 1
10
99.754941
20
139.296830
11
99.226438
21
139.123372
0
LINE
8
Calque 1
10
99.226438
20
139.123372
11
98.935749
21
138.557972
0
LINE
8
Calque 1
10
98.935749
20
138.557972
11
98.757793
21
138.083143
0
LINE
8
Calque 1
10
98.757793
20
138.083143
11
98.590348
21
137.979075
0
LINE
8
Calque 1
10
98.590348
20
137.979075
11
98.207725
21
137.806132
0
LINE
8
Calque 1
10
98.207725
20
137.806132
11
97.512426
21
137.165711
0
LINE
8
Calque 1
10
97.512426
20
137.165711
11
96.474736
21
136.251037
0
LINE
8
Calque 1
10
96.474736
20
136.251037
11
96.256684
21
136.363912
0
LINE
8
Calque 1
10
96.256684
20
136.363912
11
96.117342
21
136.827386
0
LINE
8
Calque 1
10
96.117342
20
136.827386
11
96.117342
21
136.827386
0
LINE
8
Calque 1
10
98.918889
20
141.335826
11
98.954167
21
141.496355
0
LINE
8
Calque 1
10
98.954167
20
141.496355
11
98.495556
21
141.413497
0
LINE
8
Calque 1
10
98.495556
20
141.413497
11
97.507778
21
140.926723
0
LINE
8
Calque 1
10
97.507778
20
140.926723
11
97.472499
21
140.766194
0
LINE
8
Calque 1
10
97.472499
20
140.766194
11
97.931111
21
140.849052
0
LINE
8
Calque 1
10
97.931111
20
140.849052
11
98.918889
21
141.335826
0
LINE
8
Calque 1
10
98.918889
20
141.335826
11
98.918889
21
141.335826
0
LINE
8
Calque 1
10
94.262222
20
138.167941
11
94.864189
21
138.570990
0
LINE
8
Calque 1
10
94.864189
20
138.570990
11
95.281331
21
138.705339
0
LINE
8
Calque 1
10
95.281331
20
138.705339
11
95.491585
21
138.570990
0
LINE
8
Calque 1
10
95.491585
20
138.570990
11
95.472885
21
138.167941
0
LINE
8
Calque 1
10
95.472885
20
138.167941
11
95.160002
21
137.731536
0
LINE
8
Calque 1
10
95.160002
20
137.731536
11
94.440973
21
137.609773
0
LINE
8
Calque 1
10
94.440973
20
137.609773
11
93.556667
21
137.616047
0
LINE
8
Calque 1
10
93.556667
20
137.616047
11
94.262222
21
138.167941
0
LINE
8
Calque 1
10
94.262222
20
138.167941
11
94.262222
21
138.167941
0
LINE
8
Calque 1
10
92.328543
20
138.487987
11
92.115478
21
138.897576
0
LINE
8
Calque 1
10
92.115478
20
138.897576
11
92.196463
21
139.211424
0
LINE
8
Calque 1
10
92.196463
20
139.211424
11
93.757090
21
140.154413
0
LINE
8
Calque 1
10
93.757090
20
140.154413
11
94.935902
21
140.651560
0
LINE
8
Calque 1
10
94.935902
20
140.651560
11
95.086262
21
140.438339
0
LINE
8
Calque 1
10
95.086262
20
140.438339
11
95.108889
21
139.884292
0
LINE
8
Calque 1
10
95.108889
20
139.884292
11
94.906586
21
139.110911
0
LINE
8
Calque 1
10
94.906586
20
139.110911
11
94.158356
21
138.473181
0
LINE
8
Calque 1
10
94.158356
20
138.473181
11
93.437345
21
138.061019
0
LINE
8
Calque 1
10
93.437345
20
138.061019
11
92.973299
21
137.925442
0
LINE
8
Calque 1
10
92.973299
20
137.925442
11
92.644329
21
138.067435
0
LINE
8
Calque 1
10
92.644329
20
138.067435
11
92.328543
21
138.487987
0
LINE
8
Calque 1
10
92.328543
20
138.487987
11
92.328543
21
138.487987
 0 
ENDSEC
 0 
EOF
