0
SECTION
2
HEADER
9
$ACADVER
1
AC1009
9
$ANGDIR
70
0
9
$EXTMIN
10
0
20
0
9
$EXTMAX
10
24.0000
20
18.0000
0
ENDSEC
0
SECTION
2
ENTITIES
0
POLYLINE
8
Layer 1
66
1
0
VERTEX
8
0
10
11.7226
20
0.9919
42
-0.0570
0
VERTEX
8
0
10
11.7149
20
0.9800
42
-0.0401
0
VERTEX
8
0
10
11.6959
20
0.9590
42
-0.0557
0
VERTEX
8
0
10
11.6508
20
0.9237
42
-0.0059
0
VERTEX
8
0
10
11.6186
20
0.9053
42
-0.2755
0
VERTEX
8
0
10
11.5844
20
0.9074
42
-0.4988
0
VERTEX
8
0
10
11.5818
20
0.9378
42
0.1403
0
VERTEX
8
0
10
11.5933
20
0.9919
42
-0.0464
0
VERTEX
8
0
10
11.5954
20
1.0152
42
-0.3953
0
VERTEX
8
0
10
11.6052
20
1.0196
42
-0.0616
0
VERTEX
8
0
10
11.6167
20
1.0163
42
0.0873
0
VERTEX
8
0
10
11.6766
20
1.0067
42
-0.0129
0
VERTEX
8
0
10
11.7211
20
1.0038
42
-0.7663
0
VERTEX
8
0
10
11.7226
20
0.9919
0
SEQEND
8
0
0
POLYLINE
8
Layer 1
66
1
0
VERTEX
8
0
10
12.7258
20
1.0126
42
-0.3087
0
VERTEX
8
0
10
12.7263
20
0.9701
42
-0.1368
0
VERTEX
8
0
10
12.6873
20
0.9451
42
0.0909
0
VERTEX
8
0
10
12.6254
20
0.9021
42
-0.1638
0
VERTEX
8
0
10
12.5830
20
0.8773
42
0.1977
0
VERTEX
8
0
10
12.5510
20
0.8634
42
0.0425
0
VERTEX
8
0
10
12.5230
20
0.8422
42
-0.0808
0
VERTEX
8
0
10
12.4256
20
0.7794
42
-0.0605
0
VERTEX
8
0
10
12.3699
20
0.7634
42
-0.1407
0
VERTEX
8
0
10
12.3134
20
0.7720
42
-0.5534
0
VERTEX
8
0
10
12.3134
20
0.7975
42
-0.0795
0
VERTEX
8
0
10
12.3367
20
0.8168
42
-0.0382
0
VERTEX
8
0
10
12.3892
20
0.8469
42
-0.0208
0
VERTEX
8
0
10
12.4996
20
0.8971
42
0.0630
0
VERTEX
8
0
10
12.6451
20
0.9807
42
-0.0073
0
VERTEX
8
0
10
12.6845
20
1.0097
42
-0.0422
0
VERTEX
8
0
10
12.7058
20
1.0217
42
-0.4000
0
VERTEX
8
0
10
12.7258
20
1.0126
0
SEQEND
8
0
0
POLYLINE
8
Layer 1
66
1
0
VERTEX
8
0
10
12.9139
20
1.2997
42
-0.0331
0
VERTEX
8
0
10
12.9200
20
1.2951
42
-0.3367
0
VERTEX
8
0
10
12.9312
20
1.2474
42
0.2548
0
VERTEX
8
0
10
12.9527
20
1.1812
42
0.0355
0
VERTEX
8
0
10
12.9738
20
1.1595
42
0.3336
0
VERTEX
8
0
10
13.0020
20
1.1598
42
-0.0335
0
VERTEX
8
0
10
13.0159
20
1.1661
0
VERTEX
8
0
10
13.0193
20
1.1614
42
-0.0494
0
VERTEX
8
0
10
13.0168
20
1.1537
42
0.0325
0
VERTEX
8
0
10
13.0100
20
1.1319
42
-0.2329
0
VERTEX
8
0
10
12.9938
20
1.1201
42
-0.0149
0
VERTEX
8
0
10
12.9761
20
1.1105
42
0.0674
0
VERTEX
8
0
10
12.8954
20
1.0544
42
-0.0578
0
VERTEX
8
0
10
12.7988
20
0.9919
42
-0.2140
0
VERTEX
8
0
10
12.7881
20
0.9984
42
-0.5797
0
VERTEX
8
0
10
12.7945
20
1.0134
42
-0.0496
0
VERTEX
8
0
10
12.8072
20
1.0252
42
0.0610
0
VERTEX
8
0
10
12.8246
20
1.0428
42
0.3232
0
VERTEX
8
0
10
12.8216
20
1.0664
42
-0.3751
0
VERTEX
8
0
10
12.8320
20
1.1115
42
-0.1145
0
VERTEX
8
0
10
12.8744
20
1.1376
42
0.2785
0
VERTEX
8
0
10
12.9120
20
1.1886
42
0.0853
0
VERTEX
8
0
10
12.9096
20
1.2553
42
-0.0071
0
VERTEX
8
0
10
12.9061
20
1.2857
42
-0.0718
0
VERTEX
8
0
10
12.9071
20
1.3008
42
-0.6132
0
VERTEX
8
0
10
12.9139
20
1.2997
0
SEQEND
8
0
0
POLYLINE
8
Layer 1
66
1
0
VERTEX
8
0
10
13.2502
20
3.2939
42
-0.3974
0
VERTEX
8
0
10
13.2391
20
3.3044
42
-0.2131
0
VERTEX
8
0
10
13.2437
20
3.3148
42
-0.2944
0
VERTEX
8
0
10
13.2548
20
3.3044
42
-0.5359
0
VERTEX
8
0
10
13.2502
20
3.2939
0
SEQEND
8
0
0
POLYLINE
8
Layer 1
66
1
0
VERTEX
8
0
10
13.0516
20
2.9300
42
-0.3974
0
VERTEX
8
0
10
13.0412
20
2.9189
42
-0.2131
0
VERTEX
8
0
10
13.0308
20
2.9235
42
-0.2945
0
VERTEX
8
0
10
13.0412
20
2.9346
42
-0.5379
0
VERTEX
8
0
10
13.0516
20
2.9300
0
SEQEND
8
0
0
POLYLINE
8
Layer 1
66
1
0
VERTEX
8
0
10
13.3387
20
3.0023
42
-0.2944
0
VERTEX
8
0
10
13.3277
20
3.0127
42
-0.5359
0
VERTEX
8
0
10
13.3323
20
3.0231
42
-0.3974
0
VERTEX
8
0
10
13.3433
20
3.0127
42
-0.2131
0
VERTEX
8
0
10
13.3387
20
3.0023
0
SEQEND
8
0
0
POLYLINE
8
Layer 1
66
1
0
VERTEX
8
0
10
13.5412
20
2.4925
42
-0.3974
0
VERTEX
8
0
10
13.5308
20
2.4814
42
-0.2131
0
VERTEX
8
0
10
13.5204
20
2.4860
42
-0.2945
0
VERTEX
8
0
10
13.5308
20
2.4971
42
-0.5379
0
VERTEX
8
0
10
13.5412
20
2.4925
0
SEQEND
8
0
0
POLYLINE
8
Layer 1
66
1
0
VERTEX
8
0
10
13.8588
20
2.2941
42
0.3749
0
VERTEX
8
0
10
13.8705
20
2.2888
42
0.0734
0
VERTEX
8
0
10
13.8823
20
2.2960
42
0.2803
0
VERTEX
8
0
10
13.8930
20
2.3070
42
0.1345
0
VERTEX
8
0
10
13.8806
20
2.3131
42
0.2217
0
VERTEX
8
0
10
13.8599
20
2.3124
42
0.3171
0
VERTEX
8
0
10
13.8588
20
2.2941
0
SEQEND
8
0
0
POLYLINE
8
Layer 1
66
1
0
VERTEX
8
0
10
13.6667
20
1.9974
42
-0.2301
0
VERTEX
8
0
10
13.6822
20
1.9990
42
-0.3560
0
VERTEX
8
0
10
13.6774
20
1.9826
42
-0.4376
0
VERTEX
8
0
10
13.6621
20
1.9796
42
-0.4260
0
VERTEX
8
0
10
13.6667
20
1.9974
0
SEQEND
8
0
0
POLYLINE
8
Layer 1
66
1
0
VERTEX
8
0
10
13.4480
20
2.1580
42
-0.5737
0
VERTEX
8
0
10
13.4565
20
2.1666
42
-0.1179
0
VERTEX
8
0
10
13.4834
20
2.1671
42
-0.0275
0
VERTEX
8
0
10
13.5017
20
2.1639
42
-0.9361
0
VERTEX
8
0
10
13.4997
20
2.1572
42
-0.0248
0
VERTEX
8
0
10
13.4912
20
2.1517
42
-0.2337
0
VERTEX
8
0
10
13.4573
20
2.1485
42
-0.1225
0
VERTEX
8
0
10
13.4480
20
2.1580
0
SEQEND
8
0
0
POLYLINE
8
Layer 1
66
1
0
VERTEX
8
0
10
13.3913
20
2.1022
42
0.5022
0
VERTEX
8
0
10
13.4086
20
2.0868
42
0.0610
0
VERTEX
8
0
10
13.4308
20
2.0991
42
0.0438
0
VERTEX
8
0
10
13.4393
20
2.1059
42
0.5328
0
VERTEX
8
0
10
13.4410
20
2.1148
42
0.0372
0
VERTEX
8
0
10
13.4227
20
2.1248
42
0.3156
0
VERTEX
8
0
10
13.3939
20
2.1292
42
0.2372
0
VERTEX
8
0
10
13.3913
20
2.1022
0
SEQEND
8
0
0
POLYLINE
8
Layer 1
66
1
0
VERTEX
8
0
10
12.7852
20
2.0431
42
-0.0358
0
VERTEX
8
0
10
12.8061
20
2.0098
42
0.0633
0
VERTEX
8
0
10
12.8638
20
1.9349
42
-0.0611
0
VERTEX
8
0
10
12.8954
20
1.8962
42
-0.8741
0
VERTEX
8
0
10
12.8775
20
1.8935
42
-0.0457
0
VERTEX
8
0
10
12.8583
20
1.9098
42
-0.0222
0
VERTEX
8
0
10
12.8235
20
1.9458
42
-0.0859
0
VERTEX
8
0
10
12.7704
20
2.0292
42
-0.0370
0
VERTEX
8
0
10
12.7718
20
2.0485
42
-0.5571
0
VERTEX
8
0
10
12.7788
20
2.0504
42
-0.0732
0
VERTEX
8
0
10
12.7852
20
2.0431
0
SEQEND
8
0
0
POLYLINE
8
Layer 1
66
1
0
VERTEX
8
0
10
13.0163
20
2.2078
42
-0.3680
0
VERTEX
8
0
10
13.0171
20
2.1878
42
-0.3815
0
VERTEX
8
0
10
13.0119
20
2.1851
42
-0.0789
0
VERTEX
8
0
10
13.0108
20
2.1941
42
-0.2150
0
VERTEX
8
0
10
13.0163
20
2.2078
0
SEQEND
8
0
0
POLYLINE
8
Layer 1
66
1
0
VERTEX
8
0
10
12.9583
20
2.2242
42
-1.0881
0
VERTEX
8
0
10
12.9686
20
2.2244
42
-0.0478
0
VERTEX
8
0
10
12.9791
20
2.2061
42
-0.0040
0
VERTEX
8
0
10
12.9918
20
2.1804
42
-0.0182
0
VERTEX
8
0
10
12.9975
20
2.1672
42
-0.4939
0
VERTEX
8
0
10
12.9917
20
2.1586
42
-0.3167
0
VERTEX
8
0
10
12.9795
20
2.1711
42
-0.0379
0
VERTEX
8
0
10
12.9709
20
2.1867
42
-0.0551
0
VERTEX
8
0
10
12.9583
20
2.2242
0
SEQEND
8
0
0
POLYLINE
8
Layer 1
66
1
0
VERTEX
8
0
10
12.7268
20
2.4606
42
-0.4969
0
VERTEX
8
0
10
12.7469
20
2.4336
42
-0.4878
0
VERTEX
8
0
10
12.7369
20
2.4369
42
-0.0582
0
VERTEX
8
0
10
12.7289
20
2.4447
42
-0.0517
0
VERTEX
8
0
10
12.7231
20
2.4534
42
-0.4803
0
VERTEX
8
0
10
12.7268
20
2.4606
0
SEQEND
8
0
0
POLYLINE
8
Layer 1
66
1
0
VERTEX
8
0
10
12.7150
20
2.4958
42
0.0864
0
VERTEX
8
0
10
12.7191
20
2.4879
42
0.7802
0
VERTEX
8
0
10
12.7257
20
2.4881
42
0.1018
0
VERTEX
8
0
10
12.7193
20
2.5240
42
0.0567
0
VERTEX
8
0
10
12.7140
20
2.5354
0
VERTEX
8
0
10
12.7095
20
2.5379
42
0.0667
0
VERTEX
8
0
10
12.7085
20
2.5318
42
0.0928
0
VERTEX
8
0
10
12.7150
20
2.4958
0
SEQEND
8
0
0
POLYLINE
8
Layer 1
66
1
0
VERTEX
8
0
10
12.6612
20
2.5018
42
-0.1208
0
VERTEX
8
0
10
12.6810
20
2.4959
42
-0.1991
0
VERTEX
8
0
10
12.6975
20
2.4803
42
-0.6481
0
VERTEX
8
0
10
12.6823
20
2.4733
42
-0.1254
0
VERTEX
8
0
10
12.6662
20
2.4866
42
-0.0239
0
VERTEX
8
0
10
12.6602
20
2.4946
42
-0.3720
0
VERTEX
8
0
10
12.6612
20
2.5018
0
SEQEND
8
0
0
POLYLINE
8
Layer 1
66
1
0
VERTEX
8
0
10
12.6299
20
2.5672
42
-0.2594
0
VERTEX
8
0
10
12.6288
20
2.5800
42
-0.2514
0
VERTEX
8
0
10
12.6558
20
2.5595
42
-0.0290
0
VERTEX
8
0
10
12.6663
20
2.5470
42
-0.1890
0
VERTEX
8
0
10
12.6696
20
2.5335
42
-0.2879
0
VERTEX
8
0
10
12.6401
20
2.5544
42
-0.0315
0
VERTEX
8
0
10
12.6299
20
2.5672
0
SEQEND
8
0
0
POLYLINE
8
Layer 1
66
1
0
VERTEX
8
0
10
12.5720
20
2.5648
42
-0.3748
0
VERTEX
8
0
10
12.5933
20
2.5439
42
-0.1795
0
VERTEX
8
0
10
12.5962
20
2.5231
42
-0.3507
0
VERTEX
8
0
10
12.5749
20
2.5439
42
-0.2152
0
VERTEX
8
0
10
12.5720
20
2.5648
0
SEQEND
8
0
0
POLYLINE
8
Layer 1
66
1
0
VERTEX
8
0
10
12.5484
20
2.6273
42
-0.2882
0
VERTEX
8
0
10
12.5777
20
2.6064
42
-0.0391
0
VERTEX
8
0
10
12.5856
20
2.5962
42
-0.2582
0
VERTEX
8
0
10
12.5861
20
2.5856
42
-0.2880
0
VERTEX
8
0
10
12.5568
20
2.6064
42
-0.0392
0
VERTEX
8
0
10
12.5489
20
2.6167
42
-0.2585
0
VERTEX
8
0
10
12.5484
20
2.6273
0
SEQEND
8
0
0
POLYLINE
8
Layer 1
66
1
0
VERTEX
8
0
10
12.4702
20
2.6820
0
VERTEX
8
0
10
12.4739
20
2.6831
42
-0.0351
0
VERTEX
8
0
10
12.4795
20
2.6741
42
0.0411
0
VERTEX
8
0
10
12.5069
20
2.6361
42
-0.2582
0
VERTEX
8
0
10
12.5118
20
2.6128
42
-0.4571
0
VERTEX
8
0
10
12.4911
20
2.6196
42
-0.1539
0
VERTEX
8
0
10
12.4737
20
2.6638
42
-0.0123
0
VERTEX
8
0
10
12.4702
20
2.6820
0
SEQEND
8
0
0
POLYLINE
8
Layer 1
66
1
0
VERTEX
8
0
10
12.3773
20
2.7267
42
-0.0381
0
VERTEX
8
0
10
12.3868
20
2.7322
42
-0.3482
0
VERTEX
8
0
10
12.3952
20
2.7299
42
-0.2236
0
VERTEX
8
0
10
12.3767
20
2.6917
42
-0.0516
0
VERTEX
8
0
10
12.3432
20
2.6637
42
-0.0271
0
VERTEX
8
0
10
12.3089
20
2.6411
42
-0.2243
0
VERTEX
8
0
10
12.2889
20
2.6430
42
-0.0309
0
VERTEX
8
0
10
12.2705
20
2.6528
0
VERTEX
8
0
10
12.2447
20
2.6671
0
VERTEX
8
0
10
12.2848
20
2.6746
42
0.1436
0
VERTEX
8
0
10
12.3601
20
2.7131
42
-0.0250
0
VERTEX
8
0
10
12.3773
20
2.7267
0
SEQEND
8
0
0
POLYLINE
8
Layer 1
66
1
0
VERTEX
8
0
10
12.3257
20
2.8215
42
-0.3893
0
VERTEX
8
0
10
12.3420
20
2.8219
42
-0.0565
0
VERTEX
8
0
10
12.3575
20
2.8147
42
-0.0461
0
VERTEX
8
0
10
12.3854
20
2.7950
42
-0.0383
0
VERTEX
8
0
10
12.4100
20
2.7714
42
-0.1346
0
VERTEX
8
0
10
12.4246
20
2.7410
42
-0.5362
0
VERTEX
8
0
10
12.4183
20
2.7389
42
-0.1039
0
VERTEX
8
0
10
12.4122
20
2.7437
42
-0.0578
0
VERTEX
8
0
10
12.4026
20
2.7558
42
0.1363
0
VERTEX
8
0
10
12.3526
20
2.7997
42
-0.1019
0
VERTEX
8
0
10
12.3257
20
2.8215
0
SEQEND
8
0
0
POLYLINE
8
Layer 1
66
1
0
VERTEX
8
0
10
11.3515
20
5.1265
42
-0.0689
0
VERTEX
8
0
10
11.3363
20
5.1297
42
-0.1072
0
VERTEX
8
0
10
11.3096
20
5.1455
42
-0.0931
0
VERTEX
8
0
10
11.2623
20
5.2263
42
0.0793
0
VERTEX
8
0
10
11.1613
20
5.3666
42
-0.0126
0
VERTEX
8
0
10
11.1281
20
5.4056
42
-0.0169
0
VERTEX
8
0
10
11.1128
20
5.4261
42
-0.1259
0
VERTEX
8
0
10
11.1048
20
5.4488
42
-0.3521
0
VERTEX
8
0
10
11.1244
20
5.4405
42
-0.0635
0
VERTEX
8
0
10
11.1395
20
5.4246
42
0.0866
0
VERTEX
8
0
10
11.2591
20
5.3123
42
-0.0317
0
VERTEX
8
0
10
11.2947
20
5.2823
42
-0.0461
0
VERTEX
8
0
10
11.3097
20
5.2645
42
-1.0173
0
VERTEX
8
0
10
11.2984
20
5.2582
42
0.0652
0
VERTEX
8
0
10
11.2859
20
5.2612
42
0.3755
0
VERTEX
8
0
10
11.2773
20
5.2540
42
0.2042
0
VERTEX
8
0
10
11.2863
20
5.2303
42
0.0553
0
VERTEX
8
0
10
11.3170
20
5.1900
42
-0.0210
0
VERTEX
8
0
10
11.3641
20
5.1321
42
-0.6536
0
VERTEX
8
0
10
11.3515
20
5.1265
0
SEQEND
8
0
0
POLYLINE
8
Layer 1
66
1
0
VERTEX
8
0
10
11.3955
20
4.9135
42
-0.0732
0
VERTEX
8
0
10
11.3757
20
4.9381
42
-0.0473
0
VERTEX
8
0
10
11.3612
20
4.9632
42
-0.3047
0
VERTEX
8
0
10
11.3702
20
4.9899
42
0.3213
0
VERTEX
8
0
10
11.3697
20
5.0432
42
-0.0474
0
VERTEX
8
0
10
11.3553
20
5.0792
42
-0.8190
0
VERTEX
8
0
10
11.3639
20
5.0786
42
-0.0318
0
VERTEX
8
0
10
11.3722
20
5.0734
42
-0.0174
0
VERTEX
8
0
10
11.3902
20
5.0602
42
0.0967
0
VERTEX
8
0
10
11.4783
20
5.0170
42
-0.0295
0
VERTEX
8
0
10
11.5195
20
5.0022
42
-0.1174
0
VERTEX
8
0
10
11.5361
20
4.9887
42
-0.4295
0
VERTEX
8
0
10
11.5303
20
4.9803
42
-0.0638
0
VERTEX
8
0
10
11.5205
20
4.9763
42
0.2521
0
VERTEX
8
0
10
11.4996
20
4.9545
42
-0.4306
0
VERTEX
8
0
10
11.4885
20
4.9438
42
-0.0819
0
VERTEX
8
0
10
11.4709
20
4.9467
42
0.0296
0
VERTEX
8
0
10
11.4294
20
4.9547
42
0.1182
0
VERTEX
8
0
10
11.4088
20
4.9514
42
0.3616
0
VERTEX
8
0
10
11.4039
20
4.9320
42
-0.0320
0
VERTEX
8
0
10
11.4050
20
4.9166
42
-0.6939
0
VERTEX
8
0
10
11.3955
20
4.9135
0
SEQEND
8
0
0
POLYLINE
8
Layer 1
66
1
0
VERTEX
8
0
10
11.2677
20
4.5746
42
-0.1350
0
VERTEX
8
0
10
11.2105
20
4.5744
42
-0.0486
0
VERTEX
8
0
10
11.2031
20
4.5797
42
-0.5740
0
VERTEX
8
0
10
11.2045
20
4.5853
42
0.1907
0
VERTEX
8
0
10
11.2275
20
4.5965
42
0.0290
0
VERTEX
8
0
10
11.2481
20
4.6120
42
-0.1787
0
VERTEX
8
0
10
11.3043
20
4.6322
42
0.2450
0
VERTEX
8
0
10
11.3476
20
4.6425
42
0.0396
0
VERTEX
8
0
10
11.3854
20
4.6683
42
0.0528
0
VERTEX
8
0
10
11.4517
20
4.7299
42
0.2005
0
VERTEX
8
0
10
11.4586
20
4.7735
42
0.0802
0
VERTEX
8
0
10
11.4417
20
4.8159
42
-0.0615
0
VERTEX
8
0
10
11.4227
20
4.8685
42
-0.4957
0
VERTEX
8
0
10
11.4399
20
4.8834
42
-0.1021
0
VERTEX
8
0
10
11.4662
20
4.8717
42
-0.2703
0
VERTEX
8
0
10
11.5241
20
4.7677
42
0.2044
0
VERTEX
8
0
10
11.5262
20
4.7361
42
0.0366
0
VERTEX
8
0
10
11.5354
20
4.7055
42
-0.0320
0
VERTEX
8
0
10
11.5458
20
4.6719
42
-0.1604
0
VERTEX
8
0
10
11.5412
20
4.6377
42
-0.2073
0
VERTEX
8
0
10
11.5004
20
4.6053
42
-0.0994
0
VERTEX
8
0
10
11.4483
20
4.5960
42
0.3711
0
VERTEX
8
0
10
11.4097
20
4.5629
0
VERTEX
8
0
10
11.4002
20
4.5298
0
VERTEX
8
0
10
11.3819
20
4.5577
42
0.2608
0
VERTEX
8
0
10
11.3292
20
4.5854
42
0.0861
0
VERTEX
8
0
10
11.2677
20
4.5746
0
SEQEND
8
0
0
POLYLINE
8
Layer 1
66
1
0
VERTEX
8
0
10
11.3012
20
4.5030
42
-0.4351
0
VERTEX
8
0
10
11.2868
20
4.5197
42
-0.3266
0
VERTEX
8
0
10
11.2937
20
4.5452
42
-0.1951
0
VERTEX
8
0
10
11.3199
20
4.5542
42
-0.5362
0
VERTEX
8
0
10
11.3321
20
4.5365
42
-0.1729
0
VERTEX
8
0
10
11.3204
20
4.5148
42
-0.1186
0
VERTEX
8
0
10
11.3012
20
4.5030
0
SEQEND
8
0
0
POLYLINE
8
Layer 1
66
1
0
VERTEX
8
0
10
11.2287
20
4.4442
42
0.6592
0
VERTEX
8
0
10
11.2401
20
4.4302
42
0.1752
0
VERTEX
8
0
10
11.2536
20
4.4458
42
0.3196
0
VERTEX
8
0
10
11.2212
20
4.5289
42
0.1115
0
VERTEX
8
0
10
11.2006
20
4.5385
42
0.5253
0
VERTEX
8
0
10
11.1842
20
4.5286
42
0.1242
0
VERTEX
8
0
10
11.2034
20
4.4891
42
-0.0376
0
VERTEX
8
0
10
11.2187
20
4.4680
42
-0.1875
0
VERTEX
8
0
10
11.2287
20
4.4442
0
SEQEND
8
0
0
POLYLINE
8
Layer 1
66
1
0
VERTEX
8
0
10
10.5229
20
3.8871
42
-0.6055
0
VERTEX
8
0
10
10.5259
20
3.8773
42
-0.0483
0
VERTEX
8
0
10
10.5134
20
3.8547
42
-0.0490
0
VERTEX
8
0
10
10.4920
20
3.8250
42
-0.4326
0
VERTEX
8
0
10
10.4601
20
3.8271
42
-0.4261
0
VERTEX
8
0
10
10.4610
20
3.8728
42
-0.2058
0
VERTEX
8
0
10
10.5102
20
3.8877
42
-0.0231
0
VERTEX
8
0
10
10.5229
20
3.8871
0
SEQEND
8
0
0
POLYLINE
8
Layer 1
66
1
0
VERTEX
8
0
10
10.9308
20
4.0103
42
0.1867
0
VERTEX
8
0
10
10.9492
20
4.0295
42
0.0370
0
VERTEX
8
0
10
10.9580
20
4.0568
42
0.1560
0
VERTEX
8
0
10
10.9616
20
4.1137
42
0.7114
0
VERTEX
8
0
10
10.9362
20
4.1291
42
0.0584
0
VERTEX
8
0
10
10.9131
20
4.0983
42
0.3086
0
VERTEX
8
0
10
10.9067
20
4.0419
42
0.1601
0
VERTEX
8
0
10
10.9308
20
4.0103
0
SEQEND
8
0
0
POLYLINE
8
Layer 1
66
1
0
VERTEX
8
0
10
10.9678
20
3.4548
42
-0.2053
0
VERTEX
8
0
10
10.9544
20
3.4228
42
-0.0439
0
VERTEX
8
0
10
10.9330
20
3.3949
42
-0.0354
0
VERTEX
8
0
10
10.9046
20
3.3680
42
-0.0518
0
VERTEX
8
0
10
10.8880
20
3.3576
42
-0.4593
0
VERTEX
8
0
10
10.8746
20
3.3645
42
-0.2067
0
VERTEX
8
0
10
10.8962
20
3.3956
42
-0.0125
0
VERTEX
8
0
10
10.9210
20
3.4244
42
-0.0104
0
VERTEX
8
0
10
10.9449
20
3.4501
42
-0.0322
0
VERTEX
8
0
10
10.9581
20
3.4616
42
-0.6773
0
VERTEX
8
0
10
10.9678
20
3.4548
0
SEQEND
8
0
0
POLYLINE
8
Layer 1
66
1
0
VERTEX
8
0
10
11.1698
20
3.5301
42
-0.4223
0
VERTEX
8
0
10
11.1858
20
3.5296
42
-0.0682
0
VERTEX
8
0
10
11.2001
20
3.5208
42
-0.0819
0
VERTEX
8
0
10
11.2231
20
3.4962
42
-0.0736
0
VERTEX
8
0
10
11.2316
20
3.4779
42
-0.7869
0
VERTEX
8
0
10
11.2177
20
3.4722
42
-0.1423
0
VERTEX
8
0
10
11.1877
20
3.4987
42
-0.0744
0
VERTEX
8
0
10
11.1698
20
3.5301
0
SEQEND
8
0
0
POLYLINE
8
Layer 1
66
1
0
VERTEX
8
0
10
11.0371
20
3.5932
42
-0.0431
0
VERTEX
8
0
10
11.0054
20
3.6231
42
-0.0308
0
VERTEX
8
0
10
10.9641
20
3.6712
42
-0.2442
0
VERTEX
8
0
10
10.9573
20
3.7304
42
0.1401
0
VERTEX
8
0
10
10.9683
20
3.7822
42
-0.0853
0
VERTEX
8
0
10
10.9732
20
3.8108
42
-0.3632
0
VERTEX
8
0
10
10.9967
20
3.8220
42
-0.2630
0
VERTEX
8
0
10
11.0339
20
3.7783
42
-0.0691
0
VERTEX
8
0
10
11.0456
20
3.7416
42
-0.1404
0
VERTEX
8
0
10
11.0350
20
3.7045
42
0.0645
0
VERTEX
8
0
10
11.0249
20
3.6676
42
0.2308
0
VERTEX
8
0
10
11.0475
20
3.6366
42
0.1847
0
VERTEX
8
0
10
11.0984
20
3.6126
42
-0.2688
0
VERTEX
8
0
10
11.1341
20
3.6023
42
-0.1493
0
VERTEX
8
0
10
11.1442
20
3.5782
42
-0.4426
0
VERTEX
8
0
10
11.1339
20
3.5721
42
-0.1188
0
VERTEX
8
0
10
11.1212
20
3.5768
42
0.2084
0
VERTEX
8
0
10
11.0772
20
3.5812
42
-0.2751
0
VERTEX
8
0
10
11.0371
20
3.5932
0
SEQEND
8
0
0
POLYLINE
8
Layer 1
66
1
0
VERTEX
8
0
10
11.0393
20
3.5281
42
-0.4647
0
VERTEX
8
0
10
11.0269
20
3.5306
42
-0.0635
0
VERTEX
8
0
10
11.0164
20
3.5390
42
-0.1283
0
VERTEX
8
0
10
10.9996
20
3.5678
42
-0.7052
0
VERTEX
8
0
10
11.0050
20
3.5701
42
-0.0774
0
VERTEX
8
0
10
11.0114
20
3.5665
42
-0.0482
0
VERTEX
8
0
10
11.0224
20
3.5570
42
-0.1293
0
VERTEX
8
0
10
11.0393
20
3.5281
0
SEQEND
8
0
0
POLYLINE
8
Layer 1
66
1
0
VERTEX
8
0
10
11.0793
20
3.4581
42
-0.5815
0
VERTEX
8
0
10
11.0645
20
3.4629
42
-0.6912
0
VERTEX
8
0
10
11.0860
20
3.5007
42
-0.3131
0
VERTEX
8
0
10
11.0966
20
3.4894
42
-0.0958
0
VERTEX
8
0
10
11.0892
20
3.4729
42
-0.0485
0
VERTEX
8
0
10
11.0793
20
3.4581
0
SEQEND
8
0
0
POLYLINE
8
Layer 1
66
1
0
VERTEX
8
0
10
11.1226
20
3.4266
42
-0.3918
0
VERTEX
8
0
10
11.1208
20
3.3932
42
-0.0393
0
VERTEX
8
0
10
11.1099
20
3.3804
42
-0.5954
0
VERTEX
8
0
10
11.1036
20
3.3842
42
-0.0356
0
VERTEX
8
0
10
11.1002
20
3.3923
42
-0.2107
0
VERTEX
8
0
10
11.1019
20
3.4257
42
-0.1308
0
VERTEX
8
0
10
11.1115
20
3.4357
42
-0.3323
0
VERTEX
8
0
10
11.1226
20
3.4266
0
SEQEND
8
0
0
POLYLINE
8
Layer 1
66
1
0
VERTEX
8
0
10
11.1817
20
3.4205
42
-0.6592
0
VERTEX
8
0
10
11.1743
20
3.4263
42
-0.0492
0
VERTEX
8
0
10
11.1701
20
3.4357
42
0.0223
0
VERTEX
8
0
10
11.1588
20
3.4632
42
-0.6473
0
VERTEX
8
0
10
11.1644
20
3.4710
42
-0.3609
0
VERTEX
8
0
10
11.1743
20
3.4614
42
-0.0499
0
VERTEX
8
0
10
11.1799
20
3.4483
42
-0.1322
0
VERTEX
8
0
10
11.1817
20
3.4205
0
SEQEND
8
0
0
POLYLINE
8
Layer 1
66
1
0
VERTEX
8
0
10
11.2805
20
3.2730
42
-0.2953
0
VERTEX
8
0
10
11.2763
20
3.2650
42
-0.1010
0
VERTEX
8
0
10
11.2664
20
3.2721
42
0.2786
0
VERTEX
8
0
10
11.2365
20
3.2767
42
0.5211
0
VERTEX
8
0
10
11.2388
20
3.2475
42
-0.0559
0
VERTEX
8
0
10
11.2445
20
3.2389
42
-0.4344
0
VERTEX
8
0
10
11.2413
20
3.2314
42
0.1065
0
VERTEX
8
0
10
11.2140
20
3.2251
42
-0.5059
0
VERTEX
8
0
10
11.1903
20
3.2401
42
-0.0443
0
VERTEX
8
0
10
11.1767
20
3.2676
42
0.0268
0
VERTEX
8
0
10
11.1594
20
3.3028
42
0.4009
0
VERTEX
8
0
10
11.1236
20
3.3094
42
-0.0258
0
VERTEX
8
0
10
11.1012
20
3.3057
42
-0.6669
0
VERTEX
8
0
10
11.0981
20
3.3140
42
-0.0353
0
VERTEX
8
0
10
11.1035
20
3.3248
42
-0.3656
0
VERTEX
8
0
10
11.1442
20
3.3411
42
0.2827
0
VERTEX
8
0
10
11.2007
20
3.3608
42
0.1302
0
VERTEX
8
0
10
11.2289
20
3.4054
0
VERTEX
8
0
10
11.2329
20
3.4090
42
-0.0647
0
VERTEX
8
0
10
11.2376
20
3.4026
42
-0.0301
0
VERTEX
8
0
10
11.2450
20
3.3886
42
-0.0212
0
VERTEX
8
0
10
11.2575
20
3.3594
42
-0.0368
0
VERTEX
8
0
10
11.2768
20
3.2964
42
-0.0120
0
VERTEX
8
0
10
11.2805
20
3.2730
0
SEQEND
8
0
0
POLYLINE
8
Layer 1
66
1
0
VERTEX
8
0
10
11.6141
20
3.2991
42
-0.5027
0
VERTEX
8
0
10
11.6037
20
3.3031
42
-0.2754
0
VERTEX
8
0
10
11.6141
20
3.3200
42
-0.5027
0
VERTEX
8
0
10
11.6246
20
3.3160
42
-0.2754
0
VERTEX
8
0
10
11.6141
20
3.2991
0
SEQEND
8
0
0
POLYLINE
8
Layer 1
66
1
0
VERTEX
8
0
10
11.4984
20
2.8953
42
-0.2143
0
VERTEX
8
0
10
11.5124
20
2.9051
42
-0.1124
0
VERTEX
8
0
10
11.5589
20
2.9186
42
-0.2771
0
VERTEX
8
0
10
11.5968
20
2.8964
42
-0.1513
0
VERTEX
8
0
10
11.6141
20
2.8555
42
0.2227
0
VERTEX
8
0
10
11.6366
20
2.8098
42
0.0275
0
VERTEX
8
0
10
11.6546
20
2.7894
42
0.4071
0
VERTEX
8
0
10
11.6666
20
2.7912
42
0.0477
0
VERTEX
8
0
10
11.6757
20
2.8018
42
-0.1264
0
VERTEX
8
0
10
11.7403
20
2.8500
0
VERTEX
8
0
10
11.7883
20
2.8775
0
VERTEX
8
0
10
11.8549
20
2.8475
42
0.0164
0
VERTEX
8
0
10
11.9703
20
2.7999
42
-0.0727
0
VERTEX
8
0
10
12.0900
20
2.7358
42
-0.0372
0
VERTEX
8
0
10
12.1511
20
2.6889
42
-0.0553
0
VERTEX
8
0
10
12.1759
20
2.6595
42
-0.2456
0
VERTEX
8
0
10
12.1779
20
2.6236
42
0.3746
0
VERTEX
8
0
10
12.1788
20
2.6011
42
0.0516
0
VERTEX
8
0
10
12.1892
20
2.5801
42
0.0417
0
VERTEX
8
0
10
12.2163
20
2.5419
42
0.0561
0
VERTEX
8
0
10
12.2834
20
2.4763
42
-0.0213
0
VERTEX
8
0
10
12.3297
20
2.4379
42
-0.7596
0
VERTEX
8
0
10
12.3247
20
2.4307
42
-0.0435
0
VERTEX
8
0
10
12.3100
20
2.4337
42
-0.0088
0
VERTEX
8
0
10
12.2955
20
2.4378
0
VERTEX
8
0
10
12.2883
20
2.4399
42
-0.0027
0
VERTEX
8
0
10
12.2756
20
2.4439
42
-0.0435
0
VERTEX
8
0
10
12.2071
20
2.4720
42
-0.1180
0
VERTEX
8
0
10
12.1538
20
2.5225
42
0.0932
0
VERTEX
8
0
10
12.1058
20
2.5711
42
0.1535
0
VERTEX
8
0
10
12.0423
20
2.5911
42
0.1739
0
VERTEX
8
0
10
12.0185
20
2.5726
42
0.0509
0
VERTEX
8
0
10
12.0004
20
2.5482
42
-0.0661
0
VERTEX
8
0
10
11.9771
20
2.5187
42
-0.2560
0
VERTEX
8
0
10
11.9397
20
2.5187
42
-0.1402
0
VERTEX
8
0
10
11.8729
20
2.5514
42
0.1948
0
VERTEX
8
0
10
11.8237
20
2.5704
42
-0.1864
0
VERTEX
8
0
10
11.7854
20
2.5728
42
-0.3456
0
VERTEX
8
0
10
11.7792
20
2.5875
42
-0.0793
0
VERTEX
8
0
10
11.7954
20
2.5996
42
0.1326
0
VERTEX
8
0
10
11.8165
20
2.6233
42
0.1431
0
VERTEX
8
0
10
11.8042
20
2.6545
42
0.1477
0
VERTEX
8
0
10
11.7616
20
2.7014
42
0.0397
0
VERTEX
8
0
10
11.7056
20
2.7326
42
0.0578
0
VERTEX
8
0
10
11.5942
20
2.7731
42
-0.2368
0
VERTEX
8
0
10
11.5568
20
2.7919
42
-0.4163
0
VERTEX
8
0
10
11.5687
20
2.8301
42
0.1280
0
VERTEX
8
0
10
11.5786
20
2.8422
42
0.3493
0
VERTEX
8
0
10
11.5671
20
2.8531
42
0.0305
0
VERTEX
8
0
10
11.5382
20
2.8680
42
-0.0092
0
VERTEX
8
0
10
11.5080
20
2.8833
42
-0.1829
0
VERTEX
8
0
10
11.4984
20
2.8953
0
SEQEND
8
0
0
POLYLINE
8
Layer 1
66
1
0
VERTEX
8
0
10
11.3355
20
2.9518
42
0.6779
0
VERTEX
8
0
10
11.3685
20
2.9558
42
0.1239
0
VERTEX
8
0
10
11.3635
20
2.9986
42
-0.3006
0
VERTEX
8
0
10
11.3707
20
3.0454
42
0.0671
0
VERTEX
8
0
10
11.3813
20
3.0583
42
0.6163
0
VERTEX
8
0
10
11.3795
20
3.0643
42
0.0308
0
VERTEX
8
0
10
11.3713
20
3.0648
42
0.1814
0
VERTEX
8
0
10
11.3444
20
3.0450
42
0.3879
0
VERTEX
8
0
10
11.3381
20
3.0127
42
-0.1756
0
VERTEX
8
0
10
11.3339
20
2.9832
42
0.3863
0
VERTEX
8
0
10
11.3355
20
2.9518
0
SEQEND
8
0
0
POLYLINE
8
Layer 1
66
1
0
VERTEX
8
0
10
11.3548
20
2.8028
42
-0.6992
0
VERTEX
8
0
10
11.3680
20
2.8148
42
-0.0651
0
VERTEX
8
0
10
11.4170
20
2.8078
42
-0.0161
0
VERTEX
8
0
10
11.4364
20
2.8033
42
-0.3296
0
VERTEX
8
0
10
11.4406
20
2.7974
42
-0.0971
0
VERTEX
8
0
10
11.4314
20
2.7929
42
-0.1686
0
VERTEX
8
0
10
11.3719
20
2.7907
42
-0.1824
0
VERTEX
8
0
10
11.3548
20
2.8028
0
SEQEND
8
0
0
POLYLINE
8
Layer 1
66
1
0
VERTEX
8
0
10
11.1116
20
2.7382
42
-0.4625
0
VERTEX
8
0
10
11.1025
20
2.7375
42
-0.0426
0
VERTEX
8
0
10
11.0933
20
2.7419
42
-0.2190
0
VERTEX
8
0
10
11.0565
20
2.7911
42
0.0210
0
VERTEX
8
0
10
11.0439
20
2.8180
42
0.4520
0
VERTEX
8
0
10
11.0315
20
2.8194
42
0.0486
0
VERTEX
8
0
10
11.0202
20
2.8088
42
0.3293
0
VERTEX
8
0
10
11.0110
20
2.7481
42
-0.0269
0
VERTEX
8
0
10
11.0167
20
2.7222
42
-0.2353
0
VERTEX
8
0
10
11.0082
20
2.6989
42
-0.0722
0
VERTEX
8
0
10
10.9898
20
2.6906
42
-0.3508
0
VERTEX
8
0
10
10.9735
20
2.7003
42
-0.2691
0
VERTEX
8
0
10
10.9734
20
2.7311
42
0.2620
0
VERTEX
8
0
10
10.9638
20
2.7758
42
-0.0887
0
VERTEX
8
0
10
10.9532
20
2.8007
42
-0.2063
0
VERTEX
8
0
10
10.9653
20
2.8251
42
0.1552
0
VERTEX
8
0
10
10.9905
20
2.9071
42
-0.1213
0
VERTEX
8
0
10
11.0227
20
2.9885
42
-0.3167
0
VERTEX
8
0
10
11.1023
20
3.0025
42
0.0308
0
VERTEX
8
0
10
11.1455
20
2.9972
42
0.1269
0
VERTEX
8
0
10
11.1873
20
3.0076
42
-0.0205
0
VERTEX
8
0
10
11.2155
20
3.0208
42
-0.5876
0
VERTEX
8
0
10
11.2232
20
3.0136
42
-0.0482
0
VERTEX
8
0
10
11.2169
20
2.9982
42
-0.4252
0
VERTEX
8
0
10
11.1307
20
2.9679
42
0.2203
0
VERTEX
8
0
10
11.0490
20
2.9719
42
0.1607
0
VERTEX
8
0
10
11.0176
20
2.9452
42
0.3491
0
VERTEX
8
0
10
11.0274
20
2.9073
42
0.3229
0
VERTEX
8
0
10
11.0831
20
2.8982
42
-0.0259
0
VERTEX
8
0
10
11.1213
20
2.9069
42
-0.1551
0
VERTEX
8
0
10
11.1384
20
2.9041
42
-0.2831
0
VERTEX
8
0
10
11.1232
20
2.8928
42
0.1418
0
VERTEX
8
0
10
11.0902
20
2.8602
42
0.2519
0
VERTEX
8
0
10
11.0986
20
2.8146
42
-0.1048
0
VERTEX
8
0
10
11.1141
20
2.7576
42
-0.0650
0
VERTEX
8
0
10
11.1116
20
2.7382
0
SEQEND
8
0
0
POLYLINE
8
Layer 1
66
1
0
VERTEX
8
0
10
11.2327
20
2.2787
42
-0.0318
0
VERTEX
8
0
10
11.2654
20
2.2894
42
-0.2941
0
VERTEX
8
0
10
11.2952
20
2.2749
42
0.0438
0
VERTEX
8
0
10
11.3316
20
2.2473
42
0.0719
0
VERTEX
8
0
10
11.3527
20
2.2390
42
0.2412
0
VERTEX
8
0
10
11.3734
20
2.2456
42
0.2358
0
VERTEX
8
0
10
11.3782
20
2.2660
42
-0.4070
0
VERTEX
8
0
10
11.3786
20
2.2799
42
-0.0507
0
VERTEX
8
0
10
11.3852
20
2.2929
42
-0.0425
0
VERTEX
8
0
10
11.4024
20
2.3164
42
-0.0949
0
VERTEX
8
0
10
11.4475
20
2.3530
42
0.0689
0
VERTEX
8
0
10
11.5128
20
2.3791
42
-0.1878
0
VERTEX
8
0
10
11.5961
20
2.3870
42
-0.0240
0
VERTEX
8
0
10
11.6549
20
2.3680
42
-0.3513
0
VERTEX
8
0
10
11.6658
20
2.3431
42
-0.0796
0
VERTEX
8
0
10
11.6500
20
2.3157
42
0.0727
0
VERTEX
8
0
10
11.6296
20
2.2726
42
0.2440
0
VERTEX
8
0
10
11.6432
20
2.2282
42
0.1002
0
VERTEX
8
0
10
11.7169
20
2.1666
42
0.0495
0
VERTEX
8
0
10
11.8095
20
2.1143
42
0.1909
0
VERTEX
8
0
10
11.8351
20
2.1389
42
0.0194
0
VERTEX
8
0
10
11.8571
20
2.1671
42
0.1299
0
VERTEX
8
0
10
11.8982
20
2.2731
42
-0.0516
0
VERTEX
8
0
10
11.9139
20
2.3500
42
-0.0235
0
VERTEX
8
0
10
11.9267
20
2.3872
42
-0.1030
0
VERTEX
8
0
10
11.9483
20
2.4189
42
-0.3409
0
VERTEX
8
0
10
11.9574
20
2.4068
42
-0.0244
0
VERTEX
8
0
10
11.9636
20
2.3926
42
-0.0241
0
VERTEX
8
0
10
11.9735
20
2.3632
42
0.0992
0
VERTEX
8
0
10
12.0150
20
2.2837
42
-0.1910
0
VERTEX
8
0
10
12.0518
20
2.2047
42
-0.1023
0
VERTEX
8
0
10
12.0518
20
2.1172
42
0.1240
0
VERTEX
8
0
10
12.0504
20
2.0765
42
0.1112
0
VERTEX
8
0
10
12.0772
20
2.0443
42
-0.1041
0
VERTEX
8
0
10
12.1464
20
1.9346
42
0.0500
0
VERTEX
8
0
10
12.2200
20
1.8085
0
VERTEX
8
0
10
12.2602
20
1.7553
0
VERTEX
8
0
10
12.2487
20
1.6731
42
-0.0881
0
VERTEX
8
0
10
12.2020
20
1.5284
42
-0.0431
0
VERTEX
8
0
10
12.1464
20
1.4472
42
-0.0817
0
VERTEX
8
0
10
12.0731
20
1.3827
42
0.1853
0
VERTEX
8
0
10
12.0418
20
1.3565
42
0.0307
0
VERTEX
8
0
10
12.0158
20
1.3247
42
-0.0602
0
VERTEX
8
0
10
11.9686
20
1.2731
42
0.2389
0
VERTEX
8
0
10
11.9534
20
1.2618
42
0.0175
0
VERTEX
8
0
10
11.9402
20
1.2481
42
0.0182
0
VERTEX
8
0
10
11.9156
20
1.2190
42
-0.0281
0
VERTEX
8
0
10
11.8795
20
1.1783
42
-0.2143
0
VERTEX
8
0
10
11.8283
20
1.1641
42
0.1615
0
VERTEX
8
0
10
11.7472
20
1.1353
0
VERTEX
8
0
10
11.7106
20
1.1074
0
VERTEX
8
0
10
11.6866
20
1.1330
42
0.0521
0
VERTEX
8
0
10
11.6654
20
1.1513
42
0.3599
0
VERTEX
8
0
10
11.6395
20
1.1434
42
-0.2584
0
VERTEX
8
0
10
11.5780
20
1.1389
42
-0.1046
0
VERTEX
8
0
10
11.5218
20
1.1674
42
-0.0740
0
VERTEX
8
0
10
11.5040
20
1.1859
42
-0.3138
0
VERTEX
8
0
10
11.5098
20
1.2103
42
0.2381
0
VERTEX
8
0
10
11.5110
20
1.2593
42
-0.0905
0
VERTEX
8
0
10
11.4996
20
1.3048
42
0.2761
0
VERTEX
8
0
10
11.4879
20
1.3244
42
0.3236
0
VERTEX
8
0
10
11.4696
20
1.3070
42
-0.2343
0
VERTEX
8
0
10
11.4528
20
1.2955
42
-0.4156
0
VERTEX
8
0
10
11.4560
20
1.3080
42
-0.0324
0
VERTEX
8
0
10
11.4631
20
1.3193
42
-0.0299
0
VERTEX
8
0
10
11.4796
20
1.3403
42
0.0306
0
VERTEX
8
0
10
11.4972
20
1.3629
42
0.2059
0
VERTEX
8
0
10
11.5014
20
1.3882
42
0.3241
0
VERTEX
8
0
10
11.4741
20
1.3816
42
0.0367
0
VERTEX
8
0
10
11.4474
20
1.3658
42
0.0521
0
VERTEX
8
0
10
11.3969
20
1.3239
42
-0.7232
0
VERTEX
8
0
10
11.3919
20
1.3253
0
VERTEX
8
0
10
11.3879
20
1.3303
42
-0.0264
0
VERTEX
8
0
10
11.3811
20
1.3409
42
-0.0230
0
VERTEX
8
0
10
11.3694
20
1.3635
42
0.1216
0
VERTEX
8
0
10
11.3086
20
1.4381
42
0.2142
0
VERTEX
8
0
10
11.2007
20
1.4553
42
0.0758
0
VERTEX
8
0
10
10.9586
20
1.3935
42
-0.1046
0
VERTEX
8
0
10
10.8394
20
1.3620
42
0.0644
0
VERTEX
8
0
10
10.7001
20
1.3290
42
-0.0219
0
VERTEX
8
0
10
10.6500
20
1.3125
42
-0.1390
0
VERTEX
8
0
10
10.5982
20
1.3149
42
-0.0982
0
VERTEX
8
0
10
10.5650
20
1.3336
42
-0.1609
0
VERTEX
8
0
10
10.5565
20
1.3502
42
-0.3611
0
VERTEX
8
0
10
10.5684
20
1.3635
42
0.2280
0
VERTEX
8
0
10
10.5899
20
1.3877
42
0.0393
0
VERTEX
8
0
10
10.6050
20
1.4167
42
0.1657
0
VERTEX
8
0
10
10.6131
20
1.5239
42
-0.0949
0
VERTEX
8
0
10
10.6123
20
1.6775
42
0.0364
0
VERTEX
8
0
10
10.6174
20
1.7930
42
-0.1514
0
VERTEX
8
0
10
10.6192
20
1.8270
42
-0.0418
0
VERTEX
8
0
10
10.6286
20
1.8600
42
-0.1951
0
VERTEX
8
0
10
10.6838
20
1.9195
42
-0.0228
0
VERTEX
8
0
10
10.7609
20
1.9535
42
-0.0380
0
VERTEX
8
0
10
10.9050
20
2.0023
42
0.2082
0
VERTEX
8
0
10
10.9794
20
2.0348
42
0.0983
0
VERTEX
8
0
10
11.0308
20
2.0989
42
-0.0267
0
VERTEX
8
0
10
11.0472
20
2.1263
42
-0.1947
0
VERTEX
8
0
10
11.0725
20
2.1422
42
0.0467
0
VERTEX
8
0
10
11.0972
20
2.1352
42
0.6554
0
VERTEX
8
0
10
11.1066
20
2.1553
42
-0.3300
0
VERTEX
8
0
10
11.1237
20
2.1843
42
0.1632
0
VERTEX
8
0
10
11.1481
20
2.2027
42
0.0440
0
VERTEX
8
0
10
11.1677
20
2.2264
42
-0.1489
0
VERTEX
8
0
10
11.2327
20
2.2787
0
SEQEND
8
0
0
POLYLINE
8
Layer 1
66
1
0
VERTEX
8
0
10
11.1422
20
2.4788
42
-0.1299
0
VERTEX
8
0
10
11.1545
20
2.5004
42
-0.3012
0
VERTEX
8
0
10
11.2733
20
2.5464
42
-0.0085
0
VERTEX
8
0
10
11.2936
20
2.5395
0
VERTEX
8
0
10
11.2925
20
2.5353
42
-0.0239
0
VERTEX
8
0
10
11.2802
20
2.5346
42
0.1324
0
VERTEX
8
0
10
11.2409
20
2.5220
42
0.0339
0
VERTEX
8
0
10
11.2044
20
2.5023
42
-0.0219
0
VERTEX
8
0
10
11.1611
20
2.4774
42
-0.0391
0
VERTEX
8
0
10
11.1494
20
2.4730
42
-0.4852
0
VERTEX
8
0
10
11.1422
20
2.4788
0
SEQEND
8
0
0
POLYLINE
8
Layer 1
66
1
0
VERTEX
8
0
10
11.0109
20
2.5376
42
0.1714
0
VERTEX
8
0
10
11.0609
20
2.5295
42
0.0122
0
VERTEX
8
0
10
11.0831
20
2.5338
42
0.0244
0
VERTEX
8
0
10
11.0925
20
2.5362
42
0.8764
0
VERTEX
8
0
10
11.0993
20
2.5414
42
0.0355
0
VERTEX
8
0
10
11.0629
20
2.5541
42
0.0766
0
VERTEX
8
0
10
11.0239
20
2.5608
42
0.3576
0
VERTEX
8
0
10
11.0054
20
2.5555
42
0.1986
0
VERTEX
8
0
10
11.0109
20
2.5376
0
SEQEND
8
0
0
POLYLINE
8
Layer 1
66
1
0
VERTEX
8
0
10
10.9683
20
2.5017
42
-0.2748
0
VERTEX
8
0
10
11.0096
20
2.4776
42
-0.3668
0
VERTEX
8
0
10
10.9937
20
2.4801
42
-0.0370
0
VERTEX
8
0
10
10.9787
20
2.4871
42
-0.0347
0
VERTEX
8
0
10
10.9679
20
2.4941
42
-0.5123
0
VERTEX
8
0
10
10.9683
20
2.5017
0
SEQEND
8
0
0
POLYLINE
8
Layer 1
66
1
0
VERTEX
8
0
10
10.8491
20
2.5448
42
-0.3056
0
VERTEX
8
0
10
10.8688
20
2.5528
42
-0.0435
0
VERTEX
8
0
10
10.8904
20
2.5541
42
-0.1159
0
VERTEX
8
0
10
10.9318
20
2.5439
42
-0.6652
0
VERTEX
8
0
10
10.9246
20
2.5334
42
0.0596
0
VERTEX
8
0
10
10.8902
20
2.5288
42
-0.1204
0
VERTEX
8
0
10
10.8563
20
2.5298
42
-0.3820
0
VERTEX
8
0
10
10.8491
20
2.5448
0
SEQEND
8
0
0
POLYLINE
8
Layer 1
66
1
0
VERTEX
8
0
10
10.8205
20
2.5702
0
VERTEX
8
0
10
10.8505
20
2.6571
0
VERTEX
8
0
10
10.9110
20
2.8306
0
VERTEX
8
0
10
11.0308
20
3.1779
42
-1.1351
0
VERTEX
8
0
10
11.0359
20
3.1777
42
-0.1534
0
VERTEX
8
0
10
11.0306
20
3.1556
42
-0.0056
0
VERTEX
8
0
10
11.0239
20
3.1337
42
-0.0036
0
VERTEX
8
0
10
11.0099
20
3.0902
42
-0.0031
0
VERTEX
8
0
10
10.9809
20
3.0034
42
-0.0028
0
VERTEX
8
0
10
10.9214
20
2.8305
0
VERTEX
8
0
10
10.8593
20
2.6540
0
VERTEX
8
0
10
10.8277
20
2.5660
42
-0.0035
0
VERTEX
8
0
10
10.8114
20
2.5222
42
-0.0056
0
VERTEX
8
0
10
10.8028
20
2.5005
42
-0.0080
0
VERTEX
8
0
10
10.7982
20
2.4897
42
-0.1945
0
VERTEX
8
0
10
10.7912
20
2.4832
42
-0.0441
0
VERTEX
8
0
10
10.8205
20
2.5702
0
SEQEND
8
0
0
POLYLINE
8
Layer 1
66
1
0
VERTEX
8
0
10
10.4422
20
2.6539
42
-0.1158
0
VERTEX
8
0
10
10.5176
20
2.6316
42
0.2659
0
VERTEX
8
0
10
10.5899
20
2.6277
42
-0.0383
0
VERTEX
8
0
10
10.6306
20
2.6336
42
-0.1910
0
VERTEX
8
0
10
10.6678
20
2.6173
42
0.0693
0
VERTEX
8
0
10
10.7071
20
2.5960
42
-0.1685
0
VERTEX
8
0
10
10.7500
20
2.5806
42
-0.0970
0
VERTEX
8
0
10
10.7849
20
2.5526
42
-0.3180
0
VERTEX
8
0
10
10.7672
20
2.5454
42
-0.0081
0
VERTEX
8
0
10
10.6871
20
2.5562
42
-0.0376
0
VERTEX
8
0
10
10.5704
20
2.5817
42
0.0937
0
VERTEX
8
0
10
10.4999
20
2.5909
42
-0.1647
0
VERTEX
8
0
10
10.4666
20
2.5920
42
-0.0276
0
VERTEX
8
0
10
10.4339
20
2.5994
42
-0.0875
0
VERTEX
8
0
10
10.3746
20
2.6277
42
-0.4712
0
VERTEX
8
0
10
10.4028
20
2.6512
42
-0.0813
0
VERTEX
8
0
10
10.4422
20
2.6539
0
SEQEND
8
0
0
POLYLINE
8
Layer 1
66
1
0
VERTEX
8
0
10
10.5442
20
3.0166
42
-0.3897
0
VERTEX
8
0
10
10.5811
20
3.0240
42
0.1429
0
VERTEX
8
0
10
10.6034
20
3.0193
42
0.2257
0
VERTEX
8
0
10
10.6162
20
3.0392
42
-0.2003
0
VERTEX
8
0
10
10.6668
20
3.0859
42
0.1571
0
VERTEX
8
0
10
10.7179
20
3.1367
42
-0.2308
0
VERTEX
8
0
10
10.7664
20
3.1797
42
0.1649
0
VERTEX
8
0
10
10.8290
20
3.2271
42
-0.0933
0
VERTEX
8
0
10
10.8685
20
3.2627
42
-0.2394
0
VERTEX
8
0
10
10.8930
20
3.2479
42
-0.0296
0
VERTEX
8
0
10
10.9142
20
3.2283
0
VERTEX
8
0
10
10.9475
20
3.1939
0
VERTEX
8
0
10
10.9208
20
3.1580
42
0.3572
0
VERTEX
8
0
10
10.9264
20
3.0338
0
VERTEX
8
0
10
10.9473
20
3.0045
0
VERTEX
8
0
10
10.9213
20
2.9875
42
0.1392
0
VERTEX
8
0
10
10.8954
20
2.9578
42
-0.1498
0
VERTEX
8
0
10
10.8807
20
2.9122
42
-0.0148
0
VERTEX
8
0
10
10.8608
20
2.8684
42
-0.0424
0
VERTEX
8
0
10
10.8120
20
2.7859
42
-0.3423
0
VERTEX
8
0
10
10.7668
20
2.7905
42
0.1457
0
VERTEX
8
0
10
10.7198
20
2.7996
42
-0.1380
0
VERTEX
8
0
10
10.6839
20
2.7988
42
-0.0260
0
VERTEX
8
0
10
10.6482
20
2.8041
42
-0.0742
0
VERTEX
8
0
10
10.5807
20
2.8279
42
-0.1101
0
VERTEX
8
0
10
10.5556
20
2.8985
42
-0.0140
0
VERTEX
8
0
10
10.5360
20
2.9710
42
-0.2074
0
VERTEX
8
0
10
10.5442
20
3.0166
0
SEQEND
8
0
0
POLYLINE
8
Layer 1
66
1
0
VERTEX
8
0
10
9.9439
20
3.1986
42
-0.3821
0
VERTEX
8
0
10
9.9498
20
3.2104
42
-0.1315
0
VERTEX
8
0
10
9.9852
20
3.2001
42
-0.0308
0
VERTEX
8
0
10
10.0182
20
3.1833
42
-0.0566
0
VERTEX
8
0
10
10.0777
20
3.1393
42
0.0054
0
VERTEX
8
0
10
10.1437
20
3.0717
42
0.0501
0
VERTEX
8
0
10
10.2173
20
3.0127
42
-0.0685
0
VERTEX
8
0
10
10.2562
20
2.9807
42
-0.1552
0
VERTEX
8
0
10
10.2750
20
2.9346
42
0.1840
0
VERTEX
8
0
10
10.2852
20
2.9153
42
0.0298
0
VERTEX
8
0
10
10.2989
20
2.8981
0
VERTEX
8
0
10
10.3528
20
2.8382
42
-0.1056
0
VERTEX
8
0
10
10.3900
20
2.7738
42
-0.2089
0
VERTEX
8
0
10
10.3770
20
2.7085
42
-0.3509
0
VERTEX
8
0
10
10.3165
20
2.6933
42
-0.1262
0
VERTEX
8
0
10
10.2426
20
2.7650
42
-0.0531
0
VERTEX
8
0
10
10.1868
20
2.8519
42
0.0660
0
VERTEX
8
0
10
10.1250
20
2.9554
42
-0.0303
0
VERTEX
8
0
10
10.0693
20
3.0387
42
0.1036
0
VERTEX
8
0
10
10.0100
20
3.1116
42
-0.0342
0
VERTEX
8
0
10
9.9678
20
3.1582
42
-0.0321
0
VERTEX
8
0
10
9.9502
20
3.1843
42
-0.0471
0
VERTEX
8
0
10
9.9439
20
3.1986
0
SEQEND
8
0
0
POLYLINE
8
Layer 1
66
1
0
VERTEX
8
0
10
9.2775
20
3.2492
42
0.3607
0
VERTEX
8
0
10
9.3352
20
3.2667
42
0.1624
0
VERTEX
8
0
10
9.3297
20
3.3157
42
0.0335
0
VERTEX
8
0
10
9.3038
20
3.3599
42
0.0364
0
VERTEX
8
0
10
9.2858
20
3.3853
42
0.7400
0
VERTEX
8
0
10
9.2738
20
3.3895
42
0.0315
0
VERTEX
8
0
10
9.2676
20
3.3756
42
0.0585
0
VERTEX
8
0
10
9.2650
20
3.3118
42
0.0242
0
VERTEX
8
0
10
9.2687
20
3.2799
42
0.1335
0
VERTEX
8
0
10
9.2775
20
3.2492
0
SEQEND
8
0
0
POLYLINE
8
Layer 1
66
1
0
VERTEX
8
0
10
8.2287
20
2.6898
42
-0.4131
0
VERTEX
8
0
10
8.2183
20
2.7002
42
-0.4131
0
VERTEX
8
0
10
8.2287
20
2.7106
42
-0.4131
0
VERTEX
8
0
10
8.2391
20
2.7002
42
-0.4131
0
VERTEX
8
0
10
8.2287
20
2.6898
0
SEQEND
8
0
0
POLYLINE
8
Layer 1
66
1
0
VERTEX
8
0
10
8.2496
20
1.9964
42
0.2132
0
VERTEX
8
0
10
8.2600
20
1.9919
42
0.3973
0
VERTEX
8
0
10
8.2704
20
2.0029
42
0.5373
0
VERTEX
8
0
10
8.2600
20
2.0075
42
0.2945
0
VERTEX
8
0
10
8.2496
20
1.9964
0
SEQEND
8
0
0
POLYLINE
8
Layer 1
66
1
0
VERTEX
8
0
10
8.1766
20
1.9606
42
0.4131
0
VERTEX
8
0
10
8.1871
20
1.9502
42
0.4131
0
VERTEX
8
0
10
8.1975
20
1.9606
42
0.4131
0
VERTEX
8
0
10
8.1871
20
1.9710
42
0.4131
0
VERTEX
8
0
10
8.1766
20
1.9606
0
SEQEND
8
0
0
POLYLINE
8
Layer 1
66
1
0
VERTEX
8
0
10
7.7532
20
2.1958
42
0.1285
0
VERTEX
8
0
10
7.7993
20
2.2193
42
0.0333
0
VERTEX
8
0
10
7.8401
20
2.2518
42
0.0716
0
VERTEX
8
0
10
7.9067
20
2.3313
0
VERTEX
8
0
10
7.9232
20
2.3670
0
VERTEX
8
0
10
7.9347
20
2.3418
42
-0.1613
0
VERTEX
8
0
10
7.9470
20
2.2255
42
-0.0417
0
VERTEX
8
0
10
7.9104
20
2.1115
42
0.0167
0
VERTEX
8
0
10
7.8463
20
1.9137
42
-0.0219
0
VERTEX
8
0
10
7.8209
20
1.8265
42
-0.2020
0
VERTEX
8
0
10
7.7604
20
1.7640
42
-0.0089
0
VERTEX
8
0
10
7.7257
20
1.7543
42
-0.2461
0
VERTEX
8
0
10
7.6923
20
1.7647
42
-0.1676
0
VERTEX
8
0
10
7.6597
20
1.8016
42
-0.0595
0
VERTEX
8
0
10
7.6510
20
1.8517
42
-0.0646
0
VERTEX
8
0
10
7.6512
20
1.9084
42
-0.1002
0
VERTEX
8
0
10
7.6768
20
1.9593
42
0.0462
0
VERTEX
8
0
10
7.7028
20
2.0116
42
0.1279
0
VERTEX
8
0
10
7.7022
20
2.0699
42
-0.0713
0
VERTEX
8
0
10
7.7035
20
2.1450
42
-0.2738
0
VERTEX
8
0
10
7.7532
20
2.1958
0
SEQEND
8
0
0
POLYLINE
8
Layer 1
66
1
0
VERTEX
8
0
10
7.7027
20
2.3460
42
0.2933
0
VERTEX
8
0
10
7.7137
20
2.3356
42
0.2132
0
VERTEX
8
0
10
7.7183
20
2.3460
42
0.3973
0
VERTEX
8
0
10
7.7073
20
2.3564
42
0.5366
0
VERTEX
8
0
10
7.7027
20
2.3460
0
SEQEND
8
0
0
POLYLINE
8
Layer 1
66
1
0
VERTEX
8
0
10
6.1141
20
2.9971
42
-0.5379
0
VERTEX
8
0
10
6.1246
20
2.9925
42
-0.3974
0
VERTEX
8
0
10
6.1141
20
2.9814
42
-0.2131
0
VERTEX
8
0
10
6.1037
20
2.9860
42
-0.2945
0
VERTEX
8
0
10
6.1141
20
2.9971
0
SEQEND
8
0
0
POLYLINE
8
Layer 1
66
1
0
VERTEX
8
0
10
6.1662
20
3.1110
42
0.2131
0
VERTEX
8
0
10
6.1766
20
3.1064
42
0.3974
0
VERTEX
8
0
10
6.1871
20
3.1175
42
0.5379
0
VERTEX
8
0
10
6.1766
20
3.1221
42
0.2945
0
VERTEX
8
0
10
6.1662
20
3.1110
0
SEQEND
8
0
0
POLYLINE
8
Layer 1
66
1
0
VERTEX
8
0
10
4.7554
20
3.7523
42
-0.2945
0
VERTEX
8
0
10
4.7443
20
3.7627
42
-0.5379
0
VERTEX
8
0
10
4.7489
20
3.7731
42
-0.3974
0
VERTEX
8
0
10
4.7600
20
3.7627
42
-0.2131
0
VERTEX
8
0
10
4.7554
20
3.7523
0
SEQEND
8
0
0
POLYLINE
8
Layer 1
66
1
0
VERTEX
8
0
10
4.8537
20
3.6689
42
-0.4131
0
VERTEX
8
0
10
4.8433
20
3.6794
42
-0.4131
0
VERTEX
8
0
10
4.8537
20
3.6898
42
-0.4131
0
VERTEX
8
0
10
4.8641
20
3.6794
42
-0.4131
0
VERTEX
8
0
10
4.8537
20
3.6689
0
SEQEND
8
0
0
POLYLINE
8
Layer 1
66
1
0
VERTEX
8
0
10
4.1290
20
2.2698
42
-0.1040
0
VERTEX
8
0
10
4.1087
20
2.0700
42
-0.0307
0
VERTEX
8
0
10
4.0792
20
1.9737
42
-0.0792
0
VERTEX
8
0
10
4.0287
20
1.8872
42
-0.2423
0
VERTEX
8
0
10
3.9668
20
1.8729
42
0.1445
0
VERTEX
8
0
10
3.9213
20
1.8667
42
-0.1728
0
VERTEX
8
0
10
3.8975
20
1.8491
42
-0.0264
0
VERTEX
8
0
10
3.8708
20
1.8358
42
0.0719
0
VERTEX
8
0
10
3.7923
20
1.7866
42
0.0469
0
VERTEX
8
0
10
3.7650
20
1.7586
42
0.2951
0
VERTEX
8
0
10
3.7689
20
1.7204
42
-0.2572
0
VERTEX
8
0
10
3.7452
20
1.5940
42
0.1433
0
VERTEX
8
0
10
3.7287
20
1.5452
42
-0.1982
0
VERTEX
8
0
10
3.7046
20
1.4876
42
0.0395
0
VERTEX
8
0
10
3.6476
20
1.3974
42
-0.0722
0
VERTEX
8
0
10
3.5952
20
1.3296
42
-0.3051
0
VERTEX
8
0
10
3.5122
20
1.3285
42
0.0241
0
VERTEX
8
0
10
3.4676
20
1.3421
42
0.0392
0
VERTEX
8
0
10
3.4446
20
1.3455
42
0.2748
0
VERTEX
8
0
10
3.4266
20
1.3354
42
0.3060
0
VERTEX
8
0
10
3.4368
20
1.3222
42
0.0593
0
VERTEX
8
0
10
3.4514
20
1.3135
42
-0.1561
0
VERTEX
8
0
10
3.4785
20
1.2886
42
-0.0498
0
VERTEX
8
0
10
3.4985
20
1.2574
42
-0.0337
0
VERTEX
8
0
10
3.5128
20
1.2231
42
-0.1834
0
VERTEX
8
0
10
3.5092
20
1.1870
42
-0.2285
0
VERTEX
8
0
10
3.4550
20
1.1421
42
-0.0998
0
VERTEX
8
0
10
3.3852
20
1.1273
42
0.0748
0
VERTEX
8
0
10
3.3456
20
1.1213
42
0.5584
0
VERTEX
8
0
10
3.3432
20
1.0858
42
-0.2211
0
VERTEX
8
0
10
3.3452
20
1.0482
42
-0.1116
0
VERTEX
8
0
10
3.3272
20
1.0145
42
-0.2986
0
VERTEX
8
0
10
3.3087
20
1.0200
42
-0.0187
0
VERTEX
8
0
10
3.2910
20
1.0284
42
0.1478
0
VERTEX
8
0
10
3.2484
20
1.0363
42
0.4009
0
VERTEX
8
0
10
3.2451
20
1.0153
42
0.0673
0
VERTEX
8
0
10
3.2538
20
0.9938
42
0.1521
0
VERTEX
8
0
10
3.2919
20
0.9552
42
-0.1261
0
VERTEX
8
0
10
3.3078
20
0.9452
42
-0.2515
0
VERTEX
8
0
10
3.2959
20
0.9288
42
0.2204
0
VERTEX
8
0
10
3.2847
20
0.8925
42
-0.2795
0
VERTEX
8
0
10
3.2792
20
0.8647
42
-0.0546
0
VERTEX
8
0
10
3.2639
20
0.8401
42
0.0328
0
VERTEX
8
0
10
3.2443
20
0.8105
42
0.3430
0
VERTEX
8
0
10
3.2541
20
0.7778
42
0.1073
0
VERTEX
8
0
10
3.2874
20
0.7451
42
-0.3424
0
VERTEX
8
0
10
3.3150
20
0.6995
42
-0.1358
0
VERTEX
8
0
10
3.3001
20
0.6450
42
0.0740
0
VERTEX
8
0
10
3.2807
20
0.5872
42
0.1641
0
VERTEX
8
0
10
3.2910
20
0.5286
42
-0.4220
0
VERTEX
8
0
10
3.2888
20
0.5066
42
-0.1055
0
VERTEX
8
0
10
3.2710
20
0.4907
42
-0.1982
0
VERTEX
8
0
10
3.2256
20
0.4830
42
0.1996
0
VERTEX
8
0
10
3.1887
20
0.4872
42
-0.4582
0
VERTEX
8
0
10
3.1560
20
0.5072
42
0.1380
0
VERTEX
8
0
10
3.1255
20
0.5389
42
-0.2243
0
VERTEX
8
0
10
3.0955
20
0.5690
42
-0.0293
0
VERTEX
8
0
10
3.0726
20
0.6053
42
-0.0390
0
VERTEX
8
0
10
3.0364
20
0.6832
42
0.1360
0
VERTEX
8
0
10
2.9879
20
0.7509
42
-0.0473
0
VERTEX
8
0
10
2.9626
20
0.7687
42
-0.4018
0
VERTEX
8
0
10
2.9631
20
0.7819
42
-0.1105
0
VERTEX
8
0
10
2.9775
20
0.7883
42
0.3861
0
VERTEX
8
0
10
3.0045
20
0.8350
42
0.1613
0
VERTEX
8
0
10
2.9881
20
0.8891
42
-0.1556
0
VERTEX
8
0
10
2.9729
20
0.9368
42
0.2588
0
VERTEX
8
0
10
2.9702
20
0.9547
42
0.0574
0
VERTEX
8
0
10
2.9603
20
0.9705
42
0.0380
0
VERTEX
8
0
10
2.9357
20
0.9985
42
-0.0422
0
VERTEX
8
0
10
2.9018
20
1.0391
42
-0.1478
0
VERTEX
8
0
10
2.8899
20
1.0902
42
0.0920
0
VERTEX
8
0
10
2.8759
20
1.1517
42
-0.2189
0
VERTEX
8
0
10
2.8688
20
1.1801
42
-0.0240
0
VERTEX
8
0
10
2.8679
20
1.2098
42
-0.0163
0
VERTEX
8
0
10
2.8704
20
1.2691
42
0.0616
0
VERTEX
8
0
10
2.8589
20
1.4606
42
-0.0474
0
VERTEX
8
0
10
2.8357
20
1.6852
42
-0.0196
0
VERTEX
8
0
10
2.8340
20
1.9111
42
0.0624
0
VERTEX
8
0
10
2.8236
20
2.0204
42
0.1111
0
VERTEX
8
0
10
2.7922
20
2.0788
42
0.0486
0
VERTEX
8
0
10
2.7468
20
2.1276
42
0.0654
0
VERTEX
8
0
10
2.6373
20
2.2034
42
-0.0318
0
VERTEX
8
0
10
2.5750
20
2.2416
42
-0.1357
0
VERTEX
8
0
10
2.5345
20
2.3020
42
0.0516
0
VERTEX
8
0
10
2.4670
20
2.4110
42
-0.0697
0
VERTEX
8
0
10
2.4157
20
2.4995
42
0.0419
0
VERTEX
8
0
10
2.3808
20
2.5824
42
0.0761
0
VERTEX
8
0
10
2.3278
20
2.6542
42
-0.2008
0
VERTEX
8
0
10
2.2919
20
2.7079
42
-0.2681
0
VERTEX
8
0
10
2.3135
20
2.7908
42
0.0078
0
VERTEX
8
0
10
2.3323
20
2.8191
42
0.0937
0
VERTEX
8
0
10
2.3380
20
2.8348
42
0.4556
0
VERTEX
8
0
10
2.3238
20
2.8427
42
-0.4197
0
VERTEX
8
0
10
2.2978
20
2.8882
42
-0.1045
0
VERTEX
8
0
10
2.3192
20
2.9428
42
-0.0520
0
VERTEX
8
0
10
2.3857
20
3.0394
42
0.0658
0
VERTEX
8
0
10
2.4421
20
3.1336
42
0.1517
0
VERTEX
8
0
10
2.4474
20
3.2420
42
-0.0174
0
VERTEX
8
0
10
2.4347
20
3.3018
42
0.2977
0
VERTEX
8
0
10
2.4245
20
3.3148
42
-0.7289
0
VERTEX
8
0
10
2.4219
20
3.3242
42
-0.0693
0
VERTEX
8
0
10
2.4261
20
3.3345
42
0.4541
0
VERTEX
8
0
10
2.4129
20
3.3699
42
0.2881
0
VERTEX
8
0
10
2.3547
20
3.3710
42
0.0486
0
VERTEX
8
0
10
2.3347
20
3.3602
42
0.2566
0
VERTEX
8
0
10
2.3261
20
3.3412
42
-0.2082
0
VERTEX
8
0
10
2.3253
20
3.3225
42
-0.3213
0
VERTEX
8
0
10
2.3063
20
3.3204
42
-0.0874
0
VERTEX
8
0
10
2.2697
20
3.3348
42
0.0464
0
VERTEX
8
0
10
2.2166
20
3.3564
42
-0.2185
0
VERTEX
8
0
10
2.1882
20
3.3728
42
-0.0218
0
VERTEX
8
0
10
2.1623
20
3.3934
42
0.0052
0
VERTEX
8
0
10
2.1063
20
3.4407
42
-0.2691
0
VERTEX
8
0
10
2.0933
20
3.4750
42
0.2263
0
VERTEX
8
0
10
2.0729
20
3.5175
42
-0.1490
0
VERTEX
8
0
10
2.0405
20
3.5722
42
0.0318
0
VERTEX
8
0
10
2.0328
20
3.5914
42
0.3867
0
VERTEX
8
0
10
2.0172
20
3.5970
42
-0.3447
0
VERTEX
8
0
10
1.9648
20
3.5906
42
-0.0449
0
VERTEX
8
0
10
1.9129
20
3.6104
42
-0.1051
0
VERTEX
8
0
10
1.8337
20
3.6678
42
0.1107
0
VERTEX
8
0
10
1.7793
20
3.7166
42
0.2515
0
VERTEX
8
0
10
1.7029
20
3.7154
0
VERTEX
8
0
10
1.6577
20
3.6981
0
VERTEX
8
0
10
1.5187
20
3.7654
42
-0.0431
0
VERTEX
8
0
10
1.3464
20
3.8680
42
-0.0548
0
VERTEX
8
0
10
1.3197
20
3.9033
42
-0.2113
0
VERTEX
8
0
10
1.3241
20
3.9471
42
0.2226
0
VERTEX
8
0
10
1.3029
20
4.0569
42
0.0651
0
VERTEX
8
0
10
1.2390
20
4.1534
42
-0.1218
0
VERTEX
8
0
10
1.2120
20
4.1959
42
0.2534
0
VERTEX
8
0
10
1.2067
20
4.2164
42
0.0216
0
VERTEX
8
0
10
1.1976
20
4.2358
42
0.0214
0
VERTEX
8
0
10
1.1766
20
4.2731
42
-0.0839
0
VERTEX
8
0
10
1.1295
20
4.3897
42
0.0374
0
VERTEX
8
0
10
1.1216
20
4.4266
42
0.2055
0
VERTEX
8
0
10
1.0963
20
4.4531
42
0.0823
0
VERTEX
8
0
10
1.0734
20
4.4593
42
0.2858
0
VERTEX
8
0
10
1.0552
20
4.4446
42
0.3177
0
VERTEX
8
0
10
1.0539
20
4.3755
42
0.0321
0
VERTEX
8
0
10
1.0820
20
4.3090
42
-0.0607
0
VERTEX
8
0
10
1.1186
20
4.1960
42
0.0639
0
VERTEX
8
0
10
1.1458
20
4.1003
42
-0.0817
0
VERTEX
8
0
10
1.1570
20
4.0544
42
-0.3114
0
VERTEX
8
0
10
1.1307
20
4.0745
42
-0.0965
0
VERTEX
8
0
10
1.1141
20
4.1034
42
0.2824
0
VERTEX
8
0
10
1.0980
20
4.1277
42
-0.3385
0
VERTEX
8
0
10
1.0883
20
4.1698
42
0.3466
0
VERTEX
8
0
10
1.0632
20
4.2218
42
-0.0630
0
VERTEX
8
0
10
1.0311
20
4.2524
42
-0.2957
0
VERTEX
8
0
10
1.0311
20
4.2945
42
0.2587
0
VERTEX
8
0
10
1.0306
20
4.3322
42
0.0418
0
VERTEX
8
0
10
1.0147
20
4.3678
42
-0.1265
0
VERTEX
8
0
10
0.9944
20
4.4608
42
0.3239
0
VERTEX
8
0
10
0.9382
20
4.5747
42
-0.1897
0
VERTEX
8
0
10
0.9054
20
4.6063
42
-0.0577
0
VERTEX
8
0
10
0.8927
20
4.6517
42
-0.0656
0
VERTEX
8
0
10
0.8861
20
4.7250
42
0.3567
0
VERTEX
8
0
10
0.8857
20
4.7428
42
0.0676
0
VERTEX
8
0
10
0.8776
20
4.7593
42
-0.2538
0
VERTEX
8
0
10
0.8732
20
4.8108
42
0.1399
0
VERTEX
8
0
10
0.8788
20
4.8476
42
-0.4052
0
VERTEX
8
0
10
0.8848
20
4.8683
42
-0.0535
0
VERTEX
8
0
10
0.8985
20
4.8859
42
0.0975
0
VERTEX
8
0
10
0.9411
20
4.9537
42
-0.1051
0
VERTEX
8
0
10
1.0031
20
5.0442
42
0.0786
0
VERTEX
8
0
10
1.0735
20
5.1525
42
-0.0249
0
VERTEX
8
0
10
1.0909
20
5.1878
42
-0.1908
0
VERTEX
8
0
10
1.1208
20
5.2104
42
-0.2870
0
VERTEX
8
0
10
1.1416
20
5.1976
42
0.1986
0
VERTEX
8
0
10
1.1466
20
5.1803
42
0.3839
0
VERTEX
8
0
10
1.1637
20
5.1871
42
0.0862
0
VERTEX
8
0
10
1.1884
20
5.2158
42
0.1018
0
VERTEX
8
0
10
1.2071
20
5.2610
42
-0.3846
0
VERTEX
8
0
10
1.1975
20
5.2801
42
0.2061
0
VERTEX
8
0
10
1.1887
20
5.2977
42
0.0237
0
VERTEX
8
0
10
1.1766
20
5.3134
42
0.0259
0
VERTEX
8
0
10
1.1495
20
5.3424
42
-0.0131
0
VERTEX
8
0
10
1.1210
20
5.3715
42
-0.0748
0
VERTEX
8
0
10
1.1101
20
5.3886
42
-0.3309
0
VERTEX
8
0
10
1.1176
20
5.4066
42
0.3060
0
VERTEX
8
0
10
1.1229
20
5.4431
42
-0.2675
0
VERTEX
8
0
10
1.1236
20
5.4897
42
-0.2012
0
VERTEX
8
0
10
1.1545
20
5.5233
42
0.0846
0
VERTEX
8
0
10
1.1625
20
5.5247
42
0.7607
0
VERTEX
8
0
10
1.1610
20
5.5311
42
-0.2286
0
VERTEX
8
0
10
1.1450
20
5.5612
42
-0.0705
0
VERTEX
8
0
10
1.1434
20
5.5960
42
0.0844
0
VERTEX
8
0
10
1.1373
20
5.6508
42
0.2293
0
VERTEX
8
0
10
1.0962
20
5.6862
42
-0.0645
0
VERTEX
8
0
10
1.0253
20
5.7272
42
0.0972
0
VERTEX
8
0
10
0.9743
20
5.7523
42
-0.0809
0
VERTEX
8
0
10
0.9237
20
5.7614
42
-0.0089
0
VERTEX
8
0
10
0.8736
20
5.7733
42
0.0112
0
VERTEX
8
0
10
0.8179
20
5.7862
42
0.1452
0
VERTEX
8
0
10
0.7625
20
5.7797
42
-0.0532
0
VERTEX
8
0
10
0.6990
20
5.7551
42
-0.1177
0
VERTEX
8
0
10
0.6320
20
5.7539
42
0.3179
0
VERTEX
8
0
10
0.5803
20
5.7474
42
0.0236
0
VERTEX
8
0
10
0.5319
20
5.7236
42
-0.0399
0
VERTEX
8
0
10
0.4162
20
5.6742
42
0.0754
0
VERTEX
8
0
10
0.3309
20
5.6418
42
-0.0640
0
VERTEX
8
0
10
0.1155
20
5.5654
42
-0.1105
0
VERTEX
8
0
10
0.1072
20
5.5674
42
-0.6574
0
VERTEX
8
0
10
0.1129
20
5.5734
42
-0.0389
0
VERTEX
8
0
10
0.1287
20
5.5814
42
-0.0148
0
VERTEX
8
0
10
0.1610
20
5.5949
42
0.0444
0
VERTEX
8
0
10
0.3479
20
5.6889
42
0.6789
0
VERTEX
8
0
10
0.3355
20
5.7058
42
0.1251
0
VERTEX
8
0
10
0.3090
20
5.6993
42
-0.2546
0
VERTEX
8
0
10
0.2542
20
5.7031
0
VERTEX
8
0
10
0.2248
20
5.7185
0
VERTEX
8
0
10
0.2567
20
5.7350
42
0.1052
0
VERTEX
8
0
10
0.2916
20
5.7636
42
0.2317
0
VERTEX
8
0
10
0.2959
20
5.8079
42
-0.3517
0
VERTEX
8
0
10
0.3118
20
5.8425
42
-0.0928
0
VERTEX
8
0
10
0.3484
20
5.8601
42
-0.0528
0
VERTEX
8
0
10
0.4277
20
5.8778
42
0.0843
0
VERTEX
8
0
10
0.5442
20
5.9163
42
0.1209
0
VERTEX
8
0
10
0.5749
20
5.9503
42
0.4111
0
VERTEX
8
0
10
0.5678
20
5.9582
42
0.1115
0
VERTEX
8
0
10
0.5561
20
5.9581
42
0.0700
0
VERTEX
8
0
10
0.5326
20
5.9510
42
-0.1954
0
VERTEX
8
0
10
0.4568
20
5.9505
42
-0.0128
0
VERTEX
8
0
10
0.4293
20
5.9587
42
-0.2355
0
VERTEX
8
0
10
0.4208
20
5.9678
42
-0.1590
0
VERTEX
8
0
10
0.4318
20
5.9775
42
-0.1283
0
VERTEX
8
0
10
0.4997
20
6.0043
42
-0.0786
0
VERTEX
8
0
10
0.5727
20
6.0074
42
0.1575
0
VERTEX
8
0
10
0.6455
20
6.0180
0
VERTEX
8
0
10
0.6787
20
6.0351
0
VERTEX
8
0
10
0.6569
20
6.0584
42
-0.0574
0
VERTEX
8
0
10
0.6350
20
6.0879
42
-0.3534
0
VERTEX
8
0
10
0.6441
20
6.0959
42
-0.0324
0
VERTEX
8
0
10
0.6556
20
6.1009
42
-0.0287
0
VERTEX
8
0
10
0.6795
20
6.1087
42
-0.0514
0
VERTEX
8
0
10
0.7290
20
6.1169
42
0.0964
0
VERTEX
8
0
10
0.7774
20
6.1266
42
0.0201
0
VERTEX
8
0
10
0.8244
20
6.1420
42
-0.0707
0
VERTEX
8
0
10
1.0130
20
6.1840
42
-0.0151
0
VERTEX
8
0
10
1.1195
20
6.1954
42
-0.0630
0
VERTEX
8
0
10
1.2260
20
6.1857
42
0.0100
0
VERTEX
8
0
10
1.3798
20
6.1637
42
-0.0432
0
VERTEX
8
0
10
1.5150
20
6.1368
42
0.1375
0
VERTEX
8
0
10
1.7721
20
6.1381
42
-0.0530
0
VERTEX
8
0
10
1.8750
20
6.1532
42
0.2168
0
VERTEX
8
0
10
1.9157
20
6.1583
42
-0.2962
0
VERTEX
8
0
10
1.9670
20
6.1540
42
0.1810
0
VERTEX
8
0
10
2.0478
20
6.1443
42
-0.1283
0
VERTEX
8
0
10
2.1633
20
6.1283
42
0.0408
0
VERTEX
8
0
10
2.2512
20
6.1064
42
-0.0699
0
VERTEX
8
0
10
2.2684
20
6.1041
42
-0.4383
0
VERTEX
8
0
10
2.2623
20
6.0976
42
-0.0100
0
VERTEX
8
0
10
2.2541
20
6.0916
42
0.0343
0
VERTEX
8
0
10
2.2403
20
6.0798
42
0.6142
0
VERTEX
8
0
10
2.2441
20
6.0730
42
0.0334
0
VERTEX
8
0
10
2.2529
20
6.0693
42
0.1368
0
VERTEX
8
0
10
2.2931
20
6.0660
42
0.0230
0
VERTEX
8
0
10
2.3335
20
6.0684
42
-0.0190
0
VERTEX
8
0
10
2.3800
20
6.0715
42
-0.3519
0
VERTEX
8
0
10
2.4122
20
6.0416
0
VERTEX
8
0
10
2.4294
20
6.0084
0
VERTEX
8
0
10
2.4517
20
6.0364
42
-0.1806
0
VERTEX
8
0
10
2.5232
20
6.0792
42
-0.1495
0
VERTEX
8
0
10
2.6219
20
6.0788
42
0.1029
0
VERTEX
8
0
10
2.7158
20
6.0701
42
-0.1689
0
VERTEX
8
0
10
2.7891
20
6.0559
42
0.0546
0
VERTEX
8
0
10
2.8163
20
6.0406
42
0.3036
0
VERTEX
8
0
10
2.8437
20
6.0552
42
-0.1082
0
VERTEX
8
0
10
2.9082
20
6.0859
42
0.1076
0
VERTEX
8
0
10
2.9527
20
6.1093
42
0.4860
0
VERTEX
8
0
10
2.9460
20
6.1521
42
-0.1017
0
VERTEX
8
0
10
2.9329
20
6.1659
42
-0.3978
0
VERTEX
8
0
10
2.9472
20
6.1786
42
-0.0225
0
VERTEX
8
0
10
2.9824
20
6.1965
42
-0.0192
0
VERTEX
8
0
10
3.0168
20
6.2118
42
-0.1517
0
VERTEX
8
0
10
3.0525
20
6.2139
42
-0.4216
0
VERTEX
8
0
10
3.0522
20
6.1805
42
0.2150
0
VERTEX
8
0
10
3.0497
20
6.1417
42
0.3243
0
VERTEX
8
0
10
3.0785
20
6.1209
42
-0.1852
0
VERTEX
8
0
10
3.1085
20
6.1208
42
-0.3583
0
VERTEX
8
0
10
3.1168
20
6.1064
42
-0.0695
0
VERTEX
8
0
10
3.1070
20
6.0893
42
0.0704
0
VERTEX
8
0
10
3.0976
20
6.0693
42
0.3780
0
VERTEX
8
0
10
3.1071
20
6.0523
42
0.2264
0
VERTEX
8
0
10
3.1499
20
6.0612
42
0.0576
0
VERTEX
8
0
10
3.1878
20
6.0840
42
0.0237
0
VERTEX
8
0
10
3.2049
20
6.0981
42
0.0121
0
VERTEX
8
0
10
3.2129
20
6.1058
0
VERTEX
8
0
10
3.2175
20
6.1106
42
-0.3154
0
VERTEX
8
0
10
3.3164
20
6.1314
42
-0.1439
0
VERTEX
8
0
10
3.3312
20
6.1201
42
-0.3007
0
VERTEX
8
0
10
3.3241
20
6.1026
42
-0.0402
0
VERTEX
8
0
10
3.2990
20
6.0731
42
-0.0761
0
VERTEX
8
0
10
3.2384
20
6.0240
42
-0.1333
0
VERTEX
8
0
10
3.1612
20
6.0127
42
0.0915
0
VERTEX
8
0
10
3.0705
20
5.9961
42
-0.1973
0
VERTEX
8
0
10
3.0129
20
5.9910
42
0.1360
0
VERTEX
8
0
10
2.9787
20
5.9964
42
0.5269
0
VERTEX
8
0
10
2.9784
20
5.9801
42
0.0773
0
VERTEX
8
0
10
2.9895
20
5.9654
0
VERTEX
8
0
10
3.0123
20
5.9412
0
VERTEX
8
0
10
2.9668
20
5.9283
42
-0.0607
0
VERTEX
8
0
10
2.8746
20
5.9139
42
0.0256
0
VERTEX
8
0
10
2.8461
20
5.9115
42
0.2977
0
VERTEX
8
0
10
2.8276
20
5.8938
42
-0.2605
0
VERTEX
8
0
10
2.8187
20
5.8783
42
-0.0624
0
VERTEX
8
0
10
2.8036
20
5.8677
42
-0.0405
0
VERTEX
8
0
10
2.7703
20
5.8519
42
0.0540
0
VERTEX
8
0
10
2.6479
20
5.7857
42
0.0401
0
VERTEX
8
0
10
2.5942
20
5.7414
42
0.0545
0
VERTEX
8
0
10
2.5727
20
5.7141
42
0.3021
0
VERTEX
8
0
10
2.5753
20
5.6825
42
-0.1939
0
VERTEX
8
0
10
2.6010
20
5.6458
42
0.2384
0
VERTEX
8
0
10
2.6424
20
5.6116
42
-0.0899
0
VERTEX
8
0
10
2.7339
20
5.5750
42
0.0379
0
VERTEX
8
0
10
2.8277
20
5.5375
42
-0.0127
0
VERTEX
8
0
10
2.8510
20
5.5317
42
-0.2243
0
VERTEX
8
0
10
2.8674
20
5.5165
42
-0.1814
0
VERTEX
8
0
10
2.8534
20
5.4701
42
0.0259
0
VERTEX
8
0
10
2.8395
20
5.4288
42
0.2082
0
VERTEX
8
0
10
2.8487
20
5.3872
42
0.1395
0
VERTEX
8
0
10
2.8774
20
5.3568
42
0.2389
0
VERTEX
8
0
10
2.9319
20
5.3864
42
0.0990
0
VERTEX
8
0
10
2.9634
20
5.4415
42
-0.0719
0
VERTEX
8
0
10
2.9934
20
5.4956
42
-0.1029
0
VERTEX
8
0
10
3.0454
20
5.5295
42
0.0585
0
VERTEX
8
0
10
3.1195
20
5.5810
42
0.2167
0
VERTEX
8
0
10
3.1502
20
5.6621
42
-0.0909
0
VERTEX
8
0
10
3.1501
20
5.6954
42
-0.1928
0
VERTEX
8
0
10
3.1739
20
5.7191
42
0.1469
0
VERTEX
8
0
10
3.2229
20
5.7822
42
-0.3661
0
VERTEX
8
0
10
3.3453
20
5.8407
42
-0.0767
0
VERTEX
8
0
10
3.4165
20
5.8177
42
-0.1144
0
VERTEX
8
0
10
3.4740
20
5.7716
42
-0.2276
0
VERTEX
8
0
10
3.4680
20
5.7309
42
0.3808
0
VERTEX
8
0
10
3.4792
20
5.6841
0
VERTEX
8
0
10
3.5023
20
5.6595
0
VERTEX
8
0
10
3.5400
20
5.6790
42
0.0427
0
VERTEX
8
0
10
3.6138
20
5.7256
0
VERTEX
8
0
10
3.6500
20
5.7527
0
VERTEX
8
0
10
3.6585
20
5.7297
42
-0.1383
0
VERTEX
8
0
10
3.6614
20
5.6923
42
0.2573
0
VERTEX
8
0
10
3.6667
20
5.6576
42
-0.2324
0
VERTEX
8
0
10
3.6681
20
5.6205
42
0.2767
0
VERTEX
8
0
10
3.6689
20
5.5898
42
0.0519
0
VERTEX
8
0
10
3.6826
20
5.5613
42
-0.0130
0
VERTEX
8
0
10
3.6986
20
5.5313
42
-0.4493
0
VERTEX
8
0
10
3.6856
20
5.5042
42
0.2993
0
VERTEX
8
0
10
3.6751
20
5.4779
42
0.4158
0
VERTEX
8
0
10
3.7061
20
5.4805
42
-0.2825
0
VERTEX
8
0
10
3.7923
20
5.4752
42
-0.2642
0
VERTEX
8
0
10
3.8036
20
5.4411
42
-0.1762
0
VERTEX
8
0
10
3.7797
20
5.4117
42
-0.0741
0
VERTEX
8
0
10
3.7138
20
5.3731
42
-0.1183
0
VERTEX
8
0
10
3.4631
20
5.3206
42
0.0359
0
VERTEX
8
0
10
3.3672
20
5.3128
42
0.0707
0
VERTEX
8
0
10
3.2782
20
5.2761
42
0.0392
0
VERTEX
8
0
10
3.1871
20
5.2232
42
0.3856
0
VERTEX
8
0
10
3.2000
20
5.2087
42
0.1041
0
VERTEX
8
0
10
3.2220
20
5.2143
42
0.0301
0
VERTEX
8
0
10
3.2634
20
5.2323
42
-0.0786
0
VERTEX
8
0
10
3.3671
20
5.2627
42
-0.0228
0
VERTEX
8
0
10
3.3939
20
5.2615
42
-0.4105
0
VERTEX
8
0
10
3.4001
20
5.2522
42
-0.0686
0
VERTEX
8
0
10
3.3942
20
5.2397
42
-0.0987
0
VERTEX
8
0
10
3.3618
20
5.2004
42
0.3775
0
VERTEX
8
0
10
3.3542
20
5.1564
42
0.2176
0
VERTEX
8
0
10
3.4012
20
5.1156
42
0.1367
0
VERTEX
8
0
10
3.4644
20
5.1118
0
VERTEX
8
0
10
3.5048
20
5.1186
0
VERTEX
8
0
10
3.4737
20
5.0972
42
-0.0888
0
VERTEX
8
0
10
3.4112
20
5.0690
42
0.0791
0
VERTEX
8
0
10
3.3322
20
5.0382
42
-0.1042
0
VERTEX
8
0
10
3.2718
20
5.0222
42
-0.5231
0
VERTEX
8
0
10
3.2707
20
5.0396
42
-0.0875
0
VERTEX
8
0
10
3.2881
20
5.0519
42
-0.0368
0
VERTEX
8
0
10
3.3263
20
5.0701
42
0.1571
0
VERTEX
8
0
10
3.3577
20
5.0969
42
0.4678
0
VERTEX
8
0
10
3.3380
20
5.1039
42
0.0556
0
VERTEX
8
0
10
3.3150
20
5.1015
42
0.0701
0
VERTEX
8
0
10
3.2421
20
5.0768
42
0.0118
0
VERTEX
8
0
10
3.1709
20
5.0472
42
0.0094
0
VERTEX
8
0
10
3.1067
20
5.0176
42
0.0320
0
VERTEX
8
0
10
3.0763
20
4.9996
42
0.1656
0
VERTEX
8
0
10
3.0569
20
4.9712
42
-0.2881
0
VERTEX
8
0
10
3.0117
20
4.9251
42
-0.0419
0
VERTEX
8
0
10
2.9483
20
4.9027
42
0.1107
0
VERTEX
8
0
10
2.8754
20
4.8613
42
-0.0607
0
VERTEX
8
0
10
2.8125
20
4.8112
42
0.1479
0
VERTEX
8
0
10
2.7703
20
4.7626
42
-0.0228
0
VERTEX
8
0
10
2.7656
20
4.7461
42
-0.9419
0
VERTEX
8
0
10
2.7601
20
4.7480
42
-0.0314
0
VERTEX
8
0
10
2.7565
20
4.7566
42
0.3036
0
VERTEX
8
0
10
2.7399
20
4.7683
42
0.2117
0
VERTEX
8
0
10
2.7290
20
4.7471
42
0.0743
0
VERTEX
8
0
10
2.7227
20
4.6995
42
-0.3201
0
VERTEX
8
0
10
2.6257
20
4.5689
42
0.1130
0
VERTEX
8
0
10
2.4425
20
4.4260
42
0.1363
0
VERTEX
8
0
10
2.4285
20
4.3640
42
0.0285
0
VERTEX
8
0
10
2.4352
20
4.2996
42
-0.0118
0
VERTEX
8
0
10
2.4416
20
4.2385
42
-0.1114
0
VERTEX
8
0
10
2.4315
20
4.1787
42
-0.2159
0
VERTEX
8
0
10
2.4010
20
4.1546
42
-0.2883
0
VERTEX
8
0
10
2.3791
20
4.1847
42
-0.0411
0
VERTEX
8
0
10
2.3667
20
4.2207
42
-0.0814
0
VERTEX
8
0
10
2.3590
20
4.2960
42
0.2575
0
VERTEX
8
0
10
2.3397
20
4.3550
42
0.1955
0
VERTEX
8
0
10
2.2935
20
4.3728
42
-0.1947
0
VERTEX
8
0
10
2.2577
20
4.3761
42
-0.0395
0
VERTEX
8
0
10
2.2234
20
4.3877
42
0.0361
0
VERTEX
8
0
10
2.1815
20
4.4022
42
0.1487
0
VERTEX
8
0
10
2.1379
20
4.3974
42
0.1765
0
VERTEX
8
0
10
2.0907
20
4.3602
42
-0.3901
0
VERTEX
8
0
10
2.0472
20
4.3416
42
-0.0648
0
VERTEX
8
0
10
1.9851
20
4.3639
42
0.3208
0
VERTEX
8
0
10
1.8643
20
4.3461
42
-0.0707
0
VERTEX
8
0
10
1.8238
20
4.3252
42
0.1893
0
VERTEX
8
0
10
1.7706
20
4.3040
42
0.1034
0
VERTEX
8
0
10
1.7301
20
4.2636
42
0.0234
0
VERTEX
8
0
10
1.6873
20
4.1309
0
VERTEX
8
0
10
1.6547
20
4.0252
0
VERTEX
8
0
10
1.6715
20
3.9603
42
0.0851
0
VERTEX
8
0
10
1.7214
20
3.8499
42
0.3143
0
VERTEX
8
0
10
1.8349
20
3.8246
42
0.0767
0
VERTEX
8
0
10
1.9090
20
3.8528
42
0.1647
0
VERTEX
8
0
10
1.9578
20
3.9136
42
-0.2585
0
VERTEX
8
0
10
2.0081
20
3.9603
42
-0.0268
0
VERTEX
8
0
10
2.0498
20
3.9695
42
-0.1493
0
VERTEX
8
0
10
2.0909
20
3.9623
42
-0.3856
0
VERTEX
8
0
10
2.0967
20
3.9422
42
-0.0487
0
VERTEX
8
0
10
2.0900
20
3.9206
42
-0.0182
0
VERTEX
8
0
10
2.0726
20
3.8788
42
-0.0052
0
VERTEX
8
0
10
2.0351
20
3.7965
42
0.0332
0
VERTEX
8
0
10
2.0065
20
3.7225
42
0.4857
0
VERTEX
8
0
10
2.0291
20
3.6983
42
0.0602
0
VERTEX
8
0
10
2.0703
20
3.7020
42
-0.0433
0
VERTEX
8
0
10
2.1437
20
3.7061
42
-0.0370
0
VERTEX
8
0
10
2.1802
20
3.7019
42
-0.1440
0
VERTEX
8
0
10
2.2115
20
3.6848
42
-0.1480
0
VERTEX
8
0
10
2.2115
20
3.6563
42
-0.0102
0
VERTEX
8
0
10
2.2088
20
3.6279
42
-0.0108
0
VERTEX
8
0
10
2.2010
20
3.5711
42
0.0072
0
VERTEX
8
0
10
2.1910
20
3.5011
42
0.1732
0
VERTEX
8
0
10
2.2080
20
3.4344
42
0.0993
0
VERTEX
8
0
10
2.2517
20
3.3875
42
0.2169
0
VERTEX
8
0
10
2.3124
20
3.3775
42
-0.2717
0
VERTEX
8
0
10
2.4428
20
3.3724
0
VERTEX
8
0
10
2.4769
20
3.3464
0
VERTEX
8
0
10
2.5090
20
3.3764
42
0.0819
0
VERTEX
8
0
10
2.5412
20
3.4184
42
-0.2494
0
VERTEX
8
0
10
2.5536
20
3.4409
42
-0.0472
0
VERTEX
8
0
10
2.5727
20
3.4587
42
-0.1056
0
VERTEX
8
0
10
2.6190
20
3.4814
42
0.2541
0
VERTEX
8
0
10
2.6662
20
3.5075
42
-0.1106
0
VERTEX
8
0
10
2.7008
20
3.5310
42
-0.1120
0
VERTEX
8
0
10
2.7213
20
3.5341
42
-0.5460
0
VERTEX
8
0
10
2.7232
20
3.5252
42
-0.0739
0
VERTEX
8
0
10
2.7181
20
3.5177
42
0.1789
0
VERTEX
8
0
10
2.6971
20
3.4574
42
0.0992
0
VERTEX
8
0
10
2.6998
20
3.3937
42
0.0169
0
VERTEX
8
0
10
2.7056
20
3.3838
42
0.3336
0
VERTEX
8
0
10
2.7149
20
3.3806
42
0.1217
0
VERTEX
8
0
10
2.7306
20
3.3978
42
0.0526
0
VERTEX
8
0
10
2.7415
20
3.4145
42
0.2621
0
VERTEX
8
0
10
2.7396
20
3.4331
42
-0.3176
0
VERTEX
8
0
10
2.7340
20
3.4656
42
-0.1175
0
VERTEX
8
0
10
2.7603
20
3.4905
42
-0.1477
0
VERTEX
8
0
10
2.8079
20
3.5075
42
-0.2207
0
VERTEX
8
0
10
2.8515
20
3.4815
42
0.1580
0
VERTEX
8
0
10
2.8910
20
3.4600
42
0.0284
0
VERTEX
8
0
10
2.9341
20
3.4461
42
0.0690
0
VERTEX
8
0
10
3.0236
20
3.4350
42
-0.1529
0
VERTEX
8
0
10
3.0594
20
3.4329
42
-0.0451
0
VERTEX
8
0
10
3.0937
20
3.4210
42
-0.0462
0
VERTEX
8
0
10
3.1573
20
3.3862
42
-0.0799
0
VERTEX
8
0
10
3.2640
20
3.2888
42
0.1626
0
VERTEX
8
0
10
3.3262
20
3.2419
42
0.1159
0
VERTEX
8
0
10
3.4019
20
3.2256
42
-0.1573
0
VERTEX
8
0
10
3.4655
20
3.2214
42
-0.0905
0
VERTEX
8
0
10
3.5217
20
3.1903
42
-0.1532
0
VERTEX
8
0
10
3.5935
20
3.0856
42
0.0734
0
VERTEX
8
0
10
3.6163
20
3.0322
42
-0.3665
0
VERTEX
8
0
10
3.6206
20
3.0192
42
-0.0901
0
VERTEX
8
0
10
3.6154
20
3.0054
42
-0.0549
0
VERTEX
8
0
10
3.5991
20
2.9811
42
-0.0400
0
VERTEX
8
0
10
3.5590
20
2.9380
42
0.0198
0
VERTEX
8
0
10
3.5361
20
2.9144
42
0.2235
0
VERTEX
8
0
10
3.5285
20
2.8858
42
0.3759
0
VERTEX
8
0
10
3.5451
20
2.8845
42
0.0707
0
VERTEX
8
0
10
3.5603
20
2.8940
42
0.0323
0
VERTEX
8
0
10
3.5875
20
2.9172
42
-0.0366
0
VERTEX
8
0
10
3.6314
20
2.9523
42
-0.3582
0
VERTEX
8
0
10
3.6817
20
2.9437
42
-0.1853
0
VERTEX
8
0
10
3.6914
20
2.9220
42
-0.1275
0
VERTEX
8
0
10
3.6754
20
2.9020
42
-0.1246
0
VERTEX
8
0
10
3.6358
20
2.8766
42
0.8150
0
VERTEX
8
0
10
3.6345
20
2.8707
42
0.0510
0
VERTEX
8
0
10
3.6449
20
2.8657
42
0.3063
0
VERTEX
8
0
10
3.6970
20
2.8770
42
-0.0548
0
VERTEX
8
0
10
3.7519
20
2.9122
42
-0.2742
0
VERTEX
8
0
10
3.8138
20
2.8962
42
-0.0369
0
VERTEX
8
0
10
3.8412
20
2.8782
42
-0.1857
0
VERTEX
8
0
10
3.8566
20
2.8507
42
0.0854
0
VERTEX
8
0
10
3.8586
20
2.8168
42
0.4118
0
VERTEX
8
0
10
3.8736
20
2.8123
42
0.0871
0
VERTEX
8
0
10
3.8891
20
2.8202
42
-0.1892
0
VERTEX
8
0
10
3.9432
20
2.8316
42
-0.0256
0
VERTEX
8
0
10
3.9992
20
2.8252
42
-0.0234
0
VERTEX
8
0
10
4.0679
20
2.8125
42
-0.1508
0
VERTEX
8
0
10
4.1247
20
2.7729
42
0.1289
0
VERTEX
8
0
10
4.2229
20
2.7155
42
-0.0333
0
VERTEX
8
0
10
4.2672
20
2.6994
42
-0.2549
0
VERTEX
8
0
10
4.2908
20
2.6601
42
-0.1529
0
VERTEX
8
0
10
4.2874
20
2.5736
42
-0.0998
0
VERTEX
8
0
10
4.2445
20
2.4975
42
0.0420
0
VERTEX
8
0
10
4.1935
20
2.4220
42
-0.0791
0
VERTEX
8
0
10
4.1494
20
2.3614
42
0.2917
0
VERTEX
8
0
10
4.1290
20
2.2699
0
SEQEND
8
0
0
POLYLINE
8
Layer 1
66
1
0
VERTEX
8
0
10
3.1588
20
3.4398
42
0.3334
0
VERTEX
8
0
10
3.1584
20
3.4562
42
0.1378
0
VERTEX
8
0
10
3.1427
20
3.4606
42
0.0629
0
VERTEX
8
0
10
3.1329
20
3.4597
42
0.9508
0
VERTEX
8
0
10
3.1279
20
3.4538
42
-0.2375
0
VERTEX
8
0
10
3.1232
20
3.4329
42
0.7245
0
VERTEX
8
0
10
3.1191
20
3.4210
42
0.0774
0
VERTEX
8
0
10
3.1325
20
3.4189
42
0.3340
0
VERTEX
8
0
10
3.1588
20
3.4398
0
SEQEND
8
0
0
POLYLINE
8
Layer 1
66
1
0
VERTEX
8
0
10
3.2814
20
3.5648
42
0.5379
0
VERTEX
8
0
10
3.2860
20
3.5752
42
0.2945
0
VERTEX
8
0
10
3.2750
20
3.5856
42
0.2131
0
VERTEX
8
0
10
3.2704
20
3.5752
42
0.3974
0
VERTEX
8
0
10
3.2814
20
3.5648
0
SEQEND
8
0
0
POLYLINE
8
Layer 1
66
1
0
VERTEX
8
0
10
3.2183
20
3.6377
42
0.3974
0
VERTEX
8
0
10
3.2287
20
3.6487
42
0.5359
0
VERTEX
8
0
10
3.2183
20
3.6533
42
0.2944
0
VERTEX
8
0
10
3.2079
20
3.6423
42
0.2131
0
VERTEX
8
0
10
3.2183
20
3.6377
0
SEQEND
8
0
0
POLYLINE
8
Layer 1
66
1
0
VERTEX
8
0
10
3.1871
20
3.7158
42
0.2754
0
VERTEX
8
0
10
3.1975
20
3.7327
42
0.5045
0
VERTEX
8
0
10
3.1871
20
3.7366
42
0.2754
0
VERTEX
8
0
10
3.1766
20
3.7198
42
0.5045
0
VERTEX
8
0
10
3.1871
20
3.7158
0
SEQEND
8
0
0
POLYLINE
8
Layer 1
66
1
0
VERTEX
8
0
10
3.1877
20
3.7731
42
0.5361
0
VERTEX
8
0
10
3.1923
20
3.7835
42
0.2942
0
VERTEX
8
0
10
3.1812
20
3.7939
42
0.2113
0
VERTEX
8
0
10
3.1766
20
3.7835
42
0.3974
0
VERTEX
8
0
10
3.1877
20
3.7731
0
SEQEND
8
0
0
POLYLINE
8
Layer 1
66
1
0
VERTEX
8
0
10
3.1454
20
3.7835
42
0.3973
0
VERTEX
8
0
10
3.1344
20
3.7939
42
0.5366
0
VERTEX
8
0
10
3.1298
20
3.7835
42
0.2945
0
VERTEX
8
0
10
3.1408
20
3.7731
42
0.2131
0
VERTEX
8
0
10
3.1454
20
3.7835
0
SEQEND
8
0
0
POLYLINE
8
Layer 1
66
1
0
VERTEX
8
0
10
3.1114
20
3.7595
42
0.0621
0
VERTEX
8
0
10
3.0980
20
3.7667
42
0.1200
0
VERTEX
8
0
10
3.0900
20
3.7685
42
0.4928
0
VERTEX
8
0
10
3.0882
20
3.7626
42
0.2796
0
VERTEX
8
0
10
3.1043
20
3.7523
42
1.0588
0
VERTEX
8
0
10
3.1114
20
3.7595
0
SEQEND
8
0
0
POLYLINE
8
Layer 1
66
1
0
VERTEX
8
0
10
3.0412
20
3.8353
42
0.3222
0
VERTEX
8
0
10
3.0256
20
3.8394
42
0.3422
0
VERTEX
8
0
10
3.0100
20
3.8293
42
0.1298
0
VERTEX
8
0
10
3.0256
20
3.8252
42
0.5357
0
VERTEX
8
0
10
3.0412
20
3.8353
0
SEQEND
8
0
0
POLYLINE
8
Layer 1
66
1
0
VERTEX
8
0
10
2.9762
20
3.8226
42
0.3442
0
VERTEX
8
0
10
2.9690
20
3.8336
42
0.0674
0
VERTEX
8
0
10
2.9542
20
3.8356
42
0.1336
0
VERTEX
8
0
10
2.9291
20
3.8308
42
0.5766
0
VERTEX
8
0
10
2.9239
20
3.8106
42
0.1762
0
VERTEX
8
0
10
2.9523
20
3.8070
42
0.3438
0
VERTEX
8
0
10
2.9762
20
3.8226
0
SEQEND
8
0
0
POLYLINE
8
Layer 1
66
1
0
VERTEX
8
0
10
2.8690
20
3.8466
42
0.1556
0
VERTEX
8
0
10
2.7398
20
3.8877
42
0.0291
0
VERTEX
8
0
10
2.7080
20
3.8870
42
0.3732
0
VERTEX
8
0
10
2.6932
20
3.8823
42
0.1190
0
VERTEX
8
0
10
2.6971
20
3.8675
42
-0.5181
0
VERTEX
8
0
10
2.6840
20
3.8359
42
-0.0418
0
VERTEX
8
0
10
2.6411
20
3.8333
42
0.0252
0
VERTEX
8
0
10
2.6163
20
3.8334
0
VERTEX
8
0
10
2.6129
20
3.8289
42
0.0135
0
VERTEX
8
0
10
2.6239
20
3.8241
42
0.1429
0
VERTEX
8
0
10
2.6782
20
3.8203
42
-0.2197
0
VERTEX
8
0
10
2.7241
20
3.8172
42
0.0629
0
VERTEX
8
0
10
2.7998
20
3.8219
42
0.0221
0
VERTEX
8
0
10
2.8368
20
3.8304
42
0.0261
0
VERTEX
8
0
10
2.8548
20
3.8361
42
0.0392
0
VERTEX
8
0
10
2.8635
20
3.8400
42
0.5872
0
VERTEX
8
0
10
2.8690
20
3.8466
0
SEQEND
8
0
0
POLYLINE
8
Layer 1
66
1
0
VERTEX
8
0
10
2.7495
20
4.0257
42
0.1961
0
VERTEX
8
0
10
2.7267
20
4.0332
42
0.3237
0
VERTEX
8
0
10
2.7034
20
4.0242
42
0.2956
0
VERTEX
8
0
10
2.7110
20
4.0170
42
0.0516
0
VERTEX
8
0
10
2.7236
20
4.0164
42
0.0518
0
VERTEX
8
0
10
2.7378
20
4.0185
42
0.4533
0
VERTEX
8
0
10
2.7495
20
4.0257
0
SEQEND
8
0
0
POLYLINE
8
Layer 1
66
1
0
VERTEX
8
0
10
2.6662
20
3.9919
42
0.4623
0
VERTEX
8
0
10
2.6528
20
4.0008
42
0.0557
0
VERTEX
8
0
10
2.6350
20
3.9919
42
0.0432
0
VERTEX
8
0
10
2.6290
20
3.9876
0
VERTEX
8
0
10
2.6290
20
3.9826
42
0.0332
0
VERTEX
8
0
10
2.6428
20
3.9816
42
0.0831
0
VERTEX
8
0
10
2.6564
20
3.9834
42
0.4325
0
VERTEX
8
0
10
2.6662
20
3.9919
0
SEQEND
8
0
0
POLYLINE
8
Layer 1
66
1
0
VERTEX
8
0
10
2.6374
20
3.9226
42
0.0237
0
VERTEX
8
0
10
2.6129
20
3.9379
42
0.0024
0
VERTEX
8
0
10
2.5621
20
3.9655
42
0.0233
0
VERTEX
8
0
10
2.4652
20
4.0144
42
0.0912
0
VERTEX
8
0
10
2.3609
20
4.0419
42
0.0674
0
VERTEX
8
0
10
2.2839
20
4.0354
42
0.0473
0
VERTEX
8
0
10
2.2469
20
4.0242
42
0.0569
0
VERTEX
8
0
10
2.2297
20
4.0154
42
0.3362
0
VERTEX
8
0
10
2.2183
20
4.0007
42
0.4819
0
VERTEX
8
0
10
2.2271
20
3.9931
42
0.0265
0
VERTEX
8
0
10
2.2414
20
3.9974
42
0.0053
0
VERTEX
8
0
10
2.2692
20
4.0082
42
-0.1756
0
VERTEX
8
0
10
2.3570
20
4.0114
42
-0.0503
0
VERTEX
8
0
10
2.4367
20
3.9703
42
-0.0323
0
VERTEX
8
0
10
2.4643
20
3.9508
42
-0.0718
0
VERTEX
8
0
10
2.4766
20
3.9391
42
-0.4378
0
VERTEX
8
0
10
2.4783
20
3.9237
42
0.6071
0
VERTEX
8
0
10
2.4778
20
3.9144
42
0.0663
0
VERTEX
8
0
10
2.4885
20
3.9116
42
0.0200
0
VERTEX
8
0
10
2.5108
20
3.9104
42
-0.0219
0
VERTEX
8
0
10
2.5356
20
3.9091
42
-0.2191
0
VERTEX
8
0
10
2.5597
20
3.9040
42
0.1107
0
VERTEX
8
0
10
2.6246
20
3.9076
42
0.0588
0
VERTEX
8
0
10
2.6379
20
3.9120
42
0.4483
0
VERTEX
8
0
10
2.6374
20
3.9226
0
SEQEND
8
0
0
POLYLINE
8
Layer 1
66
1
0
VERTEX
8
0
10
2.5241
20
3.8138
42
0.0077
0
VERTEX
8
0
10
2.5158
20
3.8203
42
0.1056
0
VERTEX
8
0
10
2.4809
20
3.8342
42
0.0739
0
VERTEX
8
0
10
2.4621
20
3.8352
42
0.5544
0
VERTEX
8
0
10
2.4475
20
3.8261
42
0.2364
0
VERTEX
8
0
10
2.4605
20
3.8113
42
0.0564
0
VERTEX
8
0
10
2.5048
20
3.8055
42
0.1316
0
VERTEX
8
0
10
2.5268
20
3.8063
42
0.2701
0
VERTEX
8
0
10
2.5241
20
3.8138
0
SEQEND
8
0
0
POLYLINE
8
Layer 1
66
1
0
VERTEX
8
0
10
2.5195
20
4.1130
42
0.3942
0
VERTEX
8
0
10
2.5137
20
4.1240
42
-0.2657
0
VERTEX
8
0
10
2.5071
20
4.1486
42
0.1034
0
VERTEX
8
0
10
2.5082
20
4.1603
42
0.4898
0
VERTEX
8
0
10
2.5016
20
4.1689
42
0.3836
0
VERTEX
8
0
10
2.4862
20
4.1498
42
0.1518
0
VERTEX
8
0
10
2.4974
20
4.1246
42
0.0687
0
VERTEX
8
0
10
2.5072
20
4.1156
42
0.5165
0
VERTEX
8
0
10
2.5195
20
4.1130
0
SEQEND
8
0
0
POLYLINE
8
Layer 1
66
1
0
VERTEX
8
0
10
2.4968
20
4.2002
42
0.0602
0
VERTEX
8
0
10
2.5167
20
4.2158
42
0.3215
0
VERTEX
8
0
10
2.5264
20
4.2282
42
0.1174
0
VERTEX
8
0
10
2.5124
20
4.2314
42
0.4848
0
VERTEX
8
0
10
2.4926
20
4.2158
42
0.4767
0
VERTEX
8
0
10
2.4968
20
4.2002
0
SEQEND
8
0
0
POLYLINE
8
Layer 1
66
1
0
VERTEX
8
0
10
2.5579
20
4.2064
42
-0.1511
0
VERTEX
8
0
10
2.5564
20
4.2292
42
-0.6326
0
VERTEX
8
0
10
2.5639
20
4.2254
42
-0.0681
0
VERTEX
8
0
10
2.5683
20
4.2169
42
-0.1511
0
VERTEX
8
0
10
2.5698
20
4.1941
42
-0.6350
0
VERTEX
8
0
10
2.5622
20
4.1979
42
-0.0687
0
VERTEX
8
0
10
2.5579
20
4.2064
0
SEQEND
8
0
0
POLYLINE
8
Layer 1
66
1
0
VERTEX
8
0
10
3.1454
20
4.5069
42
-0.2944
0
VERTEX
8
0
10
3.1558
20
4.5179
42
-0.5359
0
VERTEX
8
0
10
3.1662
20
4.5133
42
-0.3974
0
VERTEX
8
0
10
3.1558
20
4.5023
42
-0.2131
0
VERTEX
8
0
10
3.1454
20
4.5069
0
SEQEND
8
0
0
POLYLINE
8
Layer 1
66
1
0
VERTEX
8
0
10
2.8318
20
5.0090
42
0.0339
0
VERTEX
8
0
10
2.8473
20
5.0213
42
0.7014
0
VERTEX
8
0
10
2.8390
20
5.0357
42
0.2714
0
VERTEX
8
0
10
2.7894
20
5.0345
42
0.1631
0
VERTEX
8
0
10
2.7496
20
5.0067
42
0.4697
0
VERTEX
8
0
10
2.7658
20
4.9930
42
0.0902
0
VERTEX
8
0
10
2.7888
20
4.9929
42
0.1126
0
VERTEX
8
0
10
2.8318
20
5.0090
0
SEQEND
8
0
0
POLYLINE
8
Layer 1
66
1
0
VERTEX
8
0
10
2.7273
20
5.0618
42
-0.2971
0
VERTEX
8
0
10
2.6927
20
5.0500
42
0.4477
0
VERTEX
8
0
10
2.6618
20
5.0360
42
-0.1804
0
VERTEX
8
0
10
2.6301
20
5.0043
42
-0.2804
0
VERTEX
8
0
10
2.5827
20
5.0108
0
VERTEX
8
0
10
2.5605
20
5.0287
0
VERTEX
8
0
10
2.5821
20
5.0562
42
0.0908
0
VERTEX
8
0
10
2.6007
20
5.0831
42
0.4984
0
VERTEX
8
0
10
2.5953
20
5.0949
42
0.0342
0
VERTEX
8
0
10
2.5792
20
5.0960
42
0.1495
0
VERTEX
8
0
10
2.5063
20
5.0609
42
0.0920
0
VERTEX
8
0
10
2.4579
20
4.9945
42
-0.0332
0
VERTEX
8
0
10
2.4369
20
4.9574
42
-0.1305
0
VERTEX
8
0
10
2.4097
20
4.9247
42
-0.2223
0
VERTEX
8
0
10
2.3896
20
4.9146
42
-0.1187
0
VERTEX
8
0
10
2.3715
20
4.9271
42
-0.2678
0
VERTEX
8
0
10
2.3633
20
4.9486
42
-0.0525
0
VERTEX
8
0
10
2.3719
20
4.9709
42
-0.0097
0
VERTEX
8
0
10
2.3958
20
5.0127
42
-0.0924
0
VERTEX
8
0
10
2.4507
20
5.0853
42
-0.1298
0
VERTEX
8
0
10
2.5327
20
5.1224
42
0.0489
0
VERTEX
8
0
10
2.5524
20
5.1273
42
0.0630
0
VERTEX
8
0
10
2.5616
20
5.1315
42
0.5743
0
VERTEX
8
0
10
2.5662
20
5.1395
42
0.1936
0
VERTEX
8
0
10
2.5354
20
5.1437
42
-0.1342
0
VERTEX
8
0
10
2.4757
20
5.1544
42
0.1513
0
VERTEX
8
0
10
2.4418
20
5.1660
42
0.0738
0
VERTEX
8
0
10
2.4081
20
5.1545
42
-0.2319
0
VERTEX
8
0
10
2.3466
20
5.1488
0
VERTEX
8
0
10
2.3175
20
5.1599
0
VERTEX
8
0
10
2.3434
20
5.1798
42
-0.2128
0
VERTEX
8
0
10
2.3778
20
5.2000
42
0.4223
0
VERTEX
8
0
10
2.3801
20
5.2100
42
-0.3500
0
VERTEX
8
0
10
2.3926
20
5.2190
42
0.0424
0
VERTEX
8
0
10
2.4579
20
5.2313
42
-0.0710
0
VERTEX
8
0
10
2.5241
20
5.2440
42
-0.2774
0
VERTEX
8
0
10
2.5839
20
5.2198
42
-0.2675
0
VERTEX
8
0
10
2.5974
20
5.1737
42
0.6669
0
VERTEX
8
0
10
2.6549
20
5.1268
42
-0.2815
0
VERTEX
8
0
10
2.7128
20
5.1174
42
-0.4012
0
VERTEX
8
0
10
2.7273
20
5.0618
0
SEQEND
8
0
0
POLYLINE
8
Layer 1
66
1
0
VERTEX
8
0
10
2.6747
20
4.9670
42
-0.4620
0
VERTEX
8
0
10
2.6723
20
4.9443
42
-0.0181
0
VERTEX
8
0
10
2.6471
20
4.9302
42
-0.1595
0
VERTEX
8
0
10
2.5833
20
4.9085
42
-0.4151
0
VERTEX
8
0
10
2.5628
20
4.9159
42
-0.1924
0
VERTEX
8
0
10
2.5717
20
4.9359
42
-0.0709
0
VERTEX
8
0
10
2.6109
20
4.9604
42
-0.0404
0
VERTEX
8
0
10
2.6430
20
4.9732
42
-0.3066
0
VERTEX
8
0
10
2.6747
20
4.9670
0
SEQEND
8
0
0
POLYLINE
8
Layer 1
66
1
0
VERTEX
8
0
10
3.5938
20
5.2014
0
VERTEX
8
0
10
3.6326
20
5.1973
42
0.0277
0
VERTEX
8
0
10
3.7133
20
5.1919
42
0.0820
0
VERTEX
8
0
10
3.7934
20
5.2006
42
0.1164
0
VERTEX
8
0
10
3.8210
20
5.2104
42
0.3067
0
VERTEX
8
0
10
3.8259
20
5.2229
42
0.0303
0
VERTEX
8
0
10
3.8206
20
5.2365
42
0.2224
0
VERTEX
8
0
10
3.7794
20
5.2682
42
-0.2171
0
VERTEX
8
0
10
3.7424
20
5.2886
42
-0.3242
0
VERTEX
8
0
10
3.7467
20
5.3278
42
0.0708
0
VERTEX
8
0
10
3.7537
20
5.3372
42
0.8571
0
VERTEX
8
0
10
3.7515
20
5.3460
42
0.0360
0
VERTEX
8
0
10
3.6668
20
5.2737
0
VERTEX
8
0
10
3.5938
20
5.2014
0
SEQEND
8
0
0
POLYLINE
8
Layer 1
66
1
0
VERTEX
8
0
10
3.6871
20
5.1637
42
-0.2953
0
VERTEX
8
0
10
3.6971
20
5.1794
42
-0.7812
0
VERTEX
8
0
10
3.7012
20
5.1637
42
-0.1042
0
VERTEX
8
0
10
3.6911
20
5.1481
42
-0.4674
0
VERTEX
8
0
10
3.6871
20
5.1637
0
SEQEND
8
0
0
POLYLINE
8
Layer 1
66
1
0
VERTEX
8
0
10
3.6245
20
5.8358
42
0.3583
0
VERTEX
8
0
10
3.6494
20
5.8441
42
0.1378
0
VERTEX
8
0
10
3.6238
20
5.8709
42
-0.1251
0
VERTEX
8
0
10
3.6016
20
5.8886
42
-0.5253
0
VERTEX
8
0
10
3.6121
20
5.9073
42
-0.1087
0
VERTEX
8
0
10
3.6668
20
5.8926
42
0.1698
0
VERTEX
8
0
10
3.6922
20
5.8822
42
0.1448
0
VERTEX
8
0
10
3.7090
20
5.9016
42
0.1942
0
VERTEX
8
0
10
3.7036
20
5.9588
42
-0.0964
0
VERTEX
8
0
10
3.6928
20
5.9832
42
-0.2109
0
VERTEX
8
0
10
3.7077
20
6.0022
42
-0.1833
0
VERTEX
8
0
10
3.7394
20
6.0050
42
-0.0360
0
VERTEX
8
0
10
3.7696
20
5.9922
42
0.1634
0
VERTEX
8
0
10
3.8155
20
5.9767
42
0.1887
0
VERTEX
8
0
10
3.8527
20
6.0044
42
0.4020
0
VERTEX
8
0
10
3.8597
20
6.0280
42
0.0578
0
VERTEX
8
0
10
3.8413
20
6.0461
42
0.0039
0
VERTEX
8
0
10
3.7994
20
6.0766
42
-0.2187
0
VERTEX
8
0
10
3.7756
20
6.1287
42
0.3455
0
VERTEX
8
0
10
3.7627
20
6.1651
42
0.0318
0
VERTEX
8
0
10
3.7248
20
6.1798
42
-0.1755
0
VERTEX
8
0
10
3.6506
20
6.2252
42
0.4649
0
VERTEX
8
0
10
3.6057
20
6.2429
42
-0.2825
0
VERTEX
8
0
10
3.5594
20
6.2377
42
-0.0186
0
VERTEX
8
0
10
3.5176
20
6.2633
42
0.2366
0
VERTEX
8
0
10
3.4312
20
6.2879
42
0.1234
0
VERTEX
8
0
10
3.3585
20
6.2505
42
-0.0584
0
VERTEX
8
0
10
3.3374
20
6.2349
42
-0.0845
0
VERTEX
8
0
10
3.3262
20
6.2301
42
-0.5198
0
VERTEX
8
0
10
3.3159
20
6.2338
42
-0.1180
0
VERTEX
8
0
10
3.3396
20
6.2753
0
VERTEX
8
0
10
3.3693
20
6.3070
0
VERTEX
8
0
10
3.3277
20
6.2996
42
0.0791
0
VERTEX
8
0
10
3.2469
20
6.2628
42
0.0442
0
VERTEX
8
0
10
3.2116
20
6.2356
42
0.0456
0
VERTEX
8
0
10
3.1963
20
6.2193
42
0.2174
0
VERTEX
8
0
10
3.1871
20
6.1995
42
0.1357
0
VERTEX
8
0
10
3.2310
20
6.1766
42
0.1159
0
VERTEX
8
0
10
3.2821
20
6.1741
42
-0.0843
0
VERTEX
8
0
10
3.3670
20
6.1695
42
0.2107
0
VERTEX
8
0
10
3.4483
20
6.1746
42
-0.2312
0
VERTEX
8
0
10
3.4825
20
6.1849
42
-0.0506
0
VERTEX
8
0
10
3.5149
20
6.1691
42
-0.1056
0
VERTEX
8
0
10
3.5773
20
6.1009
42
0.0204
0
VERTEX
8
0
10
3.5932
20
6.0760
42
0.0196
0
VERTEX
8
0
10
3.6019
20
6.0642
42
0.2540
0
VERTEX
8
0
10
3.6126
20
6.0544
42
-0.0735
0
VERTEX
8
0
10
3.6408
20
6.0395
42
-0.0410
0
VERTEX
8
0
10
3.6505
20
6.0319
42
-0.5720
0
VERTEX
8
0
10
3.6515
20
6.0224
42
-0.0261
0
VERTEX
8
0
10
3.6301
20
6.0128
42
-0.2245
0
VERTEX
8
0
10
3.5749
20
6.0121
42
0.1691
0
VERTEX
8
0
10
3.5236
20
6.0094
42
0.2463
0
VERTEX
8
0
10
3.4851
20
5.9754
42
-0.2325
0
VERTEX
8
0
10
3.4562
20
5.9622
42
-0.0169
0
VERTEX
8
0
10
3.4219
20
5.9653
42
0.0654
0
VERTEX
8
0
10
3.3646
20
5.9657
42
0.0898
0
VERTEX
8
0
10
3.3365
20
5.9589
42
0.3681
0
VERTEX
8
0
10
3.3262
20
5.9494
42
0.1904
0
VERTEX
8
0
10
3.3350
20
5.9388
42
0.1274
0
VERTEX
8
0
10
3.3860
20
5.9401
42
-0.1167
0
VERTEX
8
0
10
3.4419
20
5.9495
42
-0.2006
0
VERTEX
8
0
10
3.4865
20
5.9182
42
0.0999
0
VERTEX
8
0
10
3.5474
20
5.8612
42
0.0752
0
VERTEX
8
0
10
3.5976
20
5.8399
42
0.0652
0
VERTEX
8
0
10
3.6245
20
5.8358
0
SEQEND
8
0
0
POLYLINE
8
Layer 1
66
1
0
VERTEX
8
0
10
3.1905
20
5.9048
42
0.3087
0
VERTEX
8
0
10
3.1784
20
5.9418
42
0.0692
0
VERTEX
8
0
10
3.1399
20
5.9607
42
0.2050
0
VERTEX
8
0
10
3.0889
20
5.9630
42
0.0883
0
VERTEX
8
0
10
3.0482
20
5.9314
42
0.1620
0
VERTEX
8
0
10
3.0373
20
5.9142
42
0.3625
0
VERTEX
8
0
10
3.0494
20
5.9018
42
0.0635
0
VERTEX
8
0
10
3.0894
20
5.9076
42
-0.2167
0
VERTEX
8
0
10
3.1547
20
5.9038
42
0.0857
0
VERTEX
8
0
10
3.1739
20
5.8953
42
0.2778
0
VERTEX
8
0
10
3.1905
20
5.9048
0
SEQEND
8
0
0
POLYLINE
8
Layer 1
66
1
0
VERTEX
8
0
10
2.8967
20
6.1289
42
0.7240
0
VERTEX
8
0
10
2.8982
20
6.1381
42
0.0215
0
VERTEX
8
0
10
2.8862
20
6.1425
42
0.1485
0
VERTEX
8
0
10
2.8319
20
6.1373
42
0.0876
0
VERTEX
8
0
10
2.8135
20
6.1279
42
0.3773
0
VERTEX
8
0
10
2.8132
20
6.1103
42
0.3631
0
VERTEX
8
0
10
2.8428
20
6.1005
42
0.0134
0
VERTEX
8
0
10
2.8739
20
6.1160
42
0.0458
0
VERTEX
8
0
10
2.8967
20
6.1289
0
SEQEND
8
0
0
POLYLINE
8
Layer 1
66
1
0
VERTEX
8
0
10
2.9084
20
6.2204
42
0.0609
0
VERTEX
8
0
10
2.9265
20
6.2229
42
0.0497
0
VERTEX
8
0
10
2.9603
20
6.2366
42
0.1946
0
VERTEX
8
0
10
3.0152
20
6.2836
42
0.0338
0
VERTEX
8
0
10
3.0221
20
6.2991
42
0.0398
0
VERTEX
8
0
10
3.0246
20
6.3072
42
0.5900
0
VERTEX
8
0
10
3.0233
20
6.3147
42
0.0561
0
VERTEX
8
0
10
2.9707
20
6.3021
42
0.0265
0
VERTEX
8
0
10
2.9456
20
6.2918
42
0.2136
0
VERTEX
8
0
10
2.9233
20
6.2769
42
-0.2037
0
VERTEX
8
0
10
2.9016
20
6.2662
42
-0.0413
0
VERTEX
8
0
10
2.8764
20
6.2680
0
VERTEX
8
0
10
2.8381
20
6.2741
0
VERTEX
8
0
10
2.8667
20
6.2576
42
-0.0445
0
VERTEX
8
0
10
2.8832
20
6.2464
42
-0.2983
0
VERTEX
8
0
10
2.8954
20
6.2311
42
0.3316
0
VERTEX
8
0
10
2.9084
20
6.2204
0
SEQEND
8
0
0
POLYLINE
8
Layer 1
66
1
0
VERTEX
8
0
10
2.7652
20
6.1654
0
VERTEX
8
0
10
2.7316
20
6.1829
0
VERTEX
8
0
10
2.6979
20
6.2005
0
VERTEX
8
0
10
2.7185
20
6.2342
42
0.1779
0
VERTEX
8
0
10
2.7391
20
6.2757
42
0.3305
0
VERTEX
8
0
10
2.7250
20
6.2841
42
0.0675
0
VERTEX
8
0
10
2.7070
20
6.2788
42
0.1025
0
VERTEX
8
0
10
2.6764
20
6.2573
42
-0.1246
0
VERTEX
8
0
10
2.6512
20
6.2377
42
-0.5154
0
VERTEX
8
0
10
2.6285
20
6.2505
0
VERTEX
8
0
10
2.6259
20
6.2743
42
0.3043
0
VERTEX
8
0
10
2.6130
20
6.2769
42
0.0380
0
VERTEX
8
0
10
2.5994
20
6.2694
42
-0.2057
0
VERTEX
8
0
10
2.5607
20
6.2587
42
-0.0212
0
VERTEX
8
0
10
2.5207
20
6.2688
42
0.1666
0
VERTEX
8
0
10
2.3331
20
6.2542
42
0.0488
0
VERTEX
8
0
10
2.3087
20
6.2430
42
0.5970
0
VERTEX
8
0
10
2.3100
20
6.2353
42
0.0097
0
VERTEX
8
0
10
2.3225
20
6.2319
42
-0.0716
0
VERTEX
8
0
10
2.3387
20
6.2260
42
-0.5513
0
VERTEX
8
0
10
2.3469
20
6.2134
42
-0.1279
0
VERTEX
8
0
10
2.3173
20
6.2006
42
0.0205
0
VERTEX
8
0
10
2.3106
20
6.1994
0
VERTEX
8
0
10
2.3072
20
6.1985
0
VERTEX
8
0
10
2.3057
20
6.1963
42
0.0410
0
VERTEX
8
0
10
2.3199
20
6.1932
42
0.0084
0
VERTEX
8
0
10
2.3485
20
6.1901
42
-0.0266
0
VERTEX
8
0
10
2.3812
20
6.1857
42
-0.0280
0
VERTEX
8
0
10
2.3971
20
6.1819
42
-0.4317
0
VERTEX
8
0
10
2.4110
20
6.1741
42
-0.0707
0
VERTEX
8
0
10
2.3387
20
6.1585
0
VERTEX
8
0
10
2.2664
20
6.1533
0
VERTEX
8
0
10
2.3178
20
6.1302
42
0.0880
0
VERTEX
8
0
10
2.3954
20
6.1030
42
0.1002
0
VERTEX
8
0
10
2.4521
20
6.0993
42
0.0403
0
VERTEX
8
0
10
2.5060
20
6.1174
42
-0.1675
0
VERTEX
8
0
10
2.6053
20
6.1269
42
0.1351
0
VERTEX
8
0
10
2.6591
20
6.1215
42
0.0372
0
VERTEX
8
0
10
2.7100
20
6.1402
0
VERTEX
8
0
10
2.7652
20
6.1654
0
SEQEND
8
0
0
POLYLINE
8
Layer 1
66
1
0
VERTEX
8
0
10
3.0576
20
6.2615
42
-0.4471
0
VERTEX
8
0
10
3.0624
20
6.2783
42
-0.0798
0
VERTEX
8
0
10
3.0777
20
6.2892
42
-0.0591
0
VERTEX
8
0
10
3.1127
20
6.3036
42
-0.1087
0
VERTEX
8
0
10
3.1879
20
6.3093
42
-0.2268
0
VERTEX
8
0
10
3.2022
20
6.2960
42
-0.3048
0
VERTEX
8
0
10
3.1849
20
6.2836
42
-0.0666
0
VERTEX
8
0
10
3.1433
20
6.2729
42
0.0343
0
VERTEX
8
0
10
3.0813
20
6.2582
42
-0.2779
0
VERTEX
8
0
10
3.0576
20
6.2615
0
SEQEND
8
0
0
POLYLINE
8
Layer 1
66
1
0
VERTEX
8
0
10
3.2623
20
6.3508
42
0.0086
0
VERTEX
8
0
10
3.3902
20
6.3382
42
0.0038
0
VERTEX
8
0
10
3.5308
20
6.3272
42
0.0769
0
VERTEX
8
0
10
3.5829
20
6.3455
0
VERTEX
8
0
10
3.6193
20
6.3650
0
VERTEX
8
0
10
3.5899
20
6.3725
42
0.0463
0
VERTEX
8
0
10
3.4857
20
6.3746
42
-0.1710
0
VERTEX
8
0
10
3.3708
20
6.3896
42
0.2625
0
VERTEX
8
0
10
3.3012
20
6.3979
42
0.0939
0
VERTEX
8
0
10
3.2739
20
6.3792
42
0.0735
0
VERTEX
8
0
10
3.2636
20
6.3662
42
0.4798
0
VERTEX
8
0
10
3.2623
20
6.3508
0
SEQEND
8
0
0
POLYLINE
8
Layer 1
66
1
0
VERTEX
8
0
10
3.3849
20
6.5095
42
0.0321
0
VERTEX
8
0
10
3.4214
20
6.4989
42
0.1862
0
VERTEX
8
0
10
3.5159
20
6.5145
42
0.0521
0
VERTEX
8
0
10
3.5403
20
6.5301
42
0.5207
0
VERTEX
8
0
10
3.5454
20
6.5420
42
0.0479
0
VERTEX
8
0
10
3.5347
20
6.5515
42
0.1525
0
VERTEX
8
0
10
3.4692
20
6.5571
42
0.0590
0
VERTEX
8
0
10
3.4062
20
6.5335
42
0.0386
0
VERTEX
8
0
10
3.3884
20
6.5234
42
0.7605
0
VERTEX
8
0
10
3.3849
20
6.5095
0
SEQEND
8
0
0
POLYLINE
8
Layer 1
66
1
0
VERTEX
8
0
10
3.4523
20
6.4334
42
0.5303
0
VERTEX
8
0
10
3.4520
20
6.4272
42
0.0208
0
VERTEX
8
0
10
3.4601
20
6.4221
42
0.0986
0
VERTEX
8
0
10
3.5412
20
6.4137
42
-0.2081
0
VERTEX
8
0
10
3.6246
20
6.4037
42
-0.0202
0
VERTEX
8
0
10
3.6506
20
6.3882
0
VERTEX
8
0
10
3.7120
20
6.4191
42
-0.0143
0
VERTEX
8
0
10
3.7491
20
6.4366
42
-0.1476
0
VERTEX
8
0
10
3.7877
20
6.4502
42
0.0428
0
VERTEX
8
0
10
3.8606
20
6.4814
42
-0.0251
0
VERTEX
8
0
10
3.9004
20
6.5002
42
-0.1390
0
VERTEX
8
0
10
3.9424
20
6.5127
42
0.0839
0
VERTEX
8
0
10
4.2020
20
6.5874
0
VERTEX
8
0
10
4.2860
20
6.6278
0
VERTEX
8
0
10
4.2351
20
6.6215
42
-0.0087
0
VERTEX
8
0
10
4.0424
20
6.6062
42
0.0053
0
VERTEX
8
0
10
3.8499
20
6.5915
42
0.0028
0
VERTEX
8
0
10
3.7538
20
6.5827
42
0.0034
0
VERTEX
8
0
10
3.7058
20
6.5776
42
0.1488
0
VERTEX
8
0
10
3.6582
20
6.5706
42
0.0332
0
VERTEX
8
0
10
3.7467
20
6.5600
42
0.0095
0
VERTEX
8
0
10
3.7915
20
6.5583
42
0.0979
0
VERTEX
8
0
10
3.8363
20
6.5600
42
-0.4041
0
VERTEX
8
0
10
3.8670
20
6.5567
42
-0.2681
0
VERTEX
8
0
10
3.8521
20
6.5326
42
-0.0622
0
VERTEX
8
0
10
3.7391
20
6.5261
42
0.0031
0
VERTEX
8
0
10
3.7257
20
6.5269
42
0.0046
0
VERTEX
8
0
10
3.7090
20
6.5277
42
0.0153
0
VERTEX
8
0
10
3.6756
20
6.5282
42
0.0730
0
VERTEX
8
0
10
3.6425
20
6.5252
42
0.5181
0
VERTEX
8
0
10
3.6300
20
6.5159
42
0.1261
0
VERTEX
8
0
10
3.6396
20
6.5028
42
-0.7634
0
VERTEX
8
0
10
3.6386
20
6.4754
42
-0.0674
0
VERTEX
8
0
10
3.6000
20
6.4755
42
0.0196
0
VERTEX
8
0
10
3.5768
20
6.4783
42
0.0466
0
VERTEX
8
0
10
3.5711
20
6.4786
0
VERTEX
8
0
10
3.5718
20
6.4756
42
0.0176
0
VERTEX
8
0
10
3.5820
20
6.4707
42
-0.0665
0
VERTEX
8
0
10
3.5946
20
6.4640
42
-0.5418
0
VERTEX
8
0
10
3.5998
20
6.4511
42
-0.1038
0
VERTEX
8
0
10
3.5714
20
6.4394
42
-0.0375
0
VERTEX
8
0
10
3.5090
20
6.4352
42
0.0120
0
VERTEX
8
0
10
3.4713
20
6.4351
42
0.0858
0
VERTEX
8
0
10
3.4523
20
6.4334
0
SEQEND
8
0
0
POLYLINE
8
Layer 1
66
1
0
VERTEX
8
0
10
3.9616
20
6.4453
42
0.3396
0
VERTEX
8
0
10
3.9805
20
6.4140
42
0.0488
0
VERTEX
8
0
10
4.0199
20
6.4066
42
0.0122
0
VERTEX
8
0
10
4.1003
20
6.4039
42
-0.0268
0
VERTEX
8
0
10
4.1653
20
6.4020
42
-0.1771
0
VERTEX
8
0
10
4.2237
20
6.3773
42
-0.0645
0
VERTEX
8
0
10
4.2650
20
6.3234
42
-0.0410
0
VERTEX
8
0
10
4.2800
20
6.2929
42
-0.2644
0
VERTEX
8
0
10
4.2855
20
6.2599
42
0.2534
0
VERTEX
8
0
10
4.3050
20
6.2342
42
-0.4001
0
VERTEX
8
0
10
4.3322
20
6.1364
42
-0.0742
0
VERTEX
8
0
10
4.2715
20
6.0853
42
0.1026
0
VERTEX
8
0
10
4.2197
20
6.0424
42
0.3460
0
VERTEX
8
0
10
4.2087
20
5.9799
42
-0.1891
0
VERTEX
8
0
10
4.2077
20
5.9289
42
0.2275
0
VERTEX
8
0
10
4.2208
20
5.8472
42
0.1041
0
VERTEX
8
0
10
4.2860
20
5.7916
42
0.0205
0
VERTEX
8
0
10
4.3190
20
5.7752
42
0.1529
0
VERTEX
8
0
10
4.3537
20
5.7633
42
0.1473
0
VERTEX
8
0
10
4.4190
20
5.8017
42
0.0262
0
VERTEX
8
0
10
4.4670
20
5.8630
42
-0.1203
0
VERTEX
8
0
10
4.5524
20
5.9555
42
-0.0733
0
VERTEX
8
0
10
4.6711
20
5.9967
42
0.0329
0
VERTEX
8
0
10
4.7299
20
6.0115
42
0.1072
0
VERTEX
8
0
10
4.7847
20
6.0369
42
-0.1848
0
VERTEX
8
0
10
4.9475
20
6.1018
42
0.0365
0
VERTEX
8
0
10
5.0958
20
6.1218
42
0.0129
0
VERTEX
8
0
10
5.1423
20
6.1322
42
0.0392
0
VERTEX
8
0
10
5.1653
20
6.1391
42
0.7113
0
VERTEX
8
0
10
5.1748
20
6.1555
42
0.1647
0
VERTEX
8
0
10
5.1238
20
6.1636
42
-0.1389
0
VERTEX
8
0
10
5.0854
20
6.1649
42
-0.7642
0
VERTEX
8
0
10
5.0752
20
6.1779
42
-0.1045
0
VERTEX
8
0
10
5.0925
20
6.1865
42
0.6632
0
VERTEX
8
0
10
5.1028
20
6.2065
42
-0.6960
0
VERTEX
8
0
10
5.1000
20
6.2261
42
-0.1192
0
VERTEX
8
0
10
5.1229
20
6.2261
42
-0.0833
0
VERTEX
8
0
10
5.1649
20
6.2063
42
0.0673
0
VERTEX
8
0
10
5.1947
20
6.1889
42
0.1988
0
VERTEX
8
0
10
5.2285
20
6.1876
0
VERTEX
8
0
10
5.2524
20
6.1965
0
VERTEX
8
0
10
5.2259
20
6.2166
42
0.0346
0
VERTEX
8
0
10
5.1658
20
6.2552
42
-0.0535
0
VERTEX
8
0
10
5.1479
20
6.2667
42
-0.7320
0
VERTEX
8
0
10
5.1433
20
6.2826
42
-0.0663
0
VERTEX
8
0
10
5.1826
20
6.2893
42
0.0694
0
VERTEX
8
0
10
5.2611
20
6.3111
42
0.0358
0
VERTEX
8
0
10
5.2976
20
6.3295
42
0.2657
0
VERTEX
8
0
10
5.3276
20
6.3563
42
-0.0738
0
VERTEX
8
0
10
5.3638
20
6.4030
42
0.0702
0
VERTEX
8
0
10
5.3824
20
6.4239
42
0.3044
0
VERTEX
8
0
10
5.3850
20
6.4501
42
-0.2341
0
VERTEX
8
0
10
5.3937
20
6.4869
42
-0.0725
0
VERTEX
8
0
10
5.4244
20
6.5125
42
-0.1050
0
VERTEX
8
0
10
5.4996
20
6.5390
42
0.0316
0
VERTEX
8
0
10
5.5397
20
6.5470
42
0.1276
0
VERTEX
8
0
10
5.5777
20
6.5618
42
0.0396
0
VERTEX
8
0
10
5.5846
20
6.5673
42
0.7640
0
VERTEX
8
0
10
5.5841
20
6.5735
42
0.0311
0
VERTEX
8
0
10
5.5658
20
6.5735
42
0.0061
0
VERTEX
8
0
10
5.5292
20
6.5702
42
-0.1746
0
VERTEX
8
0
10
5.4188
20
6.5843
42
0.0608
0
VERTEX
8
0
10
5.2896
20
6.6172
42
0.0287
0
VERTEX
8
0
10
5.2229
20
6.6224
42
0.0902
0
VERTEX
8
0
10
5.1564
20
6.6170
42
-0.0872
0
VERTEX
8
0
10
5.0586
20
6.6116
42
0.0413
0
VERTEX
8
0
10
4.8693
20
6.5953
42
-0.0529
0
VERTEX
8
0
10
4.6193
20
6.5752
42
0.0182
0
VERTEX
8
0
10
4.4308
20
6.5774
42
0.0661
0
VERTEX
8
0
10
4.3373
20
6.5672
42
0.0266
0
VERTEX
8
0
10
4.2490
20
6.5347
42
-0.0771
0
VERTEX
8
0
10
4.0623
20
6.4819
42
-0.0283
0
VERTEX
8
0
10
3.9686
20
6.4710
42
0.1047
0
VERTEX
8
0
10
3.9616
20
6.4453
0
SEQEND
8
0
0
POLYLINE
8
Layer 1
66
1
0
VERTEX
8
0
10
5.1629
20
5.9385
42
0.2748
0
VERTEX
8
0
10
5.1619
20
5.9245
42
0.1940
0
VERTEX
8
0
10
5.1749
20
5.9236
42
-0.1425
0
VERTEX
8
0
10
5.2235
20
5.9085
42
0.0511
0
VERTEX
8
0
10
5.2459
20
5.8969
42
0.2174
0
VERTEX
8
0
10
5.2704
20
5.8922
42
0.0135
0
VERTEX
8
0
10
5.3501
20
5.9153
42
0.1241
0
VERTEX
8
0
10
5.4257
20
5.9488
0
VERTEX
8
0
10
5.4508
20
5.9684
0
VERTEX
8
0
10
5.4226
20
5.9868
42
0.1814
0
VERTEX
8
0
10
5.3888
20
6.0000
42
0.0459
0
VERTEX
8
0
10
5.3528
20
5.9928
42
-0.2028
0
VERTEX
8
0
10
5.2915
20
5.9866
42
0.0999
0
VERTEX
8
0
10
5.2215
20
5.9764
42
0.0442
0
VERTEX
8
0
10
5.1889
20
5.9619
42
0.2921
0
VERTEX
8
0
10
5.1629
20
5.9385
0
SEQEND
8
0
0
POLYLINE
8
Layer 1
66
1
0
VERTEX
8
0
10
5.6871
20
5.8478
42
-0.5599
0
VERTEX
8
0
10
5.7027
20
5.8564
42
-0.2601
0
VERTEX
8
0
10
5.7183
20
5.8478
42
-0.5590
0
VERTEX
8
0
10
5.7027
20
5.8391
42
-0.2601
0
VERTEX
8
0
10
5.6871
20
5.8478
0
SEQEND
8
0
0
POLYLINE
8
Layer 1
66
1
0
VERTEX
8
0
10
5.7417
20
5.6584
42
0.1942
0
VERTEX
8
0
10
5.7027
20
5.6273
42
0.3176
0
VERTEX
8
0
10
5.6957
20
5.5778
42
-0.2441
0
VERTEX
8
0
10
5.7004
20
5.5465
42
0.3782
0
VERTEX
8
0
10
5.7133
20
5.5320
42
0.0489
0
VERTEX
8
0
10
5.7366
20
5.5328
42
-0.2508
0
VERTEX
8
0
10
5.7704
20
5.4698
42
-0.1317
0
VERTEX
8
0
10
5.7391
20
5.4486
42
0.0716
0
VERTEX
8
0
10
5.7230
20
5.4409
42
0.5936
0
VERTEX
8
0
10
5.7147
20
5.4268
42
-0.2470
0
VERTEX
8
0
10
5.7024
20
5.4018
42
0.0572
0
VERTEX
8
0
10
5.6934
20
5.3946
42
0.5196
0
VERTEX
8
0
10
5.6952
20
5.3865
42
0.0210
0
VERTEX
8
0
10
5.7167
20
5.3812
42
-0.1903
0
VERTEX
8
0
10
5.7516
20
5.3686
42
-0.4006
0
VERTEX
8
0
10
5.7486
20
5.3538
42
-0.0490
0
VERTEX
8
0
10
5.7319
20
5.3458
42
0.0313
0
VERTEX
8
0
10
5.6818
20
5.3250
42
0.0260
0
VERTEX
8
0
10
5.6736
20
5.3205
42
0.2205
0
VERTEX
8
0
10
5.6795
20
5.3186
42
0.0104
0
VERTEX
8
0
10
5.6975
20
5.3215
42
-0.0068
0
VERTEX
8
0
10
5.8150
20
5.3399
42
0.0156
0
VERTEX
8
0
10
5.8546
20
5.3464
42
0.0353
0
VERTEX
8
0
10
5.8741
20
5.3512
42
0.0928
0
VERTEX
8
0
10
5.8834
20
5.3552
42
0.5033
0
VERTEX
8
0
10
5.8842
20
5.3635
42
-0.3948
0
VERTEX
8
0
10
5.8839
20
5.3808
42
-0.0449
0
VERTEX
8
0
10
5.8994
20
5.3931
42
0.3126
0
VERTEX
8
0
10
5.9197
20
5.4173
42
0.3437
0
VERTEX
8
0
10
5.9096
20
5.4275
42
0.0770
0
VERTEX
8
0
10
5.8936
20
5.4259
42
-0.2869
0
VERTEX
8
0
10
5.8695
20
5.4347
42
-0.0407
0
VERTEX
8
0
10
5.8561
20
5.4588
42
0.0509
0
VERTEX
8
0
10
5.8231
20
5.5196
42
0.1918
0
VERTEX
8
0
10
5.7729
20
5.5658
0
VERTEX
8
0
10
5.7465
20
5.5758
0
VERTEX
8
0
10
5.7699
20
5.6007
0
VERTEX
8
0
10
5.7932
20
5.6256
0
VERTEX
8
0
10
5.7688
20
5.6293
42
-0.1040
0
VERTEX
8
0
10
5.7547
20
5.6340
42
-0.4064
0
VERTEX
8
0
10
5.7469
20
5.6457
42
0.6612
0
VERTEX
8
0
10
5.7417
20
5.6584
0
SEQEND
8
0
0
POLYLINE
8
Layer 1
66
1
0
VERTEX
8
0
10
5.6610
20
5.5231
42
0.1419
0
VERTEX
8
0
10
5.6168
20
5.5330
42
0.2850
0
VERTEX
8
0
10
5.5733
20
5.5189
42
-0.1310
0
VERTEX
8
0
10
5.5356
20
5.4979
42
0.2036
0
VERTEX
8
0
10
5.5132
20
5.4865
42
0.3560
0
VERTEX
8
0
10
5.5203
20
5.4658
42
-0.1696
0
VERTEX
8
0
10
5.5152
20
5.4294
42
0.2779
0
VERTEX
8
0
10
5.5062
20
5.3825
42
0.4232
0
VERTEX
8
0
10
5.5295
20
5.3730
42
-0.0108
0
VERTEX
8
0
10
5.5907
20
5.3956
42
0.0901
0
VERTEX
8
0
10
5.6217
20
5.4093
42
0.2154
0
VERTEX
8
0
10
5.6350
20
5.4387
42
-0.1515
0
VERTEX
8
0
10
5.6512
20
5.4896
42
0.0669
0
VERTEX
8
0
10
5.6596
20
5.5055
42
0.3037
0
VERTEX
8
0
10
5.6610
20
5.5231
0
SEQEND
8
0
0
POLYLINE
8
Layer 1
66
1
0
VERTEX
8
0
10
5.6975
20
5.4860
42
-0.2944
0
VERTEX
8
0
10
5.7079
20
5.4971
42
-0.5379
0
VERTEX
8
0
10
5.7183
20
5.4925
42
-0.3974
0
VERTEX
8
0
10
5.7079
20
5.4814
42
-0.2113
0
VERTEX
8
0
10
5.6975
20
5.4860
0
SEQEND
8
0
0
POLYLINE
8
Layer 1
66
1
0
VERTEX
8
0
10
5.7951
20
5.2557
42
-0.1363
0
VERTEX
8
0
10
5.7306
20
5.2370
42
0.0656
0
VERTEX
8
0
10
5.7060
20
5.2346
42
0.7220
0
VERTEX
8
0
10
5.6931
20
5.2199
42
0.0886
0
VERTEX
8
0
10
5.7330
20
5.1959
42
-0.2664
0
VERTEX
8
0
10
5.7910
20
5.1437
42
-0.0907
0
VERTEX
8
0
10
5.7957
20
5.0723
42
-0.0500
0
VERTEX
8
0
10
5.7886
20
5.0371
42
-0.1520
0
VERTEX
8
0
10
5.7721
20
5.0054
42
-0.1009
0
VERTEX
8
0
10
5.7221
20
4.9940
42
-0.0215
0
VERTEX
8
0
10
5.6700
20
4.9958
42
-0.0164
0
VERTEX
8
0
10
5.5665
20
5.0084
42
0.2011
0
VERTEX
8
0
10
5.5120
20
5.0021
42
0.3128
0
VERTEX
8
0
10
5.4938
20
4.9538
42
-0.0637
0
VERTEX
8
0
10
5.4845
20
4.8627
42
0.0506
0
VERTEX
8
0
10
5.4725
20
4.7836
42
0.0678
0
VERTEX
8
0
10
5.4744
20
4.7437
42
0.4300
0
VERTEX
8
0
10
5.4957
20
4.7128
42
-0.1906
0
VERTEX
8
0
10
5.5857
20
4.6737
42
0.0777
0
VERTEX
8
0
10
5.6058
20
4.6552
42
0.4155
0
VERTEX
8
0
10
5.6174
20
4.6567
42
0.0216
0
VERTEX
8
0
10
5.6242
20
4.6683
42
-0.2063
0
VERTEX
8
0
10
5.6473
20
4.6868
42
-0.0489
0
VERTEX
8
0
10
5.6777
20
4.6898
42
0.1464
0
VERTEX
8
0
10
5.7424
20
4.7015
42
0.0713
0
VERTEX
8
0
10
5.7910
20
4.7375
42
0.0484
0
VERTEX
8
0
10
5.8107
20
4.7605
42
0.2008
0
VERTEX
8
0
10
5.8225
20
4.7881
42
-0.0716
0
VERTEX
8
0
10
5.8400
20
4.8371
42
-0.0316
0
VERTEX
8
0
10
5.8534
20
4.8595
42
-0.3578
0
VERTEX
8
0
10
5.8718
20
4.8773
42
0.0572
0
VERTEX
8
0
10
5.9100
20
4.9033
42
-0.0365
0
VERTEX
8
0
10
5.9309
20
4.9189
42
-0.1935
0
VERTEX
8
0
10
5.9545
20
4.9294
42
0.3795
0
VERTEX
8
0
10
5.9644
20
4.9390
42
0.0594
0
VERTEX
8
0
10
5.9624
20
4.9545
42
-0.3702
0
VERTEX
8
0
10
5.9867
20
4.9955
42
-0.1016
0
VERTEX
8
0
10
6.0396
20
4.9973
42
0.1236
0
VERTEX
8
0
10
6.1070
20
5.0041
42
0.0527
0
VERTEX
8
0
10
6.1674
20
5.0364
42
-0.3141
0
VERTEX
8
0
10
6.2136
20
5.0462
42
-0.1251
0
VERTEX
8
0
10
6.2457
20
5.0101
42
0.0523
0
VERTEX
8
0
10
6.2966
20
4.9465
42
0.0261
0
VERTEX
8
0
10
6.3266
20
4.9188
42
0.0281
0
VERTEX
8
0
10
6.3428
20
4.9065
42
0.2031
0
VERTEX
8
0
10
6.3611
20
4.8981
42
-0.1697
0
VERTEX
8
0
10
6.4384
20
4.8580
42
-0.0844
0
VERTEX
8
0
10
6.4636
20
4.8214
42
-0.1762
0
VERTEX
8
0
10
6.4713
20
4.7781
0
VERTEX
8
0
10
6.4658
20
4.7471
0
VERTEX
8
0
10
6.4898
20
4.7701
42
0.3479
0
VERTEX
8
0
10
6.5018
20
4.8192
42
-0.0983
0
VERTEX
8
0
10
6.4960
20
4.8374
42
-0.3753
0
VERTEX
8
0
10
6.5040
20
4.8529
42
-0.0852
0
VERTEX
8
0
10
6.5415
20
4.8512
42
0.1069
0
VERTEX
8
0
10
6.5669
20
4.8476
42
0.3970
0
VERTEX
8
0
10
6.5657
20
4.8559
42
0.0225
0
VERTEX
8
0
10
6.5551
20
4.8632
42
0.0149
0
VERTEX
8
0
10
6.5097
20
4.8878
42
-0.0442
0
VERTEX
8
0
10
6.4004
20
4.9685
42
-0.0225
0
VERTEX
8
0
10
6.3513
20
5.0154
42
-0.0241
0
VERTEX
8
0
10
6.3287
20
5.0408
42
-0.2518
0
VERTEX
8
0
10
6.3121
20
5.0700
42
-0.2088
0
VERTEX
8
0
10
6.3323
20
5.0957
42
-0.3691
0
VERTEX
8
0
10
6.3663
20
5.0868
42
0.1047
0
VERTEX
8
0
10
6.4176
20
5.0514
42
-0.1740
0
VERTEX
8
0
10
6.4697
20
5.0149
42
0.1170
0
VERTEX
8
0
10
6.5286
20
4.9809
42
-0.1353
0
VERTEX
8
0
10
6.5869
20
4.9427
42
-0.2039
0
VERTEX
8
0
10
6.6141
20
4.8791
42
0.2266
0
VERTEX
8
0
10
6.6429
20
4.8109
42
0.1216
0
VERTEX
8
0
10
6.7124
20
4.7815
42
-0.0979
0
VERTEX
8
0
10
6.7254
20
4.7775
42
-0.4009
0
VERTEX
8
0
10
6.7325
20
4.7670
42
-0.1961
0
VERTEX
8
0
10
6.7103
20
4.7541
42
0.0571
0
VERTEX
8
0
10
6.6977
20
4.7518
42
0.4236
0
VERTEX
8
0
10
6.6929
20
4.7425
42
0.0209
0
VERTEX
8
0
10
6.7046
20
4.7206
42
0.2208
0
VERTEX
8
0
10
6.7326
20
4.6880
42
0.2817
0
VERTEX
8
0
10
6.7521
20
4.6930
42
0.0580
0
VERTEX
8
0
10
6.7639
20
4.7111
42
0.2360
0
VERTEX
8
0
10
6.7718
20
4.7505
42
0.0298
0
VERTEX
8
0
10
6.7546
20
4.7880
42
-0.0388
0
VERTEX
8
0
10
6.7404
20
4.8172
42
-0.3833
0
VERTEX
8
0
10
6.7449
20
4.8465
42
-0.2880
0
VERTEX
8
0
10
6.7755
20
4.8527
42
0.7996
0
VERTEX
8
0
10
6.7912
20
4.8564
42
-0.2213
0
VERTEX
8
0
10
6.8207
20
4.8793
42
-0.1269
0
VERTEX
8
0
10
6.8602
20
4.8788
42
0.0935
0
VERTEX
8
0
10
6.9365
20
4.8802
0
VERTEX
8
0
10
6.9828
20
4.8897
0
VERTEX
8
0
10
6.9576
20
4.9088
42
-0.3323
0
VERTEX
8
0
10
6.9374
20
4.9399
42
-0.0230
0
VERTEX
8
0
10
6.9457
20
4.9781
42
-0.0874
0
VERTEX
8
0
10
7.0006
20
5.0905
42
-0.0733
0
VERTEX
8
0
10
7.0427
20
5.1367
42
-0.1088
0
VERTEX
8
0
10
7.0695
20
5.1527
42
-0.3635
0
VERTEX
8
0
10
7.0978
20
5.1461
42
0.1331
0
VERTEX
8
0
10
7.1283
20
5.1239
42
-0.3090
0
VERTEX
8
0
10
7.1412
20
5.1155
42
-0.1517
0
VERTEX
8
0
10
7.1354
20
5.1018
42
0.4237
0
VERTEX
8
0
10
7.1329
20
5.0831
42
0.0503
0
VERTEX
8
0
10
7.1491
20
5.0700
42
0.2755
0
VERTEX
8
0
10
7.1822
20
5.0595
42
0.0338
0
VERTEX
8
0
10
7.2149
20
5.0741
42
0.0272
0
VERTEX
8
0
10
7.2344
20
5.0850
42
0.3661
0
VERTEX
8
0
10
7.2425
20
5.0925
42
0.1409
0
VERTEX
8
0
10
7.2326
20
5.0956
42
-0.2287
0
VERTEX
8
0
10
7.1977
20
5.1113
42
-0.4334
0
VERTEX
8
0
10
7.1963
20
5.1268
42
-0.0567
0
VERTEX
8
0
10
7.2106
20
5.1369
42
-0.0138
0
VERTEX
8
0
10
7.2423
20
5.1520
42
-0.0101
0
VERTEX
8
0
10
7.2928
20
5.1736
42
-0.0280
0
VERTEX
8
0
10
7.3187
20
5.1831
42
-0.0861
0
VERTEX
8
0
10
7.3322
20
5.1858
42
-0.4681
0
VERTEX
8
0
10
7.3395
20
5.1772
42
-0.0912
0
VERTEX
8
0
10
7.3289
20
5.1500
42
0.4589
0
VERTEX
8
0
10
7.3262
20
5.1305
42
-0.1136
0
VERTEX
8
0
10
7.3174
20
5.0963
0
VERTEX
8
0
10
7.3027
20
5.0679
0
VERTEX
8
0
10
7.3907
20
5.0185
42
-0.0116
0
VERTEX
8
0
10
7.4363
20
4.9916
42
-0.0119
0
VERTEX
8
0
10
7.4585
20
4.9773
42
-0.2670
0
VERTEX
8
0
10
7.4787
20
4.9606
42
0.0917
0
VERTEX
8
0
10
7.5230
20
4.9453
42
-0.0400
0
VERTEX
8
0
10
7.6843
20
4.8800
42
0.0091
0
VERTEX
8
0
10
7.7448
20
4.8510
42
0.0093
0
VERTEX
8
0
10
7.7754
20
4.8374
42
0.0113
0
VERTEX
8
0
10
7.7909
20
4.8312
42
0.2563
0
VERTEX
8
0
10
7.8070
20
4.8271
42
0.1435
0
VERTEX
8
0
10
7.8031
20
4.8576
42
0.0327
0
VERTEX
8
0
10
7.7879
20
4.8857
42
0.0444
0
VERTEX
8
0
10
7.7491
20
4.9363
42
-0.0271
0
VERTEX
8
0
10
7.7256
20
4.9646
42
-0.2309
0
VERTEX
8
0
10
7.7079
20
4.9965
42
0.2098
0
VERTEX
8
0
10
7.6871
20
5.0231
42
-0.3656
0
VERTEX
8
0
10
7.6662
20
5.0460
42
-0.0761
0
VERTEX
8
0
10
7.7273
20
5.1124
42
-0.1337
0
VERTEX
8
0
10
7.8043
20
5.1605
42
0.0627
0
VERTEX
8
0
10
7.8292
20
5.1692
42
0.5024
0
VERTEX
8
0
10
7.8356
20
5.1790
42
0.0543
0
VERTEX
8
0
10
7.8279
20
5.1895
42
-0.1079
0
VERTEX
8
0
10
7.8057
20
5.2425
42
0.2283
0
VERTEX
8
0
10
7.7827
20
5.2913
42
-0.0741
0
VERTEX
8
0
10
7.7761
20
5.2978
42
-0.9076
0
VERTEX
8
0
10
7.7775
20
5.3044
42
-0.2077
0
VERTEX
8
0
10
7.8051
20
5.2793
42
-0.0507
0
VERTEX
8
0
10
7.8159
20
5.2416
42
0.1572
0
VERTEX
8
0
10
7.8494
20
5.1791
42
-0.0063
0
VERTEX
8
0
10
7.8953
20
5.1344
42
-0.0175
0
VERTEX
8
0
10
7.9175
20
5.1113
42
-0.0398
0
VERTEX
8
0
10
7.9276
20
5.0988
42
-0.4154
0
VERTEX
8
0
10
7.9309
20
5.0841
42
-0.2233
0
VERTEX
8
0
10
7.9049
20
5.0807
42
0.2623
0
VERTEX
8
0
10
7.8455
20
5.0695
42
0.3711
0
VERTEX
8
0
10
7.8329
20
5.0127
42
0.1014
0
VERTEX
8
0
10
7.8853
20
4.9708
42
-0.0329
0
VERTEX
8
0
10
7.9081
20
4.9574
42
-0.3451
0
VERTEX
8
0
10
7.9266
20
4.9392
42
0.3920
0
VERTEX
8
0
10
7.9355
20
4.9345
42
0.0428
0
VERTEX
8
0
10
7.9468
20
4.9394
42
-0.3482
0
VERTEX
8
0
10
7.9713
20
4.9398
42
-0.0464
0
VERTEX
8
0
10
7.9884
20
4.9199
42
-0.0250
0
VERTEX
8
0
10
8.0009
20
4.9005
42
-0.1718
0
VERTEX
8
0
10
8.0100
20
4.8794
42
-0.3569
0
VERTEX
8
0
10
7.9620
20
4.8635
42
0.2598
0
VERTEX
8
0
10
7.9522
20
4.8661
42
0.1817
0
VERTEX
8
0
10
7.9525
20
4.8571
42
0.0109
0
VERTEX
8
0
10
7.9614
20
4.8390
42
0.1228
0
VERTEX
8
0
10
7.9937
20
4.7945
42
-0.1355
0
VERTEX
8
0
10
8.0100
20
4.7356
42
-0.3232
0
VERTEX
8
0
10
7.9789
20
4.6742
42
-0.2272
0
VERTEX
8
0
10
7.9254
20
4.6707
42
-0.0114
0
VERTEX
8
0
10
7.8747
20
4.6949
42
-0.0423
0
VERTEX
8
0
10
7.8239
20
4.7222
42
-0.2001
0
VERTEX
8
0
10
7.8046
20
4.7428
42
-0.0508
0
VERTEX
8
0
10
7.8016
20
4.7713
0
VERTEX
8
0
10
7.8016
20
4.8109
0
VERTEX
8
0
10
7.6844
20
4.8694
42
0.0135
0
VERTEX
8
0
10
7.6087
20
4.9048
42
0.0953
0
VERTEX
8
0
10
7.5305
20
4.9339
42
0.1960
0
VERTEX
8
0
10
7.4976
20
4.9341
42
0.0982
0
VERTEX
8
0
10
7.4759
20
4.9097
42
-0.2461
0
VERTEX
8
0
10
7.3875
20
4.8698
42
-0.0872
0
VERTEX
8
0
10
7.2901
20
4.8990
42
0.0837
0
VERTEX
8
0
10
7.2044
20
4.9248
42
0.0595
0
VERTEX
8
0
10
7.1595
20
4.9259
42
0.1457
0
VERTEX
8
0
10
7.1169
20
4.9130
42
-0.1269
0
VERTEX
8
0
10
7.0507
20
4.8920
42
0.1823
0
VERTEX
8
0
10
6.9858
20
4.8626
42
-0.3288
0
VERTEX
8
0
10
6.9347
20
4.8407
42
0.2319
0
VERTEX
8
0
10
6.8954
20
4.8360
42
0.6111
0
VERTEX
8
0
10
6.8887
20
4.8213
42
0.0393
0
VERTEX
8
0
10
6.9032
20
4.8093
42
-0.2899
0
VERTEX
8
0
10
6.9266
20
4.7730
42
0.2798
0
VERTEX
8
0
10
6.9668
20
4.6931
42
0.0754
0
VERTEX
8
0
10
7.0109
20
4.6763
42
0.0496
0
VERTEX
8
0
10
7.0343
20
4.6731
42
0.3844
0
VERTEX
8
0
10
7.0565
20
4.6787
42
-0.2125
0
VERTEX
8
0
10
7.0961
20
4.6878
42
-0.0779
0
VERTEX
8
0
10
7.1360
20
4.6719
42
0.1659
0
VERTEX
8
0
10
7.1674
20
4.6595
42
0.0696
0
VERTEX
8
0
10
7.2001
20
4.6679
42
-0.0582
0
VERTEX
8
0
10
7.2526
20
4.6854
42
-0.4076
0
VERTEX
8
0
10
7.3011
20
4.6700
42
-0.0641
0
VERTEX
8
0
10
7.3063
20
4.6580
42
-0.7000
0
VERTEX
8
0
10
7.3021
20
4.6481
42
0.1346
0
VERTEX
8
0
10
7.2908
20
4.6090
42
-0.0116
0
VERTEX
8
0
10
7.2892
20
4.5596
42
-0.0197
0
VERTEX
8
0
10
7.2872
20
4.5351
42
-0.0297
0
VERTEX
8
0
10
7.2852
20
4.5229
42
-0.4691
0
VERTEX
8
0
10
7.2795
20
4.5127
42
0.0740
0
VERTEX
8
0
10
7.2664
20
4.4714
42
-0.2257
0
VERTEX
8
0
10
7.2537
20
4.4344
42
-0.0732
0
VERTEX
8
0
10
7.2177
20
4.4188
42
0.0465
0
VERTEX
8
0
10
7.1917
20
4.4092
42
0.2661
0
VERTEX
8
0
10
7.1699
20
4.3928
42
0.0876
0
VERTEX
8
0
10
7.2095
20
4.3243
42
0.0159
0
VERTEX
8
0
10
7.2358
20
4.2938
42
0.2533
0
VERTEX
8
0
10
7.2510
20
4.2809
42
0.1379
0
VERTEX
8
0
10
7.2581
20
4.2978
42
-0.1432
0
VERTEX
8
0
10
7.2641
20
4.3188
42
-0.4412
0
VERTEX
8
0
10
7.2822
20
4.3193
42
-0.0905
0
VERTEX
8
0
10
7.3001
20
4.2800
42
0.0592
0
VERTEX
8
0
10
7.3622
20
4.1701
42
0.0097
0
VERTEX
8
0
10
7.4402
20
4.0700
42
-0.0784
0
VERTEX
8
0
10
7.4824
20
3.9802
42
0.1230
0
VERTEX
8
0
10
7.5411
20
3.8786
42
-0.0192
0
VERTEX
8
0
10
7.5639
20
3.8535
42
-0.2340
0
VERTEX
8
0
10
7.5829
20
3.8255
42
0.0616
0
VERTEX
8
0
10
7.6128
20
3.7813
42
-0.1290
0
VERTEX
8
0
10
7.6505
20
3.6898
42
0.0942
0
VERTEX
8
0
10
7.6783
20
3.5930
42
0.1888
0
VERTEX
8
0
10
7.6991
20
3.5614
42
0.1023
0
VERTEX
8
0
10
7.7361
20
3.5606
42
0.0320
0
VERTEX
8
0
10
7.9878
20
3.6665
42
0.1518
0
VERTEX
8
0
10
8.0388
20
3.7083
42
-0.1007
0
VERTEX
8
0
10
8.0811
20
3.7455
42
-0.1562
0
VERTEX
8
0
10
8.1347
20
3.7627
42
0.1609
0
VERTEX
8
0
10
8.2687
20
3.8945
42
-0.0943
0
VERTEX
8
0
10
8.3162
20
3.9598
42
0.0381
0
VERTEX
8
0
10
8.3321
20
3.9769
42
0.2283
0
VERTEX
8
0
10
8.3433
20
3.9971
42
0.1082
0
VERTEX
8
0
10
8.2321
20
4.0891
42
-0.1179
0
VERTEX
8
0
10
8.1997
20
4.1156
42
-0.2379
0
VERTEX
8
0
10
8.1879
20
4.1548
42
0.1620
0
VERTEX
8
0
10
8.1888
20
4.1743
42
0.2971
0
VERTEX
8
0
10
8.1730
20
4.1730
42
0.0318
0
VERTEX
8
0
10
8.1455
20
4.1455
42
-0.0365
0
VERTEX
8
0
10
8.1145
20
4.1152
42
-0.1578
0
VERTEX
8
0
10
8.0782
20
4.0919
42
-0.1192
0
VERTEX
8
0
10
8.0297
20
4.1003
42
-0.0644
0
VERTEX
8
0
10
8.0082
20
4.1125
42
-0.4561
0
VERTEX
8
0
10
7.9959
20
4.1325
42
0.1600
0
VERTEX
8
0
10
7.9894
20
4.1585
42
0.6225
0
VERTEX
8
0
10
7.9764
20
4.1669
42
0.0521
0
VERTEX
8
0
10
7.9650
20
4.1542
42
-0.5155
0
VERTEX
8
0
10
7.9268
20
4.1467
42
-0.1025
0
VERTEX
8
0
10
7.9066
20
4.1869
42
0.0794
0
VERTEX
8
0
10
7.8635
20
4.2707
42
-0.2809
0
VERTEX
8
0
10
7.8379
20
4.3451
42
-0.3301
0
VERTEX
8
0
10
7.8602
20
4.3815
42
-0.1976
0
VERTEX
8
0
10
7.9161
20
4.3634
42
-0.1108
0
VERTEX
8
0
10
7.9527
20
4.3146
42
0.1325
0
VERTEX
8
0
10
7.9863
20
4.2689
42
0.0356
0
VERTEX
8
0
10
8.0354
20
4.2396
42
0.2227
0
VERTEX
8
0
10
8.1454
20
4.2203
42
-0.2136
0
VERTEX
8
0
10
8.1900
20
4.2269
42
-0.0649
0
VERTEX
8
0
10
8.2235
20
4.1972
42
0.1763
0
VERTEX
8
0
10
8.2795
20
4.1536
42
0.0286
0
VERTEX
8
0
10
8.4240
20
4.1435
42
0.0102
0
VERTEX
8
0
10
8.4965
20
4.1439
42
0.0120
0
VERTEX
8
0
10
8.5327
20
4.1455
42
0.1292
0
VERTEX
8
0
10
8.5684
20
4.1506
42
-0.1688
0
VERTEX
8
0
10
8.6221
20
4.1443
42
-0.2501
0
VERTEX
8
0
10
8.6610
20
4.1066
42
0.0669
0
VERTEX
8
0
10
8.6666
20
4.0942
42
0.3273
0
VERTEX
8
0
10
8.6765
20
4.0856
42
-0.0595
0
VERTEX
8
0
10
8.7171
20
4.0590
42
0.0530
0
VERTEX
8
0
10
8.7400
20
4.0434
42
0.2275
0
VERTEX
8
0
10
8.7663
20
4.0356
42
-0.6207
0
VERTEX
8
0
10
8.7880
20
4.0236
42
-0.2324
0
VERTEX
8
0
10
8.7692
20
4.0039
0
VERTEX
8
0
10
8.7454
20
3.9951
0
VERTEX
8
0
10
8.7730
20
3.9674
42
0.2244
0
VERTEX
8
0
10
8.8292
20
3.9401
42
0.3984
0
VERTEX
8
0
10
8.8691
20
3.9805
42
-0.3284
0
VERTEX
8
0
10
8.8823
20
3.9996
42
-0.2278
0
VERTEX
8
0
10
8.9004
20
3.9870
42
-0.0595
0
VERTEX
8
0
10
8.9088
20
3.9649
42
-0.1288
0
VERTEX
8
0
10
8.9108
20
3.9180
42
0.0980
0
VERTEX
8
0
10
8.9254
20
3.8152
42
0.0134
0
VERTEX
8
0
10
8.9649
20
3.7175
42
0.0042
0
VERTEX
8
0
10
9.0523
20
3.5257
42
-0.0145
0
VERTEX
8
0
10
9.0781
20
3.4660
42
-0.0690
0
VERTEX
8
0
10
9.0990
20
3.4045
42
0.2761
0
VERTEX
8
0
10
9.1315
20
3.3576
42
0.3953
0
VERTEX
8
0
10
9.1745
20
3.3604
42
0.0167
0
VERTEX
8
0
10
9.2030
20
3.3985
42
0.0998
0
VERTEX
8
0
10
9.2455
20
3.5241
42
0.0497
0
VERTEX
8
0
10
9.2467
20
3.6577
42
-0.1760
0
VERTEX
8
0
10
9.2614
20
3.6929
42
-0.0307
0
VERTEX
8
0
10
9.2910
20
3.7189
42
0.1164
0
VERTEX
8
0
10
9.3554
20
3.7838
42
-0.2242
0
VERTEX
8
0
10
9.3931
20
3.8193
42
0.1753
0
VERTEX
8
0
10
9.4249
20
3.8515
42
-0.1409
0
VERTEX
8
0
10
9.4740
20
3.8952
42
0.0692
0
VERTEX
8
0
10
9.4961
20
3.9083
42
0.3749
0
VERTEX
8
0
10
9.5068
20
3.9301
42
-0.3218
0
VERTEX
8
0
10
9.5283
20
3.9754
42
-0.0561
0
VERTEX
8
0
10
9.5804
20
3.9923
42
0.1021
0
VERTEX
8
0
10
9.6561
20
4.0130
42
-0.2984
0
VERTEX
8
0
10
9.6983
20
4.0023
42
-0.0611
0
VERTEX
8
0
10
9.7229
20
3.9618
42
0.2236
0
VERTEX
8
0
10
9.7722
20
3.9078
42
-0.0957
0
VERTEX
8
0
10
9.8315
20
3.8387
42
-0.0407
0
VERTEX
8
0
10
9.8514
20
3.7973
42
-0.2397
0
VERTEX
8
0
10
9.8591
20
3.7527
42
0.1564
0
VERTEX
8
0
10
9.8673
20
3.7206
42
0.3452
0
VERTEX
8
0
10
9.8930
20
3.7002
42
0.0526
0
VERTEX
8
0
10
9.9270
20
3.7266
42
-0.0973
0
VERTEX
8
0
10
9.9496
20
3.7434
42
-0.3225
0
VERTEX
8
0
10
9.9758
20
3.7417
42
-0.0967
0
VERTEX
8
0
10
9.9989
20
3.6917
42
0.0468
0
VERTEX
8
0
10
10.0377
20
3.5873
42
-0.1973
0
VERTEX
8
0
10
10.0575
20
3.4935
42
0.0239
0
VERTEX
8
0
10
10.0471
20
3.4033
42
0.1989
0
VERTEX
8
0
10
10.0502
20
3.3536
42
0.0581
0
VERTEX
8
0
10
10.0866
20
3.3196
42
-0.1263
0
VERTEX
8
0
10
10.1267
20
3.2791
42
-0.0460
0
VERTEX
8
0
10
10.1465
20
3.2256
42
0.0635
0
VERTEX
8
0
10
10.1806
20
3.1314
42
0.1149
0
VERTEX
8
0
10
10.2443
20
3.0552
42
0.0418
0
VERTEX
8
0
10
10.2785
20
3.0324
42
0.0825
0
VERTEX
8
0
10
10.2974
20
3.0244
42
0.5834
0
VERTEX
8
0
10
10.3121
20
3.0330
42
0.0166
0
VERTEX
8
0
10
10.2861
20
3.1250
42
0.0944
0
VERTEX
8
0
10
10.2561
20
3.2002
42
0.0499
0
VERTEX
8
0
10
10.1985
20
3.2567
42
-0.0324
0
VERTEX
8
0
10
10.1604
20
3.2912
42
-0.1896
0
VERTEX
8
0
10
10.1302
20
3.3323
42
0.0826
0
VERTEX
8
0
10
10.1020
20
3.3878
42
-0.1967
0
VERTEX
8
0
10
10.0854
20
3.4258
42
-0.0348
0
VERTEX
8
0
10
10.0918
20
3.4675
42
0.0852
0
VERTEX
8
0
10
10.1009
20
3.5544
42
-0.0610
0
VERTEX
8
0
10
10.1011
20
3.5754
42
-0.5087
0
VERTEX
8
0
10
10.1126
20
3.5908
42
-0.1467
0
VERTEX
8
0
10
10.2724
20
3.4623
42
0.4423
0
VERTEX
8
0
10
10.3100
20
3.4491
42
-0.5454
0
VERTEX
8
0
10
10.3373
20
3.4433
42
-0.1590
0
VERTEX
8
0
10
10.3377
20
3.4071
42
0.2671
0
VERTEX
8
0
10
10.3380
20
3.3775
42
0.2166
0
VERTEX
8
0
10
10.3571
20
3.3769
42
0.0542
0
VERTEX
8
0
10
10.3747
20
3.3873
42
0.1937
0
VERTEX
8
0
10
10.4004
20
3.4184
42
-0.1224
0
VERTEX
8
0
10
10.4470
20
3.4552
42
0.2018
0
VERTEX
8
0
10
10.4985
20
3.5017
42
0.1311
0
VERTEX
8
0
10
10.5040
20
3.5713
42
0.0698
0
VERTEX
8
0
10
10.4644
20
3.6746
42
0.1201
0
VERTEX
8
0
10
10.3965
20
3.7618
42
-0.0731
0
VERTEX
8
0
10
10.3417
20
3.8178
42
-0.0688
0
VERTEX
8
0
10
10.3222
20
3.8518
42
-0.2079
0
VERTEX
8
0
10
10.3177
20
3.8901
42
-0.2009
0
VERTEX
8
0
10
10.3935
20
3.9677
42
-0.1787
0
VERTEX
8
0
10
10.4435
20
3.9760
42
-0.2366
0
VERTEX
8
0
10
10.4795
20
3.9429
0
VERTEX
8
0
10
10.4895
20
3.9166
0
VERTEX
8
0
10
10.5110
20
3.9439
42
-0.2255
0
VERTEX
8
0
10
10.6089
20
3.9974
42
0.0466
0
VERTEX
8
0
10
10.7044
20
4.0226
42
0.1845
0
VERTEX
8
0
10
10.8148
20
4.1053
42
0.0503
0
VERTEX
8
0
10
10.8663
20
4.2358
42
0.0217
0
VERTEX
8
0
10
10.8850
20
4.3082
42
0.0850
0
VERTEX
8
0
10
10.8896
20
4.3454
42
0.3760
0
VERTEX
8
0
10
10.8651
20
4.3669
42
-0.2666
0
VERTEX
8
0
10
10.8407
20
4.3747
42
-0.3618
0
VERTEX
8
0
10
10.8487
20
4.3955
42
0.4112
0
VERTEX
8
0
10
10.8526
20
4.4292
42
0.0735
0
VERTEX
8
0
10
10.8215
20
4.4543
42
-0.1243
0
VERTEX
8
0
10
10.7682
20
4.5179
42
0.0516
0
VERTEX
8
0
10
10.7482
20
4.5495
42
0.1548
0
VERTEX
8
0
10
10.7208
20
4.5745
42
-0.2530
0
VERTEX
8
0
10
10.7013
20
4.5897
42
-0.1018
0
VERTEX
8
0
10
10.7021
20
4.6145
42
-0.1409
0
VERTEX
8
0
10
10.7287
20
4.6592
42
-0.0301
0
VERTEX
8
0
10
10.7709
20
4.6912
0
VERTEX
8
0
10
10.7964
20
4.7082
0
VERTEX
8
0
10
10.7507
20
4.7206
42
0.0524
0
VERTEX
8
0
10
10.7192
20
4.7275
42
0.2412
0
VERTEX
8
0
10
10.6899
20
4.7179
42
-0.2822
0
VERTEX
8
0
10
10.6596
20
4.7127
42
-0.0202
0
VERTEX
8
0
10
10.6298
20
4.7278
42
-0.1255
0
VERTEX
8
0
10
10.5709
20
4.7697
42
-0.3859
0
VERTEX
8
0
10
10.5633
20
4.7862
42
-0.0956
0
VERTEX
8
0
10
10.5772
20
4.7981
42
0.0471
0
VERTEX
8
0
10
10.6332
20
4.8483
42
-0.0519
0
VERTEX
8
0
10
10.6574
20
4.8719
42
-0.3330
0
VERTEX
8
0
10
10.6884
20
4.8765
42
-0.3238
0
VERTEX
8
0
10
10.7079
20
4.8502
42
0.0984
0
VERTEX
8
0
10
10.7189
20
4.8136
42
0.5202
0
VERTEX
8
0
10
10.7405
20
4.8005
42
0.0143
0
VERTEX
8
0
10
10.7659
20
4.8152
42
-0.1855
0
VERTEX
8
0
10
10.8004
20
4.8320
42
-0.0710
0
VERTEX
8
0
10
10.8356
20
4.8176
42
-0.3383
0
VERTEX
8
0
10
10.8693
20
4.7733
42
0.2931
0
VERTEX
8
0
10
10.8991
20
4.7407
42
-0.1617
0
VERTEX
8
0
10
10.9605
20
4.7005
42
-0.0488
0
VERTEX
8
0
10
10.9968
20
4.6355
0
VERTEX
8
0
10
11.0228
20
4.5760
0
VERTEX
8
0
10
11.0658
20
4.5977
42
0.0734
0
VERTEX
8
0
10
11.1132
20
4.6232
42
0.0593
0
VERTEX
8
0
10
11.0996
20
4.6664
42
0.0895
0
VERTEX
8
0
10
11.0095
20
4.7556
42
-0.0145
0
VERTEX
8
0
10
10.9712
20
4.7835
42
-0.0147
0
VERTEX
8
0
10
10.9529
20
4.7984
42
-0.2639
0
VERTEX
8
0
10
10.9371
20
4.8156
42
-0.1398
0
VERTEX
8
0
10
10.9625
20
4.8372
42
0.1675
0
VERTEX
8
0
10
10.9906
20
4.8595
42
0.3330
0
VERTEX
8
0
10
10.9889
20
4.8931
42
-0.1822
0
VERTEX
8
0
10
10.9879
20
4.9218
42
-0.0293
0
VERTEX
8
0
10
11.0002
20
4.9491
42
-0.0106
0
VERTEX
8
0
10
11.0122
20
4.9711
42
-0.1946
0
VERTEX
8
0
10
11.0260
20
4.9919
42
-0.0184
0
VERTEX
8
0
10
11.0576
20
4.9812
42
0.3183
0
VERTEX
8
0
10
11.1188
20
4.9958
42
0.0690
0
VERTEX
8
0
10
11.1503
20
5.0555
42
0.0800
0
VERTEX
8
0
10
11.1724
20
5.1943
42
0.0549
0
VERTEX
8
0
10
11.1661
20
5.2644
42
0.0581
0
VERTEX
8
0
10
11.1560
20
5.2981
42
0.2102
0
VERTEX
8
0
10
11.1346
20
5.3254
42
-0.1036
0
VERTEX
8
0
10
11.0942
20
5.3756
42
0.0811
0
VERTEX
8
0
10
11.0340
20
5.4459
42
0.0469
0
VERTEX
8
0
10
10.9964
20
5.4731
42
0.0503
0
VERTEX
8
0
10
10.9755
20
5.4832
42
0.2222
0
VERTEX
8
0
10
10.9528
20
5.4858
42
-0.1762
0
VERTEX
8
0
10
10.8236
20
5.5017
42
-0.0686
0
VERTEX
8
0
10
10.7945
20
5.5182
42
-0.3647
0
VERTEX
8
0
10
10.7879
20
5.5322
42
-0.0441
0
VERTEX
8
0
10
10.7957
20
5.5468
42
0.0592
0
VERTEX
8
0
10
10.8228
20
5.6186
42
-0.1686
0
VERTEX
8
0
10
10.8608
20
5.6915
42
-0.1532
0
VERTEX
8
0
10
10.9133
20
5.7143
42
-0.0156
0
VERTEX
8
0
10
10.9717
20
5.7167
42
0.0129
0
VERTEX
8
0
10
11.0281
20
5.7187
42
0.0770
0
VERTEX
8
0
10
11.0840
20
5.7252
42
-0.1318
0
VERTEX
8
0
10
11.1512
20
5.7162
42
0.1836
0
VERTEX
8
0
10
11.2200
20
5.7058
42
0.2749
0
VERTEX
8
0
10
11.2425
20
5.7157
42
0.1135
0
VERTEX
8
0
10
11.2432
20
5.7400
42
-0.1312
0
VERTEX
8
0
10
11.2490
20
5.7978
42
-0.3844
0
VERTEX
8
0
10
11.2698
20
5.8237
42
-0.0373
0
VERTEX
8
0
10
11.3045
20
5.8207
42
-0.1272
0
VERTEX
8
0
10
11.3728
20
5.7978
42
0.2068
0
VERTEX
8
0
10
11.4069
20
5.7870
42
0.4286
0
VERTEX
8
0
10
11.4216
20
5.8141
42
-0.3907
0
VERTEX
8
0
10
11.4355
20
5.8466
42
-0.3156
0
VERTEX
8
0
10
11.4709
20
5.8379
42
-0.1069
0
VERTEX
8
0
10
11.4977
20
5.7982
42
-0.2128
0
VERTEX
8
0
10
11.4938
20
5.7521
42
0.1353
0
VERTEX
8
0
10
11.4791
20
5.7023
42
-0.0955
0
VERTEX
8
0
10
11.4632
20
5.6484
42
0.2791
0
VERTEX
8
0
10
11.4637
20
5.5993
42
0.0109
0
VERTEX
8
0
10
11.4944
20
5.5565
42
0.0920
0
VERTEX
8
0
10
11.5802
20
5.4660
42
-0.0484
0
VERTEX
8
0
10
11.6571
20
5.3959
42
0.0542
0
VERTEX
8
0
10
11.6834
20
5.3698
42
0.2804
0
VERTEX
8
0
10
11.7177
20
5.3615
42
0.5297
0
VERTEX
8
0
10
11.7332
20
5.3860
42
-0.0632
0
VERTEX
8
0
10
11.7230
20
5.4294
42
0.0767
0
VERTEX
8
0
10
11.7130
20
5.4735
42
-0.4488
0
VERTEX
8
0
10
11.7224
20
5.4981
42
0.4956
0
VERTEX
8
0
10
11.7329
20
5.5130
42
0.0268
0
VERTEX
8
0
10
11.7235
20
5.5320
42
-0.0436
0
VERTEX
8
0
10
11.6983
20
5.5869
42
0.1402
0
VERTEX
8
0
10
11.6433
20
5.6362
42
-0.0938
0
VERTEX
8
0
10
11.5918
20
5.6738
42
-0.0911
0
VERTEX
8
0
10
11.5734
20
5.6998
42
-0.4340
0
VERTEX
8
0
10
11.5752
20
5.7294
42
-0.0788
0
VERTEX
8
0
10
11.6194
20
5.7477
42
0.0570
0
VERTEX
8
0
10
11.6792
20
5.7696
42
-0.2353
0
VERTEX
8
0
10
11.7377
20
5.7686
42
0.1953
0
VERTEX
8
0
10
11.7652
20
5.7588
42
0.0977
0
VERTEX
8
0
10
11.7898
20
5.7740
42
0.0376
0
VERTEX
8
0
10
11.8028
20
5.7880
42
0.2217
0
VERTEX
8
0
10
11.8121
20
5.8045
42
-0.1272
0
VERTEX
8
0
10
11.8518
20
5.8338
42
-0.1904
0
VERTEX
8
0
10
11.9013
20
5.8433
42
0.0971
0
VERTEX
8
0
10
11.9294
20
5.8443
42
0.0825
0
VERTEX
8
0
10
11.9427
20
5.8492
42
0.7106
0
VERTEX
8
0
10
11.9472
20
5.8601
42
0.0132
0
VERTEX
8
0
10
11.8485
20
5.9014
42
-0.0382
0
VERTEX
8
0
10
11.7846
20
5.9294
42
-0.0446
0
VERTEX
8
0
10
11.7696
20
5.9385
42
-0.9035
0
VERTEX
8
0
10
11.7657
20
5.9514
42
-0.0564
0
VERTEX
8
0
10
11.8005
20
5.9529
42
0.1112
0
VERTEX
8
0
10
11.8260
20
5.9524
42
0.3150
0
VERTEX
8
0
10
11.8254
20
5.9617
42
0.0096
0
VERTEX
8
0
10
11.8173
20
5.9709
42
-0.3606
0
VERTEX
8
0
10
11.8071
20
5.9915
42
-0.2021
0
VERTEX
8
0
10
11.8282
20
5.9988
42
-0.0495
0
VERTEX
8
0
10
11.8749
20
5.9877
42
0.0269
0
VERTEX
8
0
10
11.9016
20
5.9800
42
0.2668
0
VERTEX
8
0
10
11.9290
20
5.9777
42
-0.2380
0
VERTEX
8
0
10
11.9505
20
5.9733
42
0.0748
0
VERTEX
8
0
10
12.0070
20
5.9497
42
0.1683
0
VERTEX
8
0
10
12.0679
20
5.9442
0
VERTEX
8
0
10
12.0935
20
5.9506
0
VERTEX
8
0
10
12.0596
20
5.9801
42
0.0700
0
VERTEX
8
0
10
12.0080
20
6.0188
42
0.2138
0
VERTEX
8
0
10
11.9459
20
6.0241
42
-0.1682
0
VERTEX
8
0
10
11.9045
20
6.0214
42
-0.0332
0
VERTEX
8
0
10
11.8657
20
6.0379
42
0.0811
0
VERTEX
8
0
10
11.7546
20
6.0703
42
-0.0691
0
VERTEX
8
0
10
11.6454
20
6.0961
42
0.0401
0
VERTEX
8
0
10
11.3277
20
6.1540
42
0.0117
0
VERTEX
8
0
10
11.2855
20
6.1579
42
0.2322
0
VERTEX
8
0
10
11.2646
20
6.1570
42
0.1195
0
VERTEX
8
0
10
11.2737
20
6.1401
42
-0.1514
0
VERTEX
8
0
10
11.2849
20
6.1227
42
-0.3888
0
VERTEX
8
0
10
11.2720
20
6.1122
42
-0.0603
0
VERTEX
8
0
10
11.2324
20
6.1238
42
0.0582
0
VERTEX
8
0
10
11.1455
20
6.1397
42
0.0109
0
VERTEX
8
0
10
11.0568
20
6.1424
42
-0.0154
0
VERTEX
8
0
10
10.9700
20
6.1448
42
-0.1408
0
VERTEX
8
0
10
10.8857
20
6.1628
42
0.0685
0
VERTEX
8
0
10
10.7951
20
6.1819
42
0.0085
0
VERTEX
8
0
10
10.7019
20
6.1859
42
-0.0172
0
VERTEX
8
0
10
10.6011
20
6.1904
42
-0.0986
0
VERTEX
8
0
10
10.5033
20
6.2127
42
0.1045
0
VERTEX
8
0
10
10.4162
20
6.2381
42
-0.0190
0
VERTEX
8
0
10
10.3134
20
6.2526
42
0.0457
0
VERTEX
8
0
10
10.2421
20
6.2597
42
0.0559
0
VERTEX
8
0
10
10.2064
20
6.2572
42
0.1156
0
VERTEX
8
0
10
10.1895
20
6.2516
42
0.4625
0
VERTEX
8
0
10
10.1870
20
6.2367
42
-0.4362
0
VERTEX
8
0
10
10.1864
20
6.2177
42
-0.0378
0
VERTEX
8
0
10
10.1677
20
6.2062
42
-0.1311
0
VERTEX
8
0
10
10.1251
20
6.1951
42
-0.0316
0
VERTEX
8
0
10
10.0810
20
6.2006
42
0.1791
0
VERTEX
8
0
10
9.9880
20
6.1944
42
-0.2469
0
VERTEX
8
0
10
9.9406
20
6.1855
42
-0.0240
0
VERTEX
8
0
10
9.8962
20
6.2071
0
VERTEX
8
0
10
9.7988
20
6.2601
42
0.1685
0
VERTEX
8
0
10
9.6015
20
6.2727
42
-0.1029
0
VERTEX
8
0
10
9.5018
20
6.2777
42
0.1716
0
VERTEX
8
0
10
9.4057
20
6.2835
42
-0.1137
0
VERTEX
8
0
10
9.3190
20
6.2888
42
0.1068
0
VERTEX
8
0
10
9.2620
20
6.2988
42
0.0326
0
VERTEX
8
0
10
9.2049
20
6.2880
42
-0.0281
0
VERTEX
8
0
10
9.1687
20
6.2802
42
-0.1773
0
VERTEX
8
0
10
9.1353
20
6.2796
42
-0.4200
0
VERTEX
8
0
10
9.1340
20
6.2929
42
-0.0450
0
VERTEX
8
0
10
9.1466
20
6.3040
42
-0.0269
0
VERTEX
8
0
10
9.1751
20
6.3218
42
0.0144
0
VERTEX
8
0
10
9.2031
20
6.3382
42
0.0142
0
VERTEX
8
0
10
9.2166
20
6.3472
42
0.2373
0
VERTEX
8
0
10
9.2286
20
6.3578
42
0.0728
0
VERTEX
8
0
10
9.2001
20
6.3838
42
0.0989
0
VERTEX
8
0
10
9.1379
20
6.4015
42
0.0141
0
VERTEX
8
0
10
9.0725
20
6.4035
42
-0.0252
0
VERTEX
8
0
10
9.0052
20
6.4059
42
-0.1270
0
VERTEX
8
0
10
8.9402
20
6.4218
42
0.1431
0
VERTEX
8
0
10
8.8797
20
6.4398
42
-0.0639
0
VERTEX
8
0
10
8.8665
20
6.4411
42
-0.8269
0
VERTEX
8
0
10
8.8581
20
6.4488
42
0.0899
0
VERTEX
8
0
10
8.8247
20
6.4646
42
0.0170
0
VERTEX
8
0
10
8.7875
20
6.4729
42
0.0557
0
VERTEX
8
0
10
8.7120
20
6.4814
42
-0.0504
0
VERTEX
8
0
10
8.6907
20
6.4834
42
-0.2834
0
VERTEX
8
0
10
8.6714
20
6.4919
42
0.1250
0
VERTEX
8
0
10
8.6307
20
6.5023
42
-0.1115
0
VERTEX
8
0
10
8.5631
20
6.5189
42
0.1005
0
VERTEX
8
0
10
8.5023
20
6.5357
42
0.2689
0
VERTEX
8
0
10
8.4428
20
6.5199
42
0.6890
0
VERTEX
8
0
10
8.4417
20
6.4984
42
0.0403
0
VERTEX
8
0
10
8.4696
20
6.4915
42
0.0107
0
VERTEX
8
0
10
8.5269
20
6.4847
42
0.0032
0
VERTEX
8
0
10
8.6419
20
6.4751
42
-0.0156
0
VERTEX
8
0
10
8.6889
20
6.4708
42
-0.0612
0
VERTEX
8
0
10
8.7122
20
6.4664
42
-0.4024
0
VERTEX
8
0
10
8.7233
20
6.4489
42
0.4705
0
VERTEX
8
0
10
8.7280
20
6.4301
42
0.2469
0
VERTEX
8
0
10
8.7443
20
6.4398
42
-0.0905
0
VERTEX
8
0
10
8.7944
20
6.4499
42
-0.0315
0
VERTEX
8
0
10
8.8201
20
6.4491
42
-0.0377
0
VERTEX
8
0
10
8.8328
20
6.4472
42
-0.4802
0
VERTEX
8
0
10
8.8433
20
6.4410
42
-0.0699
0
VERTEX
8
0
10
8.8067
20
6.4039
42
-0.2047
0
VERTEX
8
0
10
8.7257
20
6.3827
42
0.0333
0
VERTEX
8
0
10
8.6122
20
6.3754
42
0.0140
0
VERTEX
8
0
10
8.5559
20
6.3666
42
0.0149
0
VERTEX
8
0
10
8.5281
20
6.3608
42
0.1967
0
VERTEX
8
0
10
8.5014
20
6.3513
42
0.1642
0
VERTEX
8
0
10
8.5090
20
6.3316
42
-0.4991
0
VERTEX
8
0
10
8.5120
20
6.3117
42
-0.0986
0
VERTEX
8
0
10
8.4914
20
6.3031
42
-0.0319
0
VERTEX
8
0
10
8.4464
20
6.2991
42
0.1750
0
VERTEX
8
0
10
8.3695
20
6.2777
42
-0.0335
0
VERTEX
8
0
10
8.3049
20
6.2351
42
-0.2137
0
VERTEX
8
0
10
8.2313
20
6.2172
42
0.0543
0
VERTEX
8
0
10
8.2124
20
6.2192
42
0.6062
0
VERTEX
8
0
10
8.1975
20
6.2111
42
0.2244
0
VERTEX
8
0
10
8.2496
20
6.1429
42
-0.3941
0
VERTEX
8
0
10
8.2955
20
6.0594
42
-0.1441
0
VERTEX
8
0
10
8.2615
20
6.0196
42
-0.0707
0
VERTEX
8
0
10
8.2376
20
6.0079
42
-0.2077
0
VERTEX
8
0
10
8.2114
20
6.0067
42
-0.4119
0
VERTEX
8
0
10
8.2058
20
6.0246
42
-0.0232
0
VERTEX
8
0
10
8.2182
20
6.0438
42
0.3065
0
VERTEX
8
0
10
8.2333
20
6.0788
42
0.0593
0
VERTEX
8
0
10
8.2151
20
6.1132
42
0.0037
0
VERTEX
8
0
10
8.1685
20
6.1764
42
0.0527
0
VERTEX
8
0
10
8.1187
20
6.2365
42
0.2705
0
VERTEX
8
0
10
8.0481
20
6.2570
42
0.1481
0
VERTEX
8
0
10
8.0093
20
6.2379
42
0.2829
0
VERTEX
8
0
10
7.9971
20
6.1984
42
0.1612
0
VERTEX
8
0
10
8.0578
20
6.1394
42
-0.0872
0
VERTEX
8
0
10
8.0939
20
6.1181
42
-0.4493
0
VERTEX
8
0
10
8.1013
20
6.1001
42
-0.1020
0
VERTEX
8
0
10
8.0853
20
6.0869
42
-0.2578
0
VERTEX
8
0
10
8.0469
20
6.0918
42
0.1207
0
VERTEX
8
0
10
8.0223
20
6.1054
42
0.7041
0
VERTEX
8
0
10
8.0157
20
6.0987
42
0.0523
0
VERTEX
8
0
10
8.0240
20
6.0874
42
-0.2436
0
VERTEX
8
0
10
8.0412
20
6.0570
42
-0.1350
0
VERTEX
8
0
10
7.9182
20
5.9769
42
0.0474
0
VERTEX
8
0
10
7.9054
20
5.9716
42
0.3415
0
VERTEX
8
0
10
7.8954
20
5.9625
42
0.0235
0
VERTEX
8
0
10
7.9183
20
5.8953
42
0.1151
0
VERTEX
8
0
10
7.9474
20
5.8304
42
-0.0429
0
VERTEX
8
0
10
7.9635
20
5.7473
42
0.0382
0
VERTEX
8
0
10
7.9723
20
5.6948
42
0.1240
0
VERTEX
8
0
10
7.9924
20
5.6459
42
-0.3061
0
VERTEX
8
0
10
8.0016
20
5.5911
42
-0.3588
0
VERTEX
8
0
10
7.9703
20
5.5648
42
0.0931
0
VERTEX
8
0
10
7.9535
20
5.5630
42
0.4024
0
VERTEX
8
0
10
7.9447
20
5.5509
42
0.0696
0
VERTEX
8
0
10
7.9604
20
5.5219
42
0.1858
0
VERTEX
8
0
10
7.9893
20
5.4947
42
0.2850
0
VERTEX
8
0
10
8.0204
20
5.5127
42
-0.3419
0
VERTEX
8
0
10
8.0466
20
5.5335
42
-0.3888
0
VERTEX
8
0
10
8.0877
20
5.4576
42
0.0742
0
VERTEX
8
0
10
8.0859
20
5.4408
42
0.3261
0
VERTEX
8
0
10
8.0915
20
5.4253
42
-0.2316
0
VERTEX
8
0
10
8.0932
20
5.3908
42
-0.1057
0
VERTEX
8
0
10
8.0716
20
5.3609
42
-0.2303
0
VERTEX
8
0
10
8.0281
20
5.3521
42
-0.0096
0
VERTEX
8
0
10
7.9831
20
5.3664
42
0.1779
0
VERTEX
8
0
10
7.8692
20
5.3783
42
-0.1273
0
VERTEX
8
0
10
7.7905
20
5.3738
42
0.0189
0
VERTEX
8
0
10
7.7752
20
5.3766
42
0.4449
0
VERTEX
8
0
10
7.7612
20
5.3744
42
0.0573
0
VERTEX
8
0
10
7.7630
20
5.3450
42
-0.0438
0
VERTEX
8
0
10
7.7661
20
5.3245
0
VERTEX
8
0
10
7.7626
20
5.3236
42
-0.0104
0
VERTEX
8
0
10
7.7581
20
5.3324
42
-0.3248
0
VERTEX
8
0
10
7.7535
20
5.3736
42
-0.2329
0
VERTEX
8
0
10
7.7923
20
5.3838
42
0.0919
0
VERTEX
8
0
10
7.8695
20
5.3888
42
-0.1196
0
VERTEX
8
0
10
7.9253
20
5.3932
42
-0.0279
0
VERTEX
8
0
10
7.9796
20
5.3778
42
0.0232
0
VERTEX
8
0
10
8.0186
20
5.3661
42
0.2223
0
VERTEX
8
0
10
8.0586
20
5.3609
42
0.1675
0
VERTEX
8
0
10
8.0816
20
5.3898
42
0.3390
0
VERTEX
8
0
10
8.0808
20
5.4263
42
-0.2063
0
VERTEX
8
0
10
8.0774
20
5.4597
42
0.1486
0
VERTEX
8
0
10
8.0742
20
5.4973
42
0.4132
0
VERTEX
8
0
10
8.0486
20
5.5231
42
0.1673
0
VERTEX
8
0
10
8.0228
20
5.5023
42
-0.4780
0
VERTEX
8
0
10
7.9864
20
5.4855
42
-0.0762
0
VERTEX
8
0
10
7.9545
20
5.5164
42
-0.2272
0
VERTEX
8
0
10
7.9368
20
5.5549
42
-0.2807
0
VERTEX
8
0
10
7.9482
20
5.5716
42
-0.0845
0
VERTEX
8
0
10
7.9693
20
5.5752
42
0.3303
0
VERTEX
8
0
10
7.9996
20
5.6161
42
0.0724
0
VERTEX
8
0
10
7.9801
20
5.6466
42
-0.0856
0
VERTEX
8
0
10
7.9531
20
5.7445
42
0.0159
0
VERTEX
8
0
10
7.9476
20
5.7880
42
0.1885
0
VERTEX
8
0
10
7.9371
20
5.8304
42
-0.0239
0
VERTEX
8
0
10
7.9079
20
5.8953
42
-0.0076
0
VERTEX
8
0
10
7.8953
20
5.9286
42
-0.1179
0
VERTEX
8
0
10
7.8850
20
5.9627
42
-0.0551
0
VERTEX
8
0
10
7.9344
20
5.9948
42
0.0366
0
VERTEX
8
0
10
8.0030
20
6.0319
42
0.2992
0
VERTEX
8
0
10
8.0297
20
6.0591
42
0.1402
0
VERTEX
8
0
10
8.0099
20
6.0908
42
0.0390
0
VERTEX
8
0
10
7.8773
20
6.1376
42
0.0139
0
VERTEX
8
0
10
7.8087
20
6.1543
42
0.0153
0
VERTEX
8
0
10
7.7741
20
6.1609
42
0.1987
0
VERTEX
8
0
10
7.7391
20
6.1627
42
0.8104
0
VERTEX
8
0
10
7.7353
20
6.1530
42
0.0335
0
VERTEX
8
0
10
7.7489
20
6.1467
42
0.2396
0
VERTEX
8
0
10
7.7872
20
6.1419
42
-0.2470
0
VERTEX
8
0
10
7.8117
20
6.1323
42
-0.4062
0
VERTEX
8
0
10
7.8174
20
6.1067
42
-0.4380
0
VERTEX
8
0
10
7.8005
20
6.1019
42
0.0469
0
VERTEX
8
0
10
7.7176
20
6.0959
42
-0.0247
0
VERTEX
8
0
10
7.6730
20
6.0896
42
-0.2791
0
VERTEX
8
0
10
7.6295
20
6.0962
42
0.1455
0
VERTEX
8
0
10
7.5912
20
6.1035
42
0.0438
0
VERTEX
8
0
10
7.5522
20
6.0948
42
0.0377
0
VERTEX
8
0
10
7.4787
20
6.0631
42
-0.0359
0
VERTEX
8
0
10
7.4390
20
6.0441
42
-0.2634
0
VERTEX
8
0
10
7.3966
20
6.0433
42
-0.0876
0
VERTEX
8
0
10
7.3837
20
6.0532
42
-0.3029
0
VERTEX
8
0
10
7.3773
20
6.0677
42
0.2107
0
VERTEX
8
0
10
7.3497
20
6.0838
42
0.0702
0
VERTEX
8
0
10
7.3329
20
6.0845
42
0.5528
0
VERTEX
8
0
10
7.3252
20
6.0734
0
VERTEX
8
0
10
7.3382
20
6.0414
42
-0.4708
0
VERTEX
8
0
10
7.3359
20
6.0218
42
-0.0422
0
VERTEX
8
0
10
7.3152
20
6.0137
42
-0.0065
0
VERTEX
8
0
10
7.2721
20
6.0021
42
0.0482
0
VERTEX
8
0
10
7.2472
20
5.9942
42
0.5764
0
VERTEX
8
0
10
7.2327
20
5.9758
42
-0.3429
0
VERTEX
8
0
10
7.2111
20
5.9477
42
-0.1508
0
VERTEX
8
0
10
7.1714
20
5.9502
42
0.0706
0
VERTEX
8
0
10
7.1395
20
5.9596
42
1.0151
0
VERTEX
8
0
10
7.1341
20
5.9531
42
0.0341
0
VERTEX
8
0
10
7.1480
20
5.9442
42
-0.0182
0
VERTEX
8
0
10
7.1627
20
5.9358
42
-0.2419
0
VERTEX
8
0
10
7.1745
20
5.9254
42
-0.1244
0
VERTEX
8
0
10
7.1501
20
5.9083
42
-0.3282
0
VERTEX
8
0
10
7.0266
20
5.9691
42
0.1709
0
VERTEX
8
0
10
6.9831
20
6.0112
42
-0.0853
0
VERTEX
8
0
10
6.9671
20
6.0203
42
-0.4429
0
VERTEX
8
0
10
6.9664
20
6.0358
42
-0.1340
0
VERTEX
8
0
10
7.0019
20
6.0411
42
-0.0174
0
VERTEX
8
0
10
7.0383
20
6.0347
42
0.0208
0
VERTEX
8
0
10
7.1379
20
6.0161
42
0.0931
0
VERTEX
8
0
10
7.1929
20
6.0188
42
0.0814
0
VERTEX
8
0
10
7.2187
20
6.0285
42
0.5022
0
VERTEX
8
0
10
7.2322
20
6.0500
42
0.0526
0
VERTEX
8
0
10
7.1197
20
6.0984
42
0.0164
0
VERTEX
8
0
10
7.0604
20
6.1149
42
0.1642
0
VERTEX
8
0
10
6.9997
20
6.1236
42
-0.0862
0
VERTEX
8
0
10
6.9093
20
6.1499
42
0.0929
0
VERTEX
8
0
10
6.7549
20
6.1849
42
0.0261
0
VERTEX
8
0
10
6.6876
20
6.1844
42
0.0796
0
VERTEX
8
0
10
6.6213
20
6.1743
42
0.0121
0
VERTEX
8
0
10
6.5217
20
6.1400
42
0.0153
0
VERTEX
8
0
10
6.4728
20
6.1206
42
0.0197
0
VERTEX
8
0
10
6.4489
20
6.1095
42
0.2794
0
VERTEX
8
0
10
6.4278
20
6.0944
42
-0.0504
0
VERTEX
8
0
10
6.3823
20
6.0443
42
0.1162
0
VERTEX
8
0
10
6.3276
20
5.9812
42
-0.0682
0
VERTEX
8
0
10
6.2529
20
5.9134
42
-0.1074
0
VERTEX
8
0
10
6.1635
20
5.8662
42
0.0975
0
VERTEX
8
0
10
6.1078
20
5.8373
42
0.0747
0
VERTEX
8
0
10
6.0857
20
5.8149
42
0.3346
0
VERTEX
8
0
10
6.0777
20
5.7857
42
-0.0592
0
VERTEX
8
0
10
6.0871
20
5.7381
42
0.3879
0
VERTEX
8
0
10
6.1610
20
5.6692
42
0.0908
0
VERTEX
8
0
10
6.2180
20
5.6910
0
VERTEX
8
0
10
6.2541
20
5.7131
0
VERTEX
8
0
10
6.2826
20
5.6789
42
-0.1451
0
VERTEX
8
0
10
6.3174
20
5.6163
42
0.1571
0
VERTEX
8
0
10
6.3448
20
5.5687
42
0.3647
0
VERTEX
8
0
10
6.3741
20
5.5563
42
0.0249
0
VERTEX
8
0
10
6.4041
20
5.5716
42
0.1712
0
VERTEX
8
0
10
6.4584
20
5.6366
42
-0.1848
0
VERTEX
8
0
10
6.5000
20
5.6971
42
0.1005
0
VERTEX
8
0
10
6.5337
20
5.7257
42
0.3932
0
VERTEX
8
0
10
6.5385
20
5.7460
42
0.1284
0
VERTEX
8
0
10
6.5201
20
5.7576
42
-0.1475
0
VERTEX
8
0
10
6.4830
20
5.7887
42
-0.2264
0
VERTEX
8
0
10
6.4722
20
5.8160
42
-0.0582
0
VERTEX
8
0
10
6.4828
20
5.8438
42
-0.1786
0
VERTEX
8
0
10
6.5295
20
5.8871
42
0.0714
0
VERTEX
8
0
10
6.6068
20
5.9511
42
-0.0664
0
VERTEX
8
0
10
6.6476
20
5.9903
42
-0.4320
0
VERTEX
8
0
10
6.6970
20
5.9872
42
-0.2249
0
VERTEX
8
0
10
6.7007
20
5.9577
42
-0.0417
0
VERTEX
8
0
10
6.6869
20
5.9297
42
-0.0149
0
VERTEX
8
0
10
6.6520
20
5.8778
42
0.0579
0
VERTEX
8
0
10
6.6340
20
5.8478
42
0.1757
0
VERTEX
8
0
10
6.6280
20
5.8140
42
0.1693
0
VERTEX
8
0
10
6.6765
20
5.7679
42
0.1261
0
VERTEX
8
0
10
6.7241
20
5.7543
42
0.0400
0
VERTEX
8
0
10
6.7733
20
5.7613
42
-0.0588
0
VERTEX
8
0
10
6.8390
20
5.7679
42
-0.0474
0
VERTEX
8
0
10
6.8718
20
5.7649
42
-0.2944
0
VERTEX
8
0
10
6.9011
20
5.7514
42
-0.2917
0
VERTEX
8
0
10
6.8969
20
5.7372
42
-0.0594
0
VERTEX
8
0
10
6.8831
20
5.7291
42
-0.0470
0
VERTEX
8
0
10
6.8526
20
5.7198
42
-0.0808
0
VERTEX
8
0
10
6.7889
20
5.7162
42
0.0335
0
VERTEX
8
0
10
6.7534
20
5.7176
42
0.2019
0
VERTEX
8
0
10
6.7186
20
5.7116
42
0.4406
0
VERTEX
8
0
10
6.7134
20
5.6924
42
0.0274
0
VERTEX
8
0
10
6.7284
20
5.6745
42
-0.0890
0
VERTEX
8
0
10
6.7447
20
5.6546
42
-0.2586
0
VERTEX
8
0
10
6.7382
20
5.6323
42
-0.2561
0
VERTEX
8
0
10
6.7145
20
5.6224
42
-0.0415
0
VERTEX
8
0
10
6.6889
20
5.6298
42
0.0929
0
VERTEX
8
0
10
6.6652
20
5.6355
42
0.2911
0
VERTEX
8
0
10
6.6437
20
5.6268
42
0.1255
0
VERTEX
8
0
10
6.6401
20
5.5795
42
-0.2544
0
VERTEX
8
0
10
6.6280
20
5.5322
42
-0.0602
0
VERTEX
8
0
10
6.5861
20
5.5036
42
-0.2234
0
VERTEX
8
0
10
6.5387
20
5.5030
42
0.1456
0
VERTEX
8
0
10
6.4980
20
5.5058
42
0.0259
0
VERTEX
8
0
10
6.4585
20
5.4931
42
-0.0553
0
VERTEX
8
0
10
6.4165
20
5.4792
42
-0.1506
0
VERTEX
8
0
10
6.3741
20
5.4869
42
0.1946
0
VERTEX
8
0
10
6.3112
20
5.4900
42
-0.2561
0
VERTEX
8
0
10
6.2780
20
5.4848
42
-0.0703
0
VERTEX
8
0
10
6.2535
20
5.5080
42
-0.0319
0
VERTEX
8
0
10
6.2417
20
5.5247
42
-0.4504
0
VERTEX
8
0
10
6.2350
20
5.5432
42
-0.2388
0
VERTEX
8
0
10
6.2488
20
5.5347
42
0.6411
0
VERTEX
8
0
10
6.2648
20
5.5329
42
-0.3905
0
VERTEX
8
0
10
6.2856
20
5.5339
42
0.3645
0
VERTEX
8
0
10
6.3134
20
5.5399
42
0.2741
0
VERTEX
8
0
10
6.3186
20
5.5703
42
0.4650
0
VERTEX
8
0
10
6.3057
20
5.5809
42
0.0463
0
VERTEX
8
0
10
6.2888
20
5.5735
42
-0.0988
0
VERTEX
8
0
10
6.2468
20
5.5575
42
-0.4477
0
VERTEX
8
0
10
6.2322
20
5.5716
42
-0.0190
0
VERTEX
8
0
10
6.2353
20
5.5973
0
VERTEX
8
0
10
6.2422
20
5.6402
0
VERTEX
8
0
10
6.2155
20
5.6227
42
0.2007
0
VERTEX
8
0
10
6.1827
20
5.5894
42
0.0930
0
VERTEX
8
0
10
6.1830
20
5.5490
42
0.2845
0
VERTEX
8
0
10
6.1989
20
5.5122
42
-0.3395
0
VERTEX
8
0
10
6.1983
20
5.4905
42
-0.0714
0
VERTEX
8
0
10
6.1793
20
5.4747
42
-0.1117
0
VERTEX
8
0
10
6.1328
20
5.4581
42
0.1164
0
VERTEX
8
0
10
6.0798
20
5.4398
42
0.0337
0
VERTEX
8
0
10
6.0360
20
5.4042
42
-0.0245
0
VERTEX
8
0
10
6.0005
20
5.3742
42
-0.1458
0
VERTEX
8
0
10
5.9610
20
5.3499
42
0.1646
0
VERTEX
8
0
10
5.9219
20
5.3192
42
-0.0868
0
VERTEX
8
0
10
5.8824
20
5.2834
42
-0.0497
0
VERTEX
8
0
10
5.8587
20
5.2710
42
-0.3371
0
VERTEX
8
0
10
5.8329
20
5.2679
42
0.1339
0
VERTEX
8
0
10
5.7951
20
5.2557
0
SEQEND
8
0
0
POLYLINE
8
Layer 1
66
1
0
VERTEX
8
0
10
5.9512
20
4.8347
42
0.2544
0
VERTEX
8
0
10
5.9330
20
4.8192
42
0.5899
0
VERTEX
8
0
10
5.9440
20
4.8062
42
0.3038
0
VERTEX
8
0
10
5.9657
20
4.8226
42
0.5095
0
VERTEX
8
0
10
5.9512
20
4.8347
0
SEQEND
8
0
0
POLYLINE
8
Layer 1
66
1
0
VERTEX
8
0
10
5.9164
20
4.6757
42
0.0581
0
VERTEX
8
0
10
5.7966
20
4.6283
42
-0.2097
0
VERTEX
8
0
10
5.6924
20
4.6020
42
-0.1367
0
VERTEX
8
0
10
5.6300
20
4.6234
42
0.0585
0
VERTEX
8
0
10
5.6136
20
4.6336
42
0.3122
0
VERTEX
8
0
10
5.5956
20
4.6328
42
0.0398
0
VERTEX
8
0
10
5.5730
20
4.6021
42
-0.0922
0
VERTEX
8
0
10
5.5002
20
4.5339
42
0.2763
0
VERTEX
8
0
10
5.4162
20
4.3939
42
-0.0863
0
VERTEX
8
0
10
5.3785
20
4.3356
42
-0.0324
0
VERTEX
8
0
10
5.3532
20
4.3112
42
-0.2572
0
VERTEX
8
0
10
5.3232
20
4.2939
42
0.0723
0
VERTEX
8
0
10
5.2520
20
4.2270
42
0.0526
0
VERTEX
8
0
10
5.1970
20
4.1451
42
-0.0508
0
VERTEX
8
0
10
5.1380
20
4.0476
42
0.0971
0
VERTEX
8
0
10
5.1055
20
3.9873
42
0.2205
0
VERTEX
8
0
10
5.1079
20
3.9203
42
-0.1238
0
VERTEX
8
0
10
5.1283
20
3.8010
42
-0.1920
0
VERTEX
8
0
10
5.0866
20
3.6881
42
0.3363
0
VERTEX
8
0
10
5.0774
20
3.6604
42
0.0280
0
VERTEX
8
0
10
5.0917
20
3.6329
42
-0.0363
0
VERTEX
8
0
10
5.1016
20
3.6140
42
-0.0704
0
VERTEX
8
0
10
5.1050
20
3.6039
42
-0.6312
0
VERTEX
8
0
10
5.1008
20
3.5959
0
VERTEX
8
0
10
5.0967
20
3.5912
42
0.0507
0
VERTEX
8
0
10
5.1037
20
3.5856
42
-0.0215
0
VERTEX
8
0
10
5.1094
20
3.5818
0
VERTEX
8
0
10
5.1132
20
3.5771
42
-0.0701
0
VERTEX
8
0
10
5.1011
20
3.5753
42
0.7008
0
VERTEX
8
0
10
5.0839
20
3.5614
42
0.1832
0
VERTEX
8
0
10
5.1046
20
3.5467
42
-0.9246
0
VERTEX
8
0
10
5.1124
20
3.5321
42
0.8001
0
VERTEX
8
0
10
5.1083
20
3.5218
42
0.0484
0
VERTEX
8
0
10
5.1212
20
3.5169
42
-0.0706
0
VERTEX
8
0
10
5.1909
20
3.4472
42
-0.1239
0
VERTEX
8
0
10
5.2408
20
3.3618
42
0.0906
0
VERTEX
8
0
10
5.3253
20
3.2539
42
0.0373
0
VERTEX
8
0
10
5.3799
20
3.2116
42
0.0976
0
VERTEX
8
0
10
5.4415
20
3.1809
42
0.1041
0
VERTEX
8
0
10
5.4992
20
3.1772
42
0.0216
0
VERTEX
8
0
10
5.5559
20
3.1902
42
-0.0374
0
VERTEX
8
0
10
5.6107
20
3.2028
42
-0.1170
0
VERTEX
8
0
10
5.6664
20
3.2000
42
0.1142
0
VERTEX
8
0
10
5.7271
20
3.1996
42
0.0166
0
VERTEX
8
0
10
5.7860
20
3.2170
42
0.0266
0
VERTEX
8
0
10
5.8902
20
3.2529
42
-0.2378
0
VERTEX
8
0
10
5.9993
20
3.2524
42
-0.2814
0
VERTEX
8
0
10
6.0481
20
3.1994
42
0.0577
0
VERTEX
8
0
10
6.0523
20
3.1825
42
0.2909
0
VERTEX
8
0
10
6.0645
20
3.1718
42
0.0324
0
VERTEX
8
0
10
6.0987
20
3.1747
42
-0.4052
0
VERTEX
8
0
10
6.2198
20
3.1119
42
-0.1154
0
VERTEX
8
0
10
6.2121
20
2.9641
42
0.2224
0
VERTEX
8
0
10
6.2095
20
2.8745
42
0.0619
0
VERTEX
8
0
10
6.2662
20
2.8033
42
-0.1355
0
VERTEX
8
0
10
6.3293
20
2.7002
42
0.0797
0
VERTEX
8
0
10
6.3657
20
2.6098
42
-0.2395
0
VERTEX
8
0
10
6.3791
20
2.5504
42
0.0922
0
VERTEX
8
0
10
6.3899
20
2.4718
0
VERTEX
8
0
10
6.4073
20
2.4195
0
VERTEX
8
0
10
6.3764
20
2.3593
42
0.0457
0
VERTEX
8
0
10
6.3321
20
2.2553
42
0.1455
0
VERTEX
8
0
10
6.3177
20
2.1441
42
0.0572
0
VERTEX
8
0
10
6.3645
20
2.0282
42
-0.0949
0
VERTEX
8
0
10
6.4526
20
1.7297
42
0.1384
0
VERTEX
8
0
10
6.5003
20
1.6055
42
-0.0157
0
VERTEX
8
0
10
6.5227
20
1.5735
42
-0.1996
0
VERTEX
8
0
10
6.5412
20
1.5393
42
0.0572
0
VERTEX
8
0
10
6.5668
20
1.4903
42
-0.2118
0
VERTEX
8
0
10
6.5864
20
1.4157
42
0.2407
0
VERTEX
8
0
10
6.6072
20
1.3520
42
0.3202
0
VERTEX
8
0
10
6.6560
20
1.3283
42
0.0057
0
VERTEX
8
0
10
6.7121
20
1.3417
42
-0.1627
0
VERTEX
8
0
10
6.8171
20
1.3474
42
0.1594
0
VERTEX
8
0
10
6.8650
20
1.3445
42
0.0334
0
VERTEX
8
0
10
6.9097
20
1.3635
42
0.0479
0
VERTEX
8
0
10
7.0299
20
1.4604
42
0.0720
0
VERTEX
8
0
10
7.1309
20
1.5773
42
-0.1690
0
VERTEX
8
0
10
7.1758
20
1.6268
42
0.2662
0
VERTEX
8
0
10
7.1918
20
1.6469
42
0.0523
0
VERTEX
8
0
10
7.1903
20
1.6736
42
-0.1329
0
VERTEX
8
0
10
7.1908
20
1.7318
42
-0.2201
0
VERTEX
8
0
10
7.2290
20
1.7732
42
0.2075
0
VERTEX
8
0
10
7.3079
20
1.8323
42
0.2101
0
VERTEX
8
0
10
7.3023
20
1.9281
42
-0.0154
0
VERTEX
8
0
10
7.2901
20
1.9538
42
-0.1363
0
VERTEX
8
0
10
7.2808
20
1.9807
42
-0.0447
0
VERTEX
8
0
10
7.3277
20
2.0439
42
0.0143
0
VERTEX
8
0
10
7.3530
20
2.0740
42
0.0134
0
VERTEX
8
0
10
7.3648
20
2.0897
42
0.1866
0
VERTEX
8
0
10
7.3746
20
2.1066
42
-0.0680
0
VERTEX
8
0
10
7.4292
20
2.1439
42
0.1884
0
VERTEX
8
0
10
7.5423
20
2.2440
42
0.1358
0
VERTEX
8
0
10
7.5568
20
2.2888
42
0.0398
0
VERTEX
8
0
10
7.5506
20
2.3357
42
-0.1530
0
VERTEX
8
0
10
7.5456
20
2.4143
42
0.1076
0
VERTEX
8
0
10
7.5251
20
2.4929
42
-0.1798
0
VERTEX
8
0
10
7.4843
20
2.6815
42
-0.0872
0
VERTEX
8
0
10
7.5169
20
2.7733
42
-0.0483
0
VERTEX
8
0
10
7.5751
20
2.8520
42
0.0403
0
VERTEX
8
0
10
7.6636
20
2.9569
42
-0.0386
0
VERTEX
8
0
10
7.7674
20
3.0528
42
0.1066
0
VERTEX
8
0
10
7.8636
20
3.1515
42
0.0084
0
VERTEX
8
0
10
7.9301
20
3.2733
42
0.0106
0
VERTEX
8
0
10
7.9788
20
3.3690
42
0.0383
0
VERTEX
8
0
10
8.0001
20
3.4183
42
0.1295
0
VERTEX
8
0
10
8.0047
20
3.4711
0
VERTEX
8
0
10
7.9978
20
3.5123
0
VERTEX
8
0
10
7.9684
20
3.4971
42
-0.0319
0
VERTEX
8
0
10
7.8395
20
3.4604
42
-0.0209
0
VERTEX
8
0
10
7.7736
20
3.4472
42
-0.1801
0
VERTEX
8
0
10
7.7084
20
3.4551
42
-0.2437
0
VERTEX
8
0
10
7.6704
20
3.4999
42
0.0952
0
VERTEX
8
0
10
7.6226
20
3.5852
42
0.0446
0
VERTEX
8
0
10
7.5516
20
3.6534
42
-0.0405
0
VERTEX
8
0
10
7.5112
20
3.6895
42
-0.1712
0
VERTEX
8
0
10
7.4833
20
3.7352
42
0.0898
0
VERTEX
8
0
10
7.4427
20
3.8096
42
-0.0505
0
VERTEX
8
0
10
7.4027
20
3.8651
42
-0.1328
0
VERTEX
8
0
10
7.3850
20
3.9303
42
0.1472
0
VERTEX
8
0
10
7.3607
20
3.9961
42
-0.0277
0
VERTEX
8
0
10
7.2948
20
4.1116
42
0.0222
0
VERTEX
8
0
10
7.2097
20
4.2663
42
-0.0172
0
VERTEX
8
0
10
7.1877
20
4.3052
42
-0.0171
0
VERTEX
8
0
10
7.1778
20
4.3252
42
-0.3032
0
VERTEX
8
0
10
7.1716
20
4.3463
42
0.3366
0
VERTEX
8
0
10
7.1655
20
4.3621
42
-0.2126
0
VERTEX
8
0
10
7.1602
20
4.3932
42
0.3669
0
VERTEX
8
0
10
7.1586
20
4.4151
42
0.0834
0
VERTEX
8
0
10
7.1376
20
4.4235
42
0.1116
0
VERTEX
8
0
10
7.0742
20
4.4196
42
-0.1383
0
VERTEX
8
0
10
6.7993
20
4.4724
42
0.0730
0
VERTEX
8
0
10
6.7313
20
4.4985
42
0.1128
0
VERTEX
8
0
10
6.6951
20
4.5008
42
0.2461
0
VERTEX
8
0
10
6.6660
20
4.4810
42
0.2226
0
VERTEX
8
0
10
6.6605
20
4.4413
42
-0.1960
0
VERTEX
8
0
10
6.6413
20
4.3992
42
-0.2290
0
VERTEX
8
0
10
6.6157
20
4.3815
42
-0.0800
0
VERTEX
8
0
10
6.5862
20
4.3912
42
0.0662
0
VERTEX
8
0
10
6.5173
20
4.4140
42
-0.2289
0
VERTEX
8
0
10
6.4606
20
4.4516
42
0.1552
0
VERTEX
8
0
10
6.4046
20
4.4918
42
0.0197
0
VERTEX
8
0
10
6.3358
20
4.5085
42
-0.1392
0
VERTEX
8
0
10
6.2761
20
4.5434
42
-0.3313
0
VERTEX
8
0
10
6.2598
20
4.6009
42
0.3642
0
VERTEX
8
0
10
6.2600
20
4.6428
42
-0.2658
0
VERTEX
8
0
10
6.2554
20
4.6720
42
0.3490
0
VERTEX
8
0
10
6.2505
20
4.6952
42
0.1269
0
VERTEX
8
0
10
6.2265
20
4.7031
42
0.0976
0
VERTEX
8
0
10
6.1764
20
4.6937
42
-0.0762
0
VERTEX
8
0
10
6.0451
20
4.6820
42
0.0815
0
VERTEX
8
0
10
5.9164
20
4.6757
0
SEQEND
8
0
0
POLYLINE
8
Layer 1
66
1
0
VERTEX
8
0
10
6.1872
20
4.8084
42
0.4722
0
VERTEX
8
0
10
6.2056
20
4.8017
42
0.1571
0
VERTEX
8
0
10
6.2183
20
4.8413
42
0.1789
0
VERTEX
8
0
10
6.2112
20
4.8768
42
0.3406
0
VERTEX
8
0
10
6.1960
20
4.8847
42
0.1207
0
VERTEX
8
0
10
6.1807
20
4.8754
42
0.2307
0
VERTEX
8
0
10
6.1712
20
4.8526
42
0.0466
0
VERTEX
8
0
10
6.1773
20
4.8279
42
0.0961
0
VERTEX
8
0
10
6.1872
20
4.8084
0
SEQEND
8
0
0
POLYLINE
8
Layer 1
66
1
0
VERTEX
8
0
10
6.2135
20
4.9227
42
0.1093
0
VERTEX
8
0
10
6.2183
20
4.9447
42
0.7401
0
VERTEX
8
0
10
6.2027
20
4.9644
42
0.5505
0
VERTEX
8
0
10
6.1940
20
4.9259
42
0.6083
0
VERTEX
8
0
10
6.2135
20
4.9227
0
SEQEND
8
0
0
POLYLINE
8
Layer 1
66
1
0
VERTEX
8
0
10
6.3508
20
4.7391
42
0.1361
0
VERTEX
8
0
10
6.3602
20
4.7291
42
0.0108
0
VERTEX
8
0
10
6.3860
20
4.7152
42
0.0308
0
VERTEX
8
0
10
6.4140
20
4.7018
42
0.4868
0
VERTEX
8
0
10
6.4389
20
4.7090
42
0.0830
0
VERTEX
8
0
10
6.4467
20
4.7327
42
0.2022
0
VERTEX
8
0
10
6.3642
20
4.7449
42
0.3766
0
VERTEX
8
0
10
6.3508
20
4.7391
0
SEQEND
8
0
0
POLYLINE
8
Layer 1
66
1
0
VERTEX
8
0
10
6.7756
20
4.6256
0
VERTEX
8
0
10
6.8068
20
4.6113
42
0.0720
0
VERTEX
8
0
10
6.8535
20
4.5980
42
0.0559
0
VERTEX
8
0
10
6.8778
20
4.5970
42
0.3320
0
VERTEX
8
0
10
6.8999
20
4.6053
42
0.2410
0
VERTEX
8
0
10
6.8855
20
4.6193
42
0.0356
0
VERTEX
8
0
10
6.8631
20
4.6240
42
0.0329
0
VERTEX
8
0
10
6.8173
20
4.6263
0
VERTEX
8
0
10
6.7756
20
4.6256
0
SEQEND
8
0
0
POLYLINE
8
Layer 1
66
1
0
VERTEX
8
0
10
7.1620
20
4.5932
42
-0.7802
0
VERTEX
8
0
10
7.1760
20
4.6169
42
0.1880
0
VERTEX
8
0
10
7.2027
20
4.6273
42
-0.2020
0
VERTEX
8
0
10
7.2170
20
4.6375
42
-0.6842
0
VERTEX
8
0
10
7.2226
20
4.6235
42
-0.2396
0
VERTEX
8
0
10
7.1960
20
4.6001
42
-0.1463
0
VERTEX
8
0
10
7.1620
20
4.5932
0
SEQEND
8
0
0
POLYLINE
8
Layer 1
66
1
0
VERTEX
8
0
10
6.5924
20
5.7329
42
0.2733
0
VERTEX
8
0
10
6.6002
20
5.7463
42
0.3594
0
VERTEX
8
0
10
6.5811
20
5.7597
42
0.3921
0
VERTEX
8
0
10
6.5630
20
5.7521
42
0.2392
0
VERTEX
8
0
10
6.5751
20
5.7383
42
0.1141
0
VERTEX
8
0
10
6.5924
20
5.7329
0
SEQEND
8
0
0
POLYLINE
8
Layer 1
66
1
0
VERTEX
8
0
10
6.4318
20
6.3583
0
VERTEX
8
0
10
6.4657
20
6.3957
42
0.0177
0
VERTEX
8
0
10
6.4842
20
6.4176
42
0.2128
0
VERTEX
8
0
10
6.4996
20
6.4417
42
-0.2498
0
VERTEX
8
0
10
6.5253
20
6.4489
42
-0.1938
0
VERTEX
8
0
10
6.5513
20
6.4350
42
-0.3883
0
VERTEX
8
0
10
6.5567
20
6.4083
42
0.5556
0
VERTEX
8
0
10
6.5591
20
6.4014
42
0.0522
0
VERTEX
8
0
10
6.5684
20
6.4011
42
0.0210
0
VERTEX
8
0
10
6.5871
20
6.4038
42
-0.0443
0
VERTEX
8
0
10
6.6073
20
6.4063
42
-0.0729
0
VERTEX
8
0
10
6.6175
20
6.4057
42
-0.4571
0
VERTEX
8
0
10
6.6246
20
6.3996
42
0.3674
0
VERTEX
8
0
10
6.6399
20
6.3942
42
0.6299
0
VERTEX
8
0
10
6.6497
20
6.4034
42
0.0597
0
VERTEX
8
0
10
6.6406
20
6.4147
42
0.2511
0
VERTEX
8
0
10
6.6157
20
6.4294
42
-0.0649
0
VERTEX
8
0
10
6.5751
20
6.4467
42
-0.0258
0
VERTEX
8
0
10
6.5566
20
6.4588
42
-0.3213
0
VERTEX
8
0
10
6.5413
20
6.4743
42
-0.2342
0
VERTEX
8
0
10
6.5594
20
6.4775
42
0.0499
0
VERTEX
8
0
10
6.6191
20
6.4654
42
0.1433
0
VERTEX
8
0
10
6.6793
20
6.4701
42
0.1241
0
VERTEX
8
0
10
6.7037
20
6.4827
42
0.5579
0
VERTEX
8
0
10
6.7041
20
6.4937
42
0.0652
0
VERTEX
8
0
10
6.6913
20
6.4983
42
0.0360
0
VERTEX
8
0
10
6.6371
20
6.5023
42
-0.0275
0
VERTEX
8
0
10
6.5945
20
6.5043
42
-0.0275
0
VERTEX
8
0
10
6.5735
20
6.5074
42
-0.1993
0
VERTEX
8
0
10
6.5537
20
6.5148
42
1.0144
0
VERTEX
8
0
10
6.5412
20
6.5148
42
-0.3649
0
VERTEX
8
0
10
6.5263
20
6.5023
42
0.2553
0
VERTEX
8
0
10
6.5068
20
6.4788
0
VERTEX
8
0
10
6.5022
20
6.4554
0
VERTEX
8
0
10
6.4944
20
6.4788
42
0.1896
0
VERTEX
8
0
10
6.4777
20
6.4996
42
0.6837
0
VERTEX
8
0
10
6.4579
20
6.4916
42
-0.0749
0
VERTEX
8
0
10
6.4092
20
6.4854
42
-0.0106
0
VERTEX
8
0
10
6.3589
20
6.4880
42
0.0110
0
VERTEX
8
0
10
6.3064
20
6.4911
42
0.0331
0
VERTEX
8
0
10
6.2800
20
6.4910
42
0.5744
0
VERTEX
8
0
10
6.2600
20
6.4789
42
0.1988
0
VERTEX
8
0
10
6.2877
20
6.4519
42
0.0156
0
VERTEX
8
0
10
6.3271
20
6.4388
42
0.0748
0
VERTEX
8
0
10
6.3475
20
6.4347
42
0.3228
0
VERTEX
8
0
10
6.3658
20
6.4424
42
-0.4355
0
VERTEX
8
0
10
6.3858
20
6.4431
42
0.2714
0
VERTEX
8
0
10
6.4149
20
6.4364
42
-0.0202
0
VERTEX
8
0
10
6.4215
20
6.4383
0
VERTEX
8
0
10
6.4243
20
6.4391
0
VERTEX
8
0
10
6.4243
20
6.4391
42
-0.0151
0
VERTEX
8
0
10
6.4162
20
6.4305
42
-0.1246
0
VERTEX
8
0
10
6.3719
20
6.4191
42
0.1033
0
VERTEX
8
0
10
6.3509
20
6.4169
42
0.5613
0
VERTEX
8
0
10
6.3456
20
6.4097
42
0.0806
0
VERTEX
8
0
10
6.3524
20
6.4020
42
0.0321
0
VERTEX
8
0
10
6.3879
20
6.3808
0
VERTEX
8
0
10
6.4318
20
6.3583
0
SEQEND
8
0
0
POLYLINE
8
Layer 1
66
1
0
VERTEX
8
0
10
5.7183
20
6.1585
42
0.4623
0
VERTEX
8
0
10
5.7049
20
6.1674
42
0.0557
0
VERTEX
8
0
10
5.6871
20
6.1585
42
0.0430
0
VERTEX
8
0
10
5.6811
20
6.1542
0
VERTEX
8
0
10
5.6811
20
6.1493
42
0.0332
0
VERTEX
8
0
10
5.6949
20
6.1483
42
0.0834
0
VERTEX
8
0
10
5.7084
20
6.1501
42
0.4322
0
VERTEX
8
0
10
5.7183
20
6.1585
0
SEQEND
8
0
0
POLYLINE
8
Layer 1
66
1
0
VERTEX
8
0
10
7.5526
20
6.2112
42
0.1199
0
VERTEX
8
0
10
7.5659
20
6.2007
42
0.0047
0
VERTEX
8
0
10
7.5985
20
6.1874
42
0.1067
0
VERTEX
8
0
10
7.6714
20
6.1705
0
VERTEX
8
0
10
7.7027
20
6.1700
0
VERTEX
8
0
10
7.6792
20
6.1864
42
-0.3456
0
VERTEX
8
0
10
7.6579
20
6.2290
42
-0.0884
0
VERTEX
8
0
10
7.6831
20
6.2727
42
-0.1115
0
VERTEX
8
0
10
7.7564
20
6.3237
42
-0.0439
0
VERTEX
8
0
10
7.8433
20
6.3473
42
0.0112
0
VERTEX
8
0
10
7.8927
20
6.3568
42
0.0316
0
VERTEX
8
0
10
7.9171
20
6.3630
42
0.0930
0
VERTEX
8
0
10
7.9287
20
6.3681
42
0.4104
0
VERTEX
8
0
10
7.9309
20
6.3789
42
0.1162
0
VERTEX
8
0
10
7.8812
20
6.3827
42
-0.0147
0
VERTEX
8
0
10
7.7704
20
6.3707
42
0.1148
0
VERTEX
8
0
10
7.6714
20
6.3511
42
0.0623
0
VERTEX
8
0
10
7.6292
20
6.3218
42
0.0359
0
VERTEX
8
0
10
7.6112
20
6.3034
42
0.2378
0
VERTEX
8
0
10
7.5987
20
6.2814
42
-0.0932
0
VERTEX
8
0
10
7.5777
20
6.2583
42
0.0389
0
VERTEX
8
0
10
7.5690
20
6.2509
0
VERTEX
8
0
10
7.5652
20
6.2465
0
VERTEX
8
0
10
7.5659
20
6.2422
42
-0.2270
0
VERTEX
8
0
10
7.5618
20
6.2260
42
0.3329
0
VERTEX
8
0
10
7.5526
20
6.2112
0
SEQEND
8
0
0
POLYLINE
8
Layer 1
66
1
0
VERTEX
8
0
10
2.4839
20
6.3007
0
VERTEX
8
0
10
2.4371
20
6.3150
42
0.1402
0
VERTEX
8
0
10
2.3201
20
6.3264
42
0.0582
0
VERTEX
8
0
10
2.2105
20
6.2822
42
0.0139
0
VERTEX
8
0
10
2.1632
20
6.2556
42
0.0704
0
VERTEX
8
0
10
2.1407
20
6.2402
42
0.3622
0
VERTEX
8
0
10
2.1428
20
6.2176
42
0.3697
0
VERTEX
8
0
10
2.1764
20
6.2064
42
-0.0146
0
VERTEX
8
0
10
2.2974
20
6.2520
42
-0.0442
0
VERTEX
8
0
10
2.4214
20
6.2883
0
VERTEX
8
0
10
2.4839
20
6.3007
0
SEQEND
8
0
0
POLYLINE
8
Layer 1
66
1
0
VERTEX
8
0
10
1.0823
20
5.6379
42
0.6085
0
VERTEX
8
0
10
1.0764
20
5.6435
42
0.0645
0
VERTEX
8
0
10
1.0674
20
5.6378
42
0.4896
0
VERTEX
8
0
10
1.0583
20
5.6146
42
0.4046
0
VERTEX
8
0
10
1.0736
20
5.6183
42
0.1435
0
VERTEX
8
0
10
1.0823
20
5.6379
0
SEQEND
8
0
0
POLYLINE
8
Layer 1
66
1
0
VERTEX
8
0
10
1.1011
20
5.5692
42
0.2596
0
VERTEX
8
0
10
1.0778
20
5.5649
42
0.4275
0
VERTEX
8
0
10
1.0745
20
5.5362
42
0.6492
0
VERTEX
8
0
10
1.0883
20
5.5282
42
0.0612
0
VERTEX
8
0
10
1.0971
20
5.5429
42
0.3209
0
VERTEX
8
0
10
1.1011
20
5.5692
0
SEQEND
8
0
0
POLYLINE
8
Layer 1
66
1
0
VERTEX
8
0
10
1.0782
20
5.3292
42
0.4883
0
VERTEX
8
0
10
1.0687
20
5.3001
42
0.0380
0
VERTEX
8
0
10
1.0944
20
5.2721
42
0.0463
0
VERTEX
8
0
10
1.1186
20
5.2535
42
0.1908
0
VERTEX
8
0
10
1.1465
20
5.2419
42
0.0885
0
VERTEX
8
0
10
1.1600
20
5.2427
42
0.3382
0
VERTEX
8
0
10
1.1643
20
5.2532
42
0.0185
0
VERTEX
8
0
10
1.1542
20
5.2777
42
0.1155
0
VERTEX
8
0
10
1.1234
20
5.3154
42
0.3432
0
VERTEX
8
0
10
1.0782
20
5.3292
0
SEQEND
8
0
0
POLYLINE
8
Layer 1
66
1
0
VERTEX
8
0
10
0.4850
20
5.6499
42
0.2680
0
VERTEX
8
0
10
0.4751
20
5.6546
42
0.0324
0
VERTEX
8
0
10
0.4614
20
5.6522
42
0.0249
0
VERTEX
8
0
10
0.4210
20
5.6407
42
0.0270
0
VERTEX
8
0
10
0.4014
20
5.6333
42
0.4185
0
VERTEX
8
0
10
0.3850
20
5.6212
42
0.1740
0
VERTEX
8
0
10
0.4032
20
5.6217
42
-0.0340
0
VERTEX
8
0
10
0.4503
20
5.6346
42
0.2832
0
VERTEX
8
0
10
0.4850
20
5.6499
0
SEQEND
8
0
0
POLYLINE
8
Layer 1
66
1
0
VERTEX
8
0
10
2.7854
20
3.5648
42
0.2131
0
VERTEX
8
0
10
2.7808
20
3.5544
42
0.3974
0
VERTEX
8
0
10
2.7918
20
3.5439
42
0.5359
0
VERTEX
8
0
10
2.7964
20
3.5544
42
0.2945
0
VERTEX
8
0
10
2.7854
20
3.5648
0
SEQEND
8
0
0
POLYLINE
8
Layer 1
66
1
0
VERTEX
8
0
10
2.8329
20
3.5582
42
0.2003
0
VERTEX
8
0
10
2.8398
20
3.5405
42
0.4751
0
VERTEX
8
0
10
2.8522
20
3.5389
42
0.2088
0
VERTEX
8
0
10
2.8452
20
3.5566
42
0.0999
0
VERTEX
8
0
10
2.8384
20
3.5619
42
0.5831
0
VERTEX
8
0
10
2.8329
20
3.5582
0
SEQEND
8
0
0
POLYLINE
8
Layer 1
66
1
0
VERTEX
8
0
10
3.5870
20
0.5546
42
0.7663
0
VERTEX
8
0
10
3.5777
20
0.5439
42
-0.5257
0
VERTEX
8
0
10
3.5705
20
0.5332
42
0.6211
0
VERTEX
8
0
10
3.5685
20
0.5271
42
0.0455
0
VERTEX
8
0
10
3.5767
20
0.5213
42
0.4065
0
VERTEX
8
0
10
3.6091
20
0.5269
42
-0.3114
0
VERTEX
8
0
10
3.6304
20
0.5439
42
-0.2531
0
VERTEX
8
0
10
3.6266
20
0.5314
42
0.2488
0
VERTEX
8
0
10
3.6141
20
0.5106
42
0.3996
0
VERTEX
8
0
10
3.6237
20
0.5025
42
0.0729
0
VERTEX
8
0
10
3.6377
20
0.5066
42
0.0507
0
VERTEX
8
0
10
3.6623
20
0.5223
42
0.0640
0
VERTEX
8
0
10
3.6760
20
0.5346
42
0.5827
0
VERTEX
8
0
10
3.6748
20
0.5488
42
0.0469
0
VERTEX
8
0
10
3.6402
20
0.5544
42
0.0223
0
VERTEX
8
0
10
3.6047
20
0.5558
42
0.0508
0
VERTEX
8
0
10
3.5870
20
0.5546
0
SEQEND
8
0
0
POLYLINE
8
Layer 1
66
1
0
VERTEX
8
0
10
3.5152
20
0.3789
0
VERTEX
8
0
10
3.4845
20
0.3901
42
-0.0342
0
VERTEX
8
0
10
3.3917
20
0.4413
42
0.0165
0
VERTEX
8
0
10
3.3547
20
0.4637
42
0.1828
0
VERTEX
8
0
10
3.3154
20
0.4814
42
0.1856
0
VERTEX
8
0
10
3.2905
20
0.4536
42
0.3347
0
VERTEX
8
0
10
3.2997
20
0.4059
42
0.0674
0
VERTEX
8
0
10
3.3457
20
0.3813
42
0.1374
0
VERTEX
8
0
10
3.4097
20
0.3729
42
-0.0266
0
VERTEX
8
0
10
3.4774
20
0.3781
0
VERTEX
8
0
10
3.5152
20
0.3789
0
SEQEND
8
0
0
ENDSEC
0
EOF
