999
"DXF R12 Output" (www.mydxf.blogspot.com)
 0 
SECTION
 2 
HEADER
 9 
$ACADVER
 1 
AC1009
 9 
$EXTMIN
 10 
 0 
 20 
 0 
 9 
$EXTMAX
 10 
 8.5 
 20 
 11 
 0 
ENDSEC
 0 
SECTION
 2 
ENTITIES
0
LINE
8
Calque 1
10
57.109682
20
99.035152
11
55.235252
21
99.807983
0
LINE
8
Calque 1
10
55.235252
20
99.807983
11
53.585038
21
100.802483
0
LINE
8
Calque 1
10
53.585038
20
100.802483
11
52.172187
21
101.999965
0
LINE
8
Calque 1
10
52.172187
20
101.999965
11
51.009846
21
103.381743
0
LINE
8
Calque 1
10
51.009846
20
103.381743
11
50.111163
21
104.929133
0
LINE
8
Calque 1
10
50.111163
20
104.929133
11
49.489287
21
106.623448
0
LINE
8
Calque 1
10
49.489287
20
106.623448
11
49.157364
21
108.446003
0
LINE
8
Calque 1
10
49.157364
20
108.446003
11
49.128542
21
110.378112
0
LINE
8
Calque 1
10
49.128542
20
110.378112
11
49.386705
21
112.032542
0
LINE
8
Calque 1
10
49.386705
20
112.032542
11
49.914407
21
113.756392
0
LINE
8
Calque 1
10
49.914407
20
113.756392
11
50.641330
21
115.362996
0
LINE
8
Calque 1
10
50.641330
20
115.362996
11
51.497154
21
116.665687
0
LINE
8
Calque 1
10
51.497154
20
116.665687
11
52.034496
21
117.317877
0
LINE
8
Calque 1
10
52.034496
20
117.317877
11
54.854311
21
112.462492
0
LINE
8
Calque 1
10
54.854311
20
112.462492
11
56.676559
21
109.440980
0
LINE
8
Calque 1
10
56.676559
20
109.440980
11
57.980950
21
107.645668
0
LINE
8
Calque 1
10
57.980950
20
107.645668
11
59.026697
21
106.783436
0
LINE
8
Calque 1
10
59.026697
20
106.783436
11
60.073015
21
106.561163
0
LINE
8
Calque 1
10
60.073015
20
106.561163
11
60.890660
21
106.722799
0
LINE
8
Calque 1
10
60.890660
20
106.722799
11
61.709594
21
107.153472
0
LINE
8
Calque 1
10
61.709594
20
107.153472
11
62.411850
21
107.771831
0
LINE
8
Calque 1
10
62.411850
20
107.771831
11
62.879464
21
108.496525
0
LINE
8
Calque 1
10
62.879464
20
108.496525
11
63.132454
21
109.624087
0
LINE
8
Calque 1
10
63.132454
20
109.624087
11
62.981134
21
110.649819
0
LINE
8
Calque 1
10
62.981134
20
110.649819
11
62.503152
21
111.522196
0
LINE
8
Calque 1
10
62.503152
20
111.522196
11
61.776152
21
112.189692
0
LINE
8
Calque 1
10
61.776152
20
112.189692
11
60.877780
21
112.600783
0
LINE
8
Calque 1
10
60.877780
20
112.600783
11
59.885683
21
112.703943
0
LINE
8
Calque 1
10
59.885683
20
112.703943
11
58.877506
21
112.447646
0
LINE
8
Calque 1
10
58.877506
20
112.447646
11
57.930895
21
111.780366
0
LINE
8
Calque 1
10
57.930895
20
111.780366
11
57.248498
21
111.097970
0
LINE
8
Calque 1
10
57.248498
20
111.097970
11
56.858504
21
111.721289
0
LINE
8
Calque 1
10
56.858504
20
111.721289
11
54.674443
21
115.497764
0
LINE
8
Calque 1
10
54.674443
20
115.497764
11
53.299682
21
118.148971
0
LINE
8
Calque 1
10
53.299682
20
118.148971
11
53.658479
21
118.597663
0
LINE
8
Calque 1
10
53.658479
20
118.597663
11
54.575192
21
119.187872
0
LINE
8
Calque 1
10
54.575192
20
119.187872
11
55.810301
21
119.787193
0
LINE
8
Calque 1
10
55.810301
20
119.787193
11
57.124290
21
120.263219
0
LINE
8
Calque 1
10
57.124290
20
120.263219
11
59.037868
21
120.628735
0
LINE
8
Calque 1
10
59.037868
20
120.628735
11
60.954379
21
120.634723
0
LINE
8
Calque 1
10
60.954379
20
120.634723
11
62.831745
21
120.300709
0
LINE
8
Calque 1
10
62.831745
20
120.300709
11
64.627893
21
119.646219
0
LINE
8
Calque 1
10
64.627893
20
119.646219
11
66.300746
21
118.690782
0
LINE
8
Calque 1
10
66.300746
20
118.690782
11
67.808230
21
117.453922
0
LINE
8
Calque 1
10
67.808230
20
117.453922
11
69.108269
21
115.955168
0
LINE
8
Calque 1
10
69.108269
20
115.955168
11
70.158788
21
114.214045
0
LINE
8
Calque 1
10
70.158788
20
114.214045
11
70.576480
21
113.275595
0
LINE
8
Calque 1
10
70.576480
20
113.275595
11
70.811658
21
112.402862
0
LINE
8
Calque 1
10
70.811658
20
112.402862
11
70.938571
21
109.663497
0
LINE
8
Calque 1
10
70.938571
20
109.663497
11
70.811658
21
106.924132
0
LINE
8
Calque 1
10
70.811658
20
106.924132
11
70.576480
21
106.051399
0
LINE
8
Calque 1
10
70.576480
20
106.051399
11
70.158788
21
105.112948
0
LINE
8
Calque 1
10
70.158788
20
105.112948
11
69.177405
21
103.423853
0
LINE
8
Calque 1
10
69.177405
20
103.423853
11
68.017547
21
102.020278
0
LINE
8
Calque 1
10
68.017547
20
102.020278
11
66.632637
21
100.855209
0
LINE
8
Calque 1
10
66.632637
20
100.855209
11
64.976098
21
99.881632
0
LINE
8
Calque 1
10
64.976098
20
99.881632
11
62.826161
21
99.004479
0
LINE
8
Calque 1
10
62.826161
20
99.004479
11
60.549533
21
98.748860
0
LINE
8
Calque 1
10
60.549533
20
98.748860
11
58.561777
21
98.787631
0
LINE
8
Calque 1
10
58.561777
20
98.787631
11
57.109682
21
99.035152
0
LINE
8
Calque 1
10
57.109682
20
99.035152
11
57.109682
21
99.035152
0
LINE
8
Calque 1
10
62.970418
20
101.641358
11
64.234512
21
102.258533
0
LINE
8
Calque 1
10
64.234512
20
102.258533
11
65.518994
21
103.208307
0
LINE
8
Calque 1
10
65.518994
20
103.208307
11
66.687886
21
104.373462
0
LINE
8
Calque 1
10
66.687886
20
104.373462
11
67.605213
21
105.636778
0
LINE
8
Calque 1
10
67.605213
20
105.636778
11
68.227407
21
107.110863
0
LINE
8
Calque 1
10
68.227407
20
107.110863
11
68.483954
21
109.141377
0
LINE
8
Calque 1
10
68.483954
20
109.141377
11
68.467798
21
110.992601
0
LINE
8
Calque 1
10
68.467798
20
110.992601
11
68.154293
21
112.540913
0
LINE
8
Calque 1
10
68.154293
20
112.540913
11
67.501090
21
113.914306
0
LINE
8
Calque 1
10
67.501090
20
113.914306
11
66.465839
21
115.240772
0
LINE
8
Calque 1
10
66.465839
20
115.240772
11
65.167634
21
116.473115
0
LINE
8
Calque 1
10
65.167634
20
116.473115
11
63.861816
21
117.318590
0
LINE
8
Calque 1
10
63.861816
20
117.318590
11
62.438390
21
117.831959
0
LINE
8
Calque 1
10
62.438390
20
117.831959
11
60.787365
21
118.067987
0
LINE
8
Calque 1
10
60.787365
20
118.067987
11
59.302293
21
118.070985
0
LINE
8
Calque 1
10
59.302293
20
118.070985
11
57.986379
21
117.913804
0
LINE
8
Calque 1
10
57.986379
20
117.913804
11
57.045703
21
117.636152
0
LINE
8
Calque 1
10
57.045703
20
117.636152
11
56.686348
21
117.277742
0
LINE
8
Calque 1
10
56.686348
20
117.277742
11
57.293772
21
116.004028
0
LINE
8
Calque 1
10
57.293772
20
116.004028
11
57.660765
21
115.428334
0
LINE
8
Calque 1
10
57.660765
20
115.428334
11
57.984940
21
115.142368
0
LINE
8
Calque 1
10
57.984940
20
115.142368
11
58.418317
21
115.075283
0
LINE
8
Calque 1
10
58.418317
20
115.075283
11
59.112918
21
115.156230
0
LINE
8
Calque 1
10
59.112918
20
115.156230
11
60.239347
21
115.212016
0
LINE
8
Calque 1
10
60.239347
20
115.212016
11
61.323437
21
115.049387
0
LINE
8
Calque 1
10
61.323437
20
115.049387
11
62.340836
21
114.685982
0
LINE
8
Calque 1
10
62.340836
20
114.685982
11
63.267191
21
114.139445
0
LINE
8
Calque 1
10
63.267191
20
114.139445
11
64.078151
21
113.427415
0
LINE
8
Calque 1
10
64.078151
20
113.427415
11
64.749362
21
112.567536
0
LINE
8
Calque 1
10
64.749362
20
112.567536
11
65.256473
21
111.577448
0
LINE
8
Calque 1
10
65.256473
20
111.577448
11
65.575132
21
110.474792
0
LINE
8
Calque 1
10
65.575132
20
110.474792
11
65.647170
21
109.463068
0
LINE
8
Calque 1
10
65.647170
20
109.463068
11
65.499022
21
108.462733
0
LINE
8
Calque 1
10
65.499022
20
108.462733
11
65.151478
21
107.502710
0
LINE
8
Calque 1
10
65.151478
20
107.502710
11
64.625326
21
106.611917
0
LINE
8
Calque 1
10
64.625326
20
106.611917
11
63.941355
21
105.819275
0
LINE
8
Calque 1
10
63.941355
20
105.819275
11
63.120355
21
105.153705
0
LINE
8
Calque 1
10
63.120355
20
105.153705
11
62.183114
21
104.644126
0
LINE
8
Calque 1
10
62.183114
20
104.644126
11
61.150421
21
104.319458
0
LINE
8
Calque 1
10
61.150421
20
104.319458
11
59.580095
21
104.137702
0
LINE
8
Calque 1
10
59.580095
20
104.137702
11
58.149710
21
104.587928
0
LINE
8
Calque 1
10
58.149710
20
104.587928
11
56.973834
21
105.204015
0
LINE
8
Calque 1
10
56.973834
20
105.204015
11
55.993216
21
106.066967
0
LINE
8
Calque 1
10
55.993216
20
106.066967
11
54.966812
21
107.446055
0
LINE
8
Calque 1
10
54.966812
20
107.446055
11
53.653577
21
109.610549
0
LINE
8
Calque 1
10
53.653577
20
109.610549
11
52.237085
21
111.877856
0
LINE
8
Calque 1
10
52.237085
20
111.877856
11
51.940538
21
112.098843
0
LINE
8
Calque 1
10
51.940538
20
112.098843
11
51.788833
21
111.868327
0
LINE
8
Calque 1
10
51.788833
20
111.868327
11
51.629384
21
110.737723
0
LINE
8
Calque 1
10
51.629384
20
110.737723
11
51.633489
21
109.338233
0
LINE
8
Calque 1
10
51.633489
20
109.338233
11
51.787889
21
107.906680
0
LINE
8
Calque 1
10
51.787889
20
107.906680
11
52.079325
21
106.679883
0
LINE
8
Calque 1
10
52.079325
20
106.679883
11
52.854227
21
105.224227
0
LINE
8
Calque 1
10
52.854227
20
105.224227
11
54.091597
21
103.739878
0
LINE
8
Calque 1
10
54.091597
20
103.739878
11
55.545495
21
102.477814
0
LINE
8
Calque 1
10
55.545495
20
102.477814
11
56.969982
21
101.689011
0
LINE
8
Calque 1
10
56.969982
20
101.689011
11
58.375812
21
101.356569
0
LINE
8
Calque 1
10
58.375812
20
101.356569
11
59.976912
21
101.236761
0
LINE
8
Calque 1
10
59.976912
20
101.236761
11
61.574656
21
101.331165
0
LINE
8
Calque 1
10
61.574656
20
101.331165
11
62.970418
21
101.641358
0
LINE
8
Calque 1
10
62.970418
20
101.641358
11
62.970418
21
101.641358
0
LINE
8
Calque 1
10
74.027552
20
102.687576
11
73.965856
21
108.211678
0
LINE
8
Calque 1
10
73.965856
20
108.211678
11
74.043015
21
113.373920
0
LINE
8
Calque 1
10
74.043015
20
113.373920
11
76.115223
21
109.824202
0
LINE
8
Calque 1
10
76.115223
20
109.824202
11
77.440189
21
107.658749
0
LINE
8
Calque 1
10
77.440189
20
107.658749
11
78.390043
21
106.457658
0
LINE
8
Calque 1
10
78.390043
20
106.457658
11
79.185580
21
106.012705
0
LINE
8
Calque 1
10
79.185580
20
106.012705
11
80.047595
21
106.115661
0
LINE
8
Calque 1
10
80.047595
20
106.115661
11
80.445398
21
106.386540
0
LINE
8
Calque 1
10
80.445398
20
106.386540
11
80.831673
21
106.874295
0
LINE
8
Calque 1
10
80.831673
20
106.874295
11
81.123931
21
107.449678
0
LINE
8
Calque 1
10
81.123931
20
107.449678
11
81.239682
21
107.983442
0
LINE
8
Calque 1
10
81.239682
20
107.983442
11
81.132166
21
108.340095
0
LINE
8
Calque 1
10
81.132166
20
108.340095
11
80.844600
21
108.674196
0
LINE
8
Calque 1
10
80.844600
20
108.674196
11
79.939185
21
109.195731
0
LINE
8
Calque 1
10
79.939185
20
109.195731
11
78.943185
21
109.390024
0
LINE
8
Calque 1
10
78.943185
20
109.390024
11
78.542387
21
109.315073
0
LINE
8
Calque 1
10
78.542387
20
109.315073
11
78.276348
21
109.099052
0
LINE
8
Calque 1
10
78.276348
20
109.099052
11
77.981722
21
108.868194
0
LINE
8
Calque 1
10
77.981722
20
108.868194
11
77.555587
21
109.170871
0
LINE
8
Calque 1
10
77.555587
20
109.170871
11
75.758446
21
112.013948
0
LINE
8
Calque 1
10
75.758446
20
112.013948
11
74.370809
21
114.629650
0
LINE
8
Calque 1
10
74.370809
20
114.629650
11
73.901904
21
116.106170
0
LINE
8
Calque 1
10
73.901904
20
116.106170
11
73.901904
21
117.001274
0
LINE
8
Calque 1
10
73.901904
20
117.001274
11
75.454126
21
117.001274
0
LINE
8
Calque 1
10
75.454126
20
117.001274
11
77.006348
21
117.001274
0
LINE
8
Calque 1
10
77.006348
20
117.001274
11
77.006348
21
114.750482
0
LINE
8
Calque 1
10
77.006348
20
114.750482
11
77.006348
21
112.499689
0
LINE
8
Calque 1
10
77.006348
20
112.499689
11
77.730277
21
112.774926
0
LINE
8
Calque 1
10
77.730277
20
112.774926
11
79.033282
21
113.022533
0
LINE
8
Calque 1
10
79.033282
20
113.022533
11
80.474925
21
112.900280
0
LINE
8
Calque 1
10
80.474925
20
112.900280
11
81.867493
21
112.446329
0
LINE
8
Calque 1
10
81.867493
20
112.446329
11
83.023273
21
111.698844
0
LINE
8
Calque 1
10
83.023273
20
111.698844
11
83.578989
21
111.074298
0
LINE
8
Calque 1
10
83.578989
20
111.074298
11
84.021177
21
110.327375
0
LINE
8
Calque 1
10
84.021177
20
110.327375
11
84.545147
21
108.598174
0
LINE
8
Calque 1
10
84.545147
20
108.598174
11
84.555543
21
106.774789
0
LINE
8
Calque 1
10
84.555543
20
106.774789
11
84.355762
21
105.910136
0
LINE
8
Calque 1
10
84.355762
20
105.910136
11
84.012721
21
105.120766
0
LINE
8
Calque 1
10
84.012721
20
105.120766
11
83.509615
21
104.395006
0
LINE
8
Calque 1
10
83.509615
20
104.395006
11
82.882417
21
103.761973
0
LINE
8
Calque 1
10
82.882417
20
103.761973
11
81.367955
21
102.822113
0
LINE
8
Calque 1
10
81.367955
20
102.822113
11
79.693767
21
102.397241
0
LINE
8
Calque 1
10
79.693767
20
102.397241
11
78.866910
21
102.407943
0
LINE
8
Calque 1
10
78.866910
20
102.407943
11
78.084282
21
102.583413
0
LINE
8
Calque 1
10
78.084282
20
102.583413
11
77.359819
21
102.755521
0
LINE
8
Calque 1
10
77.359819
20
102.755521
11
77.056347
21
102.616823
0
LINE
8
Calque 1
10
77.056347
20
102.616823
11
76.546107
21
102.384205
0
LINE
8
Calque 1
10
76.546107
20
102.384205
11
75.551153
21
102.325935
0
LINE
8
Calque 1
10
75.551153
20
102.325935
11
74.551597
21
102.430797
0
LINE
8
Calque 1
10
74.551597
20
102.430797
11
74.027552
21
102.687576
0
LINE
8
Calque 1
10
74.027552
20
102.687576
11
74.027552
21
102.687576
0
LINE
8
Calque 1
10
86.610879
20
106.629608
11
86.637901
21
109.367000
0
LINE
8
Calque 1
10
86.637901
20
109.367000
11
86.828642
21
110.421335
0
LINE
8
Calque 1
10
86.828642
20
110.421335
11
87.043910
21
110.363026
0
LINE
8
Calque 1
10
87.043910
20
110.363026
11
87.370312
21
109.938759
0
LINE
8
Calque 1
10
87.370312
20
109.938759
11
88.450124
21
108.065419
0
LINE
8
Calque 1
10
88.450124
20
108.065419
11
89.257868
21
106.281664
0
LINE
8
Calque 1
10
89.257868
20
106.281664
11
89.424126
21
104.325974
0
LINE
8
Calque 1
10
89.424126
20
104.325974
11
89.424126
21
102.325719
0
LINE
8
Calque 1
10
89.424126
20
102.325719
11
88.013015
21
102.325719
0
LINE
8
Calque 1
10
88.013015
20
102.325719
11
86.601904
21
102.325719
0
LINE
8
Calque 1
10
86.601904
20
102.325719
11
86.610879
21
106.629608
0
LINE
8
Calque 1
10
86.610879
20
106.629608
11
86.610879
21
106.629608
0
LINE
8
Calque 1
10
95.956205
20
102.627683
11
94.510475
21
103.454504
0
LINE
8
Calque 1
10
94.510475
20
103.454504
11
93.433355
21
104.603684
0
LINE
8
Calque 1
10
93.433355
20
104.603684
11
92.760751
21
106.022525
0
LINE
8
Calque 1
10
92.760751
20
106.022525
11
92.528571
21
107.658325
0
LINE
8
Calque 1
10
92.528571
20
107.658325
11
92.768101
21
109.626876
0
LINE
8
Calque 1
10
92.768101
20
109.626876
11
93.015551
21
110.268050
0
LINE
8
Calque 1
10
93.015551
20
110.268050
11
93.301933
21
110.510163
0
LINE
8
Calque 1
10
93.301933
20
110.510163
11
93.914067
21
109.743313
0
LINE
8
Calque 1
10
93.914067
20
109.743313
11
95.072807
21
107.899608
0
LINE
8
Calque 1
10
95.072807
20
107.899608
11
96.470966
21
105.770013
0
LINE
8
Calque 1
10
96.470966
20
105.770013
11
96.936323
21
105.350518
0
LINE
8
Calque 1
10
96.936323
20
105.350518
11
97.382948
21
105.201098
0
LINE
8
Calque 1
10
97.382948
20
105.201098
11
98.073841
21
105.224349
0
LINE
8
Calque 1
10
98.073841
20
105.224349
11
98.690031
21
105.422044
0
LINE
8
Calque 1
10
98.690031
20
105.422044
11
99.132419
21
105.745403
0
LINE
8
Calque 1
10
99.132419
20
105.745403
11
99.301904
21
106.145647
0
LINE
8
Calque 1
10
99.301904
20
106.145647
11
99.387962
21
106.345375
0
LINE
8
Calque 1
10
99.387962
20
106.345375
11
99.683038
21
106.472469
0
LINE
8
Calque 1
10
99.683038
20
106.472469
11
101.121667
21
106.559052
0
LINE
8
Calque 1
10
101.121667
20
106.559052
11
102.941430
21
106.559052
0
LINE
8
Calque 1
10
102.941430
20
106.559052
11
102.667452
21
105.773114
0
LINE
8
Calque 1
10
102.667452
20
105.773114
11
102.231773
21
104.901738
0
LINE
8
Calque 1
10
102.231773
20
104.901738
11
101.590349
21
104.124556
0
LINE
8
Calque 1
10
101.590349
20
104.124556
11
100.788449
21
103.462786
0
LINE
8
Calque 1
10
100.788449
20
103.462786
11
99.871342
21
102.937644
0
LINE
8
Calque 1
10
99.871342
20
102.937644
11
98.884295
21
102.570346
0
LINE
8
Calque 1
10
98.884295
20
102.570346
11
97.872577
21
102.382109
0
LINE
8
Calque 1
10
97.872577
20
102.382109
11
96.881458
21
102.394149
0
LINE
8
Calque 1
10
96.881458
20
102.394149
11
95.956205
21
102.627683
0
LINE
8
Calque 1
10
95.956205
20
102.627683
11
95.956205
21
102.627683
0
LINE
8
Calque 1
10
104.526721
20
102.601944
11
104.407921
21
107.003520
0
LINE
8
Calque 1
10
104.407921
20
107.003520
11
104.596255
21
111.447011
0
LINE
8
Calque 1
10
104.596255
20
111.447011
11
105.177431
21
110.762691
0
LINE
8
Calque 1
10
105.177431
20
110.762691
11
106.398574
21
108.792615
0
LINE
8
Calque 1
10
106.398574
20
108.792615
11
107.829007
21
106.070166
0
LINE
8
Calque 1
10
107.829007
20
106.070166
11
108.003421
21
105.213538
0
LINE
8
Calque 1
10
108.003421
20
105.213538
11
107.992568
21
104.186878
0
LINE
8
Calque 1
10
107.992568
20
104.186878
11
107.909682
21
102.466830
0
LINE
8
Calque 1
10
107.909682
20
102.466830
11
106.311804
21
102.382934
0
LINE
8
Calque 1
10
106.311804
20
102.382934
11
105.113093
21
102.408488
0
LINE
8
Calque 1
10
105.113093
20
102.408488
11
104.526721
21
102.601944
0
LINE
8
Calque 1
10
104.526721
20
102.601944
11
104.526721
21
102.601944
0
LINE
8
Calque 1
10
110.308571
20
105.872050
11
110.259492
21
108.152454
0
LINE
8
Calque 1
10
110.259492
20
108.152454
11
110.085673
21
109.573950
0
LINE
8
Calque 1
10
110.085673
20
109.573950
11
109.747237
21
110.304024
0
LINE
8
Calque 1
10
109.747237
20
110.304024
11
109.204308
21
110.510163
0
LINE
8
Calque 1
10
109.204308
20
110.510163
11
108.730391
21
110.409277
0
LINE
8
Calque 1
10
108.730391
20
110.409277
11
108.376991
21
110.099927
0
LINE
8
Calque 1
10
108.376991
20
110.099927
11
108.136997
21
109.572079
0
LINE
8
Calque 1
10
108.136997
20
109.572079
11
108.003295
21
108.815698
0
LINE
8
Calque 1
10
108.003295
20
108.815698
11
107.924507
21
108.291175
0
LINE
8
Calque 1
10
107.924507
20
108.291175
11
107.851261
21
108.211355
0
LINE
8
Calque 1
10
107.851261
20
108.211355
11
107.731492
21
108.276115
0
LINE
8
Calque 1
10
107.731492
20
108.276115
11
106.427888
21
110.325240
0
LINE
8
Calque 1
10
106.427888
20
110.325240
11
105.427752
21
112.163220
0
LINE
8
Calque 1
10
105.427752
20
112.163220
11
105.103989
21
113.076907
0
LINE
8
Calque 1
10
105.103989
20
113.076907
11
105.598234
21
113.264644
0
LINE
8
Calque 1
10
105.598234
20
113.264644
11
106.499500
21
113.326330
0
LINE
8
Calque 1
10
106.499500
20
113.326330
11
107.400824
21
113.262460
0
LINE
8
Calque 1
10
107.400824
20
113.262460
11
107.895243
21
113.073526
0
LINE
8
Calque 1
10
107.895243
20
113.073526
11
108.265192
21
112.955591
0
LINE
8
Calque 1
10
108.265192
20
112.955591
11
108.982225
21
113.070619
0
LINE
8
Calque 1
10
108.982225
20
113.070619
11
109.834430
21
113.175965
0
LINE
8
Calque 1
10
109.834430
20
113.175965
11
110.742813
21
113.073386
0
LINE
8
Calque 1
10
110.742813
20
113.073386
11
111.597193
21
112.787183
0
LINE
8
Calque 1
10
111.597193
20
112.787183
11
112.287389
21
112.341656
0
LINE
8
Calque 1
10
112.287389
20
112.341656
11
112.581686
21
112.118602
0
LINE
8
Calque 1
10
112.581686
20
112.118602
11
112.864157
21
112.064845
0
LINE
8
Calque 1
10
112.864157
20
112.064845
11
113.818704
21
112.512702
0
LINE
8
Calque 1
10
113.818704
20
112.512702
11
114.589243
21
112.868147
0
LINE
8
Calque 1
10
114.589243
20
112.868147
11
115.392251
21
113.060932
0
LINE
8
Calque 1
10
115.392251
20
113.060932
11
116.197883
21
113.098276
0
LINE
8
Calque 1
10
116.197883
20
113.098276
11
116.976293
21
112.987397
0
LINE
8
Calque 1
10
116.976293
20
112.987397
11
117.697635
21
112.735515
0
LINE
8
Calque 1
10
117.697635
20
112.735515
11
118.332064
21
112.349848
0
LINE
8
Calque 1
10
118.332064
20
112.349848
11
118.849736
21
111.837617
0
LINE
8
Calque 1
10
118.849736
20
111.837617
11
119.220804
21
111.206039
0
LINE
8
Calque 1
10
119.220804
20
111.206039
11
119.527100
21
109.536937
0
LINE
8
Calque 1
10
119.527100
20
109.536937
11
119.621904
21
106.285895
0
LINE
8
Calque 1
10
119.621904
20
106.285895
11
119.621904
21
102.325719
0
LINE
8
Calque 1
10
119.621904
20
102.325719
11
117.936535
21
102.325719
0
LINE
8
Calque 1
10
117.936535
20
102.325719
11
116.251166
21
102.325719
0
LINE
8
Calque 1
10
116.251166
20
102.325719
11
116.172646
21
106.176003
0
LINE
8
Calque 1
10
116.172646
20
106.176003
11
116.020222
21
109.396580
0
LINE
8
Calque 1
10
116.020222
20
109.396580
11
115.859147
21
110.039457
0
LINE
8
Calque 1
10
115.859147
20
110.039457
11
115.600237
21
110.337336
0
LINE
8
Calque 1
10
115.600237
20
110.337336
11
115.106348
21
110.507277
0
LINE
8
Calque 1
10
115.106348
20
110.507277
11
114.612460
21
110.337336
0
LINE
8
Calque 1
10
114.612460
20
110.337336
11
114.353550
21
110.039457
0
LINE
8
Calque 1
10
114.353550
20
110.039457
11
114.192474
21
109.396580
0
LINE
8
Calque 1
10
114.192474
20
109.396580
11
114.040051
21
106.176003
0
LINE
8
Calque 1
10
114.040051
20
106.176003
11
113.961531
21
102.325719
0
LINE
8
Calque 1
10
113.961531
20
102.325719
11
112.135051
21
102.325719
0
LINE
8
Calque 1
10
112.135051
20
102.325719
11
110.308571
21
102.325719
0
LINE
8
Calque 1
10
110.308571
20
102.325719
11
110.308571
21
105.872050
0
LINE
8
Calque 1
10
110.308571
20
105.872050
11
110.308571
21
105.872050
0
LINE
8
Calque 1
10
121.851688
20
106.911830
11
121.754161
21
112.274052
0
LINE
8
Calque 1
10
121.754161
20
112.274052
11
121.852710
21
113.042351
0
LINE
8
Calque 1
10
121.852710
20
113.042351
11
123.948938
21
109.655250
0
LINE
8
Calque 1
10
123.948938
20
109.655250
11
125.237549
21
107.523562
0
LINE
8
Calque 1
10
125.237549
20
107.523562
11
126.188938
21
106.362718
0
LINE
8
Calque 1
10
126.188938
20
106.362718
11
126.604734
21
106.088930
0
LINE
8
Calque 1
10
126.604734
20
106.088930
11
127.016095
21
105.988937
0
LINE
8
Calque 1
10
127.016095
20
105.988937
11
127.932011
21
106.218441
0
LINE
8
Calque 1
10
127.932011
20
106.218441
11
128.428067
21
106.563088
0
LINE
8
Calque 1
10
128.428067
20
106.563088
11
128.727852
21
107.019360
0
LINE
8
Calque 1
10
128.727852
20
107.019360
11
128.843975
21
107.538688
0
LINE
8
Calque 1
10
128.843975
20
107.538688
11
128.789044
21
108.072503
0
LINE
8
Calque 1
10
128.789044
20
108.072503
11
128.575667
21
108.572238
0
LINE
8
Calque 1
10
128.575667
20
108.572238
11
128.216452
21
108.989324
0
LINE
8
Calque 1
10
128.216452
20
108.989324
11
127.724007
21
109.275192
0
LINE
8
Calque 1
10
127.724007
20
109.275192
11
127.110942
21
109.381274
0
LINE
8
Calque 1
10
127.110942
20
109.381274
11
126.378446
21
109.298372
0
LINE
8
Calque 1
10
126.378446
20
109.298372
11
125.971904
21
109.099052
0
LINE
8
Calque 1
10
125.971904
20
109.099052
11
125.690914
21
108.868095
0
LINE
8
Calque 1
10
125.690914
20
108.868095
11
125.293302
21
109.138786
0
LINE
8
Calque 1
10
125.293302
20
109.138786
11
123.620411
21
111.788842
0
LINE
8
Calque 1
10
123.620411
20
111.788842
11
122.039052
21
114.701591
0
LINE
8
Calque 1
10
122.039052
20
114.701591
11
121.847914
21
115.439896
0
LINE
8
Calque 1
10
121.847914
20
115.439896
11
121.846244
21
116.225163
0
LINE
8
Calque 1
10
121.846244
20
116.225163
11
121.896502
21
116.658082
0
LINE
8
Calque 1
10
121.896502
20
116.658082
11
122.076776
21
116.890242
0
LINE
8
Calque 1
10
122.076776
20
116.890242
11
123.290793
21
117.001274
0
LINE
8
Calque 1
10
123.290793
20
117.001274
11
124.701904
21
117.001274
0
LINE
8
Calque 1
10
124.701904
20
117.001274
11
124.701904
21
114.750482
0
LINE
8
Calque 1
10
124.701904
20
114.750482
11
124.701904
21
112.499689
0
LINE
8
Calque 1
10
124.701904
20
112.499689
11
125.425832
21
112.774926
0
LINE
8
Calque 1
10
125.425832
20
112.774926
11
126.728838
21
113.022533
0
LINE
8
Calque 1
10
126.728838
20
113.022533
11
128.170481
21
112.900280
0
LINE
8
Calque 1
10
128.170481
20
112.900280
11
129.563049
21
112.446329
0
LINE
8
Calque 1
10
129.563049
20
112.446329
11
130.718828
21
111.698844
0
LINE
8
Calque 1
10
130.718828
20
111.698844
11
131.292913
21
111.055777
0
LINE
8
Calque 1
10
131.292913
20
111.055777
11
131.743418
21
110.294765
0
LINE
8
Calque 1
10
131.743418
20
110.294765
11
132.257088
21
108.542748
0
LINE
8
Calque 1
10
132.257088
20
108.542748
11
132.226633
21
106.690476
0
LINE
8
Calque 1
10
132.226633
20
106.690476
11
131.996981
21
105.804145
0
LINE
8
Calque 1
10
131.996981
20
105.804145
11
131.618846
21
104.985632
0
LINE
8
Calque 1
10
131.618846
20
104.985632
11
131.108090
21
104.267190
0
LINE
8
Calque 1
10
131.108090
20
104.267190
11
130.488457
21
103.649188
0
LINE
8
Calque 1
10
130.488457
20
103.649188
11
129.015105
21
102.752574
0
LINE
8
Calque 1
10
129.015105
20
102.752574
11
127.383871
21
102.371934
0
LINE
8
Calque 1
10
127.383871
20
102.371934
11
126.566887
21
102.398900
0
LINE
8
Calque 1
10
126.566887
20
102.398900
11
125.779838
21
102.583413
0
LINE
8
Calque 1
10
125.779838
20
102.583413
11
125.055375
21
102.755521
0
LINE
8
Calque 1
10
125.055375
20
102.755521
11
124.751902
21
102.616823
0
LINE
8
Calque 1
10
124.751902
20
102.616823
11
124.275765
21
102.411230
0
LINE
8
Calque 1
10
124.275765
20
102.411230
11
123.267275
21
102.325719
0
LINE
8
Calque 1
10
123.267275
20
102.325719
11
121.879682
21
102.325719
0
LINE
8
Calque 1
10
121.879682
20
102.325719
11
121.851688
21
106.911830
0
LINE
8
Calque 1
10
121.851688
20
106.911830
11
121.851688
21
106.911830
0
LINE
8
Calque 1
10
137.625243
20
102.588939
11
136.151158
21
103.350925
0
LINE
8
Calque 1
10
136.151158
20
103.350925
11
134.988594
21
104.528575
0
LINE
8
Calque 1
10
134.988594
20
104.528575
11
134.220974
21
106.007089
0
LINE
8
Calque 1
10
134.220974
20
106.007089
11
133.931719
21
107.671671
0
LINE
8
Calque 1
10
133.931719
20
107.671671
11
134.057138
21
108.769754
0
LINE
8
Calque 1
10
134.057138
20
108.769754
11
134.380567
21
109.887708
0
LINE
8
Calque 1
10
134.380567
20
109.887708
11
134.784554
21
110.711937
0
LINE
8
Calque 1
10
134.784554
20
110.711937
11
134.980054
21
110.915907
0
LINE
8
Calque 1
10
134.980054
20
110.915907
11
135.151647
21
110.928848
0
LINE
8
Calque 1
10
135.151647
20
110.928848
11
136.668750
21
108.552780
0
LINE
8
Calque 1
10
136.668750
20
108.552780
11
137.760472
21
106.895396
0
LINE
8
Calque 1
10
137.760472
20
106.895396
11
138.547018
21
106.130568
0
LINE
8
Calque 1
10
138.547018
20
106.130568
11
139.119895
21
106.029110
0
LINE
8
Calque 1
10
139.119895
20
106.029110
11
139.646794
21
106.084249
0
LINE
8
Calque 1
10
139.646794
20
106.084249
11
140.482499
21
106.577420
0
LINE
8
Calque 1
10
140.482499
20
106.577420
11
140.893824
21
107.436272
0
LINE
8
Calque 1
10
140.893824
20
107.436272
11
140.890246
21
107.948514
0
LINE
8
Calque 1
10
140.890246
20
107.948514
11
140.720456
21
108.486997
0
LINE
8
Calque 1
10
140.720456
20
108.486997
11
140.219618
21
109.044976
0
LINE
8
Calque 1
10
140.219618
20
109.044976
11
139.482776
21
109.335892
0
LINE
8
Calque 1
10
139.482776
20
109.335892
11
138.684538
21
109.327599
0
LINE
8
Calque 1
10
138.684538
20
109.327599
11
137.999510
21
108.987950
0
LINE
8
Calque 1
10
137.999510
20
108.987950
11
137.714150
21
108.797853
0
LINE
8
Calque 1
10
137.714150
20
108.797853
11
137.451289
21
108.884123
0
LINE
8
Calque 1
10
137.451289
20
108.884123
11
136.593377
21
110.242309
0
LINE
8
Calque 1
10
136.593377
20
110.242309
11
135.665735
21
111.929693
0
LINE
8
Calque 1
10
135.665735
20
111.929693
11
136.886597
21
112.483729
0
LINE
8
Calque 1
10
136.886597
20
112.483729
11
137.847662
21
112.826633
0
LINE
8
Calque 1
10
137.847662
20
112.826633
11
138.810449
21
112.992314
0
LINE
8
Calque 1
10
138.810449
20
112.992314
11
139.757818
21
112.985689
0
LINE
8
Calque 1
10
139.757818
20
112.985689
11
140.672625
21
112.811673
0
LINE
8
Calque 1
10
140.672625
20
112.811673
11
141.537728
21
112.475185
0
LINE
8
Calque 1
10
141.537728
20
112.475185
11
142.335985
21
111.981140
0
LINE
8
Calque 1
10
142.335985
20
111.981140
11
143.050253
21
111.334455
0
LINE
8
Calque 1
10
143.050253
20
111.334455
11
143.663391
21
110.540048
0
LINE
8
Calque 1
10
143.663391
20
110.540048
11
144.340917
21
109.167742
0
LINE
8
Calque 1
10
144.340917
20
109.167742
11
144.396248
21
107.509740
0
LINE
8
Calque 1
10
144.396248
20
107.509740
11
144.191277
21
106.145732
0
LINE
8
Calque 1
10
144.191277
20
106.145732
11
143.737966
21
105.000421
0
LINE
8
Calque 1
10
143.737966
20
105.000421
11
143.014921
21
104.035422
0
LINE
8
Calque 1
10
143.014921
20
104.035422
11
142.000743
21
103.212348
0
LINE
8
Calque 1
10
142.000743
20
103.212348
11
141.031438
21
102.765005
0
LINE
8
Calque 1
10
141.031438
20
102.765005
11
139.854987
21
102.494307
0
LINE
8
Calque 1
10
139.854987
20
102.494307
11
138.657539
21
102.426778
0
LINE
8
Calque 1
10
138.657539
20
102.426778
11
137.625243
21
102.588939
0
LINE
8
Calque 1
10
137.625243
20
102.588939
11
137.625243
21
102.588939
0
LINE
8
Calque 1
10
95.092322
20
109.407182
11
94.329228
21
110.904641
0
LINE
8
Calque 1
10
94.329228
20
110.904641
11
94.114967
21
111.694348
0
LINE
8
Calque 1
10
94.114967
20
111.694348
11
94.662109
21
112.129245
0
LINE
8
Calque 1
10
94.662109
20
112.129245
11
95.628261
21
112.566728
0
LINE
8
Calque 1
10
95.628261
20
112.566728
11
96.741809
21
112.905425
0
LINE
8
Calque 1
10
96.741809
20
112.905425
11
97.731134
21
113.043966
0
LINE
8
Calque 1
10
97.731134
20
113.043966
11
98.679182
21
112.939127
0
LINE
8
Calque 1
10
98.679182
20
112.939127
11
99.612060
21
112.634597
0
LINE
8
Calque 1
10
99.612060
20
112.634597
11
100.495484
21
112.161168
0
LINE
8
Calque 1
10
100.495484
20
112.161168
11
101.295167
21
111.549632
0
LINE
8
Calque 1
10
101.295167
20
111.549632
11
101.976825
21
110.830779
0
LINE
8
Calque 1
10
101.976825
20
110.830779
11
102.506173
21
110.035403
0
LINE
8
Calque 1
10
102.506173
20
110.035403
11
102.848924
21
109.194293
0
LINE
8
Calque 1
10
102.848924
20
109.194293
11
102.970793
21
108.338243
0
LINE
8
Calque 1
10
102.970793
20
108.338243
11
102.970793
21
107.405719
0
LINE
8
Calque 1
10
102.970793
20
107.405719
11
99.608521
21
107.405719
0
LINE
8
Calque 1
10
99.608521
20
107.405719
11
96.246253
21
107.405719
0
LINE
8
Calque 1
10
96.246253
20
107.405719
11
95.092322
21
109.407182
0
LINE
8
Calque 1
10
95.092322
20
109.407182
11
95.092322
21
109.407182
0
LINE
8
Calque 1
10
99.301904
20
108.865163
11
99.148541
21
109.324033
0
LINE
8
Calque 1
10
99.148541
20
109.324033
11
98.759938
21
109.765162
0
LINE
8
Calque 1
10
98.759938
20
109.765162
11
98.243328
21
110.096986
0
LINE
8
Calque 1
10
98.243328
20
110.096986
11
97.705940
21
110.227941
0
LINE
8
Calque 1
10
97.705940
20
110.227941
11
97.099425
21
110.064726
0
LINE
8
Calque 1
10
97.099425
20
110.064726
11
96.508735
21
109.674249
0
LINE
8
Calque 1
10
96.508735
20
109.674249
11
96.105840
21
109.205268
0
LINE
8
Calque 1
10
96.105840
20
109.205268
11
96.062710
21
108.806537
0
LINE
8
Calque 1
10
96.062710
20
108.806537
11
96.673425
21
108.589423
0
LINE
8
Calque 1
10
96.673425
20
108.589423
11
97.775277
21
108.533309
0
LINE
8
Calque 1
10
97.775277
20
108.533309
11
98.830644
21
108.628466
0
LINE
8
Calque 1
10
98.830644
20
108.628466
11
99.301904
21
108.865163
0
LINE
8
Calque 1
10
99.301904
20
108.865163
11
99.301904
21
108.865163
0
LINE
8
Calque 1
10
88.172798
20
110.109532
11
87.325343
21
111.749401
0
LINE
8
Calque 1
10
87.325343
20
111.749401
11
87.325127
21
112.123421
0
LINE
8
Calque 1
10
87.325127
20
112.123421
11
87.547004
21
112.422882
0
LINE
8
Calque 1
10
87.547004
20
112.422882
11
88.359867
21
112.794102
0
LINE
8
Calque 1
10
88.359867
20
112.794102
11
89.843940
21
112.998886
0
LINE
8
Calque 1
10
89.843940
20
112.998886
11
91.681904
21
113.115918
0
LINE
8
Calque 1
10
91.681904
20
113.115918
11
91.681904
21
111.730292
0
LINE
8
Calque 1
10
91.681904
20
111.730292
11
91.550924
21
110.504076
0
LINE
8
Calque 1
10
91.550924
20
110.504076
11
91.276747
21
110.256260
0
LINE
8
Calque 1
10
91.276747
20
110.256260
11
90.765269
21
110.074638
0
LINE
8
Calque 1
10
90.765269
20
110.074638
11
90.066174
21
109.726320
0
LINE
8
Calque 1
10
90.066174
20
109.726320
11
89.750098
21
109.240163
0
LINE
8
Calque 1
10
89.750098
20
109.240163
11
89.570541
21
108.645159
0
LINE
8
Calque 1
10
89.570541
20
108.645159
11
89.287191
21
108.570011
0
LINE
8
Calque 1
10
89.287191
20
108.570011
11
88.840969
21
109.047281
0
LINE
8
Calque 1
10
88.840969
20
109.047281
11
88.172798
21
110.109532
0
LINE
8
Calque 1
10
88.172798
20
110.109532
11
88.172798
21
110.109532
 0 
ENDSEC
 0 
EOF
