999
"DXF R12 Output" (www.mydxf.blogspot.com)
 0 
SECTION
 2 
HEADER
 9 
$ACADVER
 1 
AC1009
 9 
$EXTMIN
 10 
 0 
 20 
 0 
 9 
$EXTMAX
 10 
 8.5 
 20 
 11 
 0 
ENDSEC
 0 
SECTION
 2 
ENTITIES
0
LINE
8
Calque 1
10
67.572063
20
61.786512
11
66.962732
21
62.284810
0
LINE
8
Calque 1
10
66.962732
20
62.284810
11
66.428535
21
62.492067
0
LINE
8
Calque 1
10
66.428535
20
62.492067
11
65.985842
21
62.616421
0
LINE
8
Calque 1
10
65.985842
20
62.616421
11
65.596508
21
62.915401
0
LINE
8
Calque 1
10
65.596508
20
62.915401
11
65.194633
21
63.214380
0
LINE
8
Calque 1
10
65.194633
20
63.214380
11
64.721791
21
63.338734
0
LINE
8
Calque 1
10
64.721791
20
63.338734
11
64.230519
21
63.525265
0
LINE
8
Calque 1
10
64.230519
20
63.525265
11
63.784339
21
63.973734
0
LINE
8
Calque 1
10
63.784339
20
63.973734
11
63.497123
21
64.781912
0
LINE
8
Calque 1
10
63.497123
20
64.781912
11
63.322721
21
65.937517
0
LINE
8
Calque 1
10
63.322721
20
65.937517
11
63.294269
21
67.067238
0
LINE
8
Calque 1
10
63.294269
20
67.067238
11
63.444905
21
67.797763
0
LINE
8
Calque 1
10
63.444905
20
67.797763
11
63.065840
21
69.640028
0
LINE
8
Calque 1
10
63.065840
20
69.640028
11
61.870243
21
73.609413
0
LINE
8
Calque 1
10
61.870243
20
73.609413
11
60.225890
21
78.356496
0
LINE
8
Calque 1
10
60.225890
20
78.356496
11
59.771612
21
79.053106
0
LINE
8
Calque 1
10
59.771612
20
79.053106
11
59.273406
21
79.261159
0
LINE
8
Calque 1
10
59.273406
20
79.261159
11
58.257403
21
79.625023
0
LINE
8
Calque 1
10
58.257403
20
79.625023
11
57.767444
21
80.220568
0
LINE
8
Calque 1
10
57.767444
20
80.220568
11
57.789750
21
81.090986
0
LINE
8
Calque 1
10
57.789750
20
81.090986
11
58.310540
21
82.279472
0
LINE
8
Calque 1
10
58.310540
20
82.279472
11
58.926795
21
83.375950
0
LINE
8
Calque 1
10
58.926795
20
83.375950
11
58.421767
21
86.057341
0
LINE
8
Calque 1
10
58.421767
20
86.057341
11
57.985177
21
87.951075
0
LINE
8
Calque 1
10
57.985177
20
87.951075
11
57.644693
21
88.738734
0
LINE
8
Calque 1
10
57.644693
20
88.738734
11
56.192911
21
87.930732
0
LINE
8
Calque 1
10
56.192911
20
87.930732
11
55.049851
21
87.212117
0
LINE
8
Calque 1
10
55.049851
20
87.212117
11
54.247888
21
86.907691
0
LINE
8
Calque 1
10
54.247888
20
86.907691
11
53.639963
21
86.994786
0
LINE
8
Calque 1
10
53.639963
20
86.994786
11
53.079018
21
87.450734
0
LINE
8
Calque 1
10
53.079018
20
87.450734
11
52.402798
21
87.961745
0
LINE
8
Calque 1
10
52.402798
20
87.961745
11
51.718642
21
88.174289
0
LINE
8
Calque 1
10
51.718642
20
88.174289
11
51.022773
21
88.283810
0
LINE
8
Calque 1
10
51.022773
20
88.283810
11
50.493631
21
88.585255
0
LINE
8
Calque 1
10
50.493631
20
88.585255
11
50.176844
21
89.037949
0
LINE
8
Calque 1
10
50.176844
20
89.037949
11
50.118038
21
89.601213
0
LINE
8
Calque 1
10
50.118038
20
89.601213
11
50.320866
21
90.033005
0
LINE
8
Calque 1
10
50.320866
20
90.033005
11
50.876047
21
90.590142
0
LINE
8
Calque 1
10
50.876047
20
90.590142
11
53.390396
21
92.374462
0
LINE
8
Calque 1
10
53.390396
20
92.374462
11
56.565396
21
94.457964
0
LINE
8
Calque 1
10
56.565396
20
94.457964
11
56.565396
21
95.824699
0
LINE
8
Calque 1
10
56.565396
20
95.824699
11
56.471074
21
96.982023
0
LINE
8
Calque 1
10
56.471074
20
96.982023
11
56.250362
21
97.049285
0
LINE
8
Calque 1
10
56.250362
20
97.049285
11
55.822565
21
96.909005
0
LINE
8
Calque 1
10
55.822565
20
96.909005
11
55.157044
21
96.751834
0
LINE
8
Calque 1
10
55.157044
20
96.751834
11
54.586098
21
96.804823
0
LINE
8
Calque 1
10
54.586098
20
96.804823
11
54.148249
21
97.056342
0
LINE
8
Calque 1
10
54.148249
20
97.056342
11
53.882019
21
97.494763
0
LINE
8
Calque 1
10
53.882019
20
97.494763
11
53.903592
21
98.298537
0
LINE
8
Calque 1
10
53.903592
20
98.298537
11
54.372950
21
99.351104
0
LINE
8
Calque 1
10
54.372950
20
99.351104
11
55.264151
21
100.608426
0
LINE
8
Calque 1
10
55.264151
20
100.608426
11
56.551257
21
102.026462
0
LINE
8
Calque 1
10
56.551257
20
102.026462
11
57.985180
21
103.301523
0
LINE
8
Calque 1
10
57.985180
20
103.301523
11
59.368829
21
104.170578
0
LINE
8
Calque 1
10
59.368829
20
104.170578
11
60.770907
21
104.667309
0
LINE
8
Calque 1
10
60.770907
20
104.667309
11
62.260116
21
104.825401
0
LINE
8
Calque 1
10
62.260116
20
104.825401
11
63.338730
21
104.825401
0
LINE
8
Calque 1
10
63.338730
20
104.825401
11
63.338730
21
101.707762
0
LINE
8
Calque 1
10
63.338730
20
101.707762
11
63.338730
21
98.590124
0
LINE
8
Calque 1
10
63.338730
20
98.590124
11
66.050871
21
100.000862
0
LINE
8
Calque 1
10
66.050871
20
100.000862
11
68.262518
21
101.041788
0
LINE
8
Calque 1
10
68.262518
20
101.041788
11
70.122047
21
101.673288
0
LINE
8
Calque 1
10
70.122047
20
101.673288
11
71.670629
21
101.905801
0
LINE
8
Calque 1
10
71.670629
20
101.905801
11
72.949432
21
101.749763
0
LINE
8
Calque 1
10
72.949432
20
101.749763
11
73.767254
21
101.428411
0
LINE
8
Calque 1
10
73.767254
20
101.428411
11
74.330859
21
100.979291
0
LINE
8
Calque 1
10
74.330859
20
100.979291
11
74.728095
21
100.299158
0
LINE
8
Calque 1
10
74.728095
20
100.299158
11
75.046812
21
99.284766
0
LINE
8
Calque 1
10
75.046812
20
99.284766
11
75.370752
21
98.008961
0
LINE
8
Calque 1
10
75.370752
20
98.008961
11
76.100141
21
99.088847
0
LINE
8
Calque 1
10
76.100141
20
99.088847
11
77.391075
21
100.725419
0
LINE
8
Calque 1
10
77.391075
20
100.725419
11
78.820222
21
102.104625
0
LINE
8
Calque 1
10
78.820222
20
102.104625
11
80.184595
21
103.057038
0
LINE
8
Calque 1
10
80.184595
20
103.057038
11
81.281202
21
103.413234
0
LINE
8
Calque 1
10
81.281202
20
103.413234
11
81.766008
21
103.362071
0
LINE
8
Calque 1
10
81.766008
20
103.362071
11
82.172844
21
103.139369
0
LINE
8
Calque 1
10
82.172844
20
103.139369
11
82.534536
21
102.644197
0
LINE
8
Calque 1
10
82.534536
20
102.644197
11
82.883911
21
101.775625
0
LINE
8
Calque 1
10
82.883911
20
101.775625
11
83.677014
21
98.514561
0
LINE
8
Calque 1
10
83.677014
20
98.514561
11
84.814766
21
92.548734
0
LINE
8
Calque 1
10
84.814766
20
92.548734
11
86.647751
21
82.860570
0
LINE
8
Calque 1
10
86.647751
20
82.860570
11
90.088813
21
84.624459
0
LINE
8
Calque 1
10
90.088813
20
84.624459
11
92.677834
21
85.935610
0
LINE
8
Calque 1
10
92.677834
20
85.935610
11
94.162282
21
86.480956
0
LINE
8
Calque 1
10
94.162282
20
86.480956
11
94.729073
21
86.373659
0
LINE
8
Calque 1
10
94.729073
20
86.373659
11
95.204429
21
86.072505
0
LINE
8
Calque 1
10
95.204429
20
86.072505
11
95.578581
21
85.608597
0
LINE
8
Calque 1
10
95.578581
20
85.608597
11
95.841762
21
85.013039
0
LINE
8
Calque 1
10
95.841762
20
85.013039
11
95.996138
21
83.551392
0
LINE
8
Calque 1
10
95.996138
20
83.551392
11
95.589417
21
81.936397
0
LINE
8
Calque 1
10
95.589417
20
81.936397
11
94.550225
21
80.196978
0
LINE
8
Calque 1
10
94.550225
20
80.196978
11
92.824455
21
77.757651
0
LINE
8
Calque 1
10
92.824455
20
77.757651
11
90.609759
21
74.819901
0
LINE
8
Calque 1
10
90.609759
20
74.819901
11
90.309243
21
75.839872
0
LINE
8
Calque 1
10
90.309243
20
75.839872
11
90.008730
21
76.859843
0
LINE
8
Calque 1
10
90.008730
20
76.859843
11
87.215370
21
74.760922
0
LINE
8
Calque 1
10
87.215370
20
74.760922
11
85.325157
21
73.434757
0
LINE
8
Calque 1
10
85.325157
20
73.434757
11
83.886413
21
72.666250
0
LINE
8
Calque 1
10
83.886413
20
72.666250
11
82.769065
21
72.402891
0
LINE
8
Calque 1
10
82.769065
20
72.402891
11
81.843039
21
72.592171
0
LINE
8
Calque 1
10
81.843039
20
72.592171
11
81.480180
21
72.842572
0
LINE
8
Calque 1
10
81.480180
20
72.842572
11
81.270781
21
73.401801
0
LINE
8
Calque 1
10
81.270781
20
73.401801
11
81.058142
21
76.814238
0
LINE
8
Calque 1
10
81.058142
20
76.814238
11
80.866174
21
79.747775
0
LINE
8
Calque 1
10
80.866174
20
79.747775
11
80.603039
21
81.283676
0
LINE
8
Calque 1
10
80.603039
20
81.283676
11
80.340131
21
81.586121
0
LINE
8
Calque 1
10
80.340131
20
81.586121
11
80.280645
21
80.936797
0
LINE
8
Calque 1
10
80.280645
20
80.936797
11
80.092518
21
79.646296
0
LINE
8
Calque 1
10
80.092518
20
79.646296
11
79.606584
21
77.926421
0
LINE
8
Calque 1
10
79.606584
20
77.926421
11
78.911931
21
76.048649
0
LINE
8
Calque 1
10
78.911931
20
76.048649
11
78.097645
21
74.284458
0
LINE
8
Calque 1
10
78.097645
20
74.284458
11
77.015651
21
72.592874
0
LINE
8
Calque 1
10
77.015651
20
72.592874
11
75.519238
21
70.813173
0
LINE
8
Calque 1
10
75.519238
20
70.813173
11
73.706305
21
69.050154
0
LINE
8
Calque 1
10
73.706305
20
69.050154
11
71.674747
21
67.408618
0
LINE
8
Calque 1
10
71.674747
20
67.408618
11
70.062897
21
66.074376
0
LINE
8
Calque 1
10
70.062897
20
66.074376
11
69.896641
21
65.618335
0
LINE
8
Calque 1
10
69.896641
20
65.618335
11
69.961506
21
65.032067
0
LINE
8
Calque 1
10
69.961506
20
65.032067
11
70.341435
21
62.461850
0
LINE
8
Calque 1
10
70.341435
20
62.461850
11
70.299950
21
61.870211
0
LINE
8
Calque 1
10
70.299950
20
61.870211
11
70.114304
21
61.506990
0
LINE
8
Calque 1
10
70.114304
20
61.506990
11
69.592982
21
61.162023
0
LINE
8
Calque 1
10
69.592982
20
61.162023
11
68.920192
21
61.101901
0
LINE
8
Calque 1
10
68.920192
20
61.101901
11
68.208898
21
61.314204
0
LINE
8
Calque 1
10
68.208898
20
61.314204
11
67.572063
21
61.786512
0
LINE
8
Calque 1
10
67.572063
20
61.786512
11
67.572063
21
61.786512
0
LINE
8
Calque 1
10
68.584741
20
64.633637
11
68.227403
21
66.622133
0
LINE
8
Calque 1
10
68.227403
20
66.622133
11
70.555581
21
68.350679
0
LINE
8
Calque 1
10
70.555581
20
68.350679
11
73.786974
21
71.059266
0
LINE
8
Calque 1
10
73.786974
20
71.059266
11
75.066854
21
72.421759
0
LINE
8
Calque 1
10
75.066854
20
72.421759
11
76.144134
21
73.820612
0
LINE
8
Calque 1
10
76.144134
20
73.820612
11
77.034774
21
75.278996
0
LINE
8
Calque 1
10
77.034774
20
75.278996
11
77.754732
21
76.820082
0
LINE
8
Calque 1
10
77.754732
20
76.820082
11
78.319967
21
78.467040
0
LINE
8
Calque 1
10
78.319967
20
78.467040
11
78.746437
21
80.243041
0
LINE
8
Calque 1
10
78.746437
20
80.243041
11
79.029116
21
82.070055
0
LINE
8
Calque 1
10
79.029116
20
82.070055
11
79.088964
21
83.612655
0
LINE
8
Calque 1
10
79.088964
20
83.612655
11
78.907991
21
84.900929
0
LINE
8
Calque 1
10
78.907991
20
84.900929
11
78.468207
21
85.964965
0
LINE
8
Calque 1
10
78.468207
20
85.964965
11
77.751620
21
86.834851
0
LINE
8
Calque 1
10
77.751620
20
86.834851
11
76.740239
21
87.540675
0
LINE
8
Calque 1
10
76.740239
20
87.540675
11
75.416074
21
88.112526
0
LINE
8
Calque 1
10
75.416074
20
88.112526
11
73.761134
21
88.580492
0
LINE
8
Calque 1
10
73.761134
20
88.580492
11
71.890529
21
89.123970
0
LINE
8
Calque 1
10
71.890529
20
89.123970
11
72.479735
21
91.085584
0
LINE
8
Calque 1
10
72.479735
20
91.085584
11
73.126683
21
92.902401
0
LINE
8
Calque 1
10
73.126683
20
92.902401
11
73.538350
21
94.566101
0
LINE
8
Calque 1
10
73.538350
20
94.566101
11
73.733154
21
96.176107
0
LINE
8
Calque 1
10
73.733154
20
96.176107
11
73.729514
21
97.831841
0
LINE
8
Calque 1
10
73.729514
20
97.831841
11
73.526939
21
99.485673
0
LINE
8
Calque 1
10
73.526939
20
99.485673
11
73.339180
21
99.928833
0
LINE
8
Calque 1
10
73.339180
20
99.928833
11
73.064432
21
100.221591
0
LINE
8
Calque 1
10
73.064432
20
100.221591
11
72.155961
21
100.528982
0
LINE
8
Calque 1
10
72.155961
20
100.528982
11
70.785429
21
100.352354
0
LINE
8
Calque 1
10
70.785429
20
100.352354
11
68.828529
21
99.659214
0
LINE
8
Calque 1
10
68.828529
20
99.659214
11
66.160952
21
98.417068
0
LINE
8
Calque 1
10
66.160952
20
98.417068
11
62.139285
21
96.414803
0
LINE
8
Calque 1
10
62.139285
20
96.414803
11
61.989796
21
97.391764
0
LINE
8
Calque 1
10
61.989796
20
97.391764
11
61.927619
21
99.885417
0
LINE
8
Calque 1
10
61.927619
20
99.885417
11
61.927619
21
103.459137
0
LINE
8
Calque 1
10
61.927619
20
103.459137
11
61.010396
21
103.265158
0
LINE
8
Calque 1
10
61.010396
20
103.265158
11
60.057212
21
102.961966
0
LINE
8
Calque 1
10
60.057212
20
102.961966
11
59.115154
21
102.452857
0
LINE
8
Calque 1
10
59.115154
20
102.452857
11
58.167065
21
101.726617
0
LINE
8
Calque 1
10
58.167065
20
101.726617
11
57.195788
21
100.772032
0
LINE
8
Calque 1
10
57.195788
20
100.772032
11
55.849909
21
99.097801
0
LINE
8
Calque 1
10
55.849909
20
99.097801
11
55.541735
21
98.544427
0
LINE
8
Calque 1
10
55.541735
20
98.544427
11
55.578931
21
98.334289
0
LINE
8
Calque 1
10
55.578931
20
98.334289
11
56.858862
21
98.904469
0
LINE
8
Calque 1
10
56.858862
20
98.904469
11
57.976508
21
99.474651
0
LINE
8
Calque 1
10
57.976508
20
99.474651
11
57.976025
21
96.576135
0
LINE
8
Calque 1
10
57.976025
20
96.576135
11
57.975545
21
93.677623
0
LINE
8
Calque 1
10
57.975545
20
93.677623
11
54.801025
21
91.607452
0
LINE
8
Calque 1
10
54.801025
20
91.607452
11
52.240629
21
89.851602
0
LINE
8
Calque 1
10
52.240629
20
89.851602
11
52.142782
21
89.713055
0
LINE
8
Calque 1
10
52.142782
20
89.713055
11
52.221249
21
89.655596
0
LINE
8
Calque 1
10
52.221249
20
89.655596
11
52.825952
21
89.705788
0
LINE
8
Calque 1
10
52.825952
20
89.705788
11
53.852232
21
89.747623
0
LINE
8
Calque 1
10
53.852232
20
89.747623
11
53.997943
21
89.555925
0
LINE
8
Calque 1
10
53.997943
20
89.555925
11
54.025396
21
89.165403
0
LINE
8
Calque 1
10
54.025396
20
89.165403
11
54.087574
21
88.666296
0
LINE
8
Calque 1
10
54.087574
20
88.666296
11
54.237063
21
88.461781
0
LINE
8
Calque 1
10
54.237063
20
88.461781
11
56.565396
21
89.844811
0
LINE
8
Calque 1
10
56.565396
20
89.844811
11
58.742978
21
91.166218
0
LINE
8
Calque 1
10
58.742978
20
91.166218
11
59.652425
21
87.035469
0
LINE
8
Calque 1
10
59.652425
20
87.035469
11
60.500954
21
82.961072
0
LINE
8
Calque 1
10
60.500954
20
82.961072
11
59.803174
21
81.954179
0
LINE
8
Calque 1
10
59.803174
20
81.954179
11
59.105396
21
80.750787
0
LINE
8
Calque 1
10
59.105396
20
80.750787
11
59.388662
21
80.612010
0
LINE
8
Calque 1
10
59.388662
20
80.612010
11
60.069705
21
80.554289
0
LINE
8
Calque 1
10
60.069705
20
80.554289
11
61.034016
21
80.554289
0
LINE
8
Calque 1
10
61.034016
20
80.554289
11
63.018935
21
74.557067
0
LINE
8
Calque 1
10
63.018935
20
74.557067
11
64.699993
21
69.130944
0
LINE
8
Calque 1
10
64.699993
20
69.130944
11
64.886465
21
67.832351
0
LINE
8
Calque 1
10
64.886465
20
67.832351
11
64.834699
21
66.611137
0
LINE
8
Calque 1
10
64.834699
20
66.611137
11
64.665547
21
64.662430
0
LINE
8
Calque 1
10
64.665547
20
64.662430
11
65.554360
21
64.840193
0
LINE
8
Calque 1
10
65.554360
20
64.840193
11
66.282612
21
64.885152
0
LINE
8
Calque 1
10
66.282612
20
64.885152
11
66.410739
21
64.741426
0
LINE
8
Calque 1
10
66.410739
20
64.741426
11
66.443174
21
64.460567
0
LINE
8
Calque 1
10
66.443174
20
64.460567
11
66.598932
21
64.032161
0
LINE
8
Calque 1
10
66.598932
20
64.032161
11
67.116271
21
63.903178
0
LINE
8
Calque 1
10
67.116271
20
63.903178
11
67.736756
21
63.705958
0
LINE
8
Calque 1
10
67.736756
20
63.705958
11
68.267710
21
63.173137
0
LINE
8
Calque 1
10
68.267710
20
63.173137
11
68.869176
21
62.566218
0
LINE
8
Calque 1
10
68.869176
20
62.566218
11
68.584741
21
64.633637
0
LINE
8
Calque 1
10
68.584741
20
64.633637
11
68.584741
21
64.633637
0
LINE
8
Calque 1
10
66.615279
20
69.759289
11
63.903174
21
82.083872
0
LINE
8
Calque 1
10
63.903174
20
82.083872
11
64.322804
21
82.585013
0
LINE
8
Calque 1
10
64.322804
20
82.585013
11
65.410242
21
83.261574
0
LINE
8
Calque 1
10
65.410242
20
83.261574
11
66.908313
21
83.975266
0
LINE
8
Calque 1
10
66.908313
20
83.975266
11
68.559841
21
84.587804
0
LINE
8
Calque 1
10
68.559841
20
84.587804
11
70.477146
21
85.069311
0
LINE
8
Calque 1
10
70.477146
20
85.069311
11
72.099843
21
85.216389
0
LINE
8
Calque 1
10
72.099843
20
85.216389
11
73.428739
21
85.028412
0
LINE
8
Calque 1
10
73.428739
20
85.028412
11
74.464638
21
84.504754
0
LINE
8
Calque 1
10
74.464638
20
84.504754
11
75.208346
21
83.644788
0
LINE
8
Calque 1
10
75.208346
20
83.644788
11
75.660669
21
82.447889
0
LINE
8
Calque 1
10
75.660669
20
82.447889
11
75.822411
21
80.913430
0
LINE
8
Calque 1
10
75.822411
20
80.913430
11
75.694379
21
79.040785
0
LINE
8
Calque 1
10
75.694379
20
79.040785
11
75.412944
21
77.761703
0
LINE
8
Calque 1
10
75.412944
20
77.761703
11
74.920733
21
76.476873
0
LINE
8
Calque 1
10
74.920733
20
76.476873
11
74.238140
21
75.212295
0
LINE
8
Calque 1
10
74.238140
20
75.212295
11
73.385561
21
73.993968
0
LINE
8
Calque 1
10
73.385561
20
73.993968
11
72.383391
21
72.847891
0
LINE
8
Calque 1
10
72.383391
20
72.847891
11
71.252023
21
71.800061
0
LINE
8
Calque 1
10
71.252023
20
71.800061
11
70.011853
21
70.876479
0
LINE
8
Calque 1
10
70.011853
20
70.876479
11
68.683276
21
70.103143
0
LINE
8
Calque 1
10
68.683276
20
70.103143
11
66.987862
21
69.325477
0
LINE
8
Calque 1
10
66.987862
20
69.325477
11
66.743492
21
69.408786
0
LINE
8
Calque 1
10
66.743492
20
69.408786
11
66.615279
21
69.759289
0
LINE
8
Calque 1
10
66.615279
20
69.759289
11
66.615279
21
69.759289
0
LINE
8
Calque 1
10
69.280699
20
72.038510
11
70.736473
21
73.166234
0
LINE
8
Calque 1
10
70.736473
20
73.166234
11
72.115050
21
74.586416
0
LINE
8
Calque 1
10
72.115050
20
74.586416
11
73.238738
21
76.091335
0
LINE
8
Calque 1
10
73.238738
20
76.091335
11
73.929844
21
77.473275
0
LINE
8
Calque 1
10
73.929844
20
77.473275
11
74.265371
21
79.041229
0
LINE
8
Calque 1
10
74.265371
20
79.041229
11
74.397670
21
80.789383
0
LINE
8
Calque 1
10
74.397670
20
80.789383
11
74.265140
21
82.458566
0
LINE
8
Calque 1
10
74.265140
20
82.458566
11
74.039544
21
82.905022
0
LINE
8
Calque 1
10
74.039544
20
82.905022
11
73.644831
21
83.302696
0
LINE
8
Calque 1
10
73.644831
20
83.302696
11
72.933949
21
83.750730
0
LINE
8
Calque 1
10
72.933949
20
83.750730
11
72.084118
21
83.906093
0
LINE
8
Calque 1
10
72.084118
20
83.906093
11
70.944856
21
83.770262
0
LINE
8
Calque 1
10
70.944856
20
83.770262
11
69.365678
21
83.344717
0
LINE
8
Calque 1
10
69.365678
20
83.344717
11
66.385676
21
82.200074
0
LINE
8
Calque 1
10
66.385676
20
82.200074
11
65.596807
21
81.701387
0
LINE
8
Calque 1
10
65.596807
20
81.701387
11
65.394442
21
81.312722
0
LINE
8
Calque 1
10
65.394442
20
81.312722
11
66.594790
21
76.109289
0
LINE
8
Calque 1
10
66.594790
20
76.109289
11
67.847077
21
71.240956
0
LINE
8
Calque 1
10
67.847077
20
71.240956
11
69.280699
21
72.038510
0
LINE
8
Calque 1
10
69.280699
20
72.038510
11
69.280699
21
72.038510
0
LINE
8
Calque 1
10
62.934895
20
85.967018
11
62.487231
21
89.319946
0
LINE
8
Calque 1
10
62.487231
20
89.319946
11
62.210637
21
92.694465
0
LINE
8
Calque 1
10
62.210637
20
92.694465
11
62.253282
21
93.253764
0
LINE
8
Calque 1
10
62.253282
20
93.253764
11
62.448302
21
93.668879
0
LINE
8
Calque 1
10
62.448302
20
93.668879
11
63.691508
21
94.567464
0
LINE
8
Calque 1
10
63.691508
20
94.567464
11
65.372564
21
95.465151
0
LINE
8
Calque 1
10
65.372564
20
95.465151
11
66.816936
21
96.027944
0
LINE
8
Calque 1
10
66.816936
20
96.027944
11
68.010526
21
96.260381
0
LINE
8
Calque 1
10
68.010526
20
96.260381
11
68.939236
21
96.166998
0
LINE
8
Calque 1
10
68.939236
20
96.166998
11
69.588969
21
95.752334
0
LINE
8
Calque 1
10
69.588969
20
95.752334
11
69.945630
21
95.020925
0
LINE
8
Calque 1
10
69.945630
20
95.020925
11
69.995119
21
93.977309
0
LINE
8
Calque 1
10
69.995119
20
93.977309
11
69.723341
21
92.626023
0
LINE
8
Calque 1
10
69.723341
20
92.626023
11
69.119514
21
91.130473
0
LINE
8
Calque 1
10
69.119514
20
91.130473
11
68.192218
21
89.662724
0
LINE
8
Calque 1
10
68.192218
20
89.662724
11
66.957562
21
88.244277
0
LINE
8
Calque 1
10
66.957562
20
88.244277
11
65.431650
21
86.896633
0
LINE
8
Calque 1
10
65.431650
20
86.896633
11
63.437190
21
85.485574
0
LINE
8
Calque 1
10
63.437190
20
85.485574
11
63.095655
21
85.525526
0
LINE
8
Calque 1
10
63.095655
20
85.525526
11
62.934895
21
85.967018
0
LINE
8
Calque 1
10
62.934895
20
85.967018
11
62.934895
21
85.967018
0
LINE
8
Calque 1
10
66.084746
20
89.390106
11
67.135412
21
90.587219
0
LINE
8
Calque 1
10
67.135412
20
90.587219
11
67.858379
21
91.641328
0
LINE
8
Calque 1
10
67.858379
20
91.641328
11
68.320302
21
92.669577
0
LINE
8
Calque 1
10
68.320302
20
92.669577
11
68.587840
21
93.789109
0
LINE
8
Calque 1
10
68.587840
20
93.789109
11
68.649365
21
94.749411
0
LINE
8
Calque 1
10
68.649365
20
94.749411
11
68.512169
21
94.909497
0
LINE
8
Calque 1
10
68.512169
20
94.909497
11
68.235172
21
94.947623
0
LINE
8
Calque 1
10
68.235172
20
94.947623
11
67.244989
21
94.655156
0
LINE
8
Calque 1
10
67.244989
20
94.655156
11
65.619717
21
93.951991
0
LINE
8
Calque 1
10
65.619717
20
93.951991
11
63.542184
21
92.956362
0
LINE
8
Calque 1
10
63.542184
20
92.956362
11
63.722679
21
91.229480
0
LINE
8
Calque 1
10
63.722679
20
91.229480
11
63.903174
21
88.697335
0
LINE
8
Calque 1
10
63.903174
20
88.697335
11
64.018170
21
88.065448
0
LINE
8
Calque 1
10
64.018170
20
88.065448
11
64.391628
21
87.961240
0
LINE
8
Calque 1
10
64.391628
20
87.961240
11
65.066252
21
88.398272
0
LINE
8
Calque 1
10
65.066252
20
88.398272
11
66.084746
21
89.390106
0
LINE
8
Calque 1
10
66.084746
20
89.390106
11
66.084746
21
89.390106
0
LINE
8
Calque 1
10
87.135369
20
76.462067
11
90.989525
21
79.143178
0
LINE
8
Calque 1
10
90.989525
20
79.143178
11
91.196890
21
78.998098
0
LINE
8
Calque 1
10
91.196890
20
78.998098
11
91.289327
21
78.649289
0
LINE
8
Calque 1
10
91.289327
20
78.649289
11
91.348501
21
78.485579
0
LINE
8
Calque 1
10
91.348501
20
78.485579
11
91.523823
21
78.530942
0
LINE
8
Calque 1
10
91.523823
20
78.530942
11
92.278028
21
79.284289
0
LINE
8
Calque 1
10
92.278028
20
79.284289
11
93.550252
21
81.062908
0
LINE
8
Calque 1
10
93.550252
20
81.062908
11
94.376883
21
82.818364
0
LINE
8
Calque 1
10
94.376883
20
82.818364
11
94.645963
21
84.227323
0
LINE
8
Calque 1
10
94.645963
20
84.227323
11
94.536435
21
84.700825
0
LINE
8
Calque 1
10
94.536435
20
84.700825
11
94.245534
21
84.966453
0
LINE
8
Calque 1
10
94.245534
20
84.966453
11
92.784537
21
84.426900
0
LINE
8
Calque 1
10
92.784537
20
84.426900
11
89.801765
21
82.863217
0
LINE
8
Calque 1
10
89.801765
20
82.863217
11
85.691029
21
80.685695
0
LINE
8
Calque 1
10
85.691029
20
80.685695
11
83.661247
21
91.144512
0
LINE
8
Calque 1
10
83.661247
20
91.144512
11
82.202928
21
98.555839
0
LINE
8
Calque 1
10
82.202928
20
98.555839
11
81.425155
21
101.809642
0
LINE
8
Calque 1
10
81.425155
20
101.809642
11
81.087715
21
101.885119
0
LINE
8
Calque 1
10
81.087715
20
101.885119
11
80.574615
21
101.676630
0
LINE
8
Calque 1
10
80.574615
20
101.676630
11
79.217825
21
100.597168
0
LINE
8
Calque 1
10
79.217825
20
100.597168
11
77.747571
21
98.950078
0
LINE
8
Calque 1
10
77.747571
20
98.950078
11
76.556639
21
97.114184
0
LINE
8
Calque 1
10
76.556639
20
97.114184
11
75.986166
21
95.995965
0
LINE
8
Calque 1
10
75.986166
20
95.995965
11
77.097314
21
96.173647
0
LINE
8
Calque 1
10
77.097314
20
96.173647
11
78.208463
21
96.351326
0
LINE
8
Calque 1
10
78.208463
20
96.351326
11
79.234730
21
92.598526
0
LINE
8
Calque 1
10
79.234730
20
92.598526
11
81.793765
21
82.670785
0
LINE
8
Calque 1
10
81.793765
20
82.670785
11
82.257270
21
79.931815
0
LINE
8
Calque 1
10
82.257270
20
79.931815
11
82.450807
21
77.379289
0
LINE
8
Calque 1
10
82.450807
20
77.379289
11
82.669619
21
74.407268
0
LINE
8
Calque 1
10
82.669619
20
74.407268
11
82.837361
21
73.903375
0
LINE
8
Calque 1
10
82.837361
20
73.903375
11
83.092744
21
73.780956
0
LINE
8
Calque 1
10
83.092744
20
73.780956
11
84.477306
21
74.568533
0
LINE
8
Calque 1
10
84.477306
20
74.568533
11
87.135369
21
76.462067
0
LINE
8
Calque 1
10
87.135369
20
76.462067
11
87.135369
21
76.462067
0
LINE
8
Calque 1
10
78.405530
20
90.361512
11
77.500748
21
93.663373
0
LINE
8
Calque 1
10
77.500748
20
93.663373
11
77.124251
21
94.368458
0
LINE
8
Calque 1
10
77.124251
20
94.368458
11
76.338839
21
94.739732
0
LINE
8
Calque 1
10
76.338839
20
94.739732
11
75.618654
21
94.844543
0
LINE
8
Calque 1
10
75.618654
20
94.844543
11
75.209101
21
94.753982
0
LINE
8
Calque 1
10
75.209101
20
94.753982
11
74.366330
21
92.402345
0
LINE
8
Calque 1
10
74.366330
20
92.402345
11
73.991828
21
90.942259
0
LINE
8
Calque 1
10
73.991828
20
90.942259
11
73.902542
21
90.181434
0
LINE
8
Calque 1
10
73.902542
20
90.181434
11
74.977281
21
89.752033
0
LINE
8
Calque 1
10
74.977281
20
89.752033
11
76.041783
21
89.387299
0
LINE
8
Calque 1
10
76.041783
20
89.387299
11
77.308730
21
88.762562
0
LINE
8
Calque 1
10
77.308730
20
88.762562
11
78.904818
21
87.922367
0
LINE
8
Calque 1
10
78.904818
20
87.922367
11
78.834456
21
88.626367
0
LINE
8
Calque 1
10
78.834456
20
88.626367
11
78.405530
21
90.361512
0
LINE
8
Calque 1
10
78.405530
20
90.361512
11
78.405530
21
90.361512
0
LINE
8
Calque 1
10
95.104732
20
66.223753
11
94.782252
21
66.870205
0
LINE
8
Calque 1
10
94.782252
20
66.870205
11
94.745611
21
68.297180
0
LINE
8
Calque 1
10
94.745611
20
68.297180
11
95.794285
21
78.014289
0
LINE
8
Calque 1
10
95.794285
20
78.014289
11
96.920005
21
88.149970
0
LINE
8
Calque 1
10
96.920005
20
88.149970
11
96.747537
21
88.462455
0
LINE
8
Calque 1
10
96.747537
20
88.462455
11
96.290576
21
88.870907
0
LINE
8
Calque 1
10
96.290576
20
88.870907
11
94.864684
21
89.786164
0
LINE
8
Calque 1
10
94.864684
20
89.786164
11
93.325356
21
90.516651
0
LINE
8
Calque 1
10
93.325356
20
90.516651
11
92.726598
21
90.694141
0
LINE
8
Calque 1
10
92.726598
20
90.694141
11
92.355616
21
90.683279
0
LINE
8
Calque 1
10
92.355616
20
90.683279
11
91.799870
21
90.470763
0
LINE
8
Calque 1
10
91.799870
20
90.470763
11
91.254790
21
90.411260
0
LINE
8
Calque 1
10
91.254790
20
90.411260
11
90.274833
21
90.702567
0
LINE
8
Calque 1
10
90.274833
20
90.702567
11
89.572157
21
91.459737
0
LINE
8
Calque 1
10
89.572157
20
91.459737
11
89.303174
21
92.585307
0
LINE
8
Calque 1
10
89.303174
20
92.585307
11
89.445557
21
94.074649
0
LINE
8
Calque 1
10
89.445557
20
94.074649
11
89.842024
21
96.126551
0
LINE
8
Calque 1
10
89.842024
20
96.126551
11
91.213117
21
101.300933
0
LINE
8
Calque 1
10
91.213117
20
101.300933
11
93.048264
21
106.874245
0
LINE
8
Calque 1
10
93.048264
20
106.874245
11
94.979278
21
111.612283
0
LINE
8
Calque 1
10
94.979278
20
111.612283
11
96.301752
21
114.146335
0
LINE
8
Calque 1
10
96.301752
20
114.146335
11
96.713799
21
114.590953
0
LINE
8
Calque 1
10
96.713799
20
114.590953
11
97.108428
21
114.703178
0
LINE
8
Calque 1
10
97.108428
20
114.703178
11
97.428510
21
114.646694
0
LINE
8
Calque 1
10
97.428510
20
114.646694
11
97.653641
21
114.411316
0
LINE
8
Calque 1
10
97.653641
20
114.411316
11
97.811955
21
113.008322
0
LINE
8
Calque 1
10
97.811955
20
113.008322
11
97.569178
21
109.703084
0
LINE
8
Calque 1
10
97.569178
20
109.703084
11
96.911118
21
103.704493
0
LINE
8
Calque 1
10
96.911118
20
103.704493
11
96.390709
21
98.568469
0
LINE
8
Calque 1
10
96.390709
20
98.568469
11
96.294304
21
96.314902
0
LINE
8
Calque 1
10
96.294304
20
96.314902
11
97.238391
21
95.627543
0
LINE
8
Calque 1
10
97.238391
20
95.627543
11
98.587917
21
94.903077
0
LINE
8
Calque 1
10
98.587917
20
94.903077
11
100.006915
21
94.302322
0
LINE
8
Calque 1
10
100.006915
20
94.302322
11
101.159417
21
93.986097
0
LINE
8
Calque 1
10
101.159417
20
93.986097
11
102.348364
21
93.696706
0
LINE
8
Calque 1
10
102.348364
20
93.696706
11
102.713716
21
93.433154
0
LINE
8
Calque 1
10
102.713716
20
93.433154
11
102.943105
21
93.043251
0
LINE
8
Calque 1
10
102.943105
20
93.043251
11
103.044343
21
91.743058
0
LINE
8
Calque 1
10
103.044343
20
91.743058
11
102.752779
21
89.513451
0
LINE
8
Calque 1
10
102.752779
20
89.513451
11
101.549322
21
83.696484
0
LINE
8
Calque 1
10
101.549322
20
83.696484
11
98.747631
21
72.289683
0
LINE
8
Calque 1
10
98.747631
20
72.289683
11
97.670078
21
68.415662
0
LINE
8
Calque 1
10
97.670078
20
68.415662
11
96.773177
21
66.228949
0
LINE
8
Calque 1
10
96.773177
20
66.228949
11
96.359924
21
65.714138
0
LINE
8
Calque 1
10
96.359924
20
65.714138
11
95.952778
21
65.556120
0
LINE
8
Calque 1
10
95.952778
20
65.556120
11
95.538720
21
65.733218
0
LINE
8
Calque 1
10
95.538720
20
65.733218
11
95.104732
21
66.223753
0
LINE
8
Calque 1
10
95.104732
20
66.223753
11
95.104732
21
66.223753
0
LINE
8
Calque 1
10
98.473824
20
76.900849
11
100.969957
21
87.697147
0
LINE
8
Calque 1
10
100.969957
20
87.697147
11
101.539708
21
90.861486
0
LINE
8
Calque 1
10
101.539708
20
90.861486
11
101.608024
21
92.294833
0
LINE
8
Calque 1
10
101.608024
20
92.294833
11
101.262902
21
92.573810
0
LINE
8
Calque 1
10
101.262902
20
92.573810
11
100.645999
21
92.689845
0
LINE
8
Calque 1
10
100.645999
20
92.689845
11
99.628283
21
92.918942
0
LINE
8
Calque 1
10
99.628283
20
92.918942
11
98.233578
21
93.505607
0
LINE
8
Calque 1
10
98.233578
20
93.505607
11
96.774069
21
94.298904
0
LINE
8
Calque 1
10
96.774069
20
94.298904
11
95.561946
21
95.147896
0
LINE
8
Calque 1
10
95.561946
20
95.147896
11
94.624051
21
95.935401
0
LINE
8
Calque 1
10
94.624051
20
95.935401
11
95.464757
21
103.414289
0
LINE
8
Calque 1
10
95.464757
20
103.414289
11
96.219594
21
110.982163
0
LINE
8
Calque 1
10
96.219594
20
110.982163
11
94.913311
21
107.955811
0
LINE
8
Calque 1
10
94.913311
20
107.955811
11
93.207877
21
103.273178
0
LINE
8
Calque 1
10
93.207877
20
103.273178
11
91.740088
21
97.857213
0
LINE
8
Calque 1
10
91.740088
20
97.857213
11
90.824784
21
93.444561
0
LINE
8
Calque 1
10
90.824784
20
93.444561
11
90.757583
21
92.412532
0
LINE
8
Calque 1
10
90.757583
20
92.412532
11
90.916816
21
91.901320
0
LINE
8
Calque 1
10
90.916816
20
91.901320
11
91.379678
21
91.839862
0
LINE
8
Calque 1
10
91.379678
20
91.839862
11
92.223364
21
92.157094
0
LINE
8
Calque 1
10
92.223364
20
92.157094
11
92.675018
21
92.272294
0
LINE
8
Calque 1
10
92.675018
20
92.272294
11
93.257673
21
92.157978
0
LINE
8
Calque 1
10
93.257673
20
92.157978
11
95.617149
21
90.957650
0
LINE
8
Calque 1
10
95.617149
20
90.957650
11
97.908507
21
89.542705
0
LINE
8
Calque 1
10
97.908507
20
89.542705
11
98.253880
21
89.088857
0
LINE
8
Calque 1
10
98.253880
20
89.088857
11
98.328122
21
88.573304
0
LINE
8
Calque 1
10
98.328122
20
88.573304
11
97.205396
21
78.014289
0
LINE
8
Calque 1
10
97.205396
20
78.014289
11
96.076508
21
68.184348
0
LINE
8
Calque 1
10
96.076508
20
68.184348
11
96.104724
21
68.050183
0
LINE
8
Calque 1
10
96.104724
20
68.050183
11
96.194653
21
68.208047
0
LINE
8
Calque 1
10
96.194653
20
68.208047
11
96.591338
21
69.515080
0
LINE
8
Calque 1
10
96.591338
20
69.515080
11
98.473824
21
76.900849
0
LINE
8
Calque 1
10
98.473824
20
76.900849
11
98.473824
21
76.900849
0
LINE
8
Calque 1
10
119.586880
20
76.872957
11
119.052568
21
77.247170
0
LINE
8
Calque 1
10
119.052568
20
77.247170
11
118.661295
21
77.689910
0
LINE
8
Calque 1
10
118.661295
20
77.689910
11
118.408047
21
78.292582
0
LINE
8
Calque 1
10
118.408047
20
78.292582
11
118.287812
21
79.146593
0
LINE
8
Calque 1
10
118.287812
20
79.146593
11
118.426329
21
81.974255
0
LINE
8
Calque 1
10
118.426329
20
81.974255
11
119.036742
21
86.904140
0
LINE
8
Calque 1
10
119.036742
20
86.904140
11
119.949936
21
94.310489
0
LINE
8
Calque 1
10
119.949936
20
94.310489
11
116.939416
21
94.970565
0
LINE
8
Calque 1
10
116.939416
20
94.970565
11
114.586275
21
95.547472
0
LINE
8
Calque 1
10
114.586275
20
95.547472
11
113.059758
21
96.104096
0
LINE
8
Calque 1
10
113.059758
20
96.104096
11
112.121894
21
96.646276
0
LINE
8
Calque 1
10
112.121894
20
96.646276
11
112.287504
21
95.161948
0
LINE
8
Calque 1
10
112.287504
20
95.161948
11
113.080432
21
86.472497
0
LINE
8
Calque 1
10
113.080432
20
86.472497
11
113.574285
21
79.505114
0
LINE
8
Calque 1
10
113.574285
20
79.505114
11
113.462670
21
78.431926
0
LINE
8
Calque 1
10
113.462670
20
78.431926
11
113.093712
21
77.691206
0
LINE
8
Calque 1
10
113.093712
20
77.691206
11
112.416243
21
77.223885
0
LINE
8
Calque 1
10
112.416243
20
77.223885
11
111.379096
21
76.970891
0
LINE
8
Calque 1
10
111.379096
20
76.970891
11
110.417626
21
76.948781
0
LINE
8
Calque 1
10
110.417626
20
76.948781
11
109.686546
21
77.155623
0
LINE
8
Calque 1
10
109.686546
20
77.155623
11
109.221649
21
77.572743
0
LINE
8
Calque 1
10
109.221649
20
77.572743
11
109.058730
21
78.181467
0
LINE
8
Calque 1
10
109.058730
20
78.181467
11
108.948592
21
79.272996
0
LINE
8
Calque 1
10
108.948592
20
79.272996
11
108.658105
21
80.377308
0
LINE
8
Calque 1
10
108.658105
20
80.377308
11
108.247160
21
81.319649
0
LINE
8
Calque 1
10
108.247160
20
81.319649
11
107.775649
21
81.925269
0
LINE
8
Calque 1
10
107.775649
20
81.925269
11
107.402103
21
82.378617
0
LINE
8
Calque 1
10
107.402103
20
82.378617
11
107.115689
21
83.384643
0
LINE
8
Calque 1
10
107.115689
20
83.384643
11
106.400806
21
89.185170
0
LINE
8
Calque 1
10
106.400806
20
89.185170
11
105.532606
21
96.782067
0
LINE
8
Calque 1
10
105.532606
20
96.782067
11
105.391306
21
97.628734
0
LINE
8
Calque 1
10
105.391306
20
97.628734
11
102.620157
21
97.533351
0
LINE
8
Calque 1
10
102.620157
20
97.533351
11
100.355326
21
97.538751
0
LINE
8
Calque 1
10
100.355326
20
97.538751
11
98.752790
21
97.743996
0
LINE
8
Calque 1
10
98.752790
20
97.743996
11
97.756042
21
98.162651
0
LINE
8
Calque 1
10
97.756042
20
98.162651
11
97.308577
21
98.808276
0
LINE
8
Calque 1
10
97.308577
20
98.808276
11
97.284926
21
99.528083
0
LINE
8
Calque 1
10
97.284926
20
99.528083
11
97.534171
21
100.220491
0
LINE
8
Calque 1
10
97.534171
20
100.220491
11
99.403053
21
101.921089
0
LINE
8
Calque 1
10
99.403053
20
101.921089
11
103.136185
21
104.791310
0
LINE
8
Calque 1
10
103.136185
20
104.791310
11
107.318460
21
107.783144
0
LINE
8
Calque 1
10
107.318460
20
107.783144
11
110.534772
21
109.848578
0
LINE
8
Calque 1
10
110.534772
20
109.848578
11
112.987678
21
111.056948
0
LINE
8
Calque 1
10
112.987678
20
111.056948
11
113.828826
21
111.264549
0
LINE
8
Calque 1
10
113.828826
20
111.264549
11
114.719978
21
111.315304
0
LINE
8
Calque 1
10
114.719978
20
111.315304
11
116.202591
21
111.146371
0
LINE
8
Calque 1
10
116.202591
20
111.146371
11
117.525396
21
110.469845
0
LINE
8
Calque 1
10
117.525396
20
110.469845
11
119.153302
21
109.624386
0
LINE
8
Calque 1
10
119.153302
20
109.624386
11
122.331604
21
111.038520
0
LINE
8
Calque 1
10
122.331604
20
111.038520
11
127.028455
21
113.187311
0
LINE
8
Calque 1
10
127.028455
20
113.187311
11
128.923613
21
113.900695
0
LINE
8
Calque 1
10
128.923613
20
113.900695
11
130.303781
21
114.286697
0
LINE
8
Calque 1
10
130.303781
20
114.286697
11
131.269753
21
114.309794
0
LINE
8
Calque 1
10
131.269753
20
114.309794
11
132.051067
21
113.749832
0
LINE
8
Calque 1
10
132.051067
20
113.749832
11
132.525465
21
113.094590
0
LINE
8
Calque 1
10
132.525465
20
113.094590
11
132.605605
21
112.345585
0
LINE
8
Calque 1
10
132.605605
20
112.345585
11
132.267199
21
111.337595
0
LINE
8
Calque 1
10
132.267199
20
111.337595
11
131.485962
21
109.905401
0
LINE
8
Calque 1
10
131.485962
20
109.905401
11
129.650233
21
106.514379
0
LINE
8
Calque 1
10
129.650233
20
106.514379
11
127.939271
21
102.881525
0
LINE
8
Calque 1
10
127.939271
20
102.881525
11
126.750004
21
99.910637
0
LINE
8
Calque 1
10
126.750004
20
99.910637
11
126.475047
21
98.955866
0
LINE
8
Calque 1
10
126.475047
20
98.955866
11
126.479362
21
98.505511
0
LINE
8
Calque 1
10
126.479362
20
98.505511
11
127.998917
21
98.334289
0
LINE
8
Calque 1
10
127.998917
20
98.334289
11
129.224117
21
98.187498
0
LINE
8
Calque 1
10
129.224117
20
98.187498
11
130.130465
21
97.660600
0
LINE
8
Calque 1
10
130.130465
20
97.660600
11
130.913677
21
96.986910
0
LINE
8
Calque 1
10
130.913677
20
96.986910
11
130.247675
21
94.955421
0
LINE
8
Calque 1
10
130.247675
20
94.955421
11
129.655536
21
93.473951
0
LINE
8
Calque 1
10
129.655536
20
93.473951
11
129.167114
21
92.764848
0
LINE
8
Calque 1
10
129.167114
20
92.764848
11
126.933260
21
92.877653
0
LINE
8
Calque 1
10
126.933260
20
92.877653
11
125.606410
21
93.001753
0
LINE
8
Calque 1
10
125.606410
20
93.001753
11
124.971071
21
92.918324
0
LINE
8
Calque 1
10
124.971071
20
92.918324
11
124.576820
21
90.224459
0
LINE
8
Calque 1
10
124.576820
20
90.224459
11
124.440448
21
87.656273
0
LINE
8
Calque 1
10
124.440448
20
87.656273
11
125.910777
21
88.388996
0
LINE
8
Calque 1
10
125.910777
20
88.388996
11
129.536334
21
90.508208
0
LINE
8
Calque 1
10
129.536334
20
90.508208
11
133.266596
21
92.347787
0
LINE
8
Calque 1
10
133.266596
20
92.347787
11
137.212865
21
93.957749
0
LINE
8
Calque 1
10
137.212865
20
93.957749
11
141.486444
21
95.388110
0
LINE
8
Calque 1
10
141.486444
20
95.388110
11
144.677372
21
96.201735
0
LINE
8
Calque 1
10
144.677372
20
96.201735
11
145.855300
21
96.354407
0
LINE
8
Calque 1
10
145.855300
20
96.354407
11
146.778804
21
96.334458
0
LINE
8
Calque 1
10
146.778804
20
96.334458
11
147.465837
21
96.139493
0
LINE
8
Calque 1
10
147.465837
20
96.139493
11
147.934350
21
95.767117
0
LINE
8
Calque 1
10
147.934350
20
95.767117
11
148.202293
21
95.214934
0
LINE
8
Calque 1
10
148.202293
20
95.214934
11
148.287619
21
94.480548
0
LINE
8
Calque 1
10
148.287619
20
94.480548
11
148.151756
21
93.662430
0
LINE
8
Calque 1
10
148.151756
20
93.662430
11
147.710603
21
93.005329
0
LINE
8
Calque 1
10
147.710603
20
93.005329
11
146.913809
21
92.460353
0
LINE
8
Calque 1
10
146.913809
20
92.460353
11
145.711026
21
91.978614
0
LINE
8
Calque 1
10
145.711026
20
91.978614
11
143.558132
21
91.117215
0
LINE
8
Calque 1
10
143.558132
20
91.117215
11
140.950024
21
89.826730
0
LINE
8
Calque 1
10
140.950024
20
89.826730
11
134.986435
21
86.348528
0
LINE
8
Calque 1
10
134.986435
20
86.348528
11
129.056805
21
82.324066
0
LINE
8
Calque 1
10
129.056805
20
82.324066
11
126.491146
21
80.350755
0
LINE
8
Calque 1
10
126.491146
20
80.350755
11
124.397683
21
78.533401
0
LINE
8
Calque 1
10
124.397683
20
78.533401
11
122.325367
21
76.859322
0
LINE
8
Calque 1
10
122.325367
20
76.859322
11
121.511202
21
76.453651
0
LINE
8
Calque 1
10
121.511202
20
76.453651
11
120.823135
21
76.322012
0
LINE
8
Calque 1
10
120.823135
20
76.322012
11
119.586880
21
76.872957
0
LINE
8
Calque 1
10
119.586880
20
76.872957
11
119.586880
21
76.872957
0
LINE
8
Calque 1
10
123.689152
20
79.778178
11
125.828142
21
81.607155
0
LINE
8
Calque 1
10
125.828142
20
81.607155
11
128.456438
21
83.603264
0
LINE
8
Calque 1
10
128.456438
20
83.603264
11
134.530460
21
87.689194
0
LINE
8
Calque 1
10
134.530460
20
87.689194
11
140.610250
21
91.220593
0
LINE
8
Calque 1
10
140.610250
20
91.220593
11
143.245756
21
92.523539
0
LINE
8
Calque 1
10
143.245756
20
92.523539
11
145.394841
21
93.382088
0
LINE
8
Calque 1
10
145.394841
20
93.382088
11
146.535122
21
93.870908
0
LINE
8
Calque 1
10
146.535122
20
93.870908
11
146.794790
21
94.113994
0
LINE
8
Calque 1
10
146.794790
20
94.113994
11
146.876508
21
94.375666
0
LINE
8
Calque 1
10
146.876508
20
94.375666
11
146.755157
21
94.783527
0
LINE
8
Calque 1
10
146.755157
20
94.783527
11
146.463399
21
95.045757
0
LINE
8
Calque 1
10
146.463399
20
95.045757
11
145.735204
21
95.039532
0
LINE
8
Calque 1
10
145.735204
20
95.039532
11
144.404213
21
94.764281
0
LINE
8
Calque 1
10
144.404213
20
94.764281
11
140.527229
21
93.604877
0
LINE
8
Calque 1
10
140.527229
20
93.604877
11
136.019216
21
91.963897
0
LINE
8
Calque 1
10
136.019216
20
91.963897
11
132.066944
21
90.237692
0
LINE
8
Calque 1
10
132.066944
20
90.237692
11
128.457076
21
88.277728
0
LINE
8
Calque 1
10
128.457076
20
88.277728
11
123.497786
21
85.122505
0
LINE
8
Calque 1
10
123.497786
20
85.122505
11
122.800522
21
84.665638
0
LINE
8
Calque 1
10
122.800522
20
84.665638
11
122.998941
21
88.042743
0
LINE
8
Calque 1
10
122.998941
20
88.042743
11
123.546198
21
92.972067
0
LINE
8
Calque 1
10
123.546198
20
92.972067
11
123.826586
21
93.974583
0
LINE
8
Calque 1
10
123.826586
20
93.974583
11
124.289448
21
94.447397
0
LINE
8
Calque 1
10
124.289448
20
94.447397
11
125.248244
21
94.508157
0
LINE
8
Calque 1
10
125.248244
20
94.508157
11
127.016434
21
94.274509
0
LINE
8
Calque 1
10
127.016434
20
94.274509
11
128.464141
21
94.057333
0
LINE
8
Calque 1
10
128.464141
20
94.057333
11
128.908954
21
95.362791
0
LINE
8
Calque 1
10
128.908954
20
95.362791
11
129.177453
21
96.228665
0
LINE
8
Calque 1
10
129.177453
20
96.228665
11
129.179827
21
96.494904
0
LINE
8
Calque 1
10
129.179827
20
96.494904
11
129.055420
21
96.679884
0
LINE
8
Calque 1
10
129.055420
20
96.679884
11
128.309668
21
96.895687
0
LINE
8
Calque 1
10
128.309668
20
96.895687
11
126.707011
21
97.055312
0
LINE
8
Calque 1
10
126.707011
20
97.055312
11
124.622422
21
97.352080
0
LINE
8
Calque 1
10
124.622422
20
97.352080
11
124.640843
21
97.918983
0
LINE
8
Calque 1
10
124.640843
20
97.918983
11
125.004865
21
99.146113
0
LINE
8
Calque 1
10
125.004865
20
99.146113
11
126.473922
21
102.887912
0
LINE
8
Calque 1
10
126.473922
20
102.887912
11
128.438014
21
107.191194
0
LINE
8
Calque 1
10
128.438014
20
107.191194
11
130.305562
21
110.669681
0
LINE
8
Calque 1
10
130.305562
20
110.669681
11
131.071400
21
112.052589
0
LINE
8
Calque 1
10
131.071400
20
112.052589
11
131.199594
21
112.484117
0
LINE
8
Calque 1
10
131.199594
20
112.484117
11
131.147802
21
112.756156
0
LINE
8
Calque 1
10
131.147802
20
112.756156
11
130.908396
21
112.879050
0
LINE
8
Calque 1
10
130.908396
20
112.879050
11
130.473746
21
112.863145
0
LINE
8
Calque 1
10
130.473746
20
112.863145
11
128.988208
21
112.456320
0
LINE
8
Calque 1
10
128.988208
20
112.456320
11
126.390526
21
111.381089
0
LINE
8
Calque 1
10
126.390526
20
111.381089
11
122.788322
21
109.687502
0
LINE
8
Calque 1
10
122.788322
20
109.687502
11
119.510612
21
108.024050
0
LINE
8
Calque 1
10
119.510612
20
108.024050
11
117.886412
21
107.039222
0
LINE
8
Calque 1
10
117.886412
20
107.039222
11
117.604261
21
106.010132
0
LINE
8
Calque 1
10
117.604261
20
106.010132
11
117.460892
21
104.273811
0
LINE
8
Calque 1
10
117.460892
20
104.273811
11
117.484003
21
102.612705
0
LINE
8
Calque 1
10
117.484003
20
102.612705
11
117.701289
21
101.809255
0
LINE
8
Calque 1
10
117.701289
20
101.809255
11
118.905970
21
102.601314
0
LINE
8
Calque 1
10
118.905970
20
102.601314
11
121.357173
21
104.662183
0
LINE
8
Calque 1
10
121.357173
20
104.662183
11
124.798108
21
107.524543
0
LINE
8
Calque 1
10
124.798108
20
107.524543
11
123.428032
21
102.596164
0
LINE
8
Calque 1
10
123.428032
20
102.596164
11
121.955896
21
97.769845
0
LINE
8
Calque 1
10
121.955896
20
97.769845
11
120.065450
21
97.769845
0
LINE
8
Calque 1
10
120.065450
20
97.769845
11
115.883424
21
97.567347
0
LINE
8
Calque 1
10
115.883424
20
97.567347
11
114.484612
21
97.372576
0
LINE
8
Calque 1
10
114.484612
20
97.372576
11
114.063915
21
97.167326
0
LINE
8
Calque 1
10
114.063915
20
97.167326
11
117.795805
21
96.220030
0
LINE
8
Calque 1
10
117.795805
20
96.220030
11
121.423763
21
95.376663
0
LINE
8
Calque 1
10
121.423763
20
95.376663
11
120.516232
21
87.384637
0
LINE
8
Calque 1
10
120.516232
20
87.384637
11
119.872624
21
82.154350
0
LINE
8
Calque 1
10
119.872624
20
82.154350
11
119.729859
21
79.284935
0
LINE
8
Calque 1
10
119.729859
20
79.284935
11
119.860605
21
78.510995
0
LINE
8
Calque 1
10
119.860605
20
78.510995
11
120.133738
21
78.057800
0
LINE
8
Calque 1
10
120.133738
20
78.057800
11
120.554983
21
77.835526
0
LINE
8
Calque 1
10
120.554983
20
77.835526
11
121.130066
21
77.754349
0
LINE
8
Calque 1
10
121.130066
20
77.754349
11
122.029932
21
78.339658
0
LINE
8
Calque 1
10
122.029932
20
78.339658
11
123.689152
21
79.778178
0
LINE
8
Calque 1
10
123.689152
20
79.778178
11
123.689152
21
79.778178
0
LINE
8
Calque 1
10
111.716758
20
78.467818
11
111.916462
21
78.593656
0
LINE
8
Calque 1
10
111.916462
20
78.593656
11
112.051065
21
78.886995
0
LINE
8
Calque 1
10
112.051065
20
78.886995
11
112.102990
21
80.532190
0
LINE
8
Calque 1
10
112.102990
20
80.532190
11
111.183866
21
91.948738
0
LINE
8
Calque 1
10
111.183866
20
91.948738
11
110.211545
21
102.919856
0
LINE
8
Calque 1
10
110.211545
20
102.919856
11
110.834582
21
103.432185
0
LINE
8
Calque 1
10
110.834582
20
103.432185
11
113.755382
21
105.240482
0
LINE
8
Calque 1
10
113.755382
20
105.240482
11
115.597080
21
106.425074
0
LINE
8
Calque 1
10
115.597080
20
106.425074
11
116.108288
21
106.907847
0
LINE
8
Calque 1
10
116.108288
20
106.907847
11
116.391777
21
107.353979
0
LINE
8
Calque 1
10
116.391777
20
107.353979
11
116.747699
21
107.976166
0
LINE
8
Calque 1
10
116.747699
20
107.976166
11
117.127903
21
108.324042
0
LINE
8
Calque 1
10
117.127903
20
108.324042
11
117.445362
21
108.516992
0
LINE
8
Calque 1
10
117.445362
20
108.516992
11
117.476293
21
108.753185
0
LINE
8
Calque 1
10
117.476293
20
108.753185
11
116.654075
21
109.411512
0
LINE
8
Calque 1
10
116.654075
20
109.411512
11
115.523273
21
109.850890
0
LINE
8
Calque 1
10
115.523273
20
109.850890
11
114.305110
21
109.869355
0
LINE
8
Calque 1
10
114.305110
20
109.869355
11
112.870269
21
109.447232
0
LINE
8
Calque 1
10
112.870269
20
109.447232
11
111.089437
21
108.564845
0
LINE
8
Calque 1
10
111.089437
20
108.564845
11
108.295111
21
106.740559
0
LINE
8
Calque 1
10
108.295111
20
106.740559
11
104.292766
21
103.895550
0
LINE
8
Calque 1
10
104.292766
20
103.895550
11
100.626378
21
101.154486
0
LINE
8
Calque 1
10
100.626378
20
101.154486
11
98.839926
21
99.642034
0
LINE
8
Calque 1
10
98.839926
20
99.642034
11
98.751340
21
99.304259
0
LINE
8
Calque 1
10
98.751340
20
99.304259
11
99.066800
21
99.085703
0
LINE
8
Calque 1
10
99.066800
20
99.085703
11
101.297619
21
98.887149
0
LINE
8
Calque 1
10
101.297619
20
98.887149
11
104.328188
21
98.920966
0
LINE
8
Calque 1
10
104.328188
20
98.920966
11
105.020667
21
99.159783
0
LINE
8
Calque 1
10
105.020667
20
99.159783
11
105.650408
21
99.629376
0
LINE
8
Calque 1
10
105.650408
20
99.629376
11
106.540100
21
100.264376
0
LINE
8
Calque 1
10
106.540100
20
100.264376
11
107.486907
21
91.791495
0
LINE
8
Calque 1
10
107.486907
20
91.791495
11
108.384685
21
84.496309
0
LINE
8
Calque 1
10
108.384685
20
84.496309
11
108.716522
21
83.218790
0
LINE
8
Calque 1
10
108.716522
20
83.218790
11
109.145897
21
82.542486
0
LINE
8
Calque 1
10
109.145897
20
82.542486
11
109.771131
21
81.450833
0
LINE
8
Calque 1
10
109.771131
20
81.450833
11
110.211362
21
79.983614
0
LINE
8
Calque 1
10
110.211362
20
79.983614
11
110.449761
21
78.991728
0
LINE
8
Calque 1
10
110.449761
20
78.991728
11
110.726603
21
78.462361
0
LINE
8
Calque 1
10
110.726603
20
78.462361
11
111.122173
21
78.314671
0
LINE
8
Calque 1
10
111.122173
20
78.314671
11
111.716758
21
78.467818
0
LINE
8
Calque 1
10
111.716758
20
78.467818
11
111.716758
21
78.467818
0
LINE
8
Calque 1
10
117.172463
20
99.053050
11
120.911753
21
99.253374
0
LINE
8
Calque 1
10
120.911753
20
99.253374
11
121.476352
21
101.081339
0
LINE
8
Calque 1
10
121.476352
20
101.081339
11
122.040952
21
103.185475
0
LINE
8
Calque 1
10
122.040952
20
103.185475
11
121.522810
21
102.910663
0
LINE
8
Calque 1
10
121.522810
20
102.910663
11
120.277063
21
101.862127
0
LINE
8
Calque 1
10
120.277063
20
101.862127
11
118.648928
21
100.551900
0
LINE
8
Calque 1
10
118.648928
20
100.551900
11
118.127107
21
100.382320
0
LINE
8
Calque 1
10
118.127107
20
100.382320
11
117.570769
21
100.413680
0
LINE
8
Calque 1
10
117.570769
20
100.413680
11
116.627893
21
100.649774
0
LINE
8
Calque 1
10
116.627893
20
100.649774
11
116.092669
21
101.074321
0
LINE
8
Calque 1
10
116.092669
20
101.074321
11
115.875517
21
101.827551
0
LINE
8
Calque 1
10
115.875517
20
101.827551
11
115.886857
21
103.049695
0
LINE
8
Calque 1
10
115.886857
20
103.049695
11
115.845438
21
104.818452
0
LINE
8
Calque 1
10
115.845438
20
104.818452
11
113.715396
21
103.613885
0
LINE
8
Calque 1
10
113.715396
20
103.613885
11
111.739841
21
102.416270
0
LINE
8
Calque 1
10
111.739841
20
102.416270
11
111.838726
21
100.445834
0
LINE
8
Calque 1
10
111.838726
20
100.445834
11
112.065108
21
98.266872
0
LINE
8
Calque 1
10
112.065108
20
98.266872
11
112.337364
21
98.236272
0
LINE
8
Calque 1
10
112.337364
20
98.236272
11
112.812892
21
98.455532
0
LINE
8
Calque 1
10
112.812892
20
98.455532
11
114.234722
21
98.802133
0
LINE
8
Calque 1
10
114.234722
20
98.802133
11
117.172463
21
99.053050
0
LINE
8
Calque 1
10
117.172463
20
99.053050
11
117.172463
21
99.053050
 0 
ENDSEC
 0 
EOF
