999
"DXF R12 Output" (www.mydxf.blogspot.com)
 0 
SECTION
 2 
HEADER
 9 
$ACADVER
 1 
AC1009
 9 
$EXTMIN
 10 
 0 
 20 
 0 
 9 
$EXTMAX
 10 
 8.5 
 20 
 11 
 0 
ENDSEC
 0 
SECTION
 2 
ENTITIES
0
LINE
8
Layer 1
10
80.781545
20
16.865614
11
78.574465
21
20.181441
0
LINE
8
Layer 1
10
78.574465
20
20.181441
11
77.495595
21
21.525253
0
LINE
8
Layer 1
10
77.495595
20
21.525253
11
74.190529
21
20.936296
0
LINE
8
Layer 1
10
74.190529
20
20.936296
11
71.023829
21
20.610984
0
LINE
8
Layer 1
10
71.023829
20
20.610984
11
68.384194
21
20.573598
0
LINE
8
Layer 1
10
68.384194
20
20.573598
11
66.660324
21
20.848419
0
LINE
8
Layer 1
10
66.660324
20
20.848419
11
64.459824
21
21.447983
0
LINE
8
Layer 1
10
64.459824
20
21.447983
11
61.340513
21
22.385883
0
LINE
8
Layer 1
10
61.340513
20
22.385883
11
56.919973
21
24.145066
0
LINE
8
Layer 1
10
56.919973
20
24.145066
11
50.784328
21
26.902623
0
LINE
8
Layer 1
10
50.784328
20
26.902623
11
42.519699
21
30.835640
0
LINE
8
Layer 1
10
42.519699
20
30.835640
11
39.556365
21
31.895268
0
LINE
8
Layer 1
10
39.556365
20
31.895268
11
37.253822
21
32.486473
0
LINE
8
Layer 1
10
37.253822
20
32.486473
11
35.419377
21
32.729246
0
LINE
8
Layer 1
10
35.419377
20
32.729246
11
31.606929
21
32.210689
0
LINE
8
Layer 1
10
31.606929
20
32.210689
11
27.740226
21
31.453413
0
LINE
8
Layer 1
10
27.740226
20
31.453413
11
27.206459
21
31.443621
0
LINE
8
Layer 1
10
27.206459
20
31.443621
11
26.894483
21
31.810904
0
LINE
8
Layer 1
10
26.894483
20
31.810904
11
26.809897
21
32.539791
0
LINE
8
Layer 1
10
26.809897
20
32.539791
11
26.958296
21
33.614814
0
LINE
8
Layer 1
10
26.958296
20
33.614814
11
27.151304
21
35.669176
0
LINE
8
Layer 1
10
27.151304
20
35.669176
11
27.088618
21
38.414590
0
LINE
8
Layer 1
10
27.088618
20
38.414590
11
26.800956
21
41.352715
0
LINE
8
Layer 1
10
26.800956
20
41.352715
11
26.319037
21
43.985205
0
LINE
8
Layer 1
10
26.319037
20
43.985205
11
25.547729
21
46.679025
0
LINE
8
Layer 1
10
25.547729
20
46.679025
11
24.532120
21
49.254266
0
LINE
8
Layer 1
10
24.532120
20
49.254266
11
23.090008
21
52.113836
0
LINE
8
Layer 1
10
23.090008
20
52.113836
11
21.039193
21
55.660640
0
LINE
8
Layer 1
10
21.039193
20
55.660640
11
17.065991
21
62.432719
0
LINE
8
Layer 1
10
17.065991
20
62.432719
11
16.129623
21
64.266445
0
LINE
8
Layer 1
10
16.129623
20
64.266445
11
15.439627
21
65.894644
0
LINE
8
Layer 1
10
15.439627
20
65.894644
11
14.796812
21
68.065500
0
LINE
8
Layer 1
10
14.796812
20
68.065500
11
14.655834
21
70.974644
0
LINE
8
Layer 1
10
14.655834
20
70.974644
11
14.893149
21
76.657383
0
LINE
8
Layer 1
10
14.893149
20
76.657383
11
15.138694
21
79.235678
0
LINE
8
Layer 1
10
15.138694
20
79.235678
11
11.153704
21
82.277486
0
LINE
8
Layer 1
10
11.153704
20
82.277486
11
8.339304
21
84.526509
0
LINE
8
Layer 1
10
8.339304
20
84.526509
11
7.168713
21
85.662265
0
LINE
8
Layer 1
10
7.168713
20
85.662265
11
9.189252
21
88.522480
0
LINE
8
Layer 1
10
9.189252
20
88.522480
11
12.427698
21
92.455430
0
LINE
8
Layer 1
10
12.427698
20
92.455430
11
14.466558
21
94.402458
0
LINE
8
Layer 1
10
14.466558
20
94.402458
11
17.013769
21
96.477632
0
LINE
8
Layer 1
10
17.013769
20
96.477632
11
19.551532
21
98.285541
0
LINE
8
Layer 1
10
19.551532
20
98.285541
11
21.562046
21
99.430772
0
LINE
8
Layer 1
10
21.562046
20
99.430772
11
25.658272
21
101.025754
0
LINE
8
Layer 1
10
25.658272
20
101.025754
11
29.040935
21
102.015730
0
LINE
8
Layer 1
10
29.040935
20
102.015730
11
32.150940
21
102.416602
0
LINE
8
Layer 1
10
32.150940
20
102.416602
11
33.399584
21
102.433085
0
LINE
8
Layer 1
10
33.399584
20
102.433085
11
34.025349
21
102.302821
0
LINE
8
Layer 1
10
34.025349
20
102.302821
11
33.482847
21
99.268932
0
LINE
8
Layer 1
10
33.482847
20
99.268932
11
32.982539
21
96.153549
0
LINE
8
Layer 1
10
32.982539
20
96.153549
11
32.765946
21
92.460081
0
LINE
8
Layer 1
10
32.765946
20
92.460081
11
32.839278
21
88.519410
0
LINE
8
Layer 1
10
32.839278
20
88.519410
11
33.208745
21
84.662422
0
LINE
8
Layer 1
10
33.208745
20
84.662422
11
33.788793
21
81.676170
0
LINE
8
Layer 1
10
33.788793
20
81.676170
11
34.725085
21
77.839420
0
LINE
8
Layer 1
10
34.725085
20
77.839420
11
35.741013
21
74.210043
0
LINE
8
Layer 1
10
35.741013
20
74.210043
11
36.559967
21
71.845907
0
LINE
8
Layer 1
10
36.559967
20
71.845907
11
36.738366
21
71.319803
0
LINE
8
Layer 1
10
36.738366
20
71.319803
11
36.709613
21
70.949091
0
LINE
8
Layer 1
10
36.709613
20
70.949091
11
36.452809
21
70.734453
0
LINE
8
Layer 1
10
36.452809
20
70.734453
11
35.947052
21
70.676566
0
LINE
8
Layer 1
10
35.947052
20
70.676566
11
34.105079
21
71.033766
0
LINE
8
Layer 1
10
34.105079
20
71.033766
11
31.016490
21
72.026128
0
LINE
8
Layer 1
10
31.016490
20
72.026128
11
28.508489
21
72.881205
0
LINE
8
Layer 1
10
28.508489
20
72.881205
11
28.204060
21
72.660568
0
LINE
8
Layer 1
10
28.204060
20
72.660568
11
27.982702
21
71.935824
0
LINE
8
Layer 1
10
27.982702
20
71.935824
11
27.878042
21
70.889630
0
LINE
8
Layer 1
10
27.878042
20
70.889630
11
27.923704
21
69.704644
0
LINE
8
Layer 1
10
27.923704
20
69.704644
11
28.137500
21
68.500679
0
LINE
8
Layer 1
10
28.137500
20
68.500679
11
28.507314
21
67.330476
0
LINE
8
Layer 1
10
28.507314
20
67.330476
11
29.030553
21
66.197741
0
LINE
8
Layer 1
10
29.030553
20
66.197741
11
29.704622
21
65.106182
0
LINE
8
Layer 1
10
29.704622
20
65.106182
11
31.494872
21
63.061425
0
LINE
8
Layer 1
10
31.494872
20
63.061425
11
33.857305
21
61.225865
0
LINE
8
Layer 1
10
33.857305
20
61.225865
11
35.586198
21
60.269141
0
LINE
8
Layer 1
10
35.586198
20
60.269141
11
37.038421
21
60.043960
0
LINE
8
Layer 1
10
37.038421
20
60.043960
11
38.217769
21
60.157154
0
LINE
8
Layer 1
10
38.217769
20
60.157154
11
39.133518
21
60.429304
0
LINE
8
Layer 1
10
39.133518
20
60.429304
11
40.988577
21
61.944435
0
LINE
8
Layer 1
10
40.988577
20
61.944435
11
44.220909
21
64.853967
0
LINE
8
Layer 1
10
44.220909
20
64.853967
11
47.290011
21
67.740855
0
LINE
8
Layer 1
10
47.290011
20
67.740855
11
48.655379
21
69.188056
0
LINE
8
Layer 1
10
48.655379
20
69.188056
11
47.431630
21
71.187589
0
LINE
8
Layer 1
10
47.431630
20
71.187589
11
45.740459
21
73.854112
0
LINE
8
Layer 1
10
45.740459
20
73.854112
11
43.971519
21
77.021482
0
LINE
8
Layer 1
10
43.971519
20
77.021482
11
42.366359
21
80.233033
0
LINE
8
Layer 1
10
42.366359
20
80.233033
11
41.166531
21
83.032100
0
LINE
8
Layer 1
10
41.166531
20
83.032100
11
40.043557
21
85.932422
0
LINE
8
Layer 1
10
40.043557
20
85.932422
11
39.349537
21
87.895376
0
LINE
8
Layer 1
10
39.349537
20
87.895376
11
38.612074
21
90.491606
0
LINE
8
Layer 1
10
38.612074
20
90.491606
11
37.239149
21
96.692491
0
LINE
8
Layer 1
10
37.239149
20
96.692491
11
36.467381
21
102.440258
0
LINE
8
Layer 1
10
36.467381
20
102.440258
11
36.235094
21
108.312326
0
LINE
8
Layer 1
10
36.235094
20
108.312326
11
36.541293
21
114.151127
0
LINE
8
Layer 1
10
36.541293
20
114.151127
11
37.384984
21
119.799089
0
LINE
8
Layer 1
10
37.384984
20
119.799089
11
38.819298
21
126.145109
0
LINE
8
Layer 1
10
38.819298
20
126.145109
11
39.479020
21
128.342842
0
LINE
8
Layer 1
10
39.479020
20
128.342842
11
40.194879
21
130.241311
0
LINE
8
Layer 1
10
40.194879
20
130.241311
11
41.003471
21
132.407508
0
LINE
8
Layer 1
10
41.003471
20
132.407508
11
42.722114
21
136.329874
0
LINE
8
Layer 1
10
42.722114
20
136.329874
11
43.754461
21
138.764081
0
LINE
8
Layer 1
10
43.754461
20
138.764081
11
39.444622
21
135.688383
0
LINE
8
Layer 1
10
39.444622
20
135.688383
11
27.728280
21
126.886949
0
LINE
8
Layer 1
10
27.728280
20
126.886949
11
24.844115
21
124.831225
0
LINE
8
Layer 1
10
24.844115
20
124.831225
11
23.716846
21
124.173533
0
LINE
8
Layer 1
10
23.716846
20
124.173533
11
23.307632
21
124.360064
0
LINE
8
Layer 1
10
23.307632
20
124.360064
11
22.943902
21
124.808533
0
LINE
8
Layer 1
10
22.943902
20
124.808533
11
21.159241
21
127.136866
0
LINE
8
Layer 1
10
21.159241
20
127.136866
11
18.736276
21
130.100200
0
LINE
8
Layer 1
10
18.736276
20
130.100200
11
17.608657
21
131.511311
0
LINE
8
Layer 1
10
17.608657
20
131.511311
11
16.234495
21
133.182129
0
LINE
8
Layer 1
10
16.234495
20
133.182129
11
15.353157
21
134.660629
0
LINE
8
Layer 1
10
15.353157
20
134.660629
11
16.078556
21
135.583044
0
LINE
8
Layer 1
10
16.078556
20
135.583044
11
17.822601
21
137.224914
0
LINE
8
Layer 1
10
17.822601
20
137.224914
11
21.420935
21
140.419500
0
LINE
8
Layer 1
10
21.420935
20
140.419500
11
31.132693
21
149.159333
0
LINE
8
Layer 1
10
31.132693
20
149.159333
11
38.752693
21
155.891930
0
LINE
8
Layer 1
10
38.752693
20
155.891930
11
40.047601
21
156.989218
0
LINE
8
Layer 1
10
40.047601
20
156.989218
11
38.771632
21
156.801546
0
LINE
8
Layer 1
10
38.771632
20
156.801546
11
37.675584
21
156.741229
0
LINE
8
Layer 1
10
37.675584
20
156.741229
11
36.414190
21
156.842190
0
LINE
8
Layer 1
10
36.414190
20
156.842190
11
33.612075
21
157.462711
0
LINE
8
Layer 1
10
33.612075
20
157.462711
11
30.798708
21
158.532634
0
LINE
8
Layer 1
10
30.798708
20
158.532634
11
28.407512
21
159.921485
0
LINE
8
Layer 1
10
28.407512
20
159.921485
11
27.019572
21
161.073306
0
LINE
8
Layer 1
10
27.019572
20
161.073306
11
25.786860
21
162.358272
0
LINE
8
Layer 1
10
25.786860
20
162.358272
11
24.714097
21
163.767339
0
LINE
8
Layer 1
10
24.714097
20
163.767339
11
23.806006
21
165.291463
0
LINE
8
Layer 1
10
23.806006
20
165.291463
11
23.067309
21
166.921598
0
LINE
8
Layer 1
10
23.067309
20
166.921598
11
22.502727
21
168.648700
0
LINE
8
Layer 1
10
22.502727
20
168.648700
11
22.116983
21
170.463726
0
LINE
8
Layer 1
10
22.116983
20
170.463726
11
21.914798
21
172.357629
0
LINE
8
Layer 1
10
21.914798
20
172.357629
11
21.885400
21
174.395051
0
LINE
8
Layer 1
10
21.885400
20
174.395051
11
22.105646
21
176.099349
0
LINE
8
Layer 1
10
22.105646
20
176.099349
11
22.647376
21
177.790661
0
LINE
8
Layer 1
10
22.647376
20
177.790661
11
23.582430
21
179.789122
0
LINE
8
Layer 1
10
23.582430
20
179.789122
11
24.697811
21
181.676346
0
LINE
8
Layer 1
10
24.697811
20
181.676346
11
25.980162
21
183.296321
0
LINE
8
Layer 1
10
25.980162
20
183.296321
11
27.438078
21
184.653861
0
LINE
8
Layer 1
10
27.438078
20
184.653861
11
29.080158
21
185.753781
0
LINE
8
Layer 1
10
29.080158
20
185.753781
11
30.914997
21
186.600894
0
LINE
8
Layer 1
10
30.914997
20
186.600894
11
32.951191
21
187.200015
0
LINE
8
Layer 1
10
32.951191
20
187.200015
11
35.197339
21
187.555957
0
LINE
8
Layer 1
10
35.197339
20
187.555957
11
37.662036
21
187.673534
0
LINE
8
Layer 1
10
37.662036
20
187.673534
11
40.427702
21
187.373377
0
LINE
8
Layer 1
10
40.427702
20
187.373377
11
43.127407
21
186.492293
0
LINE
8
Layer 1
10
43.127407
20
186.492293
11
45.694958
21
185.059363
0
LINE
8
Layer 1
10
45.694958
20
185.059363
11
48.064158
21
183.103667
0
LINE
8
Layer 1
10
48.064158
20
183.103667
11
49.266415
21
181.821686
0
LINE
8
Layer 1
10
49.266415
20
181.821686
11
50.289979
21
180.509455
0
LINE
8
Layer 1
10
50.289979
20
180.509455
11
51.137869
21
179.159707
0
LINE
8
Layer 1
10
51.137869
20
179.159707
11
51.813107
21
177.765170
0
LINE
8
Layer 1
10
51.813107
20
177.765170
11
52.318715
21
176.318576
0
LINE
8
Layer 1
10
52.318715
20
176.318576
11
52.657715
21
174.812655
0
LINE
8
Layer 1
10
52.657715
20
174.812655
11
52.833127
21
173.240137
0
LINE
8
Layer 1
10
52.833127
20
173.240137
11
52.847974
21
171.593753
0
LINE
8
Layer 1
10
52.847974
20
171.593753
11
52.747601
21
168.967585
0
LINE
8
Layer 1
10
52.747601
20
168.967585
11
64.348597
21
180.719448
0
LINE
8
Layer 1
10
64.348597
20
180.719448
11
72.726596
21
189.061369
0
LINE
8
Layer 1
10
72.726596
20
189.061369
11
76.443002
21
192.471312
0
LINE
8
Layer 1
10
76.443002
20
192.471312
11
77.549684
21
191.801962
0
LINE
8
Layer 1
10
77.549684
20
191.801962
11
79.517559
21
190.192673
0
LINE
8
Layer 1
10
79.517559
20
190.192673
11
84.405648
21
185.888784
0
LINE
8
Layer 1
10
84.405648
20
185.888784
11
86.041207
21
184.351549
0
LINE
8
Layer 1
10
86.041207
20
184.351549
11
86.733981
21
183.499610
0
LINE
8
Layer 1
10
86.733981
20
183.499610
11
86.501758
21
182.997783
0
LINE
8
Layer 1
10
86.501758
20
182.997783
11
85.668108
21
181.849718
0
LINE
8
Layer 1
10
85.668108
20
181.849718
11
81.550042
21
176.776423
0
LINE
8
Layer 1
10
81.550042
20
176.776423
11
78.006490
21
172.440329
0
LINE
8
Layer 1
10
78.006490
20
172.440329
11
75.076154
21
168.864074
0
LINE
8
Layer 1
10
75.076154
20
168.864074
11
74.550072
21
168.155905
0
LINE
8
Layer 1
10
74.550072
20
168.155905
11
74.449027
21
167.788954
0
LINE
8
Layer 1
10
74.449027
20
167.788954
11
74.770212
21
167.768167
0
LINE
8
Layer 1
10
74.770212
20
167.768167
11
75.510819
21
168.098490
0
LINE
8
Layer 1
10
75.510819
20
168.098490
11
77.300935
21
168.927419
0
LINE
8
Layer 1
10
77.300935
20
168.927419
11
83.227601
21
170.989399
0
LINE
8
Layer 1
10
83.227601
20
170.989399
11
86.473157
21
171.847866
0
LINE
8
Layer 1
10
86.473157
20
171.847866
11
89.631737
21
172.561549
0
LINE
8
Layer 1
10
89.631737
20
172.561549
11
93.152927
21
173.090629
0
LINE
8
Layer 1
10
93.152927
20
173.090629
11
96.930844
21
173.433491
0
LINE
8
Layer 1
10
96.930844
20
173.433491
11
100.859603
21
173.588518
0
LINE
8
Layer 1
10
100.859603
20
173.588518
11
104.833320
21
173.554095
0
LINE
8
Layer 1
10
104.833320
20
173.554095
11
108.746112
21
173.328605
0
LINE
8
Layer 1
10
108.746112
20
173.328605
11
112.492093
21
172.910433
0
LINE
8
Layer 1
10
112.492093
20
172.910433
11
115.965379
21
172.297962
0
LINE
8
Layer 1
10
115.965379
20
172.297962
11
121.208278
21
170.912338
0
LINE
8
Layer 1
10
121.208278
20
170.912338
11
125.560935
21
169.453811
0
LINE
8
Layer 1
10
125.560935
20
169.453811
11
130.056012
21
167.635755
0
LINE
8
Layer 1
10
130.056012
20
167.635755
11
127.030627
21
171.552989
0
LINE
8
Layer 1
10
127.030627
20
171.552989
11
121.047888
21
178.961322
0
LINE
8
Layer 1
10
121.047888
20
178.961322
11
117.872888
21
182.825360
0
LINE
8
Layer 1
10
117.872888
20
182.825360
11
117.517601
21
183.421382
0
LINE
8
Layer 1
10
117.517601
20
183.421382
11
119.067965
21
185.014619
0
LINE
8
Layer 1
10
119.067965
20
185.014619
11
122.515923
21
188.106574
0
LINE
8
Layer 1
10
122.515923
20
188.106574
11
126.056778
21
191.120536
0
LINE
8
Layer 1
10
126.056778
20
191.120536
11
127.885833
21
192.479795
0
LINE
8
Layer 1
10
127.885833
20
192.479795
11
131.590412
21
189.104535
0
LINE
8
Layer 1
10
131.590412
20
189.104535
11
140.198529
21
180.555906
0
LINE
8
Layer 1
10
140.198529
20
180.555906
11
148.479376
21
172.294474
0
LINE
8
Layer 1
10
148.479376
20
172.294474
11
150.948820
21
169.910353
0
LINE
8
Layer 1
10
150.948820
20
169.910353
11
151.796852
21
169.187978
0
LINE
8
Layer 1
10
151.796852
20
169.187978
11
151.451711
21
171.630436
0
LINE
8
Layer 1
10
151.451711
20
171.630436
11
151.476836
21
173.528812
0
LINE
8
Layer 1
10
151.476836
20
173.528812
11
151.798029
21
175.433240
0
LINE
8
Layer 1
10
151.798029
20
175.433240
11
152.398301
21
177.312992
0
LINE
8
Layer 1
10
152.398301
20
177.312992
11
153.260659
21
179.137338
0
LINE
8
Layer 1
10
153.260659
20
179.137338
11
154.368112
21
180.875548
0
LINE
8
Layer 1
10
154.368112
20
180.875548
11
155.703672
21
182.496895
0
LINE
8
Layer 1
10
155.703672
20
182.496895
11
157.250345
21
183.970647
0
LINE
8
Layer 1
10
157.250345
20
183.970647
11
158.991142
21
185.266077
0
LINE
8
Layer 1
10
158.991142
20
185.266077
11
160.941979
21
186.428322
0
LINE
8
Layer 1
10
160.941979
20
186.428322
11
162.666920
21
187.110204
0
LINE
8
Layer 1
10
162.666920
20
187.110204
11
164.603365
21
187.431574
0
LINE
8
Layer 1
10
164.603365
20
187.431574
11
167.188713
21
187.512282
0
LINE
8
Layer 1
10
167.188713
20
187.512282
11
169.829740
21
187.421048
0
LINE
8
Layer 1
10
169.829740
20
187.421048
11
171.950123
21
187.113766
0
LINE
8
Layer 1
10
171.950123
20
187.113766
11
173.771190
21
186.541016
0
LINE
8
Layer 1
10
173.771190
20
186.541016
11
175.514268
21
185.653383
0
LINE
8
Layer 1
10
175.514268
20
185.653383
11
176.542891
21
184.936842
0
LINE
8
Layer 1
10
176.542891
20
184.936842
11
177.571549
21
184.030047
0
LINE
8
Layer 1
10
177.571549
20
184.030047
11
179.512612
21
181.802058
0
LINE
8
Layer 1
10
179.512612
20
181.802058
11
181.104739
21
179.282143
0
LINE
8
Layer 1
10
181.104739
20
179.282143
11
182.115212
21
176.783030
0
LINE
8
Layer 1
10
182.115212
20
176.783030
11
182.344216
21
175.201390
0
LINE
8
Layer 1
10
182.344216
20
175.201390
11
182.467637
21
172.985103
0
LINE
8
Layer 1
10
182.467637
20
172.985103
11
182.440475
21
171.239660
0
LINE
8
Layer 1
10
182.440475
20
171.239660
11
182.246865
21
169.772392
0
LINE
8
Layer 1
10
182.246865
20
169.772392
11
181.826074
21
168.291920
0
LINE
8
Layer 1
10
181.826074
20
168.291920
11
181.117370
21
166.506866
0
LINE
8
Layer 1
10
181.117370
20
166.506866
11
180.408190
21
164.950641
0
LINE
8
Layer 1
10
180.408190
20
164.950641
11
179.737358
21
163.793073
0
LINE
8
Layer 1
10
179.737358
20
163.793073
11
178.902637
21
162.736781
0
LINE
8
Layer 1
10
178.902637
20
162.736781
11
177.701789
21
161.484386
0
LINE
8
Layer 1
10
177.701789
20
161.484386
11
176.510435
21
160.398960
0
LINE
8
Layer 1
10
176.510435
20
160.398960
11
175.253973
21
159.457185
0
LINE
8
Layer 1
10
175.253973
20
159.457185
11
173.933178
21
158.659379
0
LINE
8
Layer 1
10
173.933178
20
158.659379
11
172.548829
21
158.005861
0
LINE
8
Layer 1
10
172.548829
20
158.005861
11
171.101703
21
157.496951
0
LINE
8
Layer 1
10
171.101703
20
157.496951
11
169.592578
21
157.132969
0
LINE
8
Layer 1
10
169.592578
20
157.132969
11
168.022229
21
156.914232
0
LINE
8
Layer 1
10
168.022229
20
156.914232
11
166.391435
21
156.841060
0
LINE
8
Layer 1
10
166.391435
20
156.841060
11
165.199134
21
156.781708
0
LINE
8
Layer 1
10
165.199134
20
156.781708
11
164.839213
21
156.639438
0
LINE
8
Layer 1
10
164.839213
20
156.639438
11
171.565988
21
150.584397
0
LINE
8
Layer 1
10
171.565988
20
150.584397
11
173.679022
21
148.726866
0
LINE
8
Layer 1
10
173.679022
20
148.726866
11
177.203966
21
145.594620
0
LINE
8
Layer 1
10
177.203966
20
145.594620
11
182.710935
21
140.684845
0
LINE
8
Layer 1
10
182.710935
20
140.684845
11
187.580353
21
136.321353
0
LINE
8
Layer 1
10
187.580353
20
136.321353
11
189.202046
21
134.580209
0
LINE
8
Layer 1
10
189.202046
20
134.580209
11
186.449933
21
131.041823
0
LINE
8
Layer 1
10
186.449933
20
131.041823
11
182.287156
21
125.938475
0
LINE
8
Layer 1
10
182.287156
20
125.938475
11
181.181471
21
124.693164
0
LINE
8
Layer 1
10
181.181471
20
124.693164
11
180.504059
21
124.174586
0
LINE
8
Layer 1
10
180.504059
20
124.174586
11
177.489043
21
126.187750
0
LINE
8
Layer 1
10
177.489043
20
126.187750
11
173.528764
21
129.195054
0
LINE
8
Layer 1
10
173.528764
20
129.195054
11
167.460986
21
133.770912
0
LINE
8
Layer 1
10
167.460986
20
133.770912
11
160.909268
21
138.808093
0
LINE
8
Layer 1
10
160.909268
20
138.808093
11
160.133157
21
139.344445
0
LINE
8
Layer 1
10
160.133157
20
139.344445
11
161.231391
21
136.963311
0
LINE
8
Layer 1
10
161.231391
20
136.963311
11
163.224736
21
132.616183
0
LINE
8
Layer 1
10
163.224736
20
132.616183
11
164.786457
21
128.331171
0
LINE
8
Layer 1
10
164.786457
20
128.331171
11
166.073392
21
123.612562
0
LINE
8
Layer 1
10
166.073392
20
123.612562
11
167.242380
21
117.964644
0
LINE
8
Layer 1
10
167.242380
20
117.964644
11
167.715630
21
113.634496
0
LINE
8
Layer 1
10
167.715630
20
113.634496
11
167.901753
21
108.110674
0
LINE
8
Layer 1
10
167.901753
20
108.110674
11
167.792040
21
102.645503
0
LINE
8
Layer 1
10
167.792040
20
102.645503
11
167.377785
21
98.491311
0
LINE
8
Layer 1
10
167.377785
20
98.491311
11
165.767044
21
90.730200
0
LINE
8
Layer 1
10
165.767044
20
90.730200
11
164.692558
21
87.309341
0
LINE
8
Layer 1
10
164.692558
20
87.309341
11
163.224223
21
83.357510
0
LINE
8
Layer 1
10
163.224223
20
83.357510
11
161.676101
21
79.670080
0
LINE
8
Layer 1
10
161.676101
20
79.670080
11
160.362254
21
77.042422
0
LINE
8
Layer 1
10
160.362254
20
77.042422
11
159.062764
21
74.784644
0
LINE
8
Layer 1
10
159.062764
20
74.784644
11
156.984734
21
71.481278
0
LINE
8
Layer 1
10
156.984734
20
71.481278
11
155.617601
21
69.199596
0
LINE
8
Layer 1
10
155.617601
20
69.199596
11
156.534824
21
68.136984
0
LINE
8
Layer 1
10
156.534824
20
68.136984
11
159.286490
21
65.645078
0
LINE
8
Layer 1
10
159.286490
20
65.645078
11
162.945299
21
62.311425
0
LINE
8
Layer 1
10
162.945299
20
62.311425
11
164.896786
21
60.682723
0
LINE
8
Layer 1
10
164.896786
20
60.682723
11
166.000533
21
60.151202
0
LINE
8
Layer 1
10
166.000533
20
60.151202
11
167.116122
21
60.109089
0
LINE
8
Layer 1
10
167.116122
20
60.109089
11
168.014947
21
60.151672
0
LINE
8
Layer 1
10
168.014947
20
60.151672
11
168.779554
21
60.330710
0
LINE
8
Layer 1
10
168.779554
20
60.330710
11
170.774182
21
61.405883
0
LINE
8
Layer 1
10
170.774182
20
61.405883
11
172.024690
21
62.285233
0
LINE
8
Layer 1
10
172.024690
20
62.285233
11
173.145451
21
63.276121
0
LINE
8
Layer 1
10
173.145451
20
63.276121
11
174.124908
21
64.360122
0
LINE
8
Layer 1
10
174.124908
20
64.360122
11
174.951506
21
65.518811
0
LINE
8
Layer 1
10
174.951506
20
65.518811
11
175.613689
21
66.733766
0
LINE
8
Layer 1
10
175.613689
20
66.733766
11
176.099902
21
67.986561
0
LINE
8
Layer 1
10
176.099902
20
67.986561
11
176.398589
21
69.258773
0
LINE
8
Layer 1
10
176.398589
20
69.258773
11
176.498194
21
70.531979
0
LINE
8
Layer 1
10
176.498194
20
70.531979
11
176.298492
21
72.526557
0
LINE
8
Layer 1
10
176.298492
20
72.526557
11
176.047488
21
72.918270
0
LINE
8
Layer 1
10
176.047488
20
72.918270
11
175.688845
21
72.926589
0
LINE
8
Layer 1
10
175.688845
20
72.926589
11
173.397601
21
72.027409
0
LINE
8
Layer 1
10
173.397601
20
72.027409
11
171.342318
21
71.311688
0
LINE
8
Layer 1
10
171.342318
20
71.311688
11
168.882046
21
70.698371
0
LINE
8
Layer 1
10
168.882046
20
70.698371
11
168.145475
21
70.628186
0
LINE
8
Layer 1
10
168.145475
20
70.628186
11
167.733525
21
70.831013
0
LINE
8
Layer 1
10
167.733525
20
70.831013
11
167.641827
21
71.312787
0
LINE
8
Layer 1
10
167.641827
20
71.312787
11
167.866015
21
72.079448
0
LINE
8
Layer 1
10
167.866015
20
72.079448
11
169.487737
21
77.284700
0
LINE
8
Layer 1
10
169.487737
20
77.284700
11
171.024324
21
83.392422
0
LINE
8
Layer 1
10
171.024324
20
83.392422
11
171.422508
21
86.578291
0
LINE
8
Layer 1
10
171.422508
20
86.578291
11
171.539081
21
91.435755
0
LINE
8
Layer 1
10
171.539081
20
91.435755
11
171.437241
21
96.397426
0
LINE
8
Layer 1
10
171.437241
20
96.397426
11
171.248489
21
97.880312
0
LINE
8
Layer 1
10
171.248489
20
97.880312
11
170.920001
21
99.306194
0
LINE
8
Layer 1
10
170.920001
20
99.306194
11
170.416258
21
101.269354
0
LINE
8
Layer 1
10
170.416258
20
101.269354
11
170.340525
21
101.842955
0
LINE
8
Layer 1
10
170.340525
20
101.842955
11
170.416863
21
102.201718
0
LINE
8
Layer 1
10
170.416863
20
102.201718
11
170.671255
21
102.388505
0
LINE
8
Layer 1
10
170.671255
20
102.388505
11
171.129687
21
102.446176
0
LINE
8
Layer 1
10
171.129687
20
102.446176
11
172.762601
21
102.345620
0
LINE
8
Layer 1
10
172.762601
20
102.345620
11
175.892246
21
101.852685
0
LINE
8
Layer 1
10
175.892246
20
101.852685
11
179.243619
21
100.873988
0
LINE
8
Layer 1
10
179.243619
20
100.873988
11
182.511843
21
99.517097
0
LINE
8
Layer 1
10
182.511843
20
99.517097
11
185.392046
21
97.889582
0
LINE
8
Layer 1
10
185.392046
20
97.889582
11
188.209066
21
95.858766
0
LINE
8
Layer 1
10
188.209066
20
95.858766
11
190.670997
21
93.696317
0
LINE
8
Layer 1
10
190.670997
20
93.696317
11
193.128636
21
91.060058
0
LINE
8
Layer 1
10
193.128636
20
91.060058
11
195.932778
21
87.607812
0
LINE
8
Layer 1
10
195.932778
20
87.607812
11
197.442399
21
85.668880
0
LINE
8
Layer 1
10
197.442399
20
85.668880
11
196.608759
21
84.953986
0
LINE
8
Layer 1
10
196.608759
20
84.953986
11
192.465373
21
81.699089
0
LINE
8
Layer 1
10
192.465373
20
81.699089
11
189.155620
21
79.159089
0
LINE
8
Layer 1
10
189.155620
20
79.159089
11
189.358287
21
77.465755
0
LINE
8
Layer 1
10
189.358287
20
77.465755
11
189.768477
21
71.904834
0
LINE
8
Layer 1
10
189.768477
20
71.904834
11
189.759776
21
69.649021
0
LINE
8
Layer 1
10
189.759776
20
69.649021
11
189.598675
21
68.126387
0
LINE
8
Layer 1
10
189.598675
20
68.126387
11
188.782538
21
65.738461
0
LINE
8
Layer 1
10
188.782538
20
65.738461
11
187.284293
21
62.544001
0
LINE
8
Layer 1
10
187.284293
20
62.544001
11
185.245130
21
58.819174
0
LINE
8
Layer 1
10
185.245130
20
58.819174
11
182.806236
21
54.840149
0
LINE
8
Layer 1
10
182.806236
20
54.840149
11
181.864268
21
53.190383
0
LINE
8
Layer 1
10
181.864268
20
53.190383
11
181.266990
21
52.160757
0
LINE
8
Layer 1
10
181.266990
20
52.160757
11
180.540624
21
50.868815
0
LINE
8
Layer 1
10
180.540624
20
50.868815
11
179.707517
21
48.977147
0
LINE
8
Layer 1
10
179.707517
20
48.977147
11
178.248623
21
44.698818
0
LINE
8
Layer 1
10
178.248623
20
44.698818
11
177.686491
21
42.046946
0
LINE
8
Layer 1
10
177.686491
20
42.046946
11
177.330213
21
39.209139
0
LINE
8
Layer 1
10
177.330213
20
39.209139
11
177.206411
21
36.493388
0
LINE
8
Layer 1
10
177.206411
20
36.493388
11
177.341711
21
34.207684
0
LINE
8
Layer 1
10
177.341711
20
34.207684
11
177.487606
21
32.660430
0
LINE
8
Layer 1
10
177.487606
20
32.660430
11
177.354938
21
31.780343
0
LINE
8
Layer 1
10
177.354938
20
31.780343
11
177.166869
21
31.555774
0
LINE
8
Layer 1
10
177.166869
20
31.555774
11
176.888431
21
31.456340
0
LINE
8
Layer 1
10
176.888431
20
31.456340
11
176.032809
21
31.577339
0
LINE
8
Layer 1
10
176.032809
20
31.577339
11
172.022042
21
32.329696
0
LINE
8
Layer 1
10
172.022042
20
32.329696
11
169.000616
21
32.689656
0
LINE
8
Layer 1
10
169.000616
20
32.689656
11
167.929897
21
32.599898
0
LINE
8
Layer 1
10
167.929897
20
32.599898
11
166.556365
21
32.330390
0
LINE
8
Layer 1
10
166.556365
20
32.330390
11
163.925214
21
31.530277
0
LINE
8
Layer 1
10
163.925214
20
31.530277
11
160.838713
21
30.275516
0
LINE
8
Layer 1
10
160.838713
20
30.275516
11
155.899824
21
28.009334
0
LINE
8
Layer 1
10
155.899824
20
28.009334
11
147.999233
21
24.344102
0
LINE
8
Layer 1
10
147.999233
20
24.344102
11
145.019569
21
23.041648
0
LINE
8
Layer 1
10
145.019569
20
23.041648
11
142.253177
21
22.026509
0
LINE
8
Layer 1
10
142.253177
20
22.026509
11
139.640404
21
21.290756
0
LINE
8
Layer 1
10
139.640404
20
21.290756
11
137.121601
21
20.826459
0
LINE
8
Layer 1
10
137.121601
20
20.826459
11
134.637115
21
20.625690
0
LINE
8
Layer 1
10
134.637115
20
20.625690
11
132.127295
21
20.680519
0
LINE
8
Layer 1
10
132.127295
20
20.680519
11
129.532490
21
20.983016
0
LINE
8
Layer 1
10
129.532490
20
20.983016
11
126.793049
21
21.525253
0
LINE
8
Layer 1
10
126.793049
20
21.525253
11
126.259507
21
21.013327
0
LINE
8
Layer 1
10
126.259507
20
21.013327
11
125.341544
21
19.697567
0
LINE
8
Layer 1
10
125.341544
20
19.697567
11
121.279714
21
13.401298
0
LINE
8
Layer 1
10
121.279714
20
13.401298
11
120.471103
21
12.371110
0
LINE
8
Layer 1
10
120.471103
20
12.371110
11
120.041997
21
12.131311
0
LINE
8
Layer 1
10
120.041997
20
12.131311
11
119.210304
21
12.491757
0
LINE
8
Layer 1
10
119.210304
20
12.491757
11
117.812758
21
13.419807
0
LINE
8
Layer 1
10
117.812758
20
13.419807
11
114.595501
21
16.058983
0
LINE
8
Layer 1
10
114.595501
20
16.058983
11
113.085892
21
17.610140
0
LINE
8
Layer 1
10
113.085892
20
17.610140
11
111.601731
21
19.373945
0
LINE
8
Layer 1
10
111.601731
20
19.373945
11
108.842799
21
23.324510
0
LINE
8
Layer 1
10
108.842799
20
23.324510
11
106.584796
21
27.480703
0
LINE
8
Layer 1
10
106.584796
20
27.480703
11
105.726798
21
29.501543
0
LINE
8
Layer 1
10
105.726798
20
29.501543
11
105.093818
21
31.412550
0
LINE
8
Layer 1
10
105.093818
20
31.412550
11
104.720368
21
33.339595
0
LINE
8
Layer 1
10
104.720368
20
33.339595
11
104.542084
21
35.413919
0
LINE
8
Layer 1
10
104.542084
20
35.413919
11
104.578998
21
37.102359
0
LINE
8
Layer 1
10
104.578998
20
37.102359
11
104.684414
21
37.635258
0
LINE
8
Layer 1
10
104.684414
20
37.635258
11
104.851141
21
37.871750
0
LINE
8
Layer 1
10
104.851141
20
37.871750
11
106.756141
21
37.777973
0
LINE
8
Layer 1
10
106.756141
20
37.777973
11
114.777057
21
37.555125
0
LINE
8
Layer 1
10
114.777057
20
37.555125
11
120.855008
21
37.656240
0
LINE
8
Layer 1
10
120.855008
20
37.656240
11
125.666339
21
38.036743
0
LINE
8
Layer 1
10
125.666339
20
38.036743
11
129.532296
21
38.736631
0
LINE
8
Layer 1
10
129.532296
20
38.736631
11
132.774126
21
39.795902
0
LINE
8
Layer 1
10
132.774126
20
39.795902
11
135.054196
21
40.635755
0
LINE
8
Layer 1
10
135.054196
20
40.635755
11
135.292507
21
40.386794
0
LINE
8
Layer 1
10
135.292507
20
40.386794
11
135.252018
21
39.742332
0
LINE
8
Layer 1
10
135.252018
20
39.742332
11
134.965543
21
38.856000
0
LINE
8
Layer 1
10
134.965543
20
38.856000
11
134.465895
21
37.881430
0
LINE
8
Layer 1
10
134.465895
20
37.881430
11
132.746104
21
34.631938
0
LINE
8
Layer 1
10
132.746104
20
34.631938
11
131.602254
21
32.576070
0
LINE
8
Layer 1
10
131.602254
20
32.576070
11
131.346490
21
31.972510
0
LINE
8
Layer 1
10
131.346490
20
31.972510
11
131.429086
21
31.746642
0
LINE
8
Layer 1
10
131.429086
20
31.746642
11
131.767330
21
31.639057
0
LINE
8
Layer 1
10
131.767330
20
31.639057
11
133.753490
21
31.722325
0
LINE
8
Layer 1
10
133.753490
20
31.722325
11
136.080918
21
32.037276
0
LINE
8
Layer 1
10
136.080918
20
32.037276
11
138.141461
21
32.620828
0
LINE
8
Layer 1
10
138.141461
20
32.620828
11
140.130997
21
33.545948
0
LINE
8
Layer 1
10
140.130997
20
33.545948
11
142.245405
21
34.885602
0
LINE
8
Layer 1
10
142.245405
20
34.885602
11
143.655531
21
36.004417
0
LINE
8
Layer 1
10
143.655531
20
36.004417
11
145.054575
21
37.332198
0
LINE
8
Layer 1
10
145.054575
20
37.332198
11
146.238334
21
38.659062
0
LINE
8
Layer 1
10
146.238334
20
38.659062
11
147.002602
21
39.775124
0
LINE
8
Layer 1
10
147.002602
20
39.775124
11
147.434470
21
40.909577
0
LINE
8
Layer 1
10
147.434470
20
40.909577
11
147.610826
21
42.107811
0
LINE
8
Layer 1
10
147.610826
20
42.107811
11
147.529056
21
43.303667
0
LINE
8
Layer 1
10
147.529056
20
43.303667
11
147.186546
21
44.430984
0
LINE
8
Layer 1
10
147.186546
20
44.430984
11
146.033274
21
46.140865
0
LINE
8
Layer 1
10
146.033274
20
46.140865
11
143.885131
21
48.888156
0
LINE
8
Layer 1
10
143.885131
20
48.888156
11
141.594183
21
51.620973
0
LINE
8
Layer 1
10
141.594183
20
51.620973
11
140.012496
21
53.287430
0
LINE
8
Layer 1
10
140.012496
20
53.287430
11
139.678805
21
53.380804
0
LINE
8
Layer 1
10
139.678805
20
53.380804
11
139.084377
21
53.200655
0
LINE
8
Layer 1
10
139.084377
20
53.200655
11
136.531914
21
51.765581
0
LINE
8
Layer 1
10
136.531914
20
51.765581
11
132.307184
21
49.388954
0
LINE
8
Layer 1
10
132.307184
20
49.388954
11
127.383898
21
47.042019
0
LINE
8
Layer 1
10
127.383898
20
47.042019
11
122.089694
21
45.184799
0
LINE
8
Layer 1
10
122.089694
20
45.184799
11
116.388713
21
43.632955
0
LINE
8
Layer 1
10
116.388713
20
43.632955
11
110.934259
21
42.679346
0
LINE
8
Layer 1
10
110.934259
20
42.679346
11
106.061786
21
42.160546
0
LINE
8
Layer 1
10
106.061786
20
42.160546
11
101.378610
21
42.050723
0
LINE
8
Layer 1
10
101.378610
20
42.050723
11
96.492046
21
42.324045
0
LINE
8
Layer 1
10
96.492046
20
42.324045
11
92.820160
21
42.734605
0
LINE
8
Layer 1
10
92.820160
20
42.734605
11
87.956610
21
43.599123
0
LINE
8
Layer 1
10
87.956610
20
43.599123
11
85.467917
21
44.204834
0
LINE
8
Layer 1
10
85.467917
20
44.204834
11
82.266049
21
45.152918
0
LINE
8
Layer 1
10
82.266049
20
45.152918
11
79.104432
21
46.206392
0
LINE
8
Layer 1
10
79.104432
20
46.206392
11
76.736490
21
47.128275
0
LINE
8
Layer 1
10
76.736490
20
47.128275
11
71.771053
21
49.496533
0
LINE
8
Layer 1
10
71.771053
20
49.496533
11
67.710194
21
51.784301
0
LINE
8
Layer 1
10
67.710194
20
51.784301
11
64.610564
21
53.666652
0
LINE
8
Layer 1
10
64.610564
20
53.666652
11
63.476861
21
52.319874
0
LINE
8
Layer 1
10
63.476861
20
52.319874
11
59.995881
21
48.290023
0
LINE
8
Layer 1
10
59.995881
20
48.290023
11
58.399489
21
46.372498
0
LINE
8
Layer 1
10
58.399489
20
46.372498
11
57.437178
21
44.923359
0
LINE
8
Layer 1
10
57.437178
20
44.923359
11
56.965205
21
43.671954
0
LINE
8
Layer 1
10
56.965205
20
43.671954
11
56.839824
21
42.347634
0
LINE
8
Layer 1
10
56.839824
20
42.347634
11
57.010270
21
40.983978
0
LINE
8
Layer 1
10
57.010270
20
40.983978
11
57.551959
21
39.643219
0
LINE
8
Layer 1
10
57.551959
20
39.643219
11
58.510416
21
38.242151
0
LINE
8
Layer 1
10
58.510416
20
38.242151
11
59.931167
21
36.697564
0
LINE
8
Layer 1
10
59.931167
20
36.697564
11
61.167439
21
35.593485
0
LINE
8
Layer 1
10
61.167439
20
35.593485
11
62.513662
21
34.602654
0
LINE
8
Layer 1
10
62.513662
20
34.602654
11
65.442103
21
33.001713
0
LINE
8
Layer 1
10
65.442103
20
33.001713
11
66.977390
21
32.412090
0
LINE
8
Layer 1
10
66.977390
20
32.412090
11
68.528768
21
31.976692
0
LINE
8
Layer 1
10
68.528768
20
31.976692
11
70.072771
21
31.705762
0
LINE
8
Layer 1
10
70.072771
20
31.705762
11
71.585935
21
31.609544
0
LINE
8
Layer 1
10
71.585935
20
31.609544
11
72.552238
21
31.692642
0
LINE
8
Layer 1
10
72.552238
20
31.692642
11
72.926490
21
31.914948
0
LINE
8
Layer 1
10
72.926490
20
31.914948
11
71.612201
21
34.666614
0
LINE
8
Layer 1
10
71.612201
20
34.666614
11
69.231685
21
39.381087
0
LINE
8
Layer 1
10
69.231685
20
39.381087
11
68.939522
21
40.351790
0
LINE
8
Layer 1
10
68.939522
20
40.351790
11
68.985777
21
40.568477
0
LINE
8
Layer 1
10
68.985777
20
40.568477
11
69.147995
21
40.635755
0
LINE
8
Layer 1
10
69.147995
20
40.635755
11
71.899661
21
39.670163
0
LINE
8
Layer 1
10
71.899661
20
39.670163
11
74.807375
21
38.760007
0
LINE
8
Layer 1
10
74.807375
20
38.760007
11
78.057888
21
38.154521
0
LINE
8
Layer 1
10
78.057888
20
38.154521
11
82.122609
21
37.791278
0
LINE
8
Layer 1
10
82.122609
20
37.791278
11
87.472946
21
37.607852
0
LINE
8
Layer 1
10
87.472946
20
37.607852
11
93.189368
21
37.597510
0
LINE
8
Layer 1
10
93.189368
20
37.597510
11
96.924317
21
37.764666
0
LINE
8
Layer 1
10
96.924317
20
37.764666
11
98.820843
21
37.912647
0
LINE
8
Layer 1
10
98.820843
20
37.912647
11
99.663972
21
37.757526
0
LINE
8
Layer 1
10
99.663972
20
37.757526
11
99.950339
21
36.987383
0
LINE
8
Layer 1
10
99.950339
20
36.987383
11
100.004077
21
35.558278
0
LINE
8
Layer 1
10
100.004077
20
35.558278
11
99.836228
21
33.780458
0
LINE
8
Layer 1
10
99.836228
20
33.780458
11
99.457832
21
31.964170
0
LINE
8
Layer 1
10
99.457832
20
31.964170
11
98.370005
21
28.856140
0
LINE
8
Layer 1
10
98.370005
20
28.856140
11
96.570286
21
24.920931
0
LINE
8
Layer 1
10
96.570286
20
24.920931
11
95.410629
21
23.034965
0
LINE
8
Layer 1
10
95.410629
20
23.034965
11
93.615249
21
20.570663
0
LINE
8
Layer 1
10
93.615249
20
20.570663
11
91.635420
21
18.116017
0
LINE
8
Layer 1
10
91.635420
20
18.116017
11
89.922418
21
16.259020
0
LINE
8
Layer 1
10
89.922418
20
16.259020
11
86.528382
21
13.411613
0
LINE
8
Layer 1
10
86.528382
20
13.411613
11
85.136740
21
12.484478
0
LINE
8
Layer 1
10
85.136740
20
12.484478
11
84.290383
21
12.138392
0
LINE
8
Layer 1
10
84.290383
20
12.138392
11
83.884600
21
12.435270
0
LINE
8
Layer 1
10
83.884600
20
12.435270
11
83.165758
21
13.320451
0
LINE
8
Layer 1
10
83.165758
20
13.320451
11
80.781545
21
16.865614
0
LINE
8
Layer 1
10
80.781545
20
16.865614
11
80.781545
21
16.865614
0
LINE
8
Layer 1
10
105.860562
20
46.293433
11
112.208649
21
47.072625
0
LINE
8
Layer 1
10
112.208649
20
47.072625
11
118.168493
21
48.349314
0
LINE
8
Layer 1
10
118.168493
20
48.349314
11
123.813058
21
50.142806
0
LINE
8
Layer 1
10
123.813058
20
50.142806
11
129.215309
21
52.472404
0
LINE
8
Layer 1
10
129.215309
20
52.472404
11
132.841048
21
54.392914
0
LINE
8
Layer 1
10
132.841048
20
54.392914
11
136.284770
21
56.507367
0
LINE
8
Layer 1
10
136.284770
20
56.507367
11
139.552581
21
58.821073
0
LINE
8
Layer 1
10
139.552581
20
58.821073
11
142.650591
21
61.339345
0
LINE
8
Layer 1
10
142.650591
20
61.339345
11
145.584907
21
64.067496
0
LINE
8
Layer 1
10
145.584907
20
64.067496
11
148.361636
21
67.010837
0
LINE
8
Layer 1
10
148.361636
20
67.010837
11
150.986888
21
70.174682
0
LINE
8
Layer 1
10
150.986888
20
70.174682
11
153.466769
21
73.564341
0
LINE
8
Layer 1
10
153.466769
20
73.564341
11
155.053157
21
76.028304
0
LINE
8
Layer 1
10
155.053157
20
76.028304
11
155.983415
21
77.671941
0
LINE
8
Layer 1
10
155.983415
20
77.671941
11
157.753032
21
81.014370
0
LINE
8
Layer 1
10
157.753032
20
81.014370
11
159.574733
21
85.284386
0
LINE
8
Layer 1
10
159.574733
20
85.284386
11
161.164199
21
89.753577
0
LINE
8
Layer 1
10
161.164199
20
89.753577
11
162.237110
21
93.693533
0
LINE
8
Layer 1
10
162.237110
20
93.693533
11
163.164328
21
98.067978
0
LINE
8
Layer 1
10
163.164328
20
98.067978
11
163.551955
21
101.391569
0
LINE
8
Layer 1
10
163.551955
20
101.391569
11
163.649541
21
107.945755
0
LINE
8
Layer 1
10
163.649541
20
107.945755
11
163.539497
21
115.005743
0
LINE
8
Layer 1
10
163.539497
20
115.005743
11
163.304165
21
117.015759
0
LINE
8
Layer 1
10
163.304165
20
117.015759
11
162.863530
21
119.234644
0
LINE
8
Layer 1
10
162.863530
20
119.234644
11
161.548191
21
124.896131
0
LINE
8
Layer 1
10
161.548191
20
124.896131
11
160.227188
21
128.946173
0
LINE
8
Layer 1
10
160.227188
20
128.946173
11
158.050851
21
134.113445
0
LINE
8
Layer 1
10
158.050851
20
134.113445
11
155.419007
21
139.055848
0
LINE
8
Layer 1
10
155.419007
20
139.055848
11
152.361606
21
143.738591
0
LINE
8
Layer 1
10
152.361606
20
143.738591
11
148.908599
21
148.126882
0
LINE
8
Layer 1
10
148.908599
20
148.126882
11
145.089934
21
152.185927
0
LINE
8
Layer 1
10
145.089934
20
152.185927
11
140.935562
21
155.880936
0
LINE
8
Layer 1
10
140.935562
20
155.880936
11
136.475432
21
159.177115
0
LINE
8
Layer 1
10
136.475432
20
159.177115
11
131.739496
21
162.039673
0
LINE
8
Layer 1
10
131.739496
20
162.039673
11
126.455431
21
164.635346
0
LINE
8
Layer 1
10
126.455431
20
164.635346
11
122.456490
21
166.242447
0
LINE
8
Layer 1
10
122.456490
20
166.242447
11
119.244107
21
167.182436
0
LINE
8
Layer 1
10
119.244107
20
167.182436
11
115.999479
21
168.063785
0
LINE
8
Layer 1
10
115.999479
20
168.063785
11
112.648640
21
168.744827
0
LINE
8
Layer 1
10
112.648640
20
168.744827
11
109.201133
21
169.225084
0
LINE
8
Layer 1
10
109.201133
20
169.225084
11
105.666501
21
169.504082
0
LINE
8
Layer 1
10
105.666501
20
169.504082
11
102.054289
21
169.581345
0
LINE
8
Layer 1
10
102.054289
20
169.581345
11
98.374039
21
169.456398
0
LINE
8
Layer 1
10
98.374039
20
169.456398
11
94.635296
21
169.128763
0
LINE
8
Layer 1
10
94.635296
20
169.128763
11
90.847601
21
168.597967
0
LINE
8
Layer 1
10
90.847601
20
168.597967
11
87.927661
21
167.987712
0
LINE
8
Layer 1
10
87.927661
20
167.987712
11
84.640650
21
167.094882
0
LINE
8
Layer 1
10
84.640650
20
167.094882
11
81.317392
21
166.018051
0
LINE
8
Layer 1
10
81.317392
20
166.018051
11
78.288713
21
164.855796
0
LINE
8
Layer 1
10
78.288713
20
164.855796
11
75.386519
21
163.537678
0
LINE
8
Layer 1
10
75.386519
20
163.537678
11
72.563141
21
162.073963
0
LINE
8
Layer 1
10
72.563141
20
162.073963
11
69.823889
21
160.470186
0
LINE
8
Layer 1
10
69.823889
20
160.470186
11
67.174070
21
158.731885
0
LINE
8
Layer 1
10
67.174070
20
158.731885
11
64.618994
21
156.864596
0
LINE
8
Layer 1
10
64.618994
20
156.864596
11
62.163971
21
154.873855
0
LINE
8
Layer 1
10
62.163971
20
154.873855
11
59.814309
21
152.765199
0
LINE
8
Layer 1
10
59.814309
20
152.765199
11
57.575317
21
150.544165
0
LINE
8
Layer 1
10
57.575317
20
150.544165
11
55.452304
21
148.216288
0
LINE
8
Layer 1
10
55.452304
20
148.216288
11
53.450579
21
145.787107
0
LINE
8
Layer 1
10
53.450579
20
145.787107
11
51.575452
21
143.262156
0
LINE
8
Layer 1
10
51.575452
20
143.262156
11
49.832231
21
140.646972
0
LINE
8
Layer 1
10
49.832231
20
140.646972
11
48.226226
21
137.947093
0
LINE
8
Layer 1
10
48.226226
20
137.947093
11
46.762745
21
135.168054
0
LINE
8
Layer 1
10
46.762745
20
135.168054
11
45.447097
21
132.315392
0
LINE
8
Layer 1
10
45.447097
20
132.315392
11
44.284592
21
129.394644
0
LINE
8
Layer 1
10
44.284592
20
129.394644
11
42.926848
21
125.536828
0
LINE
8
Layer 1
10
42.926848
20
125.536828
11
42.072379
21
122.056866
0
LINE
8
Layer 1
10
42.072379
20
122.056866
11
41.231984
21
118.213347
0
LINE
8
Layer 1
10
41.231984
20
118.213347
11
40.798035
21
115.430820
0
LINE
8
Layer 1
10
40.798035
20
115.430820
11
40.636212
21
112.398261
0
LINE
8
Layer 1
10
40.636212
20
112.398261
11
40.612198
21
107.804644
0
LINE
8
Layer 1
10
40.612198
20
107.804644
11
40.663140
21
102.871254
0
LINE
8
Layer 1
10
40.663140
20
102.871254
11
40.914830
21
99.308646
0
LINE
8
Layer 1
10
40.914830
20
99.308646
11
41.515942
21
95.901815
0
LINE
8
Layer 1
10
41.515942
20
95.901815
11
42.615146
21
91.435755
0
LINE
8
Layer 1
10
42.615146
20
91.435755
11
44.186314
21
86.411251
0
LINE
8
Layer 1
10
44.186314
20
86.411251
11
46.256021
21
81.510074
0
LINE
8
Layer 1
10
46.256021
20
81.510074
11
48.798586
21
76.767794
0
LINE
8
Layer 1
10
48.798586
20
76.767794
11
51.788326
21
72.219984
0
LINE
8
Layer 1
10
51.788326
20
72.219984
11
55.199558
21
67.902215
0
LINE
8
Layer 1
10
55.199558
20
67.902215
11
59.006599
21
63.850058
0
LINE
8
Layer 1
10
59.006599
20
63.850058
11
63.183767
21
60.099083
0
LINE
8
Layer 1
10
63.183767
20
60.099083
11
67.705379
21
56.684864
0
LINE
8
Layer 1
10
67.705379
20
56.684864
11
70.444480
21
54.920908
0
LINE
8
Layer 1
10
70.444480
20
54.920908
11
74.227650
21
52.822032
0
LINE
8
Layer 1
10
74.227650
20
52.822032
11
75.748713
21
52.113852
0
LINE
8
Layer 1
10
75.748713
20
52.113852
11
78.288713
21
50.988064
0
LINE
8
Layer 1
10
78.288713
20
50.988064
11
82.299127
21
49.417722
0
LINE
8
Layer 1
10
82.299127
20
49.417722
11
86.766174
21
48.127623
0
LINE
8
Layer 1
10
86.766174
20
48.127623
11
91.651157
21
47.127245
0
LINE
8
Layer 1
10
91.651157
20
47.127245
11
96.915379
21
46.426066
0
LINE
8
Layer 1
10
96.915379
20
46.426066
11
101.581144
21
46.054796
0
LINE
8
Layer 1
10
101.581144
20
46.054796
11
105.860562
21
46.293433
0
LINE
8
Layer 1
10
105.860562
20
46.293433
11
105.860562
21
46.293433
0
LINE
8
Layer 1
10
103.484116
20
49.648161
11
102.578016
21
49.958797
0
LINE
8
Layer 1
10
102.578016
20
49.958797
11
101.807922
21
50.401859
0
LINE
8
Layer 1
10
101.807922
20
50.401859
11
101.184826
21
50.969374
0
LINE
8
Layer 1
10
101.184826
20
50.969374
11
100.719718
21
51.653369
0
LINE
8
Layer 1
10
100.719718
20
51.653369
11
100.448494
21
52.326839
0
LINE
8
Layer 1
10
100.448494
20
52.326839
11
100.487869
21
52.757624
0
LINE
8
Layer 1
10
100.487869
20
52.757624
11
100.863385
21
52.986322
0
LINE
8
Layer 1
10
100.863385
20
52.986322
11
101.600584
21
53.053533
0
LINE
8
Layer 1
10
101.600584
20
53.053533
11
102.583590
21
53.053533
0
LINE
8
Layer 1
10
102.583590
20
53.053533
11
101.442819
21
54.138723
0
LINE
8
Layer 1
10
101.442819
20
54.138723
11
100.807796
21
54.780945
0
LINE
8
Layer 1
10
100.807796
20
54.780945
11
100.466408
21
55.308784
0
LINE
8
Layer 1
10
100.466408
20
55.308784
11
100.328033
21
55.941449
0
LINE
8
Layer 1
10
100.328033
20
55.941449
11
100.302046
21
56.898151
0
LINE
8
Layer 1
10
100.302046
20
56.898151
11
100.387499
21
57.912998
0
LINE
8
Layer 1
10
100.387499
20
57.912998
11
100.639855
21
58.813199
0
LINE
8
Layer 1
10
100.639855
20
58.813199
11
101.053110
21
59.593251
0
LINE
8
Layer 1
10
101.053110
20
59.593251
11
101.621260
21
60.247653
0
LINE
8
Layer 1
10
101.621260
20
60.247653
11
102.338302
21
60.770904
0
LINE
8
Layer 1
10
102.338302
20
60.770904
11
103.198230
21
61.157501
0
LINE
8
Layer 1
10
103.198230
20
61.157501
11
104.195043
21
61.401943
0
LINE
8
Layer 1
10
104.195043
20
61.401943
11
105.322734
21
61.498728
0
LINE
8
Layer 1
10
105.322734
20
61.498728
11
106.972533
21
61.246769
0
LINE
8
Layer 1
10
106.972533
20
61.246769
11
108.371777
21
60.497113
0
LINE
8
Layer 1
10
108.371777
20
60.497113
11
109.480517
21
59.352822
0
LINE
8
Layer 1
10
109.480517
20
59.352822
11
110.258806
21
57.916959
0
LINE
8
Layer 1
10
110.258806
20
57.916959
11
110.666694
21
56.292588
0
LINE
8
Layer 1
10
110.666694
20
56.292588
11
110.664234
21
54.582772
0
LINE
8
Layer 1
10
110.664234
20
54.582772
11
110.211478
21
52.890573
0
LINE
8
Layer 1
10
110.211478
20
52.890573
11
109.268477
21
51.319055
0
LINE
8
Layer 1
10
109.268477
20
51.319055
11
108.176969
21
50.439903
0
LINE
8
Layer 1
10
108.176969
20
50.439903
11
106.675257
21
49.818161
0
LINE
8
Layer 1
10
106.675257
20
49.818161
11
105.024064
21
49.529142
0
LINE
8
Layer 1
10
105.024064
20
49.529142
11
103.484116
21
49.648161
0
LINE
8
Layer 1
10
103.484116
20
49.648161
11
103.484116
21
49.648161
0
LINE
8
Layer 1
10
106.104216
20
52.650449
11
106.434419
21
53.006284
0
LINE
8
Layer 1
10
106.434419
20
53.006284
11
105.699546
21
52.932671
0
LINE
8
Layer 1
10
105.699546
20
52.932671
11
104.500101
21
52.771311
0
LINE
8
Layer 1
10
104.500101
20
52.771311
11
104.325697
21
52.688408
0
LINE
8
Layer 1
10
104.325697
20
52.688408
11
104.253157
21
52.489089
0
LINE
8
Layer 1
10
104.253157
20
52.489089
11
104.456770
21
52.259398
0
LINE
8
Layer 1
10
104.456770
20
52.259398
11
104.950380
21
52.219946
0
LINE
8
Layer 1
10
104.950380
20
52.219946
11
105.558143
21
52.355407
0
LINE
8
Layer 1
10
105.558143
20
52.355407
11
106.104216
21
52.650449
0
LINE
8
Layer 1
10
106.104216
20
52.650449
11
106.104216
21
52.650449
0
LINE
8
Layer 1
10
106.415575
20
56.422327
11
106.583882
21
56.998690
0
LINE
8
Layer 1
10
106.583882
20
56.998690
11
106.512666
21
57.537406
0
LINE
8
Layer 1
10
106.512666
20
57.537406
11
106.211001
21
58.013770
0
LINE
8
Layer 1
10
106.211001
20
58.013770
11
105.687963
21
58.403075
0
LINE
8
Layer 1
10
105.687963
20
58.403075
11
105.113523
21
58.499611
0
LINE
8
Layer 1
10
105.113523
20
58.499611
11
104.414413
21
58.098958
0
LINE
8
Layer 1
10
104.414413
20
58.098958
11
103.982832
21
57.632185
0
LINE
8
Layer 1
10
103.982832
20
57.632185
11
103.825798
21
57.121200
0
LINE
8
Layer 1
10
103.825798
20
57.121200
11
103.942993
21
56.557365
0
LINE
8
Layer 1
10
103.942993
20
56.557365
11
104.334096
21
55.932042
0
LINE
8
Layer 1
10
104.334096
20
55.932042
11
104.799943
21
55.656650
0
LINE
8
Layer 1
10
104.799943
20
55.656650
11
105.403711
21
55.670491
0
LINE
8
Layer 1
10
105.403711
20
55.670491
11
105.993041
21
55.937679
0
LINE
8
Layer 1
10
105.993041
20
55.937679
11
106.415575
21
56.422327
0
LINE
8
Layer 1
10
106.415575
20
56.422327
11
106.415575
21
56.422327
0
LINE
8
Layer 1
10
91.059268
20
50.590303
11
89.957231
21
50.905483
0
LINE
8
Layer 1
10
89.957231
20
50.905483
11
89.577601
21
51.278401
0
LINE
8
Layer 1
10
89.577601
20
51.278401
11
90.067187
21
52.158940
0
LINE
8
Layer 1
10
90.067187
20
52.158940
11
91.252980
21
53.843882
0
LINE
8
Layer 1
10
91.252980
20
53.843882
11
94.015413
21
57.316844
0
LINE
8
Layer 1
10
94.015413
20
57.316844
11
94.685454
21
58.052380
0
LINE
8
Layer 1
10
94.685454
20
58.052380
11
93.472082
21
58.368534
0
LINE
8
Layer 1
10
93.472082
20
58.368534
11
91.556041
21
58.761890
0
LINE
8
Layer 1
10
91.556041
20
58.761890
11
91.049991
21
58.925046
0
LINE
8
Layer 1
10
91.049991
20
58.925046
11
90.796908
21
59.311278
0
LINE
8
Layer 1
10
90.796908
20
59.311278
11
90.782761
21
59.975748
0
LINE
8
Layer 1
10
90.782761
20
59.975748
11
90.993522
21
60.973620
0
LINE
8
Layer 1
10
90.993522
20
60.973620
11
91.313756
21
62.162876
0
LINE
8
Layer 1
10
91.313756
20
62.162876
11
93.479569
21
61.959682
0
LINE
8
Layer 1
10
93.479569
20
61.959682
11
97.197601
21
61.628929
0
LINE
8
Layer 1
10
97.197601
20
61.628929
11
98.490460
21
61.495774
0
LINE
8
Layer 1
10
98.490460
20
61.495774
11
99.162118
21
61.267265
0
LINE
8
Layer 1
10
99.162118
20
61.267265
11
99.415962
21
60.787825
0
LINE
8
Layer 1
10
99.415962
20
60.787825
11
99.455379
21
59.901876
0
LINE
8
Layer 1
10
99.455379
20
59.901876
11
99.357108
21
58.871164
0
LINE
8
Layer 1
10
99.357108
20
58.871164
11
99.052210
21
57.894314
0
LINE
8
Layer 1
10
99.052210
20
57.894314
11
98.525564
21
56.936133
0
LINE
8
Layer 1
10
98.525564
20
56.936133
11
97.762046
21
55.961427
0
LINE
8
Layer 1
10
97.762046
20
55.961427
11
95.531559
21
53.194644
0
LINE
8
Layer 1
10
95.531559
20
53.194644
11
93.659804
21
50.947588
0
LINE
8
Layer 1
10
93.659804
20
50.947588
11
93.075076
21
50.413220
0
LINE
8
Layer 1
10
93.075076
20
50.413220
11
92.721337
21
50.268386
0
LINE
8
Layer 1
10
92.721337
20
50.268386
11
91.059268
21
50.590303
0
LINE
8
Layer 1
10
91.059268
20
50.590303
11
91.059268
21
50.590303
0
LINE
8
Layer 1
10
115.472811
20
51.061036
11
114.593971
21
51.500012
0
LINE
8
Layer 1
10
114.593971
20
51.500012
11
113.569022
21
52.204860
0
LINE
8
Layer 1
10
113.569022
20
52.204860
11
112.976748
21
52.734811
0
LINE
8
Layer 1
10
112.976748
20
52.734811
11
112.541692
21
53.305573
0
LINE
8
Layer 1
10
112.541692
20
53.305573
11
111.841257
21
55.070352
0
LINE
8
Layer 1
10
111.841257
20
55.070352
11
111.481074
21
56.581925
0
LINE
8
Layer 1
10
111.481074
20
56.581925
11
111.407142
21
57.890876
0
LINE
8
Layer 1
10
111.407142
20
57.890876
11
111.625845
21
59.108640
0
LINE
8
Layer 1
10
111.625845
20
59.108640
11
112.143568
21
60.346655
0
LINE
8
Layer 1
10
112.143568
20
60.346655
11
112.581329
21
61.008031
0
LINE
8
Layer 1
10
112.581329
20
61.008031
11
113.156954
21
61.602369
0
LINE
8
Layer 1
10
113.156954
20
61.602369
11
114.612085
21
62.539061
0
LINE
8
Layer 1
10
114.612085
20
62.539061
11
116.289533
21
63.054979
0
LINE
8
Layer 1
10
116.289533
20
63.054979
11
117.969874
21
63.048374
0
LINE
8
Layer 1
10
117.969874
20
63.048374
11
118.816910
21
62.806324
0
LINE
8
Layer 1
10
118.816910
20
62.806324
11
119.587846
21
62.423181
0
LINE
8
Layer 1
10
119.587846
20
62.423181
11
120.886913
21
61.301854
0
LINE
8
Layer 1
10
120.886913
20
61.301854
11
121.838078
21
59.820870
0
LINE
8
Layer 1
10
121.838078
20
59.820870
11
122.412341
21
58.116706
0
LINE
8
Layer 1
10
122.412341
20
58.116706
11
122.580704
21
56.325840
0
LINE
8
Layer 1
10
122.580704
20
56.325840
11
122.314168
21
54.584747
0
LINE
8
Layer 1
10
122.314168
20
54.584747
11
121.583734
21
53.029906
0
LINE
8
Layer 1
10
121.583734
20
53.029906
11
121.035493
21
52.364979
0
LINE
8
Layer 1
10
121.035493
20
52.364979
11
120.360403
21
51.797794
0
LINE
8
Layer 1
10
120.360403
20
51.797794
11
119.285627
21
51.271722
0
LINE
8
Layer 1
10
119.285627
20
51.271722
11
117.982203
21
50.953890
0
LINE
8
Layer 1
10
117.982203
20
50.953890
11
116.645980
21
50.873820
0
LINE
8
Layer 1
10
116.645980
20
50.873820
11
115.472811
21
51.061036
0
LINE
8
Layer 1
10
115.472811
20
51.061036
11
115.472811
21
51.061036
0
LINE
8
Layer 1
10
118.412601
20
54.367275
11
118.801574
21
55.047343
0
LINE
8
Layer 1
10
118.801574
20
55.047343
11
118.906591
21
56.034823
0
LINE
8
Layer 1
10
118.906591
20
56.034823
11
118.731983
21
57.196055
0
LINE
8
Layer 1
10
118.731983
20
57.196055
11
118.282079
21
58.397380
0
LINE
8
Layer 1
10
118.282079
20
58.397380
11
117.727785
21
59.357853
0
LINE
8
Layer 1
10
117.727785
20
59.357853
11
117.202115
21
59.899483
0
LINE
8
Layer 1
10
117.202115
20
59.899483
11
116.642732
21
60.062767
0
LINE
8
Layer 1
10
116.642732
20
60.062767
11
115.987297
21
59.888205
0
LINE
8
Layer 1
10
115.987297
20
59.888205
11
115.597354
21
59.663984
0
LINE
8
Layer 1
10
115.597354
20
59.663984
11
115.377982
21
59.355656
0
LINE
8
Layer 1
10
115.377982
20
59.355656
11
115.259824
21
57.987229
0
LINE
8
Layer 1
10
115.259824
20
57.987229
11
115.335053
21
56.911358
0
LINE
8
Layer 1
10
115.335053
20
56.911358
11
115.545901
21
55.962484
0
LINE
8
Layer 1
10
115.545901
20
55.962484
11
115.870112
21
55.166162
0
LINE
8
Layer 1
10
115.870112
20
55.166162
11
116.285428
21
54.547948
0
LINE
8
Layer 1
10
116.285428
20
54.547948
11
116.769593
21
54.133397
0
LINE
8
Layer 1
10
116.769593
20
54.133397
11
117.300348
21
53.948064
0
LINE
8
Layer 1
10
117.300348
20
53.948064
11
117.855436
21
54.017505
0
LINE
8
Layer 1
10
117.855436
20
54.017505
11
118.412601
21
54.367275
0
LINE
8
Layer 1
10
118.412601
20
54.367275
11
118.412601
21
54.367275
0
LINE
8
Layer 1
10
85.153096
20
51.550875
11
84.409149
21
51.830898
0
LINE
8
Layer 1
10
84.409149
20
51.830898
11
84.217877
21
52.084108
0
LINE
8
Layer 1
10
84.217877
20
52.084108
11
84.145680
21
52.461029
0
LINE
8
Layer 1
10
84.145680
20
52.461029
11
84.354335
21
53.730744
0
LINE
8
Layer 1
10
84.354335
20
53.730744
11
85.026765
21
55.929516
0
LINE
8
Layer 1
10
85.026765
20
55.929516
11
85.935807
21
58.979654
0
LINE
8
Layer 1
10
85.935807
20
58.979654
11
85.893988
21
59.454202
0
LINE
8
Layer 1
10
85.893988
20
59.454202
11
85.587360
21
59.669245
0
LINE
8
Layer 1
10
85.587360
20
59.669245
11
85.162246
21
60.053625
0
LINE
8
Layer 1
10
85.162246
20
60.053625
11
85.184988
21
60.794355
0
LINE
8
Layer 1
10
85.184988
20
60.794355
11
85.414755
21
61.509681
0
LINE
8
Layer 1
10
85.414755
20
61.509681
11
85.725813
21
62.022696
0
LINE
8
Layer 1
10
85.725813
20
62.022696
11
86.567974
21
62.325377
0
LINE
8
Layer 1
10
86.567974
20
62.325377
11
88.022950
21
62.526174
0
LINE
8
Layer 1
10
88.022950
20
62.526174
11
89.493534
21
62.574278
0
LINE
8
Layer 1
10
89.493534
20
62.574278
11
90.382522
21
62.418880
0
LINE
8
Layer 1
10
90.382522
20
62.418880
11
90.494551
21
62.060683
0
LINE
8
Layer 1
10
90.494551
20
62.060683
11
90.331416
21
61.156414
0
LINE
8
Layer 1
10
90.331416
20
61.156414
11
88.954726
21
56.829074
0
LINE
8
Layer 1
10
88.954726
20
56.829074
11
87.805303
21
53.524150
0
LINE
8
Layer 1
10
87.805303
20
53.524150
11
87.037174
21
51.887988
0
LINE
8
Layer 1
10
87.037174
20
51.887988
11
86.679555
21
51.533890
0
LINE
8
Layer 1
10
86.679555
20
51.533890
11
86.277413
21
51.402820
0
LINE
8
Layer 1
10
86.277413
20
51.402820
11
85.153096
21
51.550875
0
LINE
8
Layer 1
10
85.153096
20
51.550875
11
85.153096
21
51.550875
0
LINE
8
Layer 1
10
70.880379
20
58.350029
11
70.248568
21
58.888719
0
LINE
8
Layer 1
10
70.248568
20
58.888719
11
69.890563
21
59.423603
0
LINE
8
Layer 1
10
69.890563
20
59.423603
11
69.831018
21
59.895248
0
LINE
8
Layer 1
10
69.831018
20
59.895248
11
70.094591
21
60.244220
0
LINE
8
Layer 1
10
70.094591
20
60.244220
11
72.375116
21
63.317592
0
LINE
8
Layer 1
10
72.375116
20
63.317592
11
74.337601
21
66.464061
0
LINE
8
Layer 1
10
74.337601
20
66.464061
11
74.134934
21
66.880436
0
LINE
8
Layer 1
10
74.134934
20
66.880436
11
73.647670
21
67.432188
0
LINE
8
Layer 1
10
73.647670
20
67.432188
11
72.961932
21
67.864396
0
LINE
8
Layer 1
10
72.961932
20
67.864396
11
72.270350
21
67.900670
0
LINE
8
Layer 1
10
72.270350
20
67.900670
11
71.601835
21
67.547741
0
LINE
8
Layer 1
10
71.601835
20
67.547741
11
70.985298
21
66.812341
0
LINE
8
Layer 1
10
70.985298
20
66.812341
11
69.659054
21
65.047978
0
LINE
8
Layer 1
10
69.659054
20
65.047978
11
68.275273
21
63.209390
0
LINE
8
Layer 1
10
68.275273
20
63.209390
11
67.602111
21
62.245989
0
LINE
8
Layer 1
10
67.602111
20
62.245989
11
67.044048
21
61.834583
0
LINE
8
Layer 1
10
67.044048
20
61.834583
11
66.377041
21
61.914558
0
LINE
8
Layer 1
10
66.377041
20
61.914558
11
65.377046
21
62.425303
0
LINE
8
Layer 1
10
65.377046
20
62.425303
11
64.330619
21
63.142609
0
LINE
8
Layer 1
10
64.330619
20
63.142609
11
63.895379
21
63.683814
0
LINE
8
Layer 1
10
63.895379
20
63.683814
11
64.650537
21
65.180562
0
LINE
8
Layer 1
10
64.650537
20
65.180562
11
65.952553
21
66.931819
0
LINE
8
Layer 1
10
65.952553
20
66.931819
11
67.635690
21
69.160356
0
LINE
8
Layer 1
10
67.635690
20
69.160356
11
68.633563
21
70.434525
0
LINE
8
Layer 1
10
68.633563
20
70.434525
11
69.527328
21
71.202887
0
LINE
8
Layer 1
10
69.527328
20
71.202887
11
70.501433
21
71.578394
0
LINE
8
Layer 1
10
70.501433
20
71.578394
11
71.740324
21
71.674002
0
LINE
8
Layer 1
10
71.740324
20
71.674002
11
72.923457
21
71.532865
0
LINE
8
Layer 1
10
72.923457
20
71.532865
11
74.088540
21
71.146107
0
LINE
8
Layer 1
10
74.088540
20
71.146107
11
75.192515
21
70.552206
0
LINE
8
Layer 1
10
75.192515
20
70.552206
11
76.192323
21
69.789638
0
LINE
8
Layer 1
10
76.192323
20
69.789638
11
77.044905
21
68.896883
0
LINE
8
Layer 1
10
77.044905
20
68.896883
11
77.707204
21
67.912419
0
LINE
8
Layer 1
10
77.707204
20
67.912419
11
78.136159
21
66.874722
0
LINE
8
Layer 1
10
78.136159
20
66.874722
11
78.288713
21
65.822271
0
LINE
8
Layer 1
10
78.288713
20
65.822271
11
78.142817
21
64.933559
0
LINE
8
Layer 1
10
78.142817
20
64.933559
11
77.643196
21
63.828828
0
LINE
8
Layer 1
10
77.643196
20
63.828828
11
75.211178
21
60.305140
0
LINE
8
Layer 1
10
75.211178
20
60.305140
11
73.813556
21
58.545782
0
LINE
8
Layer 1
10
73.813556
20
58.545782
11
72.846331
21
57.732998
0
LINE
8
Layer 1
10
72.846331
20
57.732998
11
72.420783
21
57.634921
0
LINE
8
Layer 1
10
72.420783
20
57.634921
11
71.978830
21
57.717507
0
LINE
8
Layer 1
10
71.978830
20
57.717507
11
70.880379
21
58.350029
0
LINE
8
Layer 1
10
70.880379
20
58.350029
11
70.880379
21
58.350029
0
LINE
8
Layer 1
10
134.027601
20
61.478733
11
132.726939
21
62.102215
0
LINE
8
Layer 1
10
132.726939
20
62.102215
11
131.546374
21
63.064320
0
LINE
8
Layer 1
10
131.546374
20
63.064320
11
130.527260
21
64.323290
0
LINE
8
Layer 1
10
130.527260
20
64.323290
11
129.710953
21
65.837367
0
LINE
8
Layer 1
10
129.710953
20
65.837367
11
129.422513
21
66.801212
0
LINE
8
Layer 1
10
129.422513
20
66.801212
11
129.391867
21
67.775926
0
LINE
8
Layer 1
10
129.391867
20
67.775926
11
129.626969
21
68.774490
0
LINE
8
Layer 1
10
129.626969
20
68.774490
11
130.135775
21
69.809887
0
LINE
8
Layer 1
10
130.135775
20
69.809887
11
130.926237
21
70.895100
0
LINE
8
Layer 1
10
130.926237
20
70.895100
11
132.006310
21
72.043109
0
LINE
8
Layer 1
10
132.006310
20
72.043109
11
135.067105
21
74.579449
0
LINE
8
Layer 1
10
135.067105
20
74.579449
11
135.840698
21
75.111016
0
LINE
8
Layer 1
10
135.840698
20
75.111016
11
136.353623
21
75.299854
0
LINE
8
Layer 1
10
136.353623
20
75.299854
11
136.751278
21
75.152604
0
LINE
8
Layer 1
10
136.751278
20
75.152604
11
137.179061
21
74.675907
0
LINE
8
Layer 1
10
137.179061
20
74.675907
11
140.730043
21
70.323673
0
LINE
8
Layer 1
10
140.730043
20
70.323673
11
142.855334
21
67.584974
0
LINE
8
Layer 1
10
142.855334
20
67.584974
11
143.605837
21
66.269633
0
LINE
8
Layer 1
10
143.605837
20
66.269633
11
142.775778
21
65.391094
0
LINE
8
Layer 1
10
142.775778
20
65.391094
11
141.101736
21
63.988281
0
LINE
8
Layer 1
10
141.101736
20
63.988281
11
139.253905
21
62.593553
0
LINE
8
Layer 1
10
139.253905
20
62.593553
11
137.902482
21
61.739266
0
LINE
8
Layer 1
10
137.902482
20
61.739266
11
137.000614
21
61.444264
0
LINE
8
Layer 1
10
137.000614
20
61.444264
11
135.965867
21
61.296570
0
LINE
8
Layer 1
10
135.965867
20
61.296570
11
134.930708
21
61.305091
0
LINE
8
Layer 1
10
134.930708
20
61.305091
11
134.027601
21
61.478733
0
LINE
8
Layer 1
10
134.027601
20
61.478733
11
134.027601
21
61.478733
0
LINE
8
Layer 1
10
137.715411
20
65.721800
11
138.345240
21
66.459089
0
LINE
8
Layer 1
10
138.345240
20
66.459089
11
137.929079
21
67.219163
0
LINE
8
Layer 1
10
137.929079
20
67.219163
11
136.921486
21
68.510544
0
LINE
8
Layer 1
10
136.921486
20
68.510544
11
135.828484
21
69.728697
0
LINE
8
Layer 1
10
135.828484
20
69.728697
11
135.156095
21
70.269089
0
LINE
8
Layer 1
10
135.156095
20
70.269089
11
134.663278
21
70.022583
0
LINE
8
Layer 1
10
134.663278
20
70.022583
11
134.055740
21
69.438776
0
LINE
8
Layer 1
10
134.055740
20
69.438776
11
133.539867
21
68.751234
0
LINE
8
Layer 1
10
133.539867
20
68.751234
11
133.322046
21
68.193519
0
LINE
8
Layer 1
10
133.322046
20
68.193519
11
133.460877
21
67.499633
0
LINE
8
Layer 1
10
133.460877
20
67.499633
11
133.838375
21
66.761895
0
LINE
8
Layer 1
10
133.838375
20
66.761895
11
134.396048
21
66.069741
0
LINE
8
Layer 1
10
134.396048
20
66.069741
11
135.075402
21
65.512609
0
LINE
8
Layer 1
10
135.075402
20
65.512609
11
135.760987
21
65.170555
0
LINE
8
Layer 1
10
135.760987
20
65.170555
11
136.386777
21
65.088015
0
LINE
8
Layer 1
10
136.386777
20
65.088015
11
137.016881
21
65.270071
0
LINE
8
Layer 1
10
137.016881
20
65.270071
11
137.715411
21
65.721800
0
LINE
8
Layer 1
10
137.715411
20
65.721800
11
137.715411
21
65.721800
0
LINE
8
Layer 1
10
97.197601
20
66.350134
11
93.810935
21
66.897182
0
LINE
8
Layer 1
10
93.810935
20
66.897182
11
91.697126
21
67.377604
0
LINE
8
Layer 1
10
91.697126
20
67.377604
11
89.113908
21
68.162707
0
LINE
8
Layer 1
10
89.113908
20
68.162707
11
86.434587
21
69.128302
0
LINE
8
Layer 1
10
86.434587
20
69.128302
11
84.032465
21
70.150203
0
LINE
8
Layer 1
10
84.032465
20
70.150203
11
80.270227
21
72.193087
0
LINE
8
Layer 1
10
80.270227
20
72.193087
11
76.721917
21
74.654743
0
LINE
8
Layer 1
10
76.721917
20
74.654743
11
73.426644
21
77.489639
0
LINE
8
Layer 1
10
73.426644
20
77.489639
11
70.423515
21
80.652243
0
LINE
8
Layer 1
10
70.423515
20
80.652243
11
67.751636
21
84.097022
0
LINE
8
Layer 1
10
67.751636
20
84.097022
11
65.450115
21
87.778444
0
LINE
8
Layer 1
10
65.450115
20
87.778444
11
63.558060
21
91.650977
0
LINE
8
Layer 1
10
63.558060
20
91.650977
11
62.114577
21
95.669089
0
LINE
8
Layer 1
10
62.114577
20
95.669089
11
61.205375
21
98.948484
0
LINE
8
Layer 1
10
61.205375
20
98.948484
11
60.682181
21
101.585762
0
LINE
8
Layer 1
10
60.682181
20
101.585762
11
60.442688
21
104.298592
0
LINE
8
Layer 1
10
60.442688
20
104.298592
11
60.384586
21
107.804644
0
LINE
8
Layer 1
10
60.384586
20
107.804644
11
60.450098
21
111.182936
0
LINE
8
Layer 1
10
60.450098
20
111.182936
11
60.664924
21
113.963061
0
LINE
8
Layer 1
10
60.664924
20
113.963061
11
61.052406
21
116.345089
0
LINE
8
Layer 1
10
61.052406
20
116.345089
11
61.635888
21
118.529089
0
LINE
8
Layer 1
10
61.635888
20
118.529089
11
62.357931
21
120.927978
0
LINE
8
Layer 1
10
62.357931
20
120.927978
11
63.361185
21
123.665343
0
LINE
8
Layer 1
10
63.361185
20
123.665343
11
64.827384
21
126.787653
0
LINE
8
Layer 1
10
64.827384
20
126.787653
11
66.572106
21
129.934820
0
LINE
8
Layer 1
10
66.572106
20
129.934820
11
68.410935
21
132.746758
0
LINE
8
Layer 1
10
68.410935
20
132.746758
11
69.890180
21
134.570777
0
LINE
8
Layer 1
10
69.890180
20
134.570777
11
71.868494
21
136.722159
0
LINE
8
Layer 1
10
71.868494
20
136.722159
11
73.987751
21
138.828759
0
LINE
8
Layer 1
10
73.987751
20
138.828759
11
75.889824
21
140.518430
0
LINE
8
Layer 1
10
75.889824
20
140.518430
11
78.716949
21
142.598827
0
LINE
8
Layer 1
10
78.716949
20
142.598827
11
81.780245
21
144.479558
0
LINE
8
Layer 1
10
81.780245
20
144.479558
11
84.889250
21
146.054005
0
LINE
8
Layer 1
10
84.889250
20
146.054005
11
87.853500
21
147.215550
0
LINE
8
Layer 1
10
87.853500
20
147.215550
11
90.565379
21
148.162371
0
LINE
8
Layer 1
10
90.565379
20
148.162371
11
92.005772
21
148.614471
0
LINE
8
Layer 1
10
92.005772
20
148.614471
11
94.009883
21
148.989728
0
LINE
8
Layer 1
10
94.009883
20
148.989728
11
99.093556
21
149.476675
0
LINE
8
Layer 1
10
99.093556
20
149.476675
11
104.585000
21
149.557141
0
LINE
8
Layer 1
10
104.585000
20
149.557141
11
107.098824
21
149.424296
0
LINE
8
Layer 1
10
107.098824
20
149.424296
11
109.252817
21
149.165053
0
LINE
8
Layer 1
10
109.252817
20
149.165053
11
112.073169
21
148.544114
0
LINE
8
Layer 1
10
112.073169
20
148.544114
11
115.192343
21
147.621672
0
LINE
8
Layer 1
10
115.192343
20
147.621672
11
118.262538
21
146.511924
0
LINE
8
Layer 1
10
118.262538
20
146.511924
11
120.935956
21
145.329063
0
LINE
8
Layer 1
10
120.935956
20
145.329063
11
123.506905
21
143.908790
0
LINE
8
Layer 1
10
123.506905
20
143.908790
11
126.012504
21
142.262180
0
LINE
8
Layer 1
10
126.012504
20
142.262180
11
128.430433
21
140.410314
0
LINE
8
Layer 1
10
128.430433
20
140.410314
11
130.738375
21
138.374275
0
LINE
8
Layer 1
10
130.738375
20
138.374275
11
132.914013
21
136.175141
0
LINE
8
Layer 1
10
132.914013
20
136.175141
11
134.935030
21
133.833996
0
LINE
8
Layer 1
10
134.935030
20
133.833996
11
136.779107
21
131.371921
0
LINE
8
Layer 1
10
136.779107
20
131.371921
11
138.423927
21
128.809996
0
LINE
8
Layer 1
10
138.423927
20
128.809996
11
139.872155
21
126.065307
0
LINE
8
Layer 1
10
139.872155
20
126.065307
11
141.121900
21
123.097139
0
LINE
8
Layer 1
10
141.121900
20
123.097139
11
142.161443
21
119.960350
0
LINE
8
Layer 1
10
142.161443
20
119.960350
11
142.979063
21
116.709796
0
LINE
8
Layer 1
10
142.979063
20
116.709796
11
143.563040
21
113.400332
0
LINE
8
Layer 1
10
143.563040
20
113.400332
11
143.901652
21
110.086817
0
LINE
8
Layer 1
10
143.901652
20
110.086817
11
143.983180
21
106.824106
0
LINE
8
Layer 1
10
143.983180
20
106.824106
11
143.795902
21
103.667055
0
LINE
8
Layer 1
10
143.795902
20
103.667055
11
143.119870
21
99.377327
0
LINE
8
Layer 1
10
143.119870
20
99.377327
11
142.018450
21
95.219881
0
LINE
8
Layer 1
10
142.018450
20
95.219881
11
140.505526
21
91.219259
0
LINE
8
Layer 1
10
140.505526
20
91.219259
11
138.594981
21
87.400001
0
LINE
8
Layer 1
10
138.594981
20
87.400001
11
136.300699
21
83.786650
0
LINE
8
Layer 1
10
136.300699
20
83.786650
11
133.636564
21
80.403745
0
LINE
8
Layer 1
10
133.636564
20
80.403745
11
130.616459
21
77.275830
0
LINE
8
Layer 1
10
130.616459
20
77.275830
11
127.254268
21
74.427444
0
LINE
8
Layer 1
10
127.254268
20
74.427444
11
124.515800
21
72.518571
0
LINE
8
Layer 1
10
124.515800
20
72.518571
11
121.599192
21
70.839346
0
LINE
8
Layer 1
10
121.599192
20
70.839346
11
118.531152
21
69.398548
0
LINE
8
Layer 1
10
118.531152
20
69.398548
11
115.338388
21
68.204956
0
LINE
8
Layer 1
10
115.338388
20
68.204956
11
112.047610
21
67.267349
0
LINE
8
Layer 1
10
112.047610
20
67.267349
11
108.685525
21
66.594507
0
LINE
8
Layer 1
10
108.685525
20
66.594507
11
105.278841
21
66.195208
0
LINE
8
Layer 1
10
105.278841
20
66.195208
11
101.854268
21
66.078233
0
LINE
8
Layer 1
10
101.854268
20
66.078233
11
97.197601
21
66.350134
0
LINE
8
Layer 1
10
97.197601
20
66.350134
11
97.197601
21
66.350134
0
LINE
8
Layer 1
10
109.756490
20
70.958758
11
112.651660
21
71.614663
0
LINE
8
Layer 1
10
112.651660
20
71.614663
11
114.554268
21
72.243095
0
LINE
8
Layer 1
10
114.554268
20
72.243095
11
117.376490
21
73.439268
0
LINE
8
Layer 1
10
117.376490
20
73.439268
11
119.507780
21
74.471394
0
LINE
8
Layer 1
10
119.507780
20
74.471394
11
121.893232
21
75.828816
0
LINE
8
Layer 1
10
121.893232
20
75.828816
11
124.172258
21
77.293380
0
LINE
8
Layer 1
10
124.172258
20
77.293380
11
125.984268
21
78.646932
0
LINE
8
Layer 1
10
125.984268
20
78.646932
11
128.497098
21
80.918401
0
LINE
8
Layer 1
10
128.497098
20
80.918401
11
130.740585
21
83.291070
0
LINE
8
Layer 1
10
130.740585
20
83.291070
11
132.727949
21
85.787046
0
LINE
8
Layer 1
10
132.727949
20
85.787046
11
134.472407
21
88.428433
0
LINE
8
Layer 1
10
134.472407
20
88.428433
11
135.987180
21
91.237337
0
LINE
8
Layer 1
10
135.987180
20
91.237337
11
137.285486
21
94.235862
0
LINE
8
Layer 1
10
137.285486
20
94.235862
11
138.380543
21
97.446115
0
LINE
8
Layer 1
10
138.380543
20
97.446115
11
139.285571
21
100.890200
0
LINE
8
Layer 1
10
139.285571
20
100.890200
11
139.574515
21
103.540247
0
LINE
8
Layer 1
10
139.574515
20
103.540247
11
139.670118
21
108.086866
0
LINE
8
Layer 1
10
139.670118
20
108.086866
11
139.556832
21
113.084491
0
LINE
8
Layer 1
10
139.556832
20
113.084491
11
139.358539
21
114.612012
0
LINE
8
Layer 1
10
139.358539
20
114.612012
11
139.013732
21
116.130200
0
LINE
8
Layer 1
10
139.013732
20
116.130200
11
138.120394
21
119.234644
0
LINE
8
Layer 1
10
138.120394
20
119.234644
11
137.696679
21
120.640503
0
LINE
8
Layer 1
10
137.696679
20
120.640503
11
137.096835
21
122.191265
0
LINE
8
Layer 1
10
137.096835
20
122.191265
11
135.932338
21
124.604771
0
LINE
8
Layer 1
10
135.932338
20
124.604771
11
134.581427
21
127.137293
0
LINE
8
Layer 1
10
134.581427
20
127.137293
11
133.422342
21
129.045101
0
LINE
8
Layer 1
10
133.422342
20
129.045101
11
131.654534
21
131.398686
0
LINE
8
Layer 1
10
131.654534
20
131.398686
11
129.733952
21
133.598527
0
LINE
8
Layer 1
10
129.733952
20
133.598527
11
127.668965
21
135.638025
0
LINE
8
Layer 1
10
127.668965
20
135.638025
11
125.467941
21
137.510582
0
LINE
8
Layer 1
10
125.467941
20
137.510582
11
123.139248
21
139.209600
0
LINE
8
Layer 1
10
123.139248
20
139.209600
11
120.691256
21
140.728481
0
LINE
8
Layer 1
10
120.691256
20
140.728481
11
118.132332
21
142.060626
0
LINE
8
Layer 1
10
118.132332
20
142.060626
11
115.470844
21
143.199437
0
LINE
8
Layer 1
10
115.470844
20
143.199437
11
112.741328
21
144.109958
0
LINE
8
Layer 1
10
112.741328
20
144.109958
11
109.885097
21
144.803392
0
LINE
8
Layer 1
10
109.885097
20
144.803392
11
106.938417
21
145.278017
0
LINE
8
Layer 1
10
106.938417
20
145.278017
11
103.937554
21
145.532110
0
LINE
8
Layer 1
10
103.937554
20
145.532110
11
100.918775
21
145.563948
0
LINE
8
Layer 1
10
100.918775
20
145.563948
11
97.918345
21
145.371809
0
LINE
8
Layer 1
10
97.918345
20
145.371809
11
94.972532
21
144.953970
0
LINE
8
Layer 1
10
94.972532
20
144.953970
11
92.117601
21
144.308709
0
LINE
8
Layer 1
10
92.117601
20
144.308709
11
89.362838
21
143.380219
0
LINE
8
Layer 1
10
89.362838
20
143.380219
11
86.287911
21
142.047930
0
LINE
8
Layer 1
10
86.287911
20
142.047930
11
83.219630
21
140.466831
0
LINE
8
Layer 1
10
83.219630
20
140.466831
11
80.484808
21
138.791910
0
LINE
8
Layer 1
10
80.484808
20
138.791910
11
78.064315
21
136.963688
0
LINE
8
Layer 1
10
78.064315
20
136.963688
11
75.754656
21
134.857612
0
LINE
8
Layer 1
10
75.754656
20
134.857612
11
73.589088
21
132.519506
0
LINE
8
Layer 1
10
73.589088
20
132.519506
11
71.600866
21
129.995197
0
LINE
8
Layer 1
10
71.600866
20
129.995197
11
69.823249
21
127.330508
0
LINE
8
Layer 1
10
69.823249
20
127.330508
11
68.289493
21
124.571266
0
LINE
8
Layer 1
10
68.289493
20
124.571266
11
67.032855
21
121.763296
0
LINE
8
Layer 1
10
67.032855
20
121.763296
11
66.086592
21
118.952422
0
LINE
8
Layer 1
10
66.086592
20
118.952422
11
64.989608
21
115.001311
0
LINE
8
Layer 1
10
64.989608
20
115.001311
11
64.693988
21
112.576695
0
LINE
8
Layer 1
10
64.693988
20
112.576695
11
64.600935
21
107.945755
0
LINE
8
Layer 1
10
64.600935
20
107.945755
11
64.659850
21
104.245108
0
LINE
8
Layer 1
10
64.659850
20
104.245108
11
64.903785
21
101.455197
0
LINE
8
Layer 1
10
64.903785
20
101.455197
11
65.433529
21
98.876676
0
LINE
8
Layer 1
10
65.433529
20
98.876676
11
66.349869
21
95.810200
0
LINE
8
Layer 1
10
66.349869
20
95.810200
11
67.392772
21
93.075841
0
LINE
8
Layer 1
10
67.392772
20
93.075841
11
68.743962
21
90.337807
0
LINE
8
Layer 1
10
68.743962
20
90.337807
11
70.366406
21
87.644048
0
LINE
8
Layer 1
10
70.366406
20
87.644048
11
72.223067
21
85.042512
0
LINE
8
Layer 1
10
72.223067
20
85.042512
11
74.276912
21
82.581147
0
LINE
8
Layer 1
10
74.276912
20
82.581147
11
76.490906
21
80.307902
0
LINE
8
Layer 1
10
76.490906
20
80.307902
11
78.828015
21
78.270724
0
LINE
8
Layer 1
10
78.828015
20
78.270724
11
81.251202
21
76.517562
0
LINE
8
Layer 1
10
81.251202
20
76.517562
11
84.887544
21
74.364701
0
LINE
8
Layer 1
10
84.887544
20
74.364701
11
88.432150
21
72.728561
0
LINE
8
Layer 1
10
88.432150
20
72.728561
11
92.090660
21
71.528162
0
LINE
8
Layer 1
10
92.090660
20
71.528162
11
96.068713
21
70.682525
0
LINE
8
Layer 1
10
96.068713
20
70.682525
11
99.047596
21
70.425225
0
LINE
8
Layer 1
10
99.047596
20
70.425225
11
102.871115
21
70.396582
0
LINE
8
Layer 1
10
102.871115
20
70.396582
11
106.715377
21
70.579969
0
LINE
8
Layer 1
10
106.715377
20
70.579969
11
109.756490
21
70.958758
0
LINE
8
Layer 1
10
109.756490
20
70.958758
11
109.756490
21
70.958758
0
LINE
8
Layer 1
10
101.428333
20
73.585200
11
101.045661
21
74.176049
0
LINE
8
Layer 1
10
101.045661
20
74.176049
11
100.123917
21
75.193514
0
LINE
8
Layer 1
10
100.123917
20
75.193514
11
97.981860
21
77.145921
0
LINE
8
Layer 1
10
97.981860
20
77.145921
11
95.018527
21
78.743508
0
LINE
8
Layer 1
10
95.018527
20
78.743508
11
92.615320
21
79.864249
0
LINE
8
Layer 1
10
92.615320
20
79.864249
11
91.799825
21
80.146866
0
LINE
8
Layer 1
10
91.799825
20
80.146866
11
90.445152
21
80.669810
0
LINE
8
Layer 1
10
90.445152
20
80.669810
11
87.991139
21
81.918260
0
LINE
8
Layer 1
10
87.991139
20
81.918260
11
85.333691
21
83.411645
0
LINE
8
Layer 1
10
85.333691
20
83.411645
11
83.368713
21
84.669393
0
LINE
8
Layer 1
10
83.368713
20
84.669393
11
81.714334
21
86.004274
0
LINE
8
Layer 1
10
81.714334
20
86.004274
11
80.278837
21
87.402207
0
LINE
8
Layer 1
10
80.278837
20
87.402207
11
79.045297
21
88.892829
0
LINE
8
Layer 1
10
79.045297
20
88.892829
11
77.996791
21
90.505776
0
LINE
8
Layer 1
10
77.996791
20
90.505776
11
77.116397
21
92.270683
0
LINE
8
Layer 1
10
77.116397
20
92.270683
11
76.387190
21
94.217188
0
LINE
8
Layer 1
10
76.387190
20
94.217188
11
75.792246
21
96.374926
0
LINE
8
Layer 1
10
75.792246
20
96.374926
11
75.314643
21
98.773533
0
LINE
8
Layer 1
10
75.314643
20
98.773533
11
74.978787
21
101.432030
0
LINE
8
Layer 1
10
74.978787
20
101.432030
11
74.956965
21
103.993965
0
LINE
8
Layer 1
10
74.956965
20
103.993965
11
75.277157
21
106.979573
0
LINE
8
Layer 1
10
75.277157
20
106.979573
11
75.967344
21
110.909089
0
LINE
8
Layer 1
10
75.967344
20
110.909089
11
76.306613
21
113.677071
0
LINE
8
Layer 1
10
76.306613
20
113.677071
11
76.418838
21
117.117978
0
LINE
8
Layer 1
10
76.418838
20
117.117978
11
76.311033
21
119.940359
0
LINE
8
Layer 1
10
76.311033
20
119.940359
11
75.979226
21
122.437118
0
LINE
8
Layer 1
10
75.979226
20
122.437118
11
75.381182
21
124.830362
0
LINE
8
Layer 1
10
75.381182
20
124.830362
11
74.474665
21
127.342200
0
LINE
8
Layer 1
10
74.474665
20
127.342200
11
74.031523
21
128.615446
0
LINE
8
Layer 1
10
74.031523
20
128.615446
11
73.936245
21
129.289093
0
LINE
8
Layer 1
10
73.936245
20
129.289093
11
82.067668
21
129.464181
0
LINE
8
Layer 1
10
82.067668
20
129.464181
11
101.738670
21
129.535755
0
LINE
8
Layer 1
10
101.738670
20
129.535755
11
124.174257
21
129.463860
0
LINE
8
Layer 1
10
124.174257
20
129.463860
11
128.358934
21
129.348216
0
LINE
8
Layer 1
10
128.358934
20
129.348216
11
129.534172
21
129.156531
0
LINE
8
Layer 1
10
129.534172
20
129.156531
11
129.459684
21
128.440509
0
LINE
8
Layer 1
10
129.459684
20
128.440509
11
129.076247
21
127.251531
0
LINE
8
Layer 1
10
129.076247
20
127.251531
11
128.501867
21
125.560160
0
LINE
8
Layer 1
10
128.501867
20
125.560160
11
128.056655
21
123.713065
0
LINE
8
Layer 1
10
128.056655
20
123.713065
11
127.552158
21
119.522881
0
LINE
8
Layer 1
10
127.552158
20
119.522881
11
127.559603
21
114.623329
0
LINE
8
Layer 1
10
127.559603
20
114.623329
11
128.075837
21
108.956763
0
LINE
8
Layer 1
10
128.075837
20
108.956763
11
128.558425
21
104.868738
0
LINE
8
Layer 1
10
128.558425
20
104.868738
11
128.760192
21
102.057561
0
LINE
8
Layer 1
10
128.760192
20
102.057561
11
128.701504
21
99.802058
0
LINE
8
Layer 1
10
128.701504
20
99.802058
11
128.402726
21
97.381057
0
LINE
8
Layer 1
10
128.402726
20
97.381057
11
127.849883
21
94.874904
0
LINE
8
Layer 1
10
127.849883
20
94.874904
11
126.961464
21
92.650438
0
LINE
8
Layer 1
10
126.961464
20
92.650438
11
125.684641
21
90.603440
0
LINE
8
Layer 1
10
125.684641
20
90.603440
11
123.966585
21
88.629693
0
LINE
8
Layer 1
10
123.966585
20
88.629693
11
121.614286
21
86.445910
0
LINE
8
Layer 1
10
121.614286
20
86.445910
11
119.117338
21
84.551062
0
LINE
8
Layer 1
10
119.117338
20
84.551062
11
116.199145
21
82.756710
0
LINE
8
Layer 1
10
116.199145
20
82.756710
11
112.583110
21
80.874416
0
LINE
8
Layer 1
10
112.583110
20
80.874416
11
109.236731
21
79.160892
0
LINE
8
Layer 1
10
109.236731
20
79.160892
11
106.820099
21
77.717762
0
LINE
8
Layer 1
10
106.820099
20
77.717762
11
105.002985
21
76.323729
0
LINE
8
Layer 1
10
105.002985
20
76.323729
11
103.455160
21
74.757497
0
LINE
8
Layer 1
10
103.455160
20
74.757497
11
102.037412
21
73.485799
0
LINE
8
Layer 1
10
102.037412
20
73.485799
11
101.595468
21
73.343104
0
LINE
8
Layer 1
10
101.595468
20
73.343104
11
101.428333
21
73.585200
0
LINE
8
Layer 1
10
101.428333
20
73.585200
11
101.428333
21
73.585200
0
LINE
8
Layer 1
10
102.932597
20
77.271872
11
103.693197
21
78.065765
0
LINE
8
Layer 1
10
103.693197
20
78.065765
11
103.620398
21
94.981316
0
LINE
8
Layer 1
10
103.620398
20
94.981316
11
103.547601
21
111.896866
0
LINE
8
Layer 1
10
103.547601
20
111.896866
11
102.136490
21
111.896866
0
LINE
8
Layer 1
10
102.136490
20
111.896866
11
100.725379
21
111.896866
0
LINE
8
Layer 1
10
100.725379
20
111.896866
11
100.652600
21
95.025670
0
LINE
8
Layer 1
10
100.652600
20
95.025670
11
100.579820
21
78.154471
0
LINE
8
Layer 1
10
100.579820
20
78.154471
11
101.199563
21
77.316226
0
LINE
8
Layer 1
10
101.199563
20
77.316226
11
101.995653
21
76.477978
0
LINE
8
Layer 1
10
101.995653
20
76.477978
11
102.932597
21
77.271872
0
LINE
8
Layer 1
10
102.932597
20
77.271872
11
102.932597
21
77.271872
0
LINE
8
Layer 1
10
95.504268
20
96.374644
11
95.504268
21
112.037978
0
LINE
8
Layer 1
10
95.504268
20
112.037978
11
94.234268
21
112.037978
0
LINE
8
Layer 1
10
94.234268
20
112.037978
11
92.964268
21
112.037978
0
LINE
8
Layer 1
10
92.964268
20
112.037978
11
92.964268
21
96.864370
0
LINE
8
Layer 1
10
92.964268
20
96.864370
11
92.964268
21
81.690763
0
LINE
8
Layer 1
10
92.964268
20
81.690763
11
94.022601
21
81.215546
0
LINE
8
Layer 1
10
94.022601
20
81.215546
11
95.292601
21
80.725817
0
LINE
8
Layer 1
10
95.292601
20
80.725817
11
95.442091
21
85.316676
0
LINE
8
Layer 1
10
95.442091
20
85.316676
11
95.504268
21
96.374644
0
LINE
8
Layer 1
10
95.504268
20
96.374644
11
95.504268
21
96.374644
0
LINE
8
Layer 1
10
110.126814
20
82.129009
11
111.308713
21
82.700041
0
LINE
8
Layer 1
10
111.308713
20
82.700041
11
111.308713
21
97.441597
0
LINE
8
Layer 1
10
111.308713
20
97.441597
11
111.308713
21
112.183156
0
LINE
8
Layer 1
10
111.308713
20
112.183156
11
110.038713
21
112.082148
0
LINE
8
Layer 1
10
110.038713
20
112.082148
11
108.768713
21
111.981141
0
LINE
8
Layer 1
10
108.768713
20
111.981141
11
108.768713
21
96.769561
0
LINE
8
Layer 1
10
108.768713
20
96.769561
11
108.856814
21
81.557978
0
LINE
8
Layer 1
10
108.856814
20
81.557978
11
110.126814
21
82.129009
0
LINE
8
Layer 1
10
110.126814
20
82.129009
11
110.126814
21
82.129009
0
LINE
8
Layer 1
10
87.582259
20
98.410149
11
87.472647
21
112.019029
0
LINE
8
Layer 1
10
87.472647
20
112.019029
11
86.071484
21
112.083873
0
LINE
8
Layer 1
10
86.071484
20
112.083873
11
84.774168
21
111.980692
0
LINE
8
Layer 1
10
84.774168
20
111.980692
11
84.847551
21
99.111235
0
LINE
8
Layer 1
10
84.847551
20
99.111235
11
84.920935
21
86.241777
0
LINE
8
Layer 1
10
84.920935
20
86.241777
11
86.046838
21
85.477203
0
LINE
8
Layer 1
10
86.046838
20
85.477203
11
86.903001
21
84.974922
0
LINE
8
Layer 1
10
86.903001
20
84.974922
11
87.380383
21
84.840961
0
LINE
8
Layer 1
10
87.380383
20
84.840961
11
87.525337
21
88.879846
0
LINE
8
Layer 1
10
87.525337
20
88.879846
11
87.582259
21
98.410149
0
LINE
8
Layer 1
10
87.582259
20
98.410149
11
87.582259
21
98.410149
0
LINE
8
Layer 1
10
119.487244
20
99.786333
11
119.503244
21
112.037978
0
LINE
8
Layer 1
10
119.503244
20
112.037978
11
118.228200
21
112.037978
0
LINE
8
Layer 1
10
118.228200
20
112.037978
11
116.953157
21
112.037978
0
LINE
8
Layer 1
10
116.953157
20
112.037978
11
116.953157
21
98.754638
0
LINE
8
Layer 1
10
116.953157
20
98.754638
11
116.953157
21
85.471299
0
LINE
8
Layer 1
10
116.953157
20
85.471299
11
118.212204
21
86.502994
0
LINE
8
Layer 1
10
118.212204
20
86.502994
11
119.471248
21
87.534685
0
LINE
8
Layer 1
10
119.471248
20
87.534685
11
119.487244
21
99.786333
0
LINE
8
Layer 1
10
119.487244
20
99.786333
11
119.487244
21
99.786333
0
LINE
8
Layer 1
10
79.135379
20
102.607051
11
79.063069
21
110.118284
0
LINE
8
Layer 1
10
79.063069
20
110.118284
11
78.954811
21
111.592755
0
LINE
8
Layer 1
10
78.954811
20
111.592755
11
78.782601
21
111.967947
0
LINE
8
Layer 1
10
78.782601
20
111.967947
11
78.435820
21
111.436558
0
LINE
8
Layer 1
10
78.435820
20
111.436558
11
78.124575
21
110.199948
0
LINE
8
Layer 1
10
78.124575
20
110.199948
11
77.661420
21
106.322227
0
LINE
8
Layer 1
10
77.661420
20
106.322227
11
77.498591
21
101.757096
0
LINE
8
Layer 1
10
77.498591
20
101.757096
11
77.741546
21
97.926866
0
LINE
8
Layer 1
10
77.741546
20
97.926866
11
78.419199
21
94.798656
0
LINE
8
Layer 1
10
78.419199
20
94.798656
11
79.014295
21
93.129089
0
LINE
8
Layer 1
10
79.014295
20
93.129089
11
79.135379
21
102.607051
0
LINE
8
Layer 1
10
79.135379
20
102.607051
11
79.135379
21
102.607051
0
LINE
8
Layer 1
10
126.289387
20
96.863425
11
126.482198
21
98.520424
0
LINE
8
Layer 1
10
126.482198
20
98.520424
11
126.561791
21
100.741294
0
LINE
8
Layer 1
10
126.561791
20
100.741294
11
126.437343
21
105.875023
0
LINE
8
Layer 1
10
126.437343
20
105.875023
11
126.028077
21
110.265362
0
LINE
8
Layer 1
10
126.028077
20
110.265362
11
125.751648
21
111.556994
0
LINE
8
Layer 1
10
125.751648
20
111.556994
11
125.601612
21
111.867592
0
LINE
8
Layer 1
10
125.601612
20
111.867592
11
125.446028
21
111.913060
0
LINE
8
Layer 1
10
125.446028
20
111.913060
11
125.273430
21
109.175005
0
LINE
8
Layer 1
10
125.273430
20
109.175005
11
125.194743
21
102.799851
0
LINE
8
Layer 1
10
125.194743
20
102.799851
11
125.252665
21
95.455742
0
LINE
8
Layer 1
10
125.252665
20
95.455742
11
125.374007
21
94.475518
0
LINE
8
Layer 1
10
125.374007
20
94.475518
11
125.468602
21
94.433860
0
LINE
8
Layer 1
10
125.468602
20
94.433860
11
125.589936
21
94.605647
0
LINE
8
Layer 1
10
125.589936
20
94.605647
11
126.289387
21
96.863425
0
LINE
8
Layer 1
10
126.289387
20
96.863425
11
126.289387
21
96.863425
0
LINE
8
Layer 1
10
60.079405
20
67.576838
11
59.424119
21
68.487539
0
LINE
8
Layer 1
10
59.424119
20
68.487539
11
59.209151
21
69.332121
0
LINE
8
Layer 1
10
59.209151
20
69.332121
11
59.436872
21
70.481499
0
LINE
8
Layer 1
10
59.436872
20
70.481499
11
60.109656
21
72.306589
0
LINE
8
Layer 1
10
60.109656
20
72.306589
11
60.790935
21
74.306170
0
LINE
8
Layer 1
10
60.790935
20
74.306170
11
60.607703
21
74.372071
0
LINE
8
Layer 1
10
60.607703
20
74.372071
11
60.111830
21
74.112300
0
LINE
8
Layer 1
10
60.111830
20
74.112300
11
58.505104
21
72.825003
0
LINE
8
Layer 1
10
58.505104
20
72.825003
11
57.556852
21
72.050645
0
LINE
8
Layer 1
10
57.556852
20
72.050645
11
56.850968
21
71.795563
0
LINE
8
Layer 1
10
56.850968
20
71.795563
11
56.201104
21
72.061211
0
LINE
8
Layer 1
10
56.201104
20
72.061211
11
55.420909
21
72.849040
0
LINE
8
Layer 1
10
55.420909
20
72.849040
11
54.717409
21
73.825024
0
LINE
8
Layer 1
10
54.717409
20
73.825024
11
54.547397
21
74.424701
0
LINE
8
Layer 1
10
54.547397
20
74.424701
11
56.025867
21
75.833105
0
LINE
8
Layer 1
10
56.025867
20
75.833105
11
58.940429
21
78.251099
0
LINE
8
Layer 1
10
58.940429
20
78.251099
11
61.874155
21
80.538623
0
LINE
8
Layer 1
10
61.874155
20
80.538623
11
63.410112
21
81.555618
0
LINE
8
Layer 1
10
63.410112
20
81.555618
11
63.914588
21
81.315973
0
LINE
8
Layer 1
10
63.914588
20
81.315973
11
64.631067
21
80.714039
0
LINE
8
Layer 1
10
64.631067
20
80.714039
11
65.942851
21
79.144218
0
LINE
8
Layer 1
10
65.942851
20
79.144218
11
65.860203
21
78.372797
0
LINE
8
Layer 1
10
65.860203
20
78.372797
11
65.337992
21
76.994495
0
LINE
8
Layer 1
10
65.337992
20
76.994495
11
64.321913
21
74.270193
0
LINE
8
Layer 1
10
64.321913
20
74.270193
11
64.123720
21
73.332405
0
LINE
8
Layer 1
10
64.123720
20
73.332405
11
65.900413
21
74.764082
0
LINE
8
Layer 1
10
65.900413
20
74.764082
11
67.290559
21
75.775201
0
LINE
8
Layer 1
10
67.290559
20
75.775201
11
68.137896
21
76.195755
0
LINE
8
Layer 1
10
68.137896
20
76.195755
11
68.706253
21
75.871742
0
LINE
8
Layer 1
10
68.706253
20
75.871742
11
69.455363
21
75.115553
0
LINE
8
Layer 1
10
69.455363
20
75.115553
11
70.105671
21
74.250963
0
LINE
8
Layer 1
10
70.105671
20
74.250963
11
70.377623
21
73.601749
0
LINE
8
Layer 1
10
70.377623
20
73.601749
11
70.145981
21
73.176413
0
LINE
8
Layer 1
10
70.145981
20
73.176413
11
69.601512
21
72.672425
0
LINE
8
Layer 1
10
69.601512
20
72.672425
11
65.375652
21
69.215203
0
LINE
8
Layer 1
10
65.375652
20
69.215203
11
62.814609
21
67.169037
0
LINE
8
Layer 1
10
62.814609
20
67.169037
11
61.513991
21
66.317978
0
LINE
8
Layer 1
10
61.513991
20
66.317978
11
60.926326
21
66.687768
0
LINE
8
Layer 1
10
60.926326
20
66.687768
11
60.079405
21
67.576838
0
LINE
8
Layer 1
10
60.079405
20
67.576838
11
60.079405
21
67.576838
0
LINE
8
Layer 1
10
143.453225
20
70.913289
11
142.645125
21
71.685835
0
LINE
8
Layer 1
10
142.645125
20
71.685835
11
142.101737
21
72.683593
0
LINE
8
Layer 1
10
142.101737
20
72.683593
11
141.860652
21
73.295573
0
LINE
8
Layer 1
10
141.860652
20
73.295573
11
141.611231
21
73.634223
0
LINE
8
Layer 1
10
141.611231
20
73.634223
11
141.253609
21
73.779083
0
LINE
8
Layer 1
10
141.253609
20
73.779083
11
140.687925
21
73.809693
0
LINE
8
Layer 1
10
140.687925
20
73.809693
11
139.552535
21
74.048632
0
LINE
8
Layer 1
10
139.552535
20
74.048632
11
138.187681
21
74.768033
0
LINE
8
Layer 1
10
138.187681
20
74.768033
11
136.708713
21
75.863868
0
LINE
8
Layer 1
10
136.708713
20
75.863868
11
137.416453
21
76.925247
0
LINE
8
Layer 1
10
137.416453
20
76.925247
11
138.553314
21
78.282264
0
LINE
8
Layer 1
10
138.553314
20
78.282264
11
138.835797
21
78.495684
0
LINE
8
Layer 1
10
138.835797
20
78.495684
11
139.171120
21
78.514720
0
LINE
8
Layer 1
10
139.171120
20
78.514720
11
140.538604
21
77.853334
0
LINE
8
Layer 1
10
140.538604
20
77.853334
11
141.534013
21
77.346342
0
LINE
8
Layer 1
10
141.534013
20
77.346342
11
142.212624
21
77.215850
0
LINE
8
Layer 1
10
142.212624
20
77.215850
11
142.770202
21
77.483595
0
LINE
8
Layer 1
10
142.770202
20
77.483595
11
143.402516
21
78.171311
0
LINE
8
Layer 1
10
143.402516
20
78.171311
11
143.673484
21
78.580925
0
LINE
8
Layer 1
10
143.673484
20
78.580925
11
143.642953
21
78.935043
0
LINE
8
Layer 1
10
143.642953
20
78.935043
11
142.353157
21
80.060523
0
LINE
8
Layer 1
10
142.353157
20
80.060523
11
141.357884
21
80.931937
0
LINE
8
Layer 1
10
141.357884
20
80.931937
11
140.946553
21
81.547662
0
LINE
8
Layer 1
10
140.946553
20
81.547662
11
141.197122
21
82.134595
0
LINE
8
Layer 1
10
141.197122
20
82.134595
11
141.793220
21
82.936777
0
LINE
8
Layer 1
10
141.793220
20
82.936777
11
142.635379
21
84.136222
0
LINE
8
Layer 1
10
142.635379
20
84.136222
11
142.824760
21
84.377045
0
LINE
8
Layer 1
10
142.824760
20
84.377045
11
143.418869
21
84.193390
0
LINE
8
Layer 1
10
143.418869
20
84.193390
11
145.977085
21
82.475200
0
LINE
8
Layer 1
10
145.977085
20
82.475200
11
150.507697
21
79.159089
0
LINE
8
Layer 1
10
150.507697
20
79.159089
11
151.913293
21
78.030453
0
LINE
8
Layer 1
10
151.913293
20
78.030453
11
152.503539
21
77.298485
0
LINE
8
Layer 1
10
152.503539
20
77.298485
11
152.079372
21
76.452875
0
LINE
8
Layer 1
10
152.079372
20
76.452875
11
150.998000
21
74.928595
0
LINE
8
Layer 1
10
150.998000
20
74.928595
11
148.105292
21
71.485159
0
LINE
8
Layer 1
10
148.105292
20
71.485159
11
146.925758
21
70.472257
0
LINE
8
Layer 1
10
146.925758
20
70.472257
11
146.385750
21
70.307275
0
LINE
8
Layer 1
10
146.385750
20
70.307275
11
145.677582
21
70.269089
0
LINE
8
Layer 1
10
145.677582
20
70.269089
11
144.488268
21
70.429032
0
LINE
8
Layer 1
10
144.488268
20
70.429032
11
143.453225
21
70.913289
0
LINE
8
Layer 1
10
143.453225
20
70.913289
11
143.453225
21
70.913289
0
LINE
8
Layer 1
10
146.984737
20
75.088521
11
147.489459
21
75.738062
0
LINE
8
Layer 1
10
147.489459
20
75.738062
11
147.669422
21
76.175610
0
LINE
8
Layer 1
10
147.669422
20
76.175610
11
147.530952
21
76.520493
0
LINE
8
Layer 1
10
147.530952
20
76.520493
11
147.080379
21
76.892040
0
LINE
8
Layer 1
10
147.080379
20
76.892040
11
146.708851
21
77.120379
0
LINE
8
Layer 1
10
146.708851
20
77.120379
11
146.426311
21
77.142457
0
LINE
8
Layer 1
10
146.426311
20
77.142457
11
145.676860
21
76.414153
0
LINE
8
Layer 1
10
145.676860
20
76.414153
11
144.947359
21
75.284123
0
LINE
8
Layer 1
10
144.947359
20
75.284123
11
144.972588
21
74.911514
0
LINE
8
Layer 1
10
144.972588
20
74.911514
11
145.231824
21
74.558866
0
LINE
8
Layer 1
10
145.231824
20
74.558866
11
145.620831
21
74.284713
0
LINE
8
Layer 1
10
145.620831
20
74.284713
11
146.014180
21
74.273002
0
LINE
8
Layer 1
10
146.014180
20
74.273002
11
146.454579
21
74.536636
0
LINE
8
Layer 1
10
146.454579
20
74.536636
11
146.984737
21
75.088521
0
LINE
8
Layer 1
10
146.984737
20
75.088521
11
146.984737
21
75.088521
0
LINE
8
Layer 1
10
51.765705
20
78.382978
11
50.918519
21
80.057106
0
LINE
8
Layer 1
10
50.918519
20
80.057106
11
52.449619
21
81.156646
0
LINE
8
Layer 1
10
52.449619
20
81.156646
11
55.861785
21
83.120348
0
LINE
8
Layer 1
10
55.861785
20
83.120348
11
59.366952
21
84.964036
0
LINE
8
Layer 1
10
59.366952
20
84.964036
11
61.177051
21
85.703534
0
LINE
8
Layer 1
10
61.177051
20
85.703534
11
61.605429
21
85.250961
0
LINE
8
Layer 1
10
61.605429
20
85.250961
11
62.131878
21
84.366453
0
LINE
8
Layer 1
10
62.131878
20
84.366453
11
62.577723
21
83.391681
0
LINE
8
Layer 1
10
62.577723
20
83.391681
11
62.764289
21
82.668319
0
LINE
8
Layer 1
10
62.764289
20
82.668319
11
62.576850
21
82.294615
0
LINE
8
Layer 1
10
62.576850
20
82.294615
11
62.129289
21
81.964561
0
LINE
8
Layer 1
10
62.129289
20
81.964561
11
57.365104
21
79.354005
0
LINE
8
Layer 1
10
57.365104
20
79.354005
11
52.920623
21
77.042422
0
LINE
8
Layer 1
10
52.920623
20
77.042422
11
52.452214
21
77.436210
0
LINE
8
Layer 1
10
52.452214
20
77.436210
11
51.765705
21
78.382978
0
LINE
8
Layer 1
10
51.765705
20
78.382978
11
51.765705
21
78.382978
0
LINE
8
Layer 1
10
49.390752
20
83.286123
11
48.059907
21
86.461123
0
LINE
8
Layer 1
10
48.059907
20
86.461123
11
46.948860
21
89.104346
0
LINE
8
Layer 1
10
46.948860
20
89.104346
11
46.532854
21
90.120339
0
LINE
8
Layer 1
10
46.532854
20
90.120339
11
46.476685
21
90.756664
0
LINE
8
Layer 1
10
46.476685
20
90.756664
11
46.825776
21
91.177195
0
LINE
8
Layer 1
10
46.825776
20
91.177195
11
47.625545
21
91.545805
0
LINE
8
Layer 1
10
47.625545
20
91.545805
11
48.611620
21
91.835635
0
LINE
8
Layer 1
10
48.611620
20
91.835635
11
49.295729
21
91.791122
0
LINE
8
Layer 1
10
49.295729
20
91.791122
11
49.765506
21
91.377471
0
LINE
8
Layer 1
10
49.765506
20
91.377471
11
50.108584
21
90.559884
0
LINE
8
Layer 1
10
50.108584
20
90.559884
11
50.469716
21
89.754167
0
LINE
8
Layer 1
10
50.469716
20
89.754167
11
50.887274
21
89.472406
0
LINE
8
Layer 1
10
50.887274
20
89.472406
11
54.864268
21
90.851572
0
LINE
8
Layer 1
10
54.864268
20
90.851572
11
57.546891
21
91.791919
0
LINE
8
Layer 1
10
57.546891
20
91.791919
11
58.708011
21
91.964250
0
LINE
8
Layer 1
10
58.708011
20
91.964250
11
59.148623
21
91.323202
0
LINE
8
Layer 1
10
59.148623
20
91.323202
11
59.552429
21
90.319202
0
LINE
8
Layer 1
10
59.552429
20
90.319202
11
59.800324
21
89.318609
0
LINE
8
Layer 1
10
59.800324
20
89.318609
11
59.773205
21
88.687780
0
LINE
8
Layer 1
10
59.773205
20
88.687780
11
59.139074
21
88.246741
0
LINE
8
Layer 1
10
59.139074
20
88.246741
11
57.968713
21
87.747794
0
LINE
8
Layer 1
10
57.968713
20
87.747794
11
55.852046
21
86.930024
0
LINE
8
Layer 1
10
55.852046
20
86.930024
11
53.668693
21
86.061934
0
LINE
8
Layer 1
10
53.668693
20
86.061934
11
52.049787
21
85.471429
0
LINE
8
Layer 1
10
52.049787
20
85.471429
11
52.610360
21
84.372614
0
LINE
8
Layer 1
10
52.610360
20
84.372614
11
53.045463
21
83.370424
0
LINE
8
Layer 1
10
53.045463
20
83.370424
11
53.142392
21
82.669224
0
LINE
8
Layer 1
10
53.142392
20
82.669224
11
52.891253
21
82.193518
0
LINE
8
Layer 1
10
52.891253
20
82.193518
11
52.282155
21
81.867810
0
LINE
8
Layer 1
10
52.282155
20
81.867810
11
51.212782
21
81.569993
0
LINE
8
Layer 1
10
51.212782
20
81.569993
11
50.496250
21
81.647347
0
LINE
8
Layer 1
10
50.496250
20
81.647347
11
49.949820
21
82.189511
0
LINE
8
Layer 1
10
49.949820
20
82.189511
11
49.390752
21
83.286123
0
LINE
8
Layer 1
10
49.390752
20
83.286123
11
49.390752
21
83.286123
0
LINE
8
Layer 1
10
148.279824
20
84.662422
11
145.107634
21
84.766633
0
LINE
8
Layer 1
10
145.107634
20
84.766633
11
144.202692
21
84.862046
0
LINE
8
Layer 1
10
144.202692
20
84.862046
11
143.672800
21
85.035333
0
LINE
8
Layer 1
10
143.672800
20
85.035333
11
143.458668
21
85.323246
0
LINE
8
Layer 1
10
143.458668
20
85.323246
11
143.501007
21
85.762536
0
LINE
8
Layer 1
10
143.501007
20
85.762536
11
144.117943
21
87.242255
0
LINE
8
Layer 1
10
144.117943
20
87.242255
11
144.768634
21
88.373488
0
LINE
8
Layer 1
10
144.768634
20
88.373488
11
145.141522
21
88.582208
0
LINE
8
Layer 1
10
145.141522
20
88.582208
11
145.673408
21
88.669834
0
LINE
8
Layer 1
10
145.673408
20
88.669834
11
146.196233
21
88.751646
0
LINE
8
Layer 1
10
146.196233
20
88.751646
11
146.543601
21
88.933367
0
LINE
8
Layer 1
10
146.543601
20
88.933367
11
147.033609
21
89.883533
0
LINE
8
Layer 1
10
147.033609
20
89.883533
11
147.406100
21
91.465266
0
LINE
8
Layer 1
10
147.406100
20
91.465266
11
147.304457
21
91.929143
0
LINE
8
Layer 1
10
147.304457
20
91.929143
11
147.009824
21
92.282422
0
LINE
8
Layer 1
10
147.009824
20
92.282422
11
146.712226
21
92.630636
0
LINE
8
Layer 1
10
146.712226
20
92.630636
11
146.608518
21
93.056165
0
LINE
8
Layer 1
10
146.608518
20
93.056165
11
146.979609
21
94.356436
0
LINE
8
Layer 1
10
146.979609
20
94.356436
11
147.535194
21
95.739644
0
LINE
8
Layer 1
10
147.535194
20
95.739644
11
147.761959
21
96.088453
0
LINE
8
Layer 1
10
147.761959
20
96.088453
11
148.079008
21
96.233533
0
LINE
8
Layer 1
10
148.079008
20
96.233533
11
149.201694
21
95.466682
0
LINE
8
Layer 1
10
149.201694
20
95.466682
11
151.365418
21
93.622978
0
LINE
8
Layer 1
10
151.365418
20
93.622978
11
155.636222
21
89.883533
0
LINE
8
Layer 1
10
155.636222
20
89.883533
11
156.648975
21
88.949897
0
LINE
8
Layer 1
10
156.648975
20
88.949897
11
157.166042
21
88.290445
0
LINE
8
Layer 1
10
157.166042
20
88.290445
11
157.144147
21
87.638330
0
LINE
8
Layer 1
10
157.144147
20
87.638330
11
156.871918
21
86.664460
0
LINE
8
Layer 1
10
156.871918
20
86.664460
11
156.454419
21
85.668837
0
LINE
8
Layer 1
10
156.454419
20
85.668837
11
155.996711
21
84.951463
0
LINE
8
Layer 1
10
155.996711
20
84.951463
11
155.577053
21
84.679433
0
LINE
8
Layer 1
10
155.577053
20
84.679433
11
154.562326
21
84.555988
0
LINE
8
Layer 1
10
154.562326
20
84.555988
11
148.279824
21
84.662422
0
LINE
8
Layer 1
10
148.279824
20
84.662422
11
148.279824
21
84.662422
0
LINE
8
Layer 1
10
151.091386
20
88.867959
11
150.251644
21
89.455146
0
LINE
8
Layer 1
10
150.251644
20
89.455146
11
150.033778
21
89.447481
0
LINE
8
Layer 1
10
150.033778
20
89.447481
11
149.873358
21
89.264092
0
LINE
8
Layer 1
10
149.873358
20
89.264092
11
149.758745
21
88.845015
0
LINE
8
Layer 1
10
149.758745
20
88.845015
11
150.003650
21
88.532157
0
LINE
8
Layer 1
10
150.003650
20
88.532157
11
150.664305
21
88.291124
0
LINE
8
Layer 1
10
150.664305
20
88.291124
11
151.796942
21
88.087522
0
LINE
8
Layer 1
10
151.796942
20
88.087522
11
151.701703
21
88.300922
0
LINE
8
Layer 1
10
151.701703
20
88.300922
11
151.091386
21
88.867959
0
LINE
8
Layer 1
10
151.091386
20
88.867959
11
151.091386
21
88.867959
0
LINE
8
Layer 1
10
45.939448
20
93.063198
11
45.616775
21
93.831164
0
LINE
8
Layer 1
10
45.616775
20
93.831164
11
45.286202
21
95.386866
0
LINE
8
Layer 1
10
45.286202
20
95.386866
11
44.705151
21
98.491311
0
LINE
8
Layer 1
10
44.705151
20
98.491311
11
44.005390
21
102.552302
0
LINE
8
Layer 1
10
44.005390
20
102.552302
11
44.423149
21
102.836406
0
LINE
8
Layer 1
10
44.423149
20
102.836406
11
45.385687
21
103.149844
0
LINE
8
Layer 1
10
45.385687
20
103.149844
11
46.438602
21
103.371889
0
LINE
8
Layer 1
10
46.438602
20
103.371889
11
47.127493
21
103.381810
0
LINE
8
Layer 1
10
47.127493
20
103.381810
11
47.420663
21
102.818816
0
LINE
8
Layer 1
10
47.420663
20
102.818816
11
47.650025
21
101.647704
0
LINE
8
Layer 1
10
47.650025
20
101.647704
11
48.233161
21
98.209129
0
LINE
8
Layer 1
10
48.233161
20
98.209129
11
48.562638
21
97.378347
0
LINE
8
Layer 1
10
48.562638
20
97.378347
11
48.914541
21
97.150022
0
LINE
8
Layer 1
10
48.914541
20
97.150022
11
49.213349
21
97.372696
0
LINE
8
Layer 1
10
49.213349
20
97.372696
11
49.283318
21
97.796567
0
LINE
8
Layer 1
10
49.283318
20
97.796567
11
48.897532
21
100.247871
0
LINE
8
Layer 1
10
48.897532
20
100.247871
11
48.707377
21
101.730476
0
LINE
8
Layer 1
10
48.707377
20
101.730476
11
48.801067
21
102.562046
0
LINE
8
Layer 1
10
48.801067
20
102.562046
11
49.264129
21
102.926277
0
LINE
8
Layer 1
10
49.264129
20
102.926277
11
50.182089
21
103.006866
0
LINE
8
Layer 1
10
50.182089
20
103.006866
11
51.113962
21
102.941427
0
LINE
8
Layer 1
10
51.113962
20
102.941427
11
51.581970
21
102.784094
0
LINE
8
Layer 1
10
51.581970
20
102.784094
11
52.084264
21
100.244094
0
LINE
8
Layer 1
10
52.084264
20
100.244094
11
52.480397
21
98.349511
0
LINE
8
Layer 1
10
52.480397
20
98.349511
11
52.696757
21
98.012945
0
LINE
8
Layer 1
10
52.696757
20
98.012945
11
52.986297
21
97.926866
0
LINE
8
Layer 1
10
52.986297
20
97.926866
11
53.256028
21
97.960576
0
LINE
8
Layer 1
10
53.256028
20
97.960576
11
53.392216
21
98.093195
0
LINE
8
Layer 1
10
53.392216
20
98.093195
11
53.335984
21
98.844089
0
LINE
8
Layer 1
10
53.335984
20
98.844089
11
52.767131
21
102.627663
0
LINE
8
Layer 1
10
52.767131
20
102.627663
11
52.736988
21
103.863840
0
LINE
8
Layer 1
10
52.736988
20
103.863840
11
52.895393
21
104.422107
0
LINE
8
Layer 1
10
52.895393
20
104.422107
11
53.573385
21
104.674775
0
LINE
8
Layer 1
10
53.573385
20
104.674775
11
54.471573
21
104.825269
0
LINE
8
Layer 1
10
54.471573
20
104.825269
11
55.317225
21
104.846700
0
LINE
8
Layer 1
10
55.317225
20
104.846700
11
55.837610
21
104.712180
0
LINE
8
Layer 1
10
55.837610
20
104.712180
11
56.183365
21
103.783029
0
LINE
8
Layer 1
10
56.183365
20
103.783029
11
56.529035
21
101.952134
0
LINE
8
Layer 1
10
56.529035
20
101.952134
11
57.117403
21
98.067978
0
LINE
8
Layer 1
10
57.117403
20
98.067978
11
57.511163
21
95.765171
0
LINE
8
Layer 1
10
57.511163
20
95.765171
11
57.528752
21
95.044902
0
LINE
8
Layer 1
10
57.528752
20
95.044902
11
57.244056
21
94.713033
0
LINE
8
Layer 1
10
57.244056
20
94.713033
11
52.387884
21
93.842640
0
LINE
8
Layer 1
10
52.387884
20
93.842640
11
47.103157
21
92.994443
0
LINE
8
Layer 1
10
47.103157
20
92.994443
11
46.412067
21
92.957613
0
LINE
8
Layer 1
10
46.412067
20
92.957613
11
45.939448
21
93.063198
0
LINE
8
Layer 1
10
45.939448
20
93.063198
11
45.939448
21
93.063198
0
LINE
8
Layer 1
10
157.572631
20
94.654802
11
154.760495
21
95.110630
0
LINE
8
Layer 1
10
154.760495
20
95.110630
11
152.494404
21
95.416269
0
LINE
8
Layer 1
10
152.494404
20
95.416269
11
151.009311
21
95.737502
0
LINE
8
Layer 1
10
151.009311
20
95.737502
11
150.061334
21
96.147638
0
LINE
8
Layer 1
10
150.061334
20
96.147638
11
149.406590
21
96.719988
0
LINE
8
Layer 1
10
149.406590
20
96.719988
11
148.834599
21
97.536533
0
LINE
8
Layer 1
10
148.834599
20
97.536533
11
148.420196
21
98.469369
0
LINE
8
Layer 1
10
148.420196
20
98.469369
11
148.163888
21
99.488126
0
LINE
8
Layer 1
10
148.163888
20
99.488126
11
148.066184
21
100.562430
0
LINE
8
Layer 1
10
148.066184
20
100.562430
11
148.127589
21
101.661913
0
LINE
8
Layer 1
10
148.127589
20
101.661913
11
148.348612
21
102.756201
0
LINE
8
Layer 1
10
148.348612
20
102.756201
11
148.729759
21
103.814925
0
LINE
8
Layer 1
10
148.729759
20
103.814925
11
149.271538
21
104.807712
0
LINE
8
Layer 1
10
149.271538
20
104.807712
11
149.954021
21
105.485581
0
LINE
8
Layer 1
10
149.954021
20
105.485581
11
150.948148
21
106.089402
0
LINE
8
Layer 1
10
150.948148
20
106.089402
11
151.995835
21
106.491969
0
LINE
8
Layer 1
10
151.995835
20
106.491969
11
152.838999
21
106.566075
0
LINE
8
Layer 1
10
152.838999
20
106.566075
11
156.962718
21
106.087830
0
LINE
8
Layer 1
10
156.962718
20
106.087830
11
159.532841
21
105.753093
0
LINE
8
Layer 1
10
159.532841
20
105.753093
11
160.850851
21
105.431779
0
LINE
8
Layer 1
10
160.850851
20
105.431779
11
161.052271
21
105.210399
0
LINE
8
Layer 1
10
161.052271
20
105.210399
11
161.147156
21
104.874342
0
LINE
8
Layer 1
10
161.147156
20
104.874342
11
161.047856
21
103.569556
0
LINE
8
Layer 1
10
161.047856
20
103.569556
11
160.818505
21
102.019089
0
LINE
8
Layer 1
10
160.818505
20
102.019089
11
159.276387
21
102.082005
0
LINE
8
Layer 1
10
159.276387
20
102.082005
11
155.310504
21
102.469160
0
LINE
8
Layer 1
10
155.310504
20
102.469160
11
153.447044
21
102.644882
0
LINE
8
Layer 1
10
153.447044
20
102.644882
11
152.338201
21
102.508760
0
LINE
8
Layer 1
10
152.338201
20
102.508760
11
152.010677
21
102.301368
0
LINE
8
Layer 1
10
152.010677
20
102.301368
11
151.804506
21
101.989148
0
LINE
8
Layer 1
10
151.804506
20
101.989148
11
151.666490
21
101.014397
0
LINE
8
Layer 1
10
151.666490
20
101.014397
11
151.757551
21
100.214836
0
LINE
8
Layer 1
10
151.757551
20
100.214836
11
152.168023
21
99.727586
0
LINE
8
Layer 1
10
152.168023
20
99.727586
11
153.103839
21
99.433065
0
LINE
8
Layer 1
10
153.103839
20
99.433065
11
154.770935
21
99.211692
0
LINE
8
Layer 1
10
154.770935
20
99.211692
11
158.480378
21
98.699824
0
LINE
8
Layer 1
10
158.480378
20
98.699824
11
160.250099
21
98.248196
0
LINE
8
Layer 1
10
160.250099
20
98.248196
11
160.027025
21
96.372412
0
LINE
8
Layer 1
10
160.027025
20
96.372412
11
159.816711
21
95.408758
0
LINE
8
Layer 1
10
159.816711
20
95.408758
11
159.603151
21
94.895365
0
LINE
8
Layer 1
10
159.603151
20
94.895365
11
159.270260
21
94.676723
0
LINE
8
Layer 1
10
159.270260
20
94.676723
11
158.701954
21
94.597324
0
LINE
8
Layer 1
10
158.701954
20
94.597324
11
157.572631
21
94.654802
0
LINE
8
Layer 1
10
157.572631
20
94.654802
11
157.572631
21
94.654802
0
LINE
8
Layer 1
10
54.810225
20
105.694982
11
51.033674
21
106.115866
0
LINE
8
Layer 1
10
51.033674
20
106.115866
11
45.459668
21
106.623830
0
LINE
8
Layer 1
10
45.459668
20
106.623830
11
44.357784
21
106.808740
0
LINE
8
Layer 1
10
44.357784
20
106.808740
11
43.973801
21
106.998287
0
LINE
8
Layer 1
10
43.973801
20
106.998287
11
43.950271
21
108.243635
0
LINE
8
Layer 1
10
43.950271
20
108.243635
11
44.176437
21
110.659374
0
LINE
8
Layer 1
10
44.176437
20
110.659374
11
44.528352
21
113.185841
0
LINE
8
Layer 1
10
44.528352
20
113.185841
11
44.882068
21
114.763369
0
LINE
8
Layer 1
10
44.882068
20
114.763369
11
45.268394
21
115.491390
0
LINE
8
Layer 1
10
45.268394
20
115.491390
11
45.769352
21
116.125961
0
LINE
8
Layer 1
10
45.769352
20
116.125961
11
47.050977
21
117.113356
0
LINE
8
Layer 1
10
47.050977
20
117.113356
11
48.598567
21
117.722756
0
LINE
8
Layer 1
10
48.598567
20
117.722756
11
50.283745
21
117.951364
0
LINE
8
Layer 1
10
50.283745
20
117.951364
11
51.978136
21
117.796385
0
LINE
8
Layer 1
10
51.978136
20
117.796385
11
53.553364
21
117.255020
0
LINE
8
Layer 1
10
53.553364
20
117.255020
11
54.881053
21
116.324474
0
LINE
8
Layer 1
10
54.881053
20
116.324474
11
55.411952
21
115.712384
0
LINE
8
Layer 1
10
55.411952
20
115.712384
11
55.832827
21
115.001949
0
LINE
8
Layer 1
10
55.832827
20
115.001949
11
56.208359
21
113.555582
0
LINE
8
Layer 1
10
56.208359
20
113.555582
11
56.298028
21
110.978199
0
LINE
8
Layer 1
10
56.298028
20
110.978199
11
56.100471
21
107.167880
0
LINE
8
Layer 1
10
56.100471
20
107.167880
11
55.838742
21
106.269389
0
LINE
8
Layer 1
10
55.838742
20
106.269389
11
55.432977
21
105.831372
0
LINE
8
Layer 1
10
55.432977
20
105.831372
11
54.810225
21
105.694982
0
LINE
8
Layer 1
10
54.810225
20
105.694982
11
54.810225
21
105.694982
0
LINE
8
Layer 1
10
52.888713
20
111.243677
11
52.734852
21
112.326373
0
LINE
8
Layer 1
10
52.734852
20
112.326373
11
52.275722
21
113.104386
0
LINE
8
Layer 1
10
52.275722
20
113.104386
11
51.515000
21
113.573953
0
LINE
8
Layer 1
10
51.515000
20
113.573953
11
50.456366
21
113.731311
0
LINE
8
Layer 1
10
50.456366
20
113.731311
11
49.397084
21
113.573406
0
LINE
8
Layer 1
10
49.397084
20
113.573406
11
48.549526
21
113.118033
0
LINE
8
Layer 1
10
48.549526
20
113.118033
11
47.947475
21
112.392707
0
LINE
8
Layer 1
10
47.947475
20
112.392707
11
47.624712
21
111.424943
0
LINE
8
Layer 1
10
47.624712
20
111.424943
11
47.603992
21
110.524091
0
LINE
8
Layer 1
10
47.603992
20
110.524091
11
47.826220
21
110.359625
0
LINE
8
Layer 1
10
47.826220
20
110.359625
11
48.269240
21
110.267784
0
LINE
8
Layer 1
10
48.269240
20
110.267784
11
50.983713
21
110.104707
0
LINE
8
Layer 1
10
50.983713
20
110.104707
11
52.888713
21
110.062422
0
LINE
8
Layer 1
10
52.888713
20
110.062422
11
52.888713
21
111.243677
0
LINE
8
Layer 1
10
52.888713
20
111.243677
11
52.888713
21
111.243677
0
LINE
8
Layer 1
10
149.055935
20
107.677029
11
148.889687
21
108.136322
0
LINE
8
Layer 1
10
148.889687
20
108.136322
11
148.851221
21
108.844788
0
LINE
8
Layer 1
10
148.851221
20
108.844788
11
148.932226
21
109.530121
0
LINE
8
Layer 1
10
148.932226
20
109.530121
11
149.124391
21
109.920013
0
LINE
8
Layer 1
10
149.124391
20
109.920013
11
149.183582
21
110.331355
0
LINE
8
Layer 1
10
149.183582
20
110.331355
11
148.865731
21
111.149240
0
LINE
8
Layer 1
10
148.865731
20
111.149240
11
148.395069
21
112.260399
0
LINE
8
Layer 1
10
148.395069
20
112.260399
11
148.141564
21
113.330915
0
LINE
8
Layer 1
10
148.141564
20
113.330915
11
148.102988
21
114.376931
0
LINE
8
Layer 1
10
148.102988
20
114.376931
11
148.277114
21
115.414589
0
LINE
8
Layer 1
10
148.277114
20
115.414589
11
148.613477
21
116.402574
0
LINE
8
Layer 1
10
148.613477
20
116.402574
11
149.057848
21
117.261317
0
LINE
8
Layer 1
10
149.057848
20
117.261317
11
149.614290
21
117.993863
0
LINE
8
Layer 1
10
149.614290
20
117.993863
11
150.286863
21
118.603256
0
LINE
8
Layer 1
10
150.286863
20
118.603256
11
151.079629
21
119.092542
0
LINE
8
Layer 1
10
151.079629
20
119.092542
11
151.996648
21
119.464764
0
LINE
8
Layer 1
10
151.996648
20
119.464764
11
154.219693
21
119.870200
0
LINE
8
Layer 1
10
154.219693
20
119.870200
11
156.000540
21
119.853142
0
LINE
8
Layer 1
10
156.000540
20
119.853142
11
157.534511
21
119.264362
0
LINE
8
Layer 1
10
157.534511
20
119.264362
11
158.940009
21
118.280754
0
LINE
8
Layer 1
10
158.940009
20
118.280754
11
159.972484
21
117.006328
0
LINE
8
Layer 1
10
159.972484
20
117.006328
11
160.627100
21
115.537934
0
LINE
8
Layer 1
10
160.627100
20
115.537934
11
160.899024
21
113.972425
0
LINE
8
Layer 1
10
160.899024
20
113.972425
11
160.783419
21
112.406651
0
LINE
8
Layer 1
10
160.783419
20
112.406651
11
160.275451
21
110.937462
0
LINE
8
Layer 1
10
160.275451
20
110.937462
11
159.370285
21
109.661711
0
LINE
8
Layer 1
10
159.370285
20
109.661711
11
158.063085
21
108.676248
0
LINE
8
Layer 1
10
158.063085
20
108.676248
11
157.358812
21
108.413758
0
LINE
8
Layer 1
10
157.358812
20
108.413758
11
156.874993
21
108.539596
0
LINE
8
Layer 1
10
156.874993
20
108.539596
11
156.566910
21
109.092066
0
LINE
8
Layer 1
10
156.566910
20
109.092066
11
156.389843
21
110.109474
0
LINE
8
Layer 1
10
156.389843
20
110.109474
11
156.375124
21
111.447887
0
LINE
8
Layer 1
10
156.375124
20
111.447887
11
156.810289
21
112.234830
0
LINE
8
Layer 1
10
156.810289
20
112.234830
11
157.181154
21
112.785175
0
LINE
8
Layer 1
10
157.181154
20
112.785175
11
157.340624
21
113.366789
0
LINE
8
Layer 1
10
157.340624
20
113.366789
11
157.306741
21
113.947418
0
LINE
8
Layer 1
10
157.306741
20
113.947418
11
157.097543
21
114.494807
0
LINE
8
Layer 1
10
157.097543
20
114.494807
11
156.731071
21
114.976701
0
LINE
8
Layer 1
10
156.731071
20
114.976701
11
156.225364
21
115.360845
0
LINE
8
Layer 1
10
156.225364
20
115.360845
11
155.598462
21
115.614985
0
LINE
8
Layer 1
10
155.598462
20
115.614985
11
154.868406
21
115.706866
0
LINE
8
Layer 1
10
154.868406
20
115.706866
11
153.327549
21
115.430971
0
LINE
8
Layer 1
10
153.327549
20
115.430971
11
152.172588
21
114.697468
0
LINE
8
Layer 1
10
152.172588
20
114.697468
11
151.783953
21
114.203262
0
LINE
8
Layer 1
10
151.783953
20
114.203262
11
151.544753
21
113.647632
0
LINE
8
Layer 1
10
151.544753
20
113.647632
11
151.472643
21
113.048237
0
LINE
8
Layer 1
10
151.472643
20
113.048237
11
151.585275
21
112.422737
0
LINE
8
Layer 1
10
151.585275
20
112.422737
11
151.880418
21
111.821192
0
LINE
8
Layer 1
10
151.880418
20
111.821192
11
152.198000
21
111.531994
0
LINE
8
Layer 1
10
152.198000
20
111.531994
11
152.429307
21
111.599126
0
LINE
8
Layer 1
10
152.429307
20
111.599126
11
152.465625
21
112.066570
0
LINE
8
Layer 1
10
152.465625
20
112.066570
11
152.457172
21
112.419106
0
LINE
8
Layer 1
10
152.457172
20
112.419106
11
152.601326
21
112.647252
0
LINE
8
Layer 1
10
152.601326
20
112.647252
11
153.624240
21
112.938718
0
LINE
8
Layer 1
10
153.624240
20
112.938718
11
155.015271
21
113.016606
0
LINE
8
Layer 1
10
155.015271
20
113.016606
11
155.503533
21
110.693982
0
LINE
8
Layer 1
10
155.503533
20
110.693982
11
155.709557
21
108.892184
0
LINE
8
Layer 1
10
155.709557
20
108.892184
11
155.662034
21
108.431290
0
LINE
8
Layer 1
10
155.662034
20
108.431290
11
155.514613
21
108.158503
0
LINE
8
Layer 1
10
155.514613
20
108.158503
11
154.388953
21
107.864477
0
LINE
8
Layer 1
10
154.388953
20
107.864477
11
152.264962
21
107.636103
0
LINE
8
Layer 1
10
152.264962
20
107.636103
11
150.151127
21
107.548561
0
LINE
8
Layer 1
10
150.151127
20
107.548561
11
149.055935
21
107.677029
0
LINE
8
Layer 1
10
149.055935
20
107.677029
11
149.055935
21
107.677029
0
LINE
8
Layer 1
10
54.111045
20
124.054876
11
54.185084
21
124.711976
0
LINE
8
Layer 1
10
54.185084
20
124.711976
11
54.560904
21
125.735311
0
LINE
8
Layer 1
10
54.560904
20
125.735311
11
55.070806
21
126.740763
0
LINE
8
Layer 1
10
55.070806
20
126.740763
11
55.547093
21
127.344212
0
LINE
8
Layer 1
10
55.547093
20
127.344212
11
56.493097
21
127.555879
0
LINE
8
Layer 1
10
56.493097
20
127.555879
11
57.005643
21
127.740833
0
LINE
8
Layer 1
10
57.005643
20
127.740833
11
57.414575
21
128.197202
0
LINE
8
Layer 1
10
57.414575
20
128.197202
11
57.637328
21
128.788102
0
LINE
8
Layer 1
10
57.637328
20
128.788102
11
57.591336
21
129.376647
0
LINE
8
Layer 1
10
57.591336
20
129.376647
11
57.313298
21
129.742004
0
LINE
8
Layer 1
10
57.313298
20
129.742004
11
56.876685
21
129.676063
0
LINE
8
Layer 1
10
56.876685
20
129.676063
11
56.221464
21
129.146055
0
LINE
8
Layer 1
10
56.221464
20
129.146055
11
55.287601
21
128.119214
0
LINE
8
Layer 1
10
55.287601
20
128.119214
11
53.941175
21
126.768877
0
LINE
8
Layer 1
10
53.941175
20
126.768877
11
52.670835
21
126.036096
0
LINE
8
Layer 1
10
52.670835
20
126.036096
11
51.367602
21
125.883375
0
LINE
8
Layer 1
10
51.367602
20
125.883375
11
49.922495
21
126.273216
0
LINE
8
Layer 1
10
49.922495
20
126.273216
11
49.125765
21
126.784090
0
LINE
8
Layer 1
10
49.125765
20
126.784090
11
48.451752
21
127.542136
0
LINE
8
Layer 1
10
48.451752
20
127.542136
11
47.984928
21
128.425794
0
LINE
8
Layer 1
10
47.984928
20
128.425794
11
47.809768
21
129.313503
0
LINE
8
Layer 1
10
47.809768
20
129.313503
11
47.906266
21
130.158161
0
LINE
8
Layer 1
10
47.906266
20
130.158161
11
48.175681
21
131.083618
0
LINE
8
Layer 1
10
48.175681
20
131.083618
11
49.099770
21
132.962451
0
LINE
8
Layer 1
10
49.099770
20
132.962451
11
50.315062
21
134.521042
0
LINE
8
Layer 1
10
50.315062
20
134.521042
11
50.948479
21
135.046197
0
LINE
8
Layer 1
10
50.948479
20
135.046197
11
51.554580
21
135.330432
0
LINE
8
Layer 1
10
51.554580
20
135.330432
11
52.482727
21
135.458748
0
LINE
8
Layer 1
10
52.482727
20
135.458748
11
53.327068
21
135.395020
0
LINE
8
Layer 1
10
53.327068
20
135.395020
11
53.960092
21
135.164633
0
LINE
8
Layer 1
10
53.960092
20
135.164633
11
54.254284
21
134.792974
0
LINE
8
Layer 1
10
54.254284
20
134.792974
11
54.180168
21
133.981706
0
LINE
8
Layer 1
10
54.180168
20
133.981706
11
53.781604
21
133.035504
0
LINE
8
Layer 1
10
53.781604
20
133.035504
11
53.176883
21
132.168190
0
LINE
8
Layer 1
10
53.176883
20
132.168190
11
52.484299
21
131.593590
0
LINE
8
Layer 1
10
52.484299
20
131.593590
11
51.474262
21
130.885949
0
LINE
8
Layer 1
10
51.474262
20
130.885949
11
51.264249
21
130.499758
0
LINE
8
Layer 1
10
51.264249
20
130.499758
11
51.199700
21
130.029644
0
LINE
8
Layer 1
10
51.199700
20
130.029644
11
51.315043
21
129.646454
0
LINE
8
Layer 1
10
51.315043
20
129.646454
11
51.613639
21
129.557496
0
LINE
8
Layer 1
10
51.613639
20
129.557496
11
52.010313
21
129.750074
0
LINE
8
Layer 1
10
52.010313
20
129.750074
11
52.419891
21
130.211494
0
LINE
8
Layer 1
10
52.419891
20
130.211494
11
53.221236
21
131.225680
0
LINE
8
Layer 1
10
53.221236
20
131.225680
11
54.272231
21
132.293204
0
LINE
8
Layer 1
10
54.272231
20
132.293204
11
55.346285
21
133.203207
0
LINE
8
Layer 1
10
55.346285
20
133.203207
11
56.216810
21
133.744829
0
LINE
8
Layer 1
10
56.216810
20
133.744829
11
57.197281
21
133.963296
0
LINE
8
Layer 1
10
57.197281
20
133.963296
11
58.459156
21
133.573052
0
LINE
8
Layer 1
10
58.459156
20
133.573052
11
59.541350
21
132.969327
0
LINE
8
Layer 1
10
59.541350
20
132.969327
11
60.280117
21
132.162880
0
LINE
8
Layer 1
10
60.280117
20
132.162880
11
60.706270
21
131.104383
0
LINE
8
Layer 1
10
60.706270
20
131.104383
11
60.850622
21
129.744507
0
LINE
8
Layer 1
10
60.850622
20
129.744507
11
60.620276
21
128.019195
0
LINE
8
Layer 1
10
60.620276
20
128.019195
11
59.939671
21
126.408587
0
LINE
8
Layer 1
10
59.939671
20
126.408587
11
58.871550
21
125.020279
0
LINE
8
Layer 1
10
58.871550
20
125.020279
11
57.478653
21
123.961866
0
LINE
8
Layer 1
10
57.478653
20
123.961866
11
56.588684
21
123.678605
0
LINE
8
Layer 1
10
56.588684
20
123.678605
11
55.524553
21
123.605381
0
LINE
8
Layer 1
10
55.524553
20
123.605381
11
54.595570
21
123.733652
0
LINE
8
Layer 1
10
54.595570
20
123.733652
11
54.111045
21
124.054876
0
LINE
8
Layer 1
10
54.111045
20
124.054876
11
54.111045
21
124.054876
0
LINE
8
Layer 1
10
144.217585
20
127.270027
11
143.760074
21
128.397339
0
LINE
8
Layer 1
10
143.760074
20
128.397339
11
143.647422
21
129.061058
0
LINE
8
Layer 1
10
143.647422
20
129.061058
11
144.215634
21
129.493319
0
LINE
8
Layer 1
10
144.215634
20
129.493319
11
145.395089
21
130.064143
0
LINE
8
Layer 1
10
145.395089
20
130.064143
11
149.191409
21
131.739467
0
LINE
8
Layer 1
10
149.191409
20
131.739467
11
151.102046
21
132.732935
0
LINE
8
Layer 1
10
151.102046
20
132.732935
11
150.678713
21
133.866670
0
LINE
8
Layer 1
10
150.678713
20
133.866670
11
150.255379
21
135.315915
0
LINE
8
Layer 1
10
150.255379
20
135.315915
11
150.642098
21
135.820784
0
LINE
8
Layer 1
10
150.642098
20
135.820784
11
151.519770
21
136.364372
0
LINE
8
Layer 1
10
151.519770
20
136.364372
11
152.464666
21
136.734295
0
LINE
8
Layer 1
10
152.464666
20
136.734295
11
153.053057
21
136.718173
0
LINE
8
Layer 1
10
153.053057
20
136.718173
11
155.300334
21
132.139654
0
LINE
8
Layer 1
10
155.300334
20
132.139654
11
157.310935
21
127.543981
0
LINE
8
Layer 1
10
157.310935
20
127.543981
11
156.920158
21
127.159663
0
LINE
8
Layer 1
10
156.920158
20
127.159663
11
156.023296
21
126.713900
0
LINE
8
Layer 1
10
156.023296
20
126.713900
11
155.033550
21
126.377911
0
LINE
8
Layer 1
10
155.033550
20
126.377911
11
154.364123
21
126.322912
0
LINE
8
Layer 1
10
154.364123
20
126.322912
11
154.001843
21
126.635451
0
LINE
8
Layer 1
10
154.001843
20
126.635451
11
153.755338
21
127.147227
0
LINE
8
Layer 1
10
153.755338
20
127.147227
11
153.481888
21
127.751483
0
LINE
8
Layer 1
10
153.481888
20
127.751483
11
153.054820
21
128.286372
0
LINE
8
Layer 1
10
153.054820
20
128.286372
11
152.687830
21
128.528746
0
LINE
8
Layer 1
10
152.687830
20
128.528746
11
152.161927
21
128.518426
0
LINE
8
Layer 1
10
152.161927
20
128.518426
11
149.481870
21
127.479741
0
LINE
8
Layer 1
10
149.481870
20
127.479741
11
146.845951
21
126.381765
0
LINE
8
Layer 1
10
146.845951
20
126.381765
11
145.446725
21
125.995035
0
LINE
8
Layer 1
10
145.446725
20
125.995035
11
145.043624
21
126.061724
0
LINE
8
Layer 1
10
145.043624
20
126.061724
11
144.748999
21
126.298229
0
LINE
8
Layer 1
10
144.748999
20
126.298229
11
144.217585
21
127.270027
0
LINE
8
Layer 1
10
144.217585
20
127.270027
11
144.217585
21
127.270027
0
LINE
8
Layer 1
10
141.729310
20
133.042747
11
140.390179
21
134.060875
0
LINE
8
Layer 1
10
140.390179
20
134.060875
11
139.241372
21
135.510628
0
LINE
8
Layer 1
10
139.241372
20
135.510628
11
138.436012
21
137.149953
0
LINE
8
Layer 1
10
138.436012
20
137.149953
11
138.127224
21
138.736798
0
LINE
8
Layer 1
10
138.127224
20
138.736798
11
138.284431
21
139.733314
0
LINE
8
Layer 1
10
138.284431
20
139.733314
11
138.693710
21
140.725948
0
LINE
8
Layer 1
10
138.693710
20
140.725948
11
139.243710
21
141.508629
0
LINE
8
Layer 1
10
139.243710
20
141.508629
11
139.823083
21
141.875287
0
LINE
8
Layer 1
10
139.823083
20
141.875287
11
140.362025
21
141.571793
0
LINE
8
Layer 1
10
140.362025
20
141.571793
11
141.077250
21
140.748351
0
LINE
8
Layer 1
10
141.077250
20
140.748351
11
141.734545
21
139.549872
0
LINE
8
Layer 1
10
141.734545
20
139.549872
11
141.826375
21
138.336686
0
LINE
8
Layer 1
10
141.826375
20
138.336686
11
141.874381
21
137.443619
0
LINE
8
Layer 1
10
141.874381
20
137.443619
11
142.131909
21
136.708747
0
LINE
8
Layer 1
10
142.131909
20
136.708747
11
142.555689
21
136.210390
0
LINE
8
Layer 1
10
142.555689
20
136.210390
11
143.102454
21
136.026866
0
LINE
8
Layer 1
10
143.102454
20
136.026866
11
143.398611
21
136.189631
0
LINE
8
Layer 1
10
143.398611
20
136.189631
11
143.446074
21
136.705587
0
LINE
8
Layer 1
10
143.446074
20
136.705587
11
142.776490
21
138.963042
0
LINE
8
Layer 1
10
142.776490
20
138.963042
11
142.300612
21
140.341012
0
LINE
8
Layer 1
10
142.300612
20
140.341012
11
142.112074
21
141.316133
0
LINE
8
Layer 1
10
142.112074
20
141.316133
11
142.197180
21
142.124581
0
LINE
8
Layer 1
10
142.197180
20
142.124581
11
142.542235
21
143.002533
0
LINE
8
Layer 1
10
142.542235
20
143.002533
11
142.939084
21
143.642142
0
LINE
8
Layer 1
10
142.939084
20
143.642142
11
143.455406
21
144.174561
0
LINE
8
Layer 1
10
143.455406
20
144.174561
11
144.730661
21
144.880250
0
LINE
8
Layer 1
10
144.730661
20
144.880250
11
146.136372
21
145.044447
0
LINE
8
Layer 1
10
146.136372
20
145.044447
11
146.815766
21
144.899999
0
LINE
8
Layer 1
10
146.815766
20
144.899999
11
147.440915
21
144.591995
0
LINE
8
Layer 1
10
147.440915
20
144.591995
11
148.895027
21
143.404543
0
LINE
8
Layer 1
10
148.895027
20
143.404543
11
150.055534
21
142.031418
0
LINE
8
Layer 1
10
150.055534
20
142.031418
11
150.824014
21
140.614954
0
LINE
8
Layer 1
10
150.824014
20
140.614954
11
151.102046
21
139.297481
0
LINE
8
Layer 1
10
151.102046
20
139.297481
11
150.964899
21
138.488590
0
LINE
8
Layer 1
10
150.964899
20
138.488590
11
150.621707
21
137.602827
0
LINE
8
Layer 1
10
150.621707
20
137.602827
11
150.174842
21
136.852225
0
LINE
8
Layer 1
10
150.174842
20
136.852225
11
149.726675
21
136.448817
0
LINE
8
Layer 1
10
149.726675
20
136.448817
11
149.424826
21
136.448845
0
LINE
8
Layer 1
10
149.424826
20
136.448845
11
149.071599
21
136.629202
0
LINE
8
Layer 1
10
149.071599
20
136.629202
11
148.323187
21
137.383908
0
LINE
8
Layer 1
10
148.323187
20
137.383908
11
147.705790
21
138.418951
0
LINE
8
Layer 1
10
147.705790
20
138.418951
11
147.443754
21
139.440347
0
LINE
8
Layer 1
10
147.443754
20
139.440347
11
147.288230
21
140.323933
0
LINE
8
Layer 1
10
147.288230
20
140.323933
11
146.866983
21
140.967322
0
LINE
8
Layer 1
10
146.866983
20
140.967322
11
146.333110
21
141.322519
0
LINE
8
Layer 1
10
146.333110
20
141.322519
11
146.103244
21
141.157741
0
LINE
8
Layer 1
10
146.103244
20
141.157741
11
146.179989
21
140.487196
0
LINE
8
Layer 1
10
146.179989
20
140.487196
11
146.565950
21
139.325096
0
LINE
8
Layer 1
10
146.565950
20
139.325096
11
147.078307
21
137.696549
0
LINE
8
Layer 1
10
147.078307
20
137.696549
11
147.364038
21
136.232945
0
LINE
8
Layer 1
10
147.364038
20
136.232945
11
147.405386
21
135.462462
0
LINE
8
Layer 1
10
147.405386
20
135.462462
11
147.303549
21
134.919816
0
LINE
8
Layer 1
10
147.303549
20
134.919816
11
146.982218
21
134.416374
0
LINE
8
Layer 1
10
146.982218
20
134.416374
11
146.365087
21
133.763501
0
LINE
8
Layer 1
10
146.365087
20
133.763501
11
145.200399
21
132.826103
0
LINE
8
Layer 1
10
145.200399
20
132.826103
11
144.634542
21
132.675515
0
LINE
8
Layer 1
10
144.634542
20
132.675515
11
143.868027
21
132.641938
0
LINE
8
Layer 1
10
143.868027
20
132.641938
11
142.673103
21
132.760394
0
LINE
8
Layer 1
10
142.673103
20
132.760394
11
141.729310
21
133.042747
0
LINE
8
Layer 1
10
141.729310
20
133.042747
11
141.729310
21
133.042747
0
LINE
8
Layer 1
10
61.073157
20
135.613992
11
57.113381
21
138.334869
0
LINE
8
Layer 1
10
57.113381
20
138.334869
11
56.439699
21
138.531766
0
LINE
8
Layer 1
10
56.439699
20
138.531766
11
56.275379
21
138.143533
0
LINE
8
Layer 1
10
56.275379
20
138.143533
11
56.205784
21
137.844554
0
LINE
8
Layer 1
10
56.205784
20
137.844554
11
56.038459
21
137.720200
0
LINE
8
Layer 1
10
56.038459
20
137.720200
11
55.776700
21
137.512943
0
LINE
8
Layer 1
10
55.776700
20
137.512943
11
55.480063
21
137.014644
0
LINE
8
Layer 1
10
55.480063
20
137.014644
11
55.121361
21
136.516346
0
LINE
8
Layer 1
10
55.121361
20
136.516346
11
54.710378
21
136.309089
0
LINE
8
Layer 1
10
54.710378
20
136.309089
11
54.048356
21
136.538841
0
LINE
8
Layer 1
10
54.048356
20
136.538841
11
53.260263
21
137.087027
0
LINE
8
Layer 1
10
53.260263
20
137.087027
11
52.600700
21
137.742039
0
LINE
8
Layer 1
10
52.600700
20
137.742039
11
52.324268
21
138.292270
0
LINE
8
Layer 1
10
52.324268
20
138.292270
11
52.683141
21
139.091819
0
LINE
8
Layer 1
10
52.683141
20
139.091819
11
53.545963
21
140.304884
0
LINE
8
Layer 1
10
53.545963
20
140.304884
11
56.392843
21
144.017963
0
LINE
8
Layer 1
10
56.392843
20
144.017963
11
57.653225
21
145.618834
0
LINE
8
Layer 1
10
57.653225
20
145.618834
11
58.401331
21
146.370593
0
LINE
8
Layer 1
10
58.401331
20
146.370593
11
58.968695
21
146.234035
0
LINE
8
Layer 1
10
58.968695
20
146.234035
11
59.768561
21
145.721988
0
LINE
8
Layer 1
10
59.768561
20
145.721988
11
60.482211
21
145.077909
0
LINE
8
Layer 1
10
60.482211
20
145.077909
11
60.790926
21
144.545259
0
LINE
8
Layer 1
10
60.790926
20
144.545259
11
60.058825
21
143.213805
0
LINE
8
Layer 1
10
60.058825
20
143.213805
11
59.570300
21
142.461524
0
LINE
8
Layer 1
10
59.570300
20
142.461524
11
59.423825
21
142.000715
0
LINE
8
Layer 1
10
59.423825
20
142.000715
11
62.484268
21
139.534663
0
LINE
8
Layer 1
10
62.484268
20
139.534663
11
65.240894
21
137.392497
0
LINE
8
Layer 1
10
65.240894
20
137.392497
11
65.735023
21
136.884325
0
LINE
8
Layer 1
10
65.735023
20
136.884325
11
65.866614
21
136.551275
0
LINE
8
Layer 1
10
65.866614
20
136.551275
11
65.573567
21
135.990881
0
LINE
8
Layer 1
10
65.573567
20
135.990881
11
64.889981
21
135.160137
0
LINE
8
Layer 1
10
64.889981
20
135.160137
11
64.131347
21
134.405788
0
LINE
8
Layer 1
10
64.131347
20
134.405788
11
63.613157
21
134.074580
0
LINE
8
Layer 1
10
63.613157
20
134.074580
11
62.692407
21
134.524363
0
LINE
8
Layer 1
10
62.692407
20
134.524363
11
61.073157
21
135.613992
0
LINE
8
Layer 1
10
61.073157
20
135.613992
11
61.073157
21
135.613992
0
LINE
8
Layer 1
10
65.344531
20
138.778533
11
64.748452
21
140.401311
0
LINE
8
Layer 1
10
64.748452
20
140.401311
11
63.181292
21
144.211311
0
LINE
8
Layer 1
10
63.181292
20
144.211311
11
61.604009
21
147.946926
0
LINE
8
Layer 1
10
61.604009
20
147.946926
11
61.355379
21
148.831670
0
LINE
8
Layer 1
10
61.355379
20
148.831670
11
61.718138
21
149.472680
0
LINE
8
Layer 1
10
61.718138
20
149.472680
11
62.557679
21
150.383379
0
LINE
8
Layer 1
10
62.557679
20
150.383379
11
63.500901
21
151.201875
0
LINE
8
Layer 1
10
63.500901
20
151.201875
11
64.174700
21
151.566276
0
LINE
8
Layer 1
10
64.174700
20
151.566276
11
66.190014
21
150.758139
0
LINE
8
Layer 1
10
66.190014
20
150.758139
11
69.936227
21
148.923029
0
LINE
8
Layer 1
10
69.936227
20
148.923029
11
73.551873
21
147.008943
0
LINE
8
Layer 1
10
73.551873
20
147.008943
11
75.175485
21
145.963874
0
LINE
8
Layer 1
10
75.175485
20
145.963874
11
74.829352
21
145.375846
0
LINE
8
Layer 1
10
74.829352
20
145.375846
11
73.984824
21
144.473363
0
LINE
8
Layer 1
10
73.984824
20
144.473363
11
73.227536
21
143.832008
0
LINE
8
Layer 1
10
73.227536
20
143.832008
11
72.608112
21
143.521718
0
LINE
8
Layer 1
10
72.608112
20
143.521718
11
71.989127
21
143.506352
0
LINE
8
Layer 1
10
71.989127
20
143.506352
11
71.233157
21
143.749773
0
LINE
8
Layer 1
10
71.233157
20
143.749773
11
70.604433
21
143.583455
0
LINE
8
Layer 1
10
70.604433
20
143.583455
11
69.611006
21
142.810190
0
LINE
8
Layer 1
10
69.611006
20
142.810190
11
68.643829
21
141.750450
0
LINE
8
Layer 1
10
68.643829
20
141.750450
11
68.595795
21
141.386476
0
LINE
8
Layer 1
10
68.595795
20
141.386476
11
68.752712
21
140.947750
0
LINE
8
Layer 1
10
68.752712
20
140.947750
11
68.908233
21
140.505246
0
LINE
8
Layer 1
10
68.908233
20
140.505246
11
68.847256
21
140.127061
0
LINE
8
Layer 1
10
68.847256
20
140.127061
11
67.780735
21
138.960290
0
LINE
8
Layer 1
10
67.780735
20
138.960290
11
66.741257
21
138.084476
0
LINE
8
Layer 1
10
66.741257
20
138.084476
11
66.085170
21
137.720200
0
LINE
8
Layer 1
10
66.085170
20
137.720200
11
65.709592
21
138.031085
0
LINE
8
Layer 1
10
65.709592
20
138.031085
11
65.344531
21
138.778533
0
LINE
8
Layer 1
10
65.344531
20
138.778533
11
65.344531
21
138.778533
0
LINE
8
Layer 1
10
67.786939
20
145.383829
11
67.630150
21
145.778269
0
LINE
8
Layer 1
10
67.630150
20
145.778269
11
67.138660
21
146.136552
0
LINE
8
Layer 1
10
67.138660
20
146.136552
11
66.289743
21
146.409479
0
LINE
8
Layer 1
10
66.289743
20
146.409479
11
66.585798
21
145.604422
0
LINE
8
Layer 1
10
66.585798
20
145.604422
11
66.943867
21
145.092245
0
LINE
8
Layer 1
10
66.943867
20
145.092245
11
67.300641
21
144.877917
0
LINE
8
Layer 1
10
67.300641
20
144.877917
11
67.600279
21
144.971693
0
LINE
8
Layer 1
10
67.600279
20
144.971693
11
67.786939
21
145.383829
0
LINE
8
Layer 1
10
67.786939
20
145.383829
11
67.786939
21
145.383829
0
LINE
8
Layer 1
10
135.085935
20
140.773819
11
134.344944
21
141.502431
0
LINE
8
Layer 1
10
134.344944
20
141.502431
11
133.970078
21
142.088135
0
LINE
8
Layer 1
10
133.970078
20
142.088135
11
133.941473
21
142.584187
0
LINE
8
Layer 1
10
133.941473
20
142.584187
11
134.239268
21
143.043839
0
LINE
8
Layer 1
10
134.239268
20
143.043839
11
134.360594
21
143.268469
0
LINE
8
Layer 1
10
134.360594
20
143.268469
11
134.278011
21
143.550671
0
LINE
8
Layer 1
10
134.278011
20
143.550671
11
133.368429
21
144.511395
0
LINE
8
Layer 1
10
133.368429
20
144.511395
11
132.529999
21
145.178984
0
LINE
8
Layer 1
10
132.529999
20
145.178984
11
131.827219
21
145.544990
0
LINE
8
Layer 1
10
131.827219
20
145.544990
11
131.283725
21
145.601399
0
LINE
8
Layer 1
10
131.283725
20
145.601399
11
130.923157
21
145.340200
0
LINE
8
Layer 1
10
130.923157
20
145.340200
11
130.381790
21
145.057978
0
LINE
8
Layer 1
10
130.381790
20
145.057978
11
129.747301
21
145.403133
0
LINE
8
Layer 1
10
129.747301
20
145.403133
11
128.739373
21
146.187556
0
LINE
8
Layer 1
10
128.739373
20
146.187556
11
127.806052
21
147.034683
0
LINE
8
Layer 1
10
127.806052
20
147.034683
11
127.395379
21
147.567949
0
LINE
8
Layer 1
10
127.395379
20
147.567949
11
129.157403
21
148.718087
0
LINE
8
Layer 1
10
129.157403
20
148.718087
11
135.858522
21
152.254248
0
LINE
8
Layer 1
10
135.858522
20
152.254248
11
138.529455
21
153.517589
0
LINE
8
Layer 1
10
138.529455
20
153.517589
11
139.159965
21
153.150550
0
LINE
8
Layer 1
10
139.159965
20
153.150550
11
140.080067
21
152.316335
0
LINE
8
Layer 1
10
140.080067
20
152.316335
11
140.916272
21
151.389454
0
LINE
8
Layer 1
10
140.916272
20
151.389454
11
141.295086
21
150.744417
0
LINE
8
Layer 1
10
141.295086
20
150.744417
11
140.883922
21
149.291311
0
LINE
8
Layer 1
10
140.883922
20
149.291311
11
139.117228
21
144.775755
0
LINE
8
Layer 1
10
139.117228
20
144.775755
11
137.498907
21
140.471866
0
LINE
8
Layer 1
10
137.498907
20
140.471866
11
137.158652
21
139.904519
0
LINE
8
Layer 1
10
137.158652
20
139.904519
11
136.684818
21
139.760504
0
LINE
8
Layer 1
10
136.684818
20
139.760504
11
136.014785
21
140.047659
0
LINE
8
Layer 1
10
136.014785
20
140.047659
11
135.085935
21
140.773819
0
LINE
8
Layer 1
10
135.085935
20
140.773819
11
135.085935
21
140.773819
0
LINE
8
Layer 1
10
136.098966
20
147.470145
11
136.426490
21
148.323320
0
LINE
8
Layer 1
10
136.426490
20
148.323320
11
135.911858
21
148.120852
0
LINE
8
Layer 1
10
135.911858
20
148.120852
11
134.775451
21
147.419949
0
LINE
8
Layer 1
10
134.775451
20
147.419949
11
134.862663
21
147.052309
0
LINE
8
Layer 1
10
134.862663
20
147.052309
11
135.144130
21
146.792545
0
LINE
8
Layer 1
10
135.144130
20
146.792545
11
135.474351
21
146.785852
0
LINE
8
Layer 1
10
135.474351
20
146.785852
11
135.807804
21
147.016847
0
LINE
8
Layer 1
10
135.807804
20
147.016847
11
136.098966
21
147.470145
0
LINE
8
Layer 1
10
136.098966
20
147.470145
11
136.098966
21
147.470145
0
LINE
8
Layer 1
10
74.830796
20
147.668533
11
72.776012
21
151.050269
0
LINE
8
Layer 1
10
72.776012
20
151.050269
11
71.917209
21
152.393642
0
LINE
8
Layer 1
10
71.917209
20
152.393642
11
71.424523
21
152.955269
0
LINE
8
Layer 1
10
71.424523
20
152.955269
11
69.931506
21
152.221176
0
LINE
8
Layer 1
10
69.931506
20
152.221176
11
68.769045
21
151.654772
0
LINE
8
Layer 1
10
68.769045
20
151.654772
11
68.454693
21
151.716847
0
LINE
8
Layer 1
10
68.454693
20
151.716847
11
68.117362
21
151.982695
0
LINE
8
Layer 1
10
68.117362
20
151.982695
11
67.564268
21
152.770053
0
LINE
8
Layer 1
10
67.564268
20
152.770053
11
67.155212
21
153.508868
0
LINE
8
Layer 1
10
67.155212
20
153.508868
11
66.924299
21
153.920634
0
LINE
8
Layer 1
10
66.924299
20
153.920634
11
66.943546
21
154.275897
0
LINE
8
Layer 1
10
66.943546
20
154.275897
11
71.270852
21
157.155462
0
LINE
8
Layer 1
10
71.270852
20
157.155462
11
75.704308
21
159.733533
0
LINE
8
Layer 1
10
75.704308
20
159.733533
11
76.148285
21
159.372333
0
LINE
8
Layer 1
10
76.148285
20
159.372333
11
76.699846
21
158.544443
0
LINE
8
Layer 1
10
76.699846
20
158.544443
11
77.140195
21
157.633429
0
LINE
8
Layer 1
10
77.140195
20
157.633429
11
77.250538
21
157.022856
0
LINE
8
Layer 1
10
77.250538
20
157.022856
11
77.012223
21
156.712996
0
LINE
8
Layer 1
10
77.012223
20
156.712996
11
76.639863
21
156.490791
0
LINE
8
Layer 1
10
76.639863
20
156.490791
11
75.534565
21
155.797800
0
LINE
8
Layer 1
10
75.534565
20
155.797800
11
74.897082
21
155.264592
0
LINE
8
Layer 1
10
74.897082
20
155.264592
11
75.481375
21
154.324064
0
LINE
8
Layer 1
10
75.481375
20
154.324064
11
77.459411
21
151.187582
0
LINE
8
Layer 1
10
77.459411
20
151.187582
11
78.454558
21
149.485092
0
LINE
8
Layer 1
10
78.454558
20
149.485092
11
78.804673
21
148.372408
0
LINE
8
Layer 1
10
78.804673
20
148.372408
11
78.740472
21
147.959335
0
LINE
8
Layer 1
10
78.740472
20
147.959335
11
78.518168
21
147.600225
0
LINE
8
Layer 1
10
78.518168
20
147.600225
11
77.603457
21
146.919239
0
LINE
8
Layer 1
10
77.603457
20
146.919239
11
76.059908
21
146.186866
0
LINE
8
Layer 1
10
76.059908
20
146.186866
11
75.577642
21
146.622106
0
LINE
8
Layer 1
10
75.577642
20
146.622106
11
74.830796
21
147.668533
0
LINE
8
Layer 1
10
74.830796
20
147.668533
11
74.830796
21
147.668533
0
LINE
8
Layer 1
10
124.714268
20
148.631075
11
122.879824
21
149.199792
0
LINE
8
Layer 1
10
122.879824
20
149.199792
11
121.241716
21
150.055739
0
LINE
8
Layer 1
10
121.241716
20
150.055739
11
120.033863
21
151.255511
0
LINE
8
Layer 1
10
120.033863
20
151.255511
11
119.262303
21
152.705069
0
LINE
8
Layer 1
10
119.262303
20
152.705069
11
118.933073
21
154.310376
0
LINE
8
Layer 1
10
118.933073
20
154.310376
11
119.052211
21
155.977395
0
LINE
8
Layer 1
10
119.052211
20
155.977395
11
119.625753
21
157.612088
0
LINE
8
Layer 1
10
119.625753
20
157.612088
11
120.659739
21
159.120416
0
LINE
8
Layer 1
10
120.659739
20
159.120416
11
122.160205
21
160.408343
0
LINE
8
Layer 1
10
122.160205
20
160.408343
11
123.406215
21
161.001015
0
LINE
8
Layer 1
10
123.406215
20
161.001015
11
125.062364
21
161.144644
0
LINE
8
Layer 1
10
125.062364
20
161.144644
11
126.979418
21
160.909691
0
LINE
8
Layer 1
10
126.979418
20
160.909691
11
128.684977
21
160.207309
0
LINE
8
Layer 1
10
128.684977
20
160.207309
11
130.172688
21
159.041216
0
LINE
8
Layer 1
10
130.172688
20
159.041216
11
131.436197
21
157.415128
0
LINE
8
Layer 1
10
131.436197
20
157.415128
11
131.770643
21
156.608872
0
LINE
8
Layer 1
10
131.770643
20
156.608872
11
131.912606
21
155.636830
0
LINE
8
Layer 1
10
131.912606
20
155.636830
11
131.876966
21
154.559817
0
LINE
8
Layer 1
10
131.876966
20
154.559817
11
131.678603
21
153.438646
0
LINE
8
Layer 1
10
131.678603
20
153.438646
11
131.332396
21
152.334130
0
LINE
8
Layer 1
10
131.332396
20
152.334130
11
130.853224
21
151.307085
0
LINE
8
Layer 1
10
130.853224
20
151.307085
11
130.255969
21
150.418323
0
LINE
8
Layer 1
10
130.255969
20
150.418323
11
129.555508
21
149.728659
0
LINE
8
Layer 1
10
129.555508
20
149.728659
11
128.486385
21
149.110596
0
LINE
8
Layer 1
10
128.486385
20
149.110596
11
127.235559
21
148.701788
0
LINE
8
Layer 1
10
127.235559
20
148.701788
11
125.934398
21
148.532020
0
LINE
8
Layer 1
10
125.934398
20
148.532020
11
124.714268
21
148.631075
0
LINE
8
Layer 1
10
124.714268
20
148.631075
11
124.714268
21
148.631075
0
LINE
8
Layer 1
10
126.207472
20
152.273294
11
126.836808
21
152.918806
0
LINE
8
Layer 1
10
126.836808
20
152.918806
11
127.399676
21
153.846728
0
LINE
8
Layer 1
10
127.399676
20
153.846728
11
127.804529
21
154.872265
0
LINE
8
Layer 1
10
127.804529
20
154.872265
11
127.959824
21
155.810622
0
LINE
8
Layer 1
10
127.959824
20
155.810622
11
127.870521
21
156.432818
0
LINE
8
Layer 1
10
127.870521
20
156.432818
11
127.586358
21
156.945768
0
LINE
8
Layer 1
10
127.586358
20
156.945768
11
127.082955
21
157.378756
0
LINE
8
Layer 1
10
127.082955
20
157.378756
11
126.335928
21
157.761065
0
LINE
8
Layer 1
10
126.335928
20
157.761065
11
125.813180
21
157.878301
0
LINE
8
Layer 1
10
125.813180
20
157.878301
11
125.286873
21
157.810187
0
LINE
8
Layer 1
10
125.286873
20
157.810187
11
124.291177
21
157.185029
0
LINE
8
Layer 1
10
124.291177
20
157.185029
11
123.484026
21
156.019841
0
LINE
8
Layer 1
10
123.484026
20
156.019841
11
123.000603
21
154.448871
0
LINE
8
Layer 1
10
123.000603
20
154.448871
11
122.973465
21
153.359515
0
LINE
8
Layer 1
10
122.973465
20
153.359515
11
123.539685
21
152.556904
0
LINE
8
Layer 1
10
123.539685
20
152.556904
11
124.176610
21
152.073412
0
LINE
8
Layer 1
10
124.176610
20
152.073412
11
124.840148
21
151.864278
0
LINE
8
Layer 1
10
124.840148
20
151.864278
11
125.520400
21
151.930554
0
LINE
8
Layer 1
10
125.520400
20
151.930554
11
126.207472
21
152.273294
0
LINE
8
Layer 1
10
126.207472
20
152.273294
11
126.207472
21
152.273294
0
LINE
8
Layer 1
10
81.500198
20
150.186966
11
80.340945
21
152.960200
0
LINE
8
Layer 1
10
80.340945
20
152.960200
11
78.322893
21
158.766461
0
LINE
8
Layer 1
10
78.322893
20
158.766461
11
77.919005
21
160.251687
0
LINE
8
Layer 1
10
77.919005
20
160.251687
11
77.903615
21
160.839901
0
LINE
8
Layer 1
10
77.903615
20
160.839901
11
79.558713
21
161.543249
0
LINE
8
Layer 1
10
79.558713
20
161.543249
11
81.534268
21
162.287989
0
LINE
8
Layer 1
10
81.534268
20
162.287989
11
87.085114
21
164.249089
0
LINE
8
Layer 1
10
87.085114
20
164.249089
11
87.391683
21
164.049627
0
LINE
8
Layer 1
10
87.391683
20
164.049627
11
87.743933
21
163.537162
0
LINE
8
Layer 1
10
87.743933
20
163.537162
11
88.296417
21
162.088751
0
LINE
8
Layer 1
10
88.296417
20
162.088751
11
88.368990
21
161.560763
0
LINE
8
Layer 1
10
88.368990
20
161.560763
11
88.182390
21
161.203257
0
LINE
8
Layer 1
10
88.182390
20
161.203257
11
86.273459
21
160.346805
0
LINE
8
Layer 1
10
86.273459
20
160.346805
11
83.293605
21
159.301547
0
LINE
8
Layer 1
10
83.293605
20
159.301547
11
82.748691
21
159.095761
0
LINE
8
Layer 1
10
82.748691
20
159.095761
11
82.522046
21
158.872928
0
LINE
8
Layer 1
10
82.522046
20
158.872928
11
82.671644
21
158.551375
0
LINE
8
Layer 1
10
82.671644
20
158.551375
11
83.154787
21
158.464654
0
LINE
8
Layer 1
10
83.154787
20
158.464654
11
85.327812
21
159.005437
0
LINE
8
Layer 1
10
85.327812
20
159.005437
11
87.017779
21
159.474990
0
LINE
8
Layer 1
10
87.017779
20
159.474990
11
87.973583
21
159.573245
0
LINE
8
Layer 1
10
87.973583
20
159.573245
11
88.320695
21
159.127240
0
LINE
8
Layer 1
10
88.320695
20
159.127240
11
88.583540
21
158.303589
0
LINE
8
Layer 1
10
88.583540
20
158.303589
11
88.685172
21
157.455264
0
LINE
8
Layer 1
10
88.685172
20
157.455264
11
88.548647
21
156.935238
0
LINE
8
Layer 1
10
88.548647
20
156.935238
11
86.190935
21
155.932550
0
LINE
8
Layer 1
10
86.190935
20
155.932550
11
84.101312
21
155.085438
0
LINE
8
Layer 1
10
84.101312
20
155.085438
11
83.964475
21
154.858512
0
LINE
8
Layer 1
10
83.964475
20
154.858512
11
84.118955
21
154.553714
0
LINE
8
Layer 1
10
84.118955
20
154.553714
11
84.343896
21
154.373312
0
LINE
8
Layer 1
10
84.343896
20
154.373312
11
84.821760
21
154.397772
0
LINE
8
Layer 1
10
84.821760
20
154.397772
11
87.178713
21
155.196179
0
LINE
8
Layer 1
10
87.178713
20
155.196179
11
88.927653
21
155.817127
0
LINE
8
Layer 1
10
88.927653
20
155.817127
11
90.007246
21
156.080549
0
LINE
8
Layer 1
10
90.007246
20
156.080549
11
90.554517
21
156.002016
0
LINE
8
Layer 1
10
90.554517
20
156.002016
11
90.706490
21
155.597101
0
LINE
8
Layer 1
10
90.706490
20
155.597101
11
91.147556
21
154.337024
0
LINE
8
Layer 1
10
91.147556
20
154.337024
11
91.398839
21
153.641772
0
LINE
8
Layer 1
10
91.398839
20
153.641772
11
91.270927
21
153.134611
0
LINE
8
Layer 1
10
91.270927
20
153.134611
11
90.705139
21
152.739191
0
LINE
8
Layer 1
10
90.705139
20
152.739191
11
89.642795
21
152.379164
0
LINE
8
Layer 1
10
89.642795
20
152.379164
11
85.910245
21
151.073826
0
LINE
8
Layer 1
10
85.910245
20
151.073826
11
82.720164
21
150.006740
0
LINE
8
Layer 1
10
82.720164
20
150.006740
11
81.923660
21
149.952953
0
LINE
8
Layer 1
10
81.923660
20
149.952953
11
81.500198
21
150.186966
0
LINE
8
Layer 1
10
81.500198
20
150.186966
11
81.500198
21
150.186966
0
LINE
8
Layer 1
10
109.709224
20
154.108232
11
108.236496
21
155.056776
0
LINE
8
Layer 1
10
108.236496
20
155.056776
11
107.341249
21
156.237201
0
LINE
8
Layer 1
10
107.341249
20
156.237201
11
106.892800
21
157.312948
0
LINE
8
Layer 1
10
106.892800
20
157.312948
11
106.660446
21
158.462418
0
LINE
8
Layer 1
10
106.660446
20
158.462418
11
106.634968
21
159.645668
0
LINE
8
Layer 1
10
106.634968
20
159.645668
11
106.807145
21
160.822752
0
LINE
8
Layer 1
10
106.807145
20
160.822752
11
107.167756
21
161.953726
0
LINE
8
Layer 1
10
107.167756
20
161.953726
11
107.707581
21
162.998646
0
LINE
8
Layer 1
10
107.707581
20
162.998646
11
108.417398
21
163.917567
0
LINE
8
Layer 1
10
108.417398
20
163.917567
11
109.287987
21
164.670545
0
LINE
8
Layer 1
10
109.287987
20
164.670545
11
110.015097
21
165.129598
0
LINE
8
Layer 1
10
110.015097
20
165.129598
11
110.683168
21
165.385011
0
LINE
8
Layer 1
10
110.683168
20
165.385011
11
112.815765
21
165.519089
0
LINE
8
Layer 1
10
112.815765
20
165.519089
11
114.944063
21
165.385105
0
LINE
8
Layer 1
10
114.944063
20
165.385105
11
115.662823
21
165.152782
0
LINE
8
Layer 1
10
115.662823
20
165.152782
11
116.422543
21
164.752601
0
LINE
8
Layer 1
10
116.422543
20
164.752601
11
117.363647
21
164.048807
0
LINE
8
Layer 1
10
117.363647
20
164.048807
11
118.076017
21
163.171253
0
LINE
8
Layer 1
10
118.076017
20
163.171253
11
118.570087
21
162.103115
0
LINE
8
Layer 1
10
118.570087
20
162.103115
11
118.856292
21
160.827565
0
LINE
8
Layer 1
10
118.856292
20
160.827565
11
118.872459
21
160.019299
0
LINE
8
Layer 1
10
118.872459
20
160.019299
11
118.577878
21
159.608677
0
LINE
8
Layer 1
10
118.577878
20
159.608677
11
117.869654
21
159.547267
0
LINE
8
Layer 1
10
117.869654
20
159.547267
11
116.644897
21
159.786636
0
LINE
8
Layer 1
10
116.644897
20
159.786636
11
115.401839
21
160.221260
0
LINE
8
Layer 1
10
115.401839
20
160.221260
11
115.121925
21
160.492129
0
LINE
8
Layer 1
10
115.121925
20
160.492129
11
114.977187
21
160.858180
0
LINE
8
Layer 1
10
114.977187
20
160.858180
11
114.653415
21
161.518577
0
LINE
8
Layer 1
10
114.653415
20
161.518577
11
114.095044
21
161.961689
0
LINE
8
Layer 1
10
114.095044
20
161.961689
11
113.391923
21
162.143038
0
LINE
8
Layer 1
10
113.391923
20
162.143038
11
112.633904
21
162.018147
0
LINE
8
Layer 1
10
112.633904
20
162.018147
11
112.096747
21
161.684756
0
LINE
8
Layer 1
10
112.096747
20
161.684756
11
111.640214
21
161.163503
0
LINE
8
Layer 1
10
111.640214
20
161.163503
11
111.022654
21
159.765830
0
LINE
8
Layer 1
10
111.022654
20
159.765830
11
110.888478
21
158.241970
0
LINE
8
Layer 1
10
110.888478
20
158.241970
11
111.036177
21
157.562983
0
LINE
8
Layer 1
10
111.036177
20
157.562983
11
111.344944
21
157.008765
0
LINE
8
Layer 1
10
111.344944
20
157.008765
11
111.898808
21
156.724170
0
LINE
8
Layer 1
10
111.898808
20
156.724170
11
112.733718
21
156.639495
0
LINE
8
Layer 1
10
112.733718
20
156.639495
11
113.570739
21
156.750369
0
LINE
8
Layer 1
10
113.570739
20
156.750369
11
114.130935
21
157.052422
0
LINE
8
Layer 1
10
114.130935
20
157.052422
11
114.548379
21
157.339386
0
LINE
8
Layer 1
10
114.548379
20
157.339386
11
115.177558
21
157.455590
0
LINE
8
Layer 1
10
115.177558
20
157.455590
11
117.039314
21
157.174387
0
LINE
8
Layer 1
10
117.039314
20
157.174387
11
118.040486
21
156.716651
0
LINE
8
Layer 1
10
118.040486
20
156.716651
11
118.247198
21
156.423746
0
LINE
8
Layer 1
10
118.247198
20
156.423746
11
118.255786
21
156.079113
0
LINE
8
Layer 1
10
118.255786
20
156.079113
11
117.671975
21
155.207558
0
LINE
8
Layer 1
10
117.671975
20
155.207558
11
116.275812
21
154.047771
0
LINE
8
Layer 1
10
116.275812
20
154.047771
11
115.035751
21
153.383997
0
LINE
8
Layer 1
10
115.035751
20
153.383997
11
113.281567
21
153.242422
0
LINE
8
Layer 1
10
113.281567
20
153.242422
11
111.429023
21
153.407790
0
LINE
8
Layer 1
10
111.429023
20
153.407790
11
109.709224
21
154.108232
0
LINE
8
Layer 1
10
109.709224
20
154.108232
11
109.709224
21
154.108232
0
LINE
8
Layer 1
10
93.478485
20
153.983571
11
92.626332
21
154.582878
0
LINE
8
Layer 1
10
92.626332
20
154.582878
11
91.919492
21
155.351738
0
LINE
8
Layer 1
10
91.919492
20
155.351738
11
91.454164
21
156.160664
0
LINE
8
Layer 1
10
91.454164
20
156.160664
11
91.326547
21
156.880168
0
LINE
8
Layer 1
10
91.326547
20
156.880168
11
91.414538
21
157.288158
0
LINE
8
Layer 1
10
91.414538
20
157.288158
11
91.646339
21
157.519751
0
LINE
8
Layer 1
10
91.646339
20
157.519751
11
93.068244
21
157.702504
0
LINE
8
Layer 1
10
93.068244
20
157.702504
11
94.497736
21
157.667530
0
LINE
8
Layer 1
10
94.497736
20
157.667530
11
94.860549
21
157.503784
0
LINE
8
Layer 1
10
94.860549
20
157.503784
11
95.130358
21
157.208615
0
LINE
8
Layer 1
10
95.130358
20
157.208615
11
95.622493
21
156.828091
0
LINE
8
Layer 1
10
95.622493
20
156.828091
11
96.331590
21
156.641681
0
LINE
8
Layer 1
10
96.331590
20
156.641681
11
97.097992
21
156.666834
0
LINE
8
Layer 1
10
97.097992
20
156.666834
11
97.762046
21
156.920997
0
LINE
8
Layer 1
10
97.762046
20
156.920997
11
97.972113
21
157.272338
0
LINE
8
Layer 1
10
97.972113
20
157.272338
11
97.640243
21
157.621699
0
LINE
8
Layer 1
10
97.640243
20
157.621699
11
96.839710
21
157.926737
0
LINE
8
Layer 1
10
96.839710
20
157.926737
11
95.643787
21
158.145107
0
LINE
8
Layer 1
10
95.643787
20
158.145107
11
93.532585
21
158.584489
0
LINE
8
Layer 1
10
93.532585
20
158.584489
11
92.725270
21
158.924642
0
LINE
8
Layer 1
10
92.725270
20
158.924642
11
92.075671
21
159.351537
0
LINE
8
Layer 1
10
92.075671
20
159.351537
11
91.577932
21
159.869998
0
LINE
8
Layer 1
10
91.577932
20
159.869998
11
91.226198
21
160.484851
0
LINE
8
Layer 1
10
91.226198
20
160.484851
11
91.014611
21
161.200920
0
LINE
8
Layer 1
10
91.014611
20
161.200920
11
90.937317
21
162.023030
0
LINE
8
Layer 1
10
90.937317
20
162.023030
11
91.055545
21
162.998985
0
LINE
8
Layer 1
10
91.055545
20
162.998985
11
91.449887
21
163.854737
0
LINE
8
Layer 1
10
91.449887
20
163.854737
11
92.136594
21
164.614573
0
LINE
8
Layer 1
10
92.136594
20
164.614573
11
93.131914
21
165.302779
0
LINE
8
Layer 1
10
93.131914
20
165.302779
11
94.439540
21
165.804483
0
LINE
8
Layer 1
10
94.439540
20
165.804483
11
96.350935
21
165.927778
0
LINE
8
Layer 1
10
96.350935
20
165.927778
11
98.025398
21
165.823304
0
LINE
8
Layer 1
10
98.025398
20
165.823304
11
99.078898
21
165.579642
0
LINE
8
Layer 1
10
99.078898
20
165.579642
11
99.763637
21
165.059543
0
LINE
8
Layer 1
10
99.763637
20
165.059543
11
100.339715
21
164.380258
0
LINE
8
Layer 1
10
100.339715
20
164.380258
11
100.719580
21
163.669129
0
LINE
8
Layer 1
10
100.719580
20
163.669129
11
100.815685
21
163.053497
0
LINE
8
Layer 1
10
100.815685
20
163.053497
11
100.712088
21
162.721622
0
LINE
8
Layer 1
10
100.712088
20
162.721622
11
100.462655
21
162.497195
0
LINE
8
Layer 1
10
100.462655
20
162.497195
11
99.210455
21
162.203432
0
LINE
8
Layer 1
10
99.210455
20
162.203432
11
97.818316
21
162.129808
0
LINE
8
Layer 1
10
97.818316
20
162.129808
11
96.811567
21
162.506366
0
LINE
8
Layer 1
10
96.811567
20
162.506366
11
96.110905
21
162.817584
0
LINE
8
Layer 1
10
96.110905
20
162.817584
11
95.512849
21
162.900478
0
LINE
8
Layer 1
10
95.512849
20
162.900478
11
95.096216
21
162.759557
0
LINE
8
Layer 1
10
95.096216
20
162.759557
11
94.939824
21
162.399328
0
LINE
8
Layer 1
10
94.939824
20
162.399328
11
95.020449
21
162.138608
0
LINE
8
Layer 1
10
95.020449
20
162.138608
11
95.395304
21
161.936653
0
LINE
8
Layer 1
10
95.395304
20
161.936653
11
97.825577
21
161.445253
0
LINE
8
Layer 1
10
97.825577
20
161.445253
11
99.732351
21
160.956983
0
LINE
8
Layer 1
10
99.732351
20
160.956983
11
101.026249
21
160.231051
0
LINE
8
Layer 1
10
101.026249
20
160.231051
11
101.460554
21
159.764261
0
LINE
8
Layer 1
10
101.460554
20
159.764261
11
101.762262
21
159.220414
0
LINE
8
Layer 1
10
101.762262
20
159.220414
11
101.995379
21
157.878029
0
LINE
8
Layer 1
10
101.995379
20
157.878029
11
101.818189
21
156.686889
0
LINE
8
Layer 1
10
101.818189
20
156.686889
11
101.286819
21
155.671294
0
LINE
8
Layer 1
10
101.286819
20
155.671294
11
100.401570
21
154.831638
0
LINE
8
Layer 1
10
100.401570
20
154.831638
11
99.162743
21
154.168314
0
LINE
8
Layer 1
10
99.162743
20
154.168314
11
97.689565
21
153.745610
0
LINE
8
Layer 1
10
97.689565
20
153.745610
11
96.097817
21
153.568936
0
LINE
8
Layer 1
10
96.097817
20
153.568936
11
94.617468
21
153.645765
0
LINE
8
Layer 1
10
94.617468
20
153.645765
11
93.478485
21
153.983571
0
LINE
8
Layer 1
10
93.478485
20
153.983571
11
93.478485
21
153.983571
0
LINE
8
Layer 1
10
169.697727
20
165.508155
11
171.185471
21
166.233407
0
LINE
8
Layer 1
10
171.185471
20
166.233407
11
172.422151
21
167.237249
0
LINE
8
Layer 1
10
172.422151
20
167.237249
11
173.387154
21
168.462126
0
LINE
8
Layer 1
10
173.387154
20
168.462126
11
174.059864
21
169.850485
0
LINE
8
Layer 1
10
174.059864
20
169.850485
11
174.419668
21
171.344771
0
LINE
8
Layer 1
10
174.419668
20
171.344771
11
174.445949
21
172.887431
0
LINE
8
Layer 1
10
174.445949
20
172.887431
11
174.118093
21
174.420911
0
LINE
8
Layer 1
10
174.118093
20
174.420911
11
173.415486
21
175.887657
0
LINE
8
Layer 1
10
173.415486
20
175.887657
11
172.681881
21
176.870092
0
LINE
8
Layer 1
10
172.681881
20
176.870092
11
171.837626
21
177.687716
0
LINE
8
Layer 1
10
171.837626
20
177.687716
11
170.894316
21
178.336332
0
LINE
8
Layer 1
10
170.894316
20
178.336332
11
169.863548
21
178.811746
0
LINE
8
Layer 1
10
169.863548
20
178.811746
11
168.756919
21
179.109759
0
LINE
8
Layer 1
10
168.756919
20
179.109759
11
167.586024
21
179.226177
0
LINE
8
Layer 1
10
167.586024
20
179.226177
11
166.362459
21
179.156803
0
LINE
8
Layer 1
10
166.362459
20
179.156803
11
165.097821
21
178.897441
0
LINE
8
Layer 1
10
165.097821
20
178.897441
11
164.133792
21
178.547795
0
LINE
8
Layer 1
10
164.133792
20
178.547795
11
163.243146
21
178.063787
0
LINE
8
Layer 1
10
163.243146
20
178.063787
11
161.744846
21
176.765553
0
LINE
8
Layer 1
10
161.744846
20
176.765553
11
160.728610
21
175.148460
0
LINE
8
Layer 1
10
160.728610
20
175.148460
11
160.440543
21
174.265880
0
LINE
8
Layer 1
10
160.440543
20
174.265880
11
160.320126
21
173.358231
0
LINE
8
Layer 1
10
160.320126
20
173.358231
11
160.274268
21
172.021302
0
LINE
8
Layer 1
10
160.274268
20
172.021302
11
161.788478
21
171.830946
0
LINE
8
Layer 1
10
161.788478
20
171.830946
11
162.797305
21
171.604865
0
LINE
8
Layer 1
10
162.797305
20
171.604865
11
163.769839
21
171.199331
0
LINE
8
Layer 1
10
163.769839
20
171.199331
11
164.680272
21
170.639345
0
LINE
8
Layer 1
10
164.680272
20
170.639345
11
165.502794
21
169.949905
0
LINE
8
Layer 1
10
165.502794
20
169.949905
11
166.211597
21
169.156012
0
LINE
8
Layer 1
10
166.211597
20
169.156012
11
166.780872
21
168.282666
0
LINE
8
Layer 1
10
166.780872
20
168.282666
11
167.184810
21
167.354867
0
LINE
8
Layer 1
10
167.184810
20
167.354867
11
167.397602
21
166.397615
0
LINE
8
Layer 1
10
167.397602
20
166.397615
11
167.558821
21
165.541513
0
LINE
8
Layer 1
10
167.558821
20
165.541513
11
167.894467
21
165.147132
0
LINE
8
Layer 1
10
167.894467
20
165.147132
11
168.556712
21
165.155628
0
LINE
8
Layer 1
10
168.556712
20
165.155628
11
169.697727
21
165.508155
0
LINE
8
Layer 1
10
169.697727
20
165.508155
11
169.697727
21
165.508155
0
LINE
8
Layer 1
10
36.924892
20
166.803042
11
37.704178
21
168.786237
0
LINE
8
Layer 1
10
37.704178
20
168.786237
11
38.918009
21
170.370358
0
LINE
8
Layer 1
10
38.918009
20
170.370358
11
40.532621
21
171.522737
0
LINE
8
Layer 1
10
40.532621
20
171.522737
11
42.514246
21
172.210707
0
LINE
8
Layer 1
10
42.514246
20
172.210707
11
44.199601
21
172.558812
0
LINE
8
Layer 1
10
44.199601
20
172.558812
11
44.073832
21
173.867713
0
LINE
8
Layer 1
10
44.073832
20
173.867713
11
43.758930
21
175.159764
0
LINE
8
Layer 1
10
43.758930
20
175.159764
11
43.097906
21
176.410478
0
LINE
8
Layer 1
10
43.097906
20
176.410478
11
42.145648
21
177.538908
0
LINE
8
Layer 1
10
42.145648
20
177.538908
11
40.957046
21
178.464110
0
LINE
8
Layer 1
10
40.957046
20
178.464110
11
39.465015
21
179.154224
0
LINE
8
Layer 1
10
39.465015
20
179.154224
11
37.510418
21
179.427298
0
LINE
8
Layer 1
10
37.510418
20
179.427298
11
35.432120
21
179.377726
0
LINE
8
Layer 1
10
35.432120
20
179.377726
11
33.758316
21
178.881437
0
LINE
8
Layer 1
10
33.758316
20
178.881437
11
32.340255
21
177.865684
0
LINE
8
Layer 1
10
32.340255
20
177.865684
11
31.029185
21
176.257723
0
LINE
8
Layer 1
10
31.029185
20
176.257723
11
30.409827
21
175.159100
0
LINE
8
Layer 1
10
30.409827
20
175.159100
11
30.011152
21
174.028845
0
LINE
8
Layer 1
10
30.011152
20
174.028845
11
29.831127
21
172.883023
0
LINE
8
Layer 1
10
29.831127
20
172.883023
11
29.867718
21
171.737701
0
LINE
8
Layer 1
10
29.867718
20
171.737701
11
30.118893
21
170.608946
0
LINE
8
Layer 1
10
30.118893
20
170.608946
11
30.582619
21
169.512824
0
LINE
8
Layer 1
10
30.582619
20
169.512824
11
31.256863
21
168.465400
0
LINE
8
Layer 1
10
31.256863
20
168.465400
11
32.139591
21
167.482743
0
LINE
8
Layer 1
10
32.139591
20
167.482743
11
33.199255
21
166.603262
0
LINE
8
Layer 1
10
33.199255
20
166.603262
11
34.279814
21
165.952178
0
LINE
8
Layer 1
10
34.279814
20
165.952178
11
35.307058
21
165.566009
0
LINE
8
Layer 1
10
35.307058
20
165.566009
11
36.206780
21
165.481274
0
LINE
8
Layer 1
10
36.206780
20
165.481274
11
36.579703
21
165.883878
0
LINE
8
Layer 1
10
36.579703
20
165.883878
11
36.924892
21
166.803042
0
LINE
8
Layer 1
10
36.924892
20
166.803042
11
36.924892
21
166.803042
 0 
ENDSEC
 0 
EOF
