  0
SECTION
  2
ENTITIES
  0
POLYLINE
  5
3E8
  100
AcDbEntity
  8
Layer 1
  62
0
  100
AcDb2dPolyline
 66
     1
  10
0
  20
0
  30
0
  70
1
  0
VERTEX
  5
3E9
  100
AcDbEntity
  8
Layer 1
  62
0
  100
AcDb2dVertex
  10
9.79628
  20
12.81817
  30
0.00000
  42
-0.3559
  70
32
  0
VERTEX
  5
3EA
  100
AcDbEntity
  8
Layer 1
  62
0
  100
AcDb2dVertex
  10
9.85542
  20
12.36899
  30
0.00000
  42
-0.1111
  70
32
  0
VERTEX
  5
3EB
  100
AcDbEntity
  8
Layer 1
  62
0
  100
AcDb2dVertex
  10
9.81887
  20
12.31747
  30
0.00000
  42
-0.0701
  70
32
  0
VERTEX
  5
3EC
  100
AcDbEntity
  8
Layer 1
  62
0
  100
AcDb2dVertex
  10
9.75427
  20
12.29431
  30
0.00000
  42
-0.0843
  70
32
  0
VERTEX
  5
3ED
  100
AcDbEntity
  8
Layer 1
  62
0
  100
AcDb2dVertex
  10
9.60639
  20
12.25181
  30
0.00000
  42
-0.1876
  70
32
  0
VERTEX
  5
3EE
  100
AcDbEntity
  8
Layer 1
  62
0
  100
AcDb2dVertex
  10
9.57235
  20
12.26397
  30
0.00000
  42
-0.1737
  70
32
  0
VERTEX
  5
3EF
  100
AcDbEntity
  8
Layer 1
  62
0
  100
AcDb2dVertex
  10
9.55927
  20
12.29893
  30
0.00000
  42
-0.0054
  70
32
  0
VERTEX
  5
3F0
  100
AcDbEntity
  8
Layer 1
  62
0
  100
AcDb2dVertex
  10
9.55725
  20
12.66598
  30
0.00000
  70
32
  0
VERTEX
  5
3F1
  100
AcDbEntity
  8
Layer 1
  62
0
  100
AcDb2dVertex
  10
9.55733
  20
12.78968
  30
0.00000
  42
-0.1240
  70
32
  0
VERTEX
  5
3F2
  100
AcDbEntity
  8
Layer 1
  62
0
  100
AcDb2dVertex
  10
9.56363
  20
12.83600
  30
0.00000
  42
-0.2886
  70
32
  0
VERTEX
  5
3F3
  100
AcDbEntity
  8
Layer 1
  62
0
  100
AcDb2dVertex
  10
9.60467
  20
12.86419
  30
0.00000
  42
-0.0240
  70
32
  0
VERTEX
  5
3F4
  100
AcDbEntity
  8
Layer 1
  62
0
  100
AcDb2dVertex
  10
9.70750
  20
12.85974
  30
0.00000
  70
32
  0
VERTEX
  5
3F5
  100
AcDbEntity
  8
Layer 1
  62
0
  100
AcDb2dVertex
  10
9.74594
  20
12.85591
  30
0.00000
  70
32
  0
VERTEX
  5
3F6
  100
AcDbEntity
  8
Layer 1
  62
0
  100
AcDb2dVertex
  10
9.79628
  20
12.81817
  30
0.00000
  70
32
  0
SEQEND
  5
3F7
  100
AcDbEntity
  8
Layer 1
  62
0
  0
POLYLINE
  5
3F8
  100
AcDbEntity
  8
Layer 1
  62
0
  100
AcDb2dPolyline
 66
     1
  10
0
  20
0
  30
0
  70
1
  0
VERTEX
  5
3F9
  100
AcDbEntity
  8
Layer 1
  62
0
  100
AcDb2dVertex
  10
17.30881
  20
12.18386
  30
0.00000
  42
-0.2802
  70
32
  0
VERTEX
  5
3FA
  100
AcDbEntity
  8
Layer 1
  62
0
  100
AcDb2dVertex
  10
17.46210
  20
12.64484
  30
0.00000
  42
-0.4533
  70
32
  0
VERTEX
  5
3FB
  100
AcDbEntity
  8
Layer 1
  62
0
  100
AcDb2dVertex
  10
18.22274
  20
12.56945
  30
0.00000
  42
-0.2876
  70
32
  0
VERTEX
  5
3FC
  100
AcDbEntity
  8
Layer 1
  62
0
  100
AcDb2dVertex
  10
18.22930
  20
11.92171
  30
0.00000
  42
-0.3392
  70
32
  0
VERTEX
  5
3FD
  100
AcDbEntity
  8
Layer 1
  62
0
  100
AcDb2dVertex
  10
17.66857
  20
11.70004
  30
0.00000
  42
-0.3392
  70
32
  0
VERTEX
  5
3FE
  100
AcDbEntity
  8
Layer 1
  62
0
  100
AcDb2dVertex
  10
17.30881
  20
12.18386
  30
0.00000
  70
32
  0
SEQEND
  5
3FF
  100
AcDbEntity
  8
Layer 1
  62
0
  0
POLYLINE
  5
400
  100
AcDbEntity
  8
Layer 1
  62
0
  100
AcDb2dPolyline
 66
     1
  10
0
  20
0
  30
0
  70
1
  0
VERTEX
  5
401
  100
AcDbEntity
  8
Layer 1
  62
0
  100
AcDb2dVertex
  10
11.69822
  20
12.77202
  30
0.00000
  42
-0.0333
  70
32
  0
VERTEX
  5
402
  100
AcDbEntity
  8
Layer 1
  62
0
  100
AcDb2dVertex
  10
11.90999
  20
12.77409
  30
0.00000
  42
-0.1965
  70
32
  0
VERTEX
  5
403
  100
AcDbEntity
  8
Layer 1
  62
0
  100
AcDb2dVertex
  10
12.22054
  20
12.60027
  30
0.00000
  42
-0.1417
  70
32
  0
VERTEX
  5
404
  100
AcDbEntity
  8
Layer 1
  62
0
  100
AcDb2dVertex
  10
12.32627
  20
12.39771
  30
0.00000
  42
-0.0234
  70
32
  0
VERTEX
  5
405
  100
AcDbEntity
  8
Layer 1
  62
0
  100
AcDb2dVertex
  10
12.33037
  20
12.18386
  30
0.00000
  42
-0.2717
  70
32
  0
VERTEX
  5
406
  100
AcDbEntity
  8
Layer 1
  62
0
  100
AcDb2dVertex
  10
12.06927
  20
11.75095
  30
0.00000
  42
-0.2717
  70
32
  0
VERTEX
  5
407
  100
AcDbEntity
  8
Layer 1
  62
0
  100
AcDb2dVertex
  10
11.56400
  20
11.76758
  30
0.00000
  42
-0.1750
  70
32
  0
VERTEX
  5
408
  100
AcDbEntity
  8
Layer 1
  62
0
  100
AcDb2dVertex
  10
11.32391
  20
12.09993
  30
0.00000
  42
-0.0177
  70
32
  0
VERTEX
  5
409
  100
AcDbEntity
  8
Layer 1
  62
0
  100
AcDb2dVertex
  10
11.31929
  20
12.22680
  30
0.00000
  42
-0.3573
  70
32
  0
VERTEX
  5
40A
  100
AcDbEntity
  8
Layer 1
  62
0
  100
AcDb2dVertex
  10
11.69822
  20
12.77202
  30
0.00000
  70
32
  0
SEQEND
  5
40B
  100
AcDbEntity
  8
Layer 1
  62
0
  0
POLYLINE
  5
40C
  100
AcDbEntity
  8
Layer 1
  62
0
  100
AcDb2dPolyline
 66
     1
  10
0
  20
0
  30
0
  70
1
  0
VERTEX
  5
40D
  100
AcDbEntity
  8
Layer 1
  62
0
  100
AcDb2dVertex
  10
7.80551
  20
11.68858
  30
0.00000
  42
-0.4041
  70
32
  0
VERTEX
  5
40E
  100
AcDbEntity
  8
Layer 1
  62
0
  100
AcDb2dVertex
  10
7.20238
  20
12.11781
  30
0.00000
  42
-0.2208
  70
32
  0
VERTEX
  5
40F
  100
AcDbEntity
  8
Layer 1
  62
0
  100
AcDb2dVertex
  10
7.33859
  20
12.63991
  30
0.00000
  42
-0.4284
  70
32
  0
VERTEX
  5
410
  100
AcDbEntity
  8
Layer 1
  62
0
  100
AcDb2dVertex
  10
8.13803
  20
12.56914
  30
0.00000
  42
-0.5104
  70
32
  0
VERTEX
  5
411
  100
AcDbEntity
  8
Layer 1
  62
0
  100
AcDb2dVertex
  10
7.80551
  20
11.68858
  30
0.00000
  70
32
  0
SEQEND
  5
412
  100
AcDbEntity
  8
Layer 1
  62
0
  0
POLYLINE
  5
413
  100
AcDbEntity
  8
Layer 1
  62
0
  100
AcDb2dPolyline
 66
     1
  10
0
  20
0
  30
0
  70
1
  0
VERTEX
  5
414
  100
AcDbEntity
  8
Layer 1
  62
0
  100
AcDb2dVertex
  10
12.94371
  20
9.93900
  30
0.00000
  42
-0.4948
  70
32
  0
VERTEX
  5
415
  100
AcDbEntity
  8
Layer 1
  62
0
  100
AcDb2dVertex
  10
12.68971
  20
9.69693
  30
0.00000
  42
-0.1758
  70
32
  0
VERTEX
  5
416
  100
AcDbEntity
  8
Layer 1
  62
0
  100
AcDb2dVertex
  10
12.65492
  20
9.70984
  30
0.00000
  42
-0.1738
  70
32
  0
VERTEX
  5
417
  100
AcDbEntity
  8
Layer 1
  62
0
  100
AcDb2dVertex
  10
12.64184
  20
9.74480
  30
0.00000
  42
-0.0139
  70
32
  0
VERTEX
  5
418
  100
AcDbEntity
  8
Layer 1
  62
0
  100
AcDb2dVertex
  10
12.63995
  20
9.85247
  30
0.00000
  70
32
  0
VERTEX
  5
419
  100
AcDbEntity
  8
Layer 1
  62
0
  100
AcDb2dVertex
  10
12.63999
  20
10.10731
  30
0.00000
  42
-0.0839
  70
32
  0
VERTEX
  5
41A
  100
AcDbEntity
  8
Layer 1
  62
0
  100
AcDb2dVertex
  10
12.64466
  20
10.19596
  30
0.00000
  42
-0.2436
  70
32
  0
VERTEX
  5
41B
  100
AcDbEntity
  8
Layer 1
  62
0
  100
AcDb2dVertex
  10
12.66699
  20
10.21828
  30
0.00000
  42
-0.0566
  70
32
  0
VERTEX
  5
41C
  100
AcDbEntity
  8
Layer 1
  62
0
  100
AcDb2dVertex
  10
12.79002
  20
10.21749
  30
0.00000
  42
-0.2218
  70
32
  0
VERTEX
  5
41D
  100
AcDbEntity
  8
Layer 1
  62
0
  100
AcDb2dVertex
  10
12.87797
  20
10.17513
  30
0.00000
  42
-0.2076
  70
32
  0
VERTEX
  5
41E
  100
AcDbEntity
  8
Layer 1
  62
0
  100
AcDb2dVertex
  10
12.94371
  20
9.93900
  30
0.00000
  70
32
  0
SEQEND
  5
41F
  100
AcDbEntity
  8
Layer 1
  62
0
  0
POLYLINE
  5
420
  100
AcDbEntity
  8
Layer 1
  62
0
  100
AcDb2dPolyline
 66
     1
  10
0
  20
0
  30
0
  70
1
  0
VERTEX
  5
421
  100
AcDbEntity
  8
Layer 1
  62
0
  100
AcDb2dVertex
  10
10.78552
  20
10.01968
  30
0.00000
  70
32
  0
VERTEX
  5
422
  100
AcDbEntity
  8
Layer 1
  62
0
  100
AcDb2dVertex
  10
10.95026
  20
9.46649
  30
0.00000
  42
-0.2782
  70
32
  0
VERTEX
  5
423
  100
AcDbEntity
  8
Layer 1
  62
0
  100
AcDb2dVertex
  10
10.94920
  20
9.44359
  30
0.00000
  42
-0.1630
  70
32
  0
VERTEX
  5
424
  100
AcDbEntity
  8
Layer 1
  62
0
  100
AcDb2dVertex
  10
10.91622
  20
9.43249
  30
0.00000
  42
-0.0084
  70
32
  0
VERTEX
  5
425
  100
AcDbEntity
  8
Layer 1
  62
0
  100
AcDb2dVertex
  10
10.72986
  20
9.43069
  30
0.00000
  42
-0.0894
  70
32
  0
VERTEX
  5
426
  100
AcDbEntity
  8
Layer 1
  62
0
  100
AcDb2dVertex
  10
10.64341
  20
9.43690
  30
0.00000
  42
-0.2408
  70
32
  0
VERTEX
  5
427
  100
AcDbEntity
  8
Layer 1
  62
0
  100
AcDb2dVertex
  10
10.62064
  20
9.45971
  30
0.00000
  42
-0.1477
  70
32
  0
VERTEX
  5
428
  100
AcDbEntity
  8
Layer 1
  62
0
  100
AcDb2dVertex
  10
10.62016
  20
9.50612
  30
0.00000
  42
0.0360
  70
32
  0
VERTEX
  5
429
  100
AcDbEntity
  8
Layer 1
  62
0
  100
AcDb2dVertex
  10
10.70216
  20
9.80474
  30
0.00000
  42
-0.0545
  70
32
  0
VERTEX
  5
42A
  100
AcDbEntity
  8
Layer 1
  62
0
  100
AcDb2dVertex
  10
10.72426
  20
9.91135
  30
0.00000
  42
0.0335
  70
32
  0
VERTEX
  5
42B
  100
AcDbEntity
  8
Layer 1
  62
0
  100
AcDb2dVertex
  10
10.74734
  20
9.99586
  30
0.00000
  42
-0.0268
  70
32
  0
VERTEX
  5
42C
  100
AcDbEntity
  8
Layer 1
  62
0
  100
AcDb2dVertex
  10
10.75478
  20
10.02646
  30
0.00000
  42
-0.2825
  70
32
  0
VERTEX
  5
42D
  100
AcDbEntity
  8
Layer 1
  62
0
  100
AcDb2dVertex
  10
10.76454
  20
10.03667
  30
0.00000
  42
-0.2829
  70
32
  0
VERTEX
  5
42E
  100
AcDbEntity
  8
Layer 1
  62
0
  100
AcDb2dVertex
  10
10.77808
  20
10.03254
  30
0.00000
  70
32
  0
VERTEX
  5
42F
  100
AcDbEntity
  8
Layer 1
  62
0
  100
AcDb2dVertex
  10
10.78552
  20
10.01968
  30
0.00000
  70
32
  0
SEQEND
  5
430
  100
AcDbEntity
  8
Layer 1
  62
0
  0
POLYLINE
  5
431
  100
AcDbEntity
  8
Layer 1
  62
0
  100
AcDb2dPolyline
 66
     1
  10
0
  20
0
  30
0
  70
1
  0
VERTEX
  5
432
  100
AcDbEntity
  8
Layer 1
  62
0
  100
AcDb2dVertex
  10
12.00692
  20
6.65638
  30
0.00000
  42
-0.0894
  70
32
  0
VERTEX
  5
433
  100
AcDbEntity
  8
Layer 1
  62
0
  100
AcDb2dVertex
  10
11.92048
  20
6.66259
  30
0.00000
  42
-0.2393
  70
32
  0
VERTEX
  5
434
  100
AcDbEntity
  8
Layer 1
  62
0
  100
AcDb2dVertex
  10
11.89758
  20
6.68553
  30
0.00000
  42
-0.1071
  70
32
  0
VERTEX
  5
435
  100
AcDbEntity
  8
Layer 1
  62
0
  100
AcDb2dVertex
  10
11.89370
  20
6.73533
  30
0.00000
  42
-0.0356
  70
32
  0
VERTEX
  5
436
  100
AcDbEntity
  8
Layer 1
  62
0
  100
AcDb2dVertex
  10
11.97913
  20
7.03047
  30
0.00000
  42
0.0786
  70
32
  0
VERTEX
  5
437
  100
AcDbEntity
  8
Layer 1
  62
0
  100
AcDb2dVertex
  10
12.02440
  20
7.22520
  30
0.00000
  42
-0.1751
  70
32
  0
VERTEX
  5
438
  100
AcDbEntity
  8
Layer 1
  62
0
  100
AcDb2dVertex
  10
12.03541
  20
7.25823
  30
0.00000
  42
-0.4770
  70
32
  0
VERTEX
  5
439
  100
AcDbEntity
  8
Layer 1
  62
0
  100
AcDb2dVertex
  10
12.05518
  20
7.25823
  30
0.00000
  70
32
  0
VERTEX
  5
43A
  100
AcDbEntity
  8
Layer 1
  62
0
  100
AcDb2dVertex
  10
12.06205
  20
7.24193
  30
0.00000
  70
32
  0
VERTEX
  5
43B
  100
AcDbEntity
  8
Layer 1
  62
0
  100
AcDb2dVertex
  10
12.22728
  20
6.69218
  30
0.00000
  42
-0.2830
  70
32
  0
VERTEX
  5
43C
  100
AcDbEntity
  8
Layer 1
  62
0
  100
AcDb2dVertex
  10
12.22627
  20
6.66928
  30
0.00000
  42
-0.1630
  70
32
  0
VERTEX
  5
43D
  100
AcDbEntity
  8
Layer 1
  62
0
  100
AcDb2dVertex
  10
12.19328
  20
6.65818
  30
0.00000
  42
-0.0084
  70
32
  0
VERTEX
  5
43E
  100
AcDbEntity
  8
Layer 1
  62
0
  100
AcDb2dVertex
  10
12.00692
  20
6.65638
  30
0.00000
  70
32
  0
SEQEND
  5
43F
  100
AcDbEntity
  8
Layer 1
  62
0
  0
POLYLINE
  5
440
  100
AcDbEntity
  8
Layer 1
  62
0
  100
AcDb2dPolyline
 66
     1
  10
0
  20
0
  30
0
  70
1
  0
VERTEX
  5
441
  100
AcDbEntity
  8
Layer 1
  62
0
  100
AcDb2dVertex
  10
14.84469
  20
2.41573
  30
0.00000
  42
0.2893
  70
32
  0
VERTEX
  5
442
  100
AcDbEntity
  8
Layer 1
  62
0
  100
AcDb2dVertex
  10
14.87371
  20
2.34791
  30
0.00000
  70
32
  0
VERTEX
  5
443
  100
AcDbEntity
  8
Layer 1
  62
0
  100
AcDb2dVertex
  10
14.90158
  20
2.34219
  30
0.00000
  70
32
  0
VERTEX
  5
444
  100
AcDbEntity
  8
Layer 1
  62
0
  100
AcDb2dVertex
  10
15.00111
  20
2.34545
  30
0.00000
  42
0.3651
  70
32
  0
VERTEX
  5
445
  100
AcDbEntity
  8
Layer 1
  62
0
  100
AcDb2dVertex
  10
15.09772
  20
2.42181
  30
0.00000
  42
0.2016
  70
32
  0
VERTEX
  5
446
  100
AcDbEntity
  8
Layer 1
  62
0
  100
AcDb2dVertex
  10
15.08438
  20
2.46853
  30
0.00000
  70
32
  0
VERTEX
  5
447
  100
AcDbEntity
  8
Layer 1
  62
0
  100
AcDb2dVertex
  10
15.06448
  20
2.48430
  30
0.00000
  42
0.1188
  70
32
  0
VERTEX
  5
448
  100
AcDbEntity
  8
Layer 1
  62
0
  100
AcDb2dVertex
  10
15.02079
  20
2.51129
  30
0.00000
  42
0.0277
  70
32
  0
VERTEX
  5
449
  100
AcDbEntity
  8
Layer 1
  62
0
  100
AcDb2dVertex
  10
14.92523
  20
2.51103
  30
0.00000
  70
32
  0
VERTEX
  5
44A
  100
AcDbEntity
  8
Layer 1
  62
0
  100
AcDb2dVertex
  10
14.89960
  20
2.50107
  30
0.00000
  42
0.2835
  70
32
  0
VERTEX
  5
44B
  100
AcDbEntity
  8
Layer 1
  62
0
  100
AcDb2dVertex
  10
14.84469
  20
2.41573
  30
0.00000
  70
32
  0
SEQEND
  5
44C
  100
AcDbEntity
  8
Layer 1
  62
0
  0
POLYLINE
  5
44D
  100
AcDbEntity
  8
Layer 1
  62
0
  100
AcDb2dPolyline
 66
     1
  10
0
  20
0
  30
0
  70
1
  0
VERTEX
  5
44E
  100
AcDbEntity
  8
Layer 1
  62
0
  100
AcDb2dVertex
  10
14.85301
  20
2.17410
  30
0.00000
  42
0.0307
  70
32
  0
VERTEX
  5
44F
  100
AcDbEntity
  8
Layer 1
  62
0
  100
AcDb2dVertex
  10
14.83954
  20
1.99434
  30
0.00000
  42
-0.3555
  70
32
  0
VERTEX
  5
450
  100
AcDbEntity
  8
Layer 1
  62
0
  100
AcDb2dVertex
  10
14.80816
  20
1.95158
  30
0.00000
  42
-0.3555
  70
32
  0
VERTEX
  5
451
  100
AcDbEntity
  8
Layer 1
  62
0
  100
AcDb2dVertex
  10
14.75992
  20
1.97360
  30
0.00000
  70
32
  0
VERTEX
  5
452
  100
AcDbEntity
  8
Layer 1
  62
0
  100
AcDb2dVertex
  10
14.75402
  20
2.02266
  30
0.00000
  42
-0.0070
  70
32
  0
VERTEX
  5
453
  100
AcDbEntity
  8
Layer 1
  62
0
  100
AcDb2dVertex
  10
14.75560
  20
2.55471
  30
0.00000
  42
-0.1738
  70
32
  0
VERTEX
  5
454
  100
AcDbEntity
  8
Layer 1
  62
0
  100
AcDb2dVertex
  10
14.76868
  20
2.58968
  30
0.00000
  42
-0.1735
  70
32
  0
VERTEX
  5
455
  100
AcDbEntity
  8
Layer 1
  62
0
  100
AcDb2dVertex
  10
14.80360
  20
2.60275
  30
0.00000
  42
-0.0200
  70
32
  0
VERTEX
  5
456
  100
AcDbEntity
  8
Layer 1
  62
0
  100
AcDb2dVertex
  10
15.07980
  20
2.60082
  30
0.00000
  42
-0.3973
  70
32
  0
VERTEX
  5
457
  100
AcDbEntity
  8
Layer 1
  62
0
  100
AcDb2dVertex
  10
15.18989
  20
2.49073
  30
0.00000
  42
-0.0077
  70
32
  0
VERTEX
  5
458
  100
AcDbEntity
  8
Layer 1
  62
0
  100
AcDb2dVertex
  10
15.19060
  20
2.40846
  30
0.00000
  42
-0.1079
  70
32
  0
VERTEX
  5
459
  100
AcDbEntity
  8
Layer 1
  62
0
  100
AcDb2dVertex
  10
15.18443
  20
2.32801
  30
0.00000
  42
0.0141
  70
32
  0
VERTEX
  5
45A
  100
AcDbEntity
  8
Layer 1
  62
0
  100
AcDb2dVertex
  10
15.13339
  20
2.24773
  30
0.00000
  42
0.2541
  70
32
  0
VERTEX
  5
45B
  100
AcDbEntity
  8
Layer 1
  62
0
  100
AcDb2dVertex
  10
15.11529
  20
2.15125
  30
0.00000
  42
0.0219
  70
32
  0
VERTEX
  5
45C
  100
AcDbEntity
  8
Layer 1
  62
0
  100
AcDb2dVertex
  10
15.18461
  20
2.01073
  30
0.00000
  42
-0.1844
  70
32
  0
VERTEX
  5
45D
  100
AcDbEntity
  8
Layer 1
  62
0
  100
AcDb2dVertex
  10
15.18870
  20
1.97114
  30
0.00000
  70
32
  0
VERTEX
  5
45E
  100
AcDbEntity
  8
Layer 1
  62
0
  100
AcDb2dVertex
  10
15.18060
  20
1.95757
  30
0.00000
  42
-0.3687
  70
32
  0
VERTEX
  5
45F
  100
AcDbEntity
  8
Layer 1
  62
0
  100
AcDb2dVertex
  10
15.10103
  20
1.97541
  30
0.00000
  42
-0.0359
  70
32
  0
VERTEX
  5
460
  100
AcDbEntity
  8
Layer 1
  62
0
  100
AcDb2dVertex
  10
14.97116
  20
2.21607
  30
0.00000
  42
0.1826
  70
32
  0
VERTEX
  5
461
  100
AcDbEntity
  8
Layer 1
  62
0
  100
AcDb2dVertex
  10
14.94588
  20
2.24482
  30
0.00000
  42
0.1724
  70
32
  0
VERTEX
  5
462
  100
AcDbEntity
  8
Layer 1
  62
0
  100
AcDb2dVertex
  10
14.91295
  20
2.24372
  30
0.00000
  42
0.2058
  70
32
  0
VERTEX
  5
463
  100
AcDbEntity
  8
Layer 1
  62
0
  100
AcDb2dVertex
  10
14.85301
  20
2.17410
  30
0.00000
  70
32
  0
SEQEND
  5
464
  100
AcDbEntity
  8
Layer 1
  62
0
  0
POLYLINE
  5
465
  100
AcDbEntity
  8
Layer 1
  62
0
  100
AcDb2dPolyline
 66
     1
  10
0
  20
0
  30
0
  70
1
  0
VERTEX
  5
466
  100
AcDbEntity
  8
Layer 1
  62
0
  100
AcDb2dVertex
  10
14.49191
  20
2.31660
  30
0.00000
  42
0.1068
  70
32
  0
VERTEX
  5
467
  100
AcDbEntity
  8
Layer 1
  62
0
  100
AcDb2dVertex
  10
14.51283
  20
2.20933
  30
0.00000
  42
0.0149
  70
32
  0
VERTEX
  5
468
  100
AcDbEntity
  8
Layer 1
  62
0
  100
AcDb2dVertex
  10
14.54559
  20
2.11060
  30
0.00000
  42
0.0788
  70
32
  0
VERTEX
  5
469
  100
AcDbEntity
  8
Layer 1
  62
0
  100
AcDb2dVertex
  10
14.68774
  20
1.94449
  30
0.00000
  42
0.4415
  70
32
  0
VERTEX
  5
46A
  100
AcDbEntity
  8
Layer 1
  62
0
  100
AcDb2dVertex
  10
15.32279
  20
1.96946
  30
0.00000
  42
0.4398
  70
32
  0
VERTEX
  5
46B
  100
AcDbEntity
  8
Layer 1
  62
0
  100
AcDb2dVertex
  10
15.27722
  20
2.66608
  30
0.00000
  42
0.4568
  70
32
  0
VERTEX
  5
46C
  100
AcDbEntity
  8
Layer 1
  62
0
  100
AcDb2dVertex
  10
14.58051
  20
2.53560
  30
0.00000
  42
0.0903
  70
32
  0
VERTEX
  5
46D
  100
AcDbEntity
  8
Layer 1
  62
0
  100
AcDb2dVertex
  10
14.49191
  20
2.31660
  30
0.00000
  70
32
  0
SEQEND
  5
46E
  100
AcDbEntity
  8
Layer 1
  62
0
  0
POLYLINE
  5
46F
  100
AcDbEntity
  8
Layer 1
  62
0
  100
AcDb2dPolyline
 66
     1
  10
0
  20
0
  30
0
  70
1
  0
VERTEX
  5
470
  100
AcDbEntity
  8
Layer 1
  62
0
  100
AcDb2dVertex
  10
15.48991
  20
2.57056
  30
0.00000
  42
-0.0092
  70
32
  0
VERTEX
  5
471
  100
AcDbEntity
  8
Layer 1
  62
0
  100
AcDb2dVertex
  10
15.53395
  20
2.43845
  30
0.00000
  42
-0.3433
  70
32
  0
VERTEX
  5
472
  100
AcDbEntity
  8
Layer 1
  62
0
  100
AcDb2dVertex
  10
15.27735
  20
1.79473
  30
0.00000
  42
-0.3051
  70
32
  0
VERTEX
  5
473
  100
AcDbEntity
  8
Layer 1
  62
0
  100
AcDb2dVertex
  10
14.63547
  20
1.83438
  30
0.00000
  42
-0.3051
  70
32
  0
VERTEX
  5
474
  100
AcDbEntity
  8
Layer 1
  62
0
  100
AcDb2dVertex
  10
14.43027
  20
2.44386
  30
0.00000
  42
-0.3051
  70
32
  0
VERTEX
  5
475
  100
AcDbEntity
  8
Layer 1
  62
0
  100
AcDb2dVertex
  10
14.91747
  20
2.86363
  30
0.00000
  42
-0.3051
  70
32
  0
VERTEX
  5
476
  100
AcDbEntity
  8
Layer 1
  62
0
  100
AcDb2dVertex
  10
15.48991
  20
2.57056
  30
0.00000
  70
32
  0
SEQEND
  5
477
  100
AcDbEntity
  8
Layer 1
  62
0
  0
POLYLINE
  5
478
  100
AcDbEntity
  8
Layer 1
  62
0
  100
AcDb2dPolyline
 66
     1
  10
0
  20
0
  30
0
  70
1
  0
VERTEX
  5
479
  100
AcDbEntity
  8
Layer 1
  62
0
  100
AcDb2dVertex
  10
15.14009
  20
7.96506
  30
0.00000
  42
0.2700
  70
32
  0
VERTEX
  5
47A
  100
AcDbEntity
  8
Layer 1
  62
0
  100
AcDb2dVertex
  10
14.64898
  20
7.51040
  30
0.00000
  42
0.2700
  70
32
  0
VERTEX
  5
47B
  100
AcDbEntity
  8
Layer 1
  62
0
  100
AcDb2dVertex
  10
14.80215
  20
6.85895
  30
0.00000
  42
0.1051
  70
32
  0
VERTEX
  5
47C
  100
AcDbEntity
  8
Layer 1
  62
0
  100
AcDb2dVertex
  10
15.27964
  20
6.63180
  30
0.00000
  42
-0.1258
  70
32
  0
VERTEX
  5
47D
  100
AcDbEntity
  8
Layer 1
  62
0
  100
AcDb2dVertex
  10
15.43381
  20
6.52180
  30
0.00000
  42
-0.4042
  70
32
  0
VERTEX
  5
47E
  100
AcDbEntity
  8
Layer 1
  62
0
  100
AcDb2dVertex
  10
15.41060
  20
6.37309
  30
0.00000
  42
0.0413
  70
32
  0
VERTEX
  5
47F
  100
AcDbEntity
  8
Layer 1
  62
0
  100
AcDb2dVertex
  10
15.39532
  20
6.35587
  30
0.00000
  42
-0.2316
  70
32
  0
VERTEX
  5
480
  100
AcDbEntity
  8
Layer 1
  62
0
  100
AcDb2dVertex
  10
15.30170
  20
6.30620
  30
0.00000
  42
-0.0767
  70
32
  0
VERTEX
  5
481
  100
AcDbEntity
  8
Layer 1
  62
0
  100
AcDb2dVertex
  10
14.74111
  20
6.34187
  30
0.00000
  42
0.1476
  70
32
  0
VERTEX
  5
482
  100
AcDbEntity
  8
Layer 1
  62
0
  100
AcDb2dVertex
  10
14.69466
  20
6.34138
  30
0.00000
  42
0.2407
  70
32
  0
VERTEX
  5
483
  100
AcDbEntity
  8
Layer 1
  62
0
  100
AcDb2dVertex
  10
14.67189
  20
6.31857
  30
0.00000
  42
0.0894
  70
32
  0
VERTEX
  5
484
  100
AcDbEntity
  8
Layer 1
  62
0
  100
AcDb2dVertex
  10
14.66564
  20
6.23208
  30
0.00000
  42
0.0058
  70
32
  0
VERTEX
  5
485
  100
AcDbEntity
  8
Layer 1
  62
0
  100
AcDb2dVertex
  10
14.66753
  20
5.82554
  30
0.00000
  42
0.1738
  70
32
  0
VERTEX
  5
486
  100
AcDbEntity
  8
Layer 1
  62
0
  100
AcDb2dVertex
  10
14.68061
  20
5.79057
  30
0.00000
  42
0.1733
  70
32
  0
VERTEX
  5
487
  100
AcDbEntity
  8
Layer 1
  62
0
  100
AcDb2dVertex
  10
14.71553
  20
5.77749
  30
0.00000
  42
-0.0803
  70
32
  0
VERTEX
  5
488
  100
AcDbEntity
  8
Layer 1
  62
0
  100
AcDb2dVertex
  10
14.91981
  20
5.74358
  30
0.00000
  42
0.1806
  70
32
  0
VERTEX
  5
489
  100
AcDbEntity
  8
Layer 1
  62
0
  100
AcDb2dVertex
  10
15.82354
  20
5.91643
  30
0.00000
  42
0.1740
  70
32
  0
VERTEX
  5
48A
  100
AcDbEntity
  8
Layer 1
  62
0
  100
AcDb2dVertex
  10
16.04940
  20
6.21900
  30
0.00000
  42
0.0880
  70
32
  0
VERTEX
  5
48B
  100
AcDbEntity
  8
Layer 1
  62
0
  100
AcDb2dVertex
  10
16.07424
  20
6.45777
  30
0.00000
  42
0.0159
  70
32
  0
VERTEX
  5
48C
  100
AcDbEntity
  8
Layer 1
  62
0
  100
AcDb2dVertex
  10
16.06939
  20
6.58486
  30
0.00000
  42
0.0930
  70
32
  0
VERTEX
  5
48D
  100
AcDbEntity
  8
Layer 1
  62
0
  100
AcDb2dVertex
  10
16.04940
  20
6.65299
  30
0.00000
  42
0.2471
  70
32
  0
VERTEX
  5
48E
  100
AcDbEntity
  8
Layer 1
  62
0
  100
AcDb2dVertex
  10
15.61956
  20
7.05984
  30
0.00000
  42
0.0079
  70
32
  0
VERTEX
  5
48F
  100
AcDbEntity
  8
Layer 1
  62
0
  100
AcDb2dVertex
  10
15.43610
  20
7.14060
  30
0.00000
  42
-0.0480
  70
32
  0
VERTEX
  5
490
  100
AcDbEntity
  8
Layer 1
  62
0
  100
AcDb2dVertex
  10
15.28426
  20
7.20895
  30
0.00000
  42
-0.3457
  70
32
  0
VERTEX
  5
491
  100
AcDbEntity
  8
Layer 1
  62
0
  100
AcDb2dVertex
  10
15.24627
  20
7.37098
  30
0.00000
  42
-0.3457
  70
32
  0
VERTEX
  5
492
  100
AcDbEntity
  8
Layer 1
  62
0
  100
AcDb2dVertex
  10
15.39466
  20
7.44626
  30
0.00000
  42
-0.0796
  70
32
  0
VERTEX
  5
493
  100
AcDbEntity
  8
Layer 1
  62
0
  100
AcDb2dVertex
  10
15.84128
  20
7.41425
  30
0.00000
  42
0.5145
  70
32
  0
VERTEX
  5
494
  100
AcDbEntity
  8
Layer 1
  62
0
  100
AcDb2dVertex
  10
15.98427
  20
7.51721
  30
0.00000
  42
0.0127
  70
32
  0
VERTEX
  5
495
  100
AcDbEntity
  8
Layer 1
  62
0
  100
AcDb2dVertex
  10
15.98427
  20
7.82084
  30
0.00000
  42
0.2317
  70
32
  0
VERTEX
  5
496
  100
AcDbEntity
  8
Layer 1
  62
0
  100
AcDb2dVertex
  10
15.93922
  20
7.90790
  30
0.00000
  42
-0.0413
  70
32
  0
VERTEX
  5
497
  100
AcDbEntity
  8
Layer 1
  62
0
  100
AcDb2dVertex
  10
15.92385
  20
7.92521
  30
0.00000
  42
0.2317
  70
32
  0
VERTEX
  5
498
  100
AcDbEntity
  8
Layer 1
  62
0
  100
AcDb2dVertex
  10
15.83014
  20
7.97497
  30
0.00000
  42
0.0212
  70
32
  0
VERTEX
  5
499
  100
AcDbEntity
  8
Layer 1
  62
0
  100
AcDb2dVertex
  10
15.14009
  20
7.96506
  30
0.00000
  70
32
  0
SEQEND
  5
49A
  100
AcDbEntity
  8
Layer 1
  62
0
  0
POLYLINE
  5
49B
  100
AcDbEntity
  8
Layer 1
  62
0
  100
AcDb2dPolyline
 66
     1
  10
0
  20
0
  30
0
  70
1
  0
VERTEX
  5
49C
  100
AcDbEntity
  8
Layer 1
  62
0
  100
AcDb2dVertex
  10
9.30923
  20
6.34772
  30
0.00000
  70
32
  0
VERTEX
  5
49D
  100
AcDbEntity
  8
Layer 1
  62
0
  100
AcDb2dVertex
  10
8.77057
  20
6.34997
  30
0.00000
  42
-0.1735
  70
32
  0
VERTEX
  5
49E
  100
AcDbEntity
  8
Layer 1
  62
0
  100
AcDb2dVertex
  10
8.73565
  20
6.36305
  30
0.00000
  42
-0.1738
  70
32
  0
VERTEX
  5
49F
  100
AcDbEntity
  8
Layer 1
  62
0
  100
AcDb2dVertex
  10
8.72257
  20
6.39801
  30
0.00000
  70
32
  0
VERTEX
  5
4A0
  100
AcDbEntity
  8
Layer 1
  62
0
  100
AcDb2dVertex
  10
8.71844
  20
7.88315
  30
0.00000
  42
0.1738
  70
32
  0
VERTEX
  5
4A1
  100
AcDbEntity
  8
Layer 1
  62
0
  100
AcDb2dVertex
  10
8.70536
  20
7.91812
  30
0.00000
  42
0.1734
  70
32
  0
VERTEX
  5
4A2
  100
AcDbEntity
  8
Layer 1
  62
0
  100
AcDb2dVertex
  10
8.67044
  20
7.93119
  30
0.00000
  42
0.0081
  70
32
  0
VERTEX
  5
4A3
  100
AcDbEntity
  8
Layer 1
  62
0
  100
AcDb2dVertex
  10
8.15406
  20
7.93119
  30
0.00000
  42
0.1735
  70
32
  0
VERTEX
  5
4A4
  100
AcDbEntity
  8
Layer 1
  62
0
  100
AcDb2dVertex
  10
8.11914
  20
7.91812
  30
0.00000
  42
0.1738
  70
32
  0
VERTEX
  5
4A5
  100
AcDbEntity
  8
Layer 1
  62
0
  100
AcDb2dVertex
  10
8.10606
  20
7.88315
  30
0.00000
  70
32
  0
VERTEX
  5
4A6
  100
AcDbEntity
  8
Layer 1
  62
0
  100
AcDb2dVertex
  10
8.10606
  20
5.82554
  30
0.00000
  42
0.1738
  70
32
  0
VERTEX
  5
4A7
  100
AcDbEntity
  8
Layer 1
  62
0
  100
AcDb2dVertex
  10
8.11914
  20
5.79057
  30
0.00000
  42
0.1734
  70
32
  0
VERTEX
  5
4A8
  100
AcDbEntity
  8
Layer 1
  62
0
  100
AcDb2dVertex
  10
8.15406
  20
5.77749
  30
0.00000
  42
0.0056
  70
32
  0
VERTEX
  5
4A9
  100
AcDbEntity
  8
Layer 1
  62
0
  100
AcDb2dVertex
  10
9.22292
  20
5.77943
  30
0.00000
  42
0.3332
  70
32
  0
VERTEX
  5
4AA
  100
AcDbEntity
  8
Layer 1
  62
0
  100
AcDb2dVertex
  10
9.32755
  20
5.85095
  30
0.00000
  42
-0.0562
  70
32
  0
VERTEX
  5
4AB
  100
AcDbEntity
  8
Layer 1
  62
0
  100
AcDb2dVertex
  10
9.38515
  20
6.14533
  30
0.00000
  42
-0.0071
  70
32
  0
VERTEX
  5
4AC
  100
AcDbEntity
  8
Layer 1
  62
0
  100
AcDb2dVertex
  10
9.41901
  20
6.27229
  30
0.00000
  42
0.1475
  70
32
  0
VERTEX
  5
4AD
  100
AcDbEntity
  8
Layer 1
  62
0
  100
AcDb2dVertex
  10
9.41853
  20
6.31870
  30
0.00000
  42
0.2408
  70
32
  0
VERTEX
  5
4AE
  100
AcDbEntity
  8
Layer 1
  62
0
  100
AcDb2dVertex
  10
9.39576
  20
6.34151
  30
0.00000
  42
0.0894
  70
32
  0
VERTEX
  5
4AF
  100
AcDbEntity
  8
Layer 1
  62
0
  100
AcDb2dVertex
  10
9.30923
  20
6.34772
  30
0.00000
  70
32
  0
SEQEND
  5
4B0
  100
AcDbEntity
  8
Layer 1
  62
0
  0
POLYLINE
  5
4B1
  100
AcDbEntity
  8
Layer 1
  62
0
  100
AcDb2dPolyline
 66
     1
  10
0
  20
0
  30
0
  70
1
  0
VERTEX
  5
4B2
  100
AcDbEntity
  8
Layer 1
  62
0
  100
AcDb2dVertex
  10
10.67437
  20
7.93304
  30
0.00000
  70
32
  0
VERTEX
  5
4B3
  100
AcDbEntity
  8
Layer 1
  62
0
  100
AcDb2dVertex
  10
9.69535
  20
7.93119
  30
0.00000
  42
0.1735
  70
32
  0
VERTEX
  5
4B4
  100
AcDbEntity
  8
Layer 1
  62
0
  100
AcDb2dVertex
  10
9.66042
  20
7.91812
  30
0.00000
  42
0.1738
  70
32
  0
VERTEX
  5
4B5
  100
AcDbEntity
  8
Layer 1
  62
0
  100
AcDb2dVertex
  10
9.64735
  20
7.88315
  30
0.00000
  70
32
  0
VERTEX
  5
4B6
  100
AcDbEntity
  8
Layer 1
  62
0
  100
AcDb2dVertex
  10
9.64735
  20
5.82554
  30
0.00000
  42
0.1738
  70
32
  0
VERTEX
  5
4B7
  100
AcDbEntity
  8
Layer 1
  62
0
  100
AcDb2dVertex
  10
9.66042
  20
5.79057
  30
0.00000
  42
0.1734
  70
32
  0
VERTEX
  5
4B8
  100
AcDbEntity
  8
Layer 1
  62
0
  100
AcDb2dVertex
  10
9.69535
  20
5.77749
  30
0.00000
  70
32
  0
VERTEX
  5
4B9
  100
AcDbEntity
  8
Layer 1
  62
0
  100
AcDb2dVertex
  10
10.71184
  20
5.77591
  30
0.00000
  70
32
  0
VERTEX
  5
4BA
  100
AcDbEntity
  8
Layer 1
  62
0
  100
AcDb2dVertex
  10
10.76301
  20
5.78031
  30
0.00000
  42
0.2430
  70
32
  0
VERTEX
  5
4BB
  100
AcDbEntity
  8
Layer 1
  62
0
  100
AcDb2dVertex
  10
10.78539
  20
5.80264
  30
0.00000
  70
32
  0
VERTEX
  5
4BC
  100
AcDbEntity
  8
Layer 1
  62
0
  100
AcDb2dVertex
  10
10.78891
  20
5.82637
  30
0.00000
  42
-0.0103
  70
32
  0
VERTEX
  5
4BD
  100
AcDbEntity
  8
Layer 1
  62
0
  100
AcDb2dVertex
  10
10.86646
  20
6.07351
  30
0.00000
  42
-0.0330
  70
32
  0
VERTEX
  5
4BE
  100
AcDbEntity
  8
Layer 1
  62
0
  100
AcDb2dVertex
  10
10.91626
  20
6.27229
  30
0.00000
  42
0.1475
  70
32
  0
VERTEX
  5
4BF
  100
AcDbEntity
  8
Layer 1
  62
0
  100
AcDb2dVertex
  10
10.91578
  20
6.31870
  30
0.00000
  42
0.2408
  70
32
  0
VERTEX
  5
4C0
  100
AcDbEntity
  8
Layer 1
  62
0
  100
AcDb2dVertex
  10
10.89301
  20
6.34151
  30
0.00000
  42
0.0894
  70
32
  0
VERTEX
  5
4C1
  100
AcDbEntity
  8
Layer 1
  62
0
  100
AcDb2dVertex
  10
10.80648
  20
6.34772
  30
0.00000
  70
32
  0
VERTEX
  5
4C2
  100
AcDbEntity
  8
Layer 1
  62
0
  100
AcDb2dVertex
  10
10.31186
  20
6.34997
  30
0.00000
  42
-0.1735
  70
32
  0
VERTEX
  5
4C3
  100
AcDbEntity
  8
Layer 1
  62
0
  100
AcDb2dVertex
  10
10.27694
  20
6.36305
  30
0.00000
  42
-0.1738
  70
32
  0
VERTEX
  5
4C4
  100
AcDbEntity
  8
Layer 1
  62
0
  100
AcDb2dVertex
  10
10.26386
  20
6.39801
  30
0.00000
  42
-0.0166
  70
32
  0
VERTEX
  5
4C5
  100
AcDbEntity
  8
Layer 1
  62
0
  100
AcDb2dVertex
  10
10.26386
  20
6.60609
  30
0.00000
  42
-0.1738
  70
32
  0
VERTEX
  5
4C6
  100
AcDbEntity
  8
Layer 1
  62
0
  100
AcDb2dVertex
  10
10.27694
  20
6.64105
  30
0.00000
  42
-0.1734
  70
32
  0
VERTEX
  5
4C7
  100
AcDbEntity
  8
Layer 1
  62
0
  100
AcDb2dVertex
  10
10.31186
  20
6.65413
  30
0.00000
  70
32
  0
VERTEX
  5
4C8
  100
AcDbEntity
  8
Layer 1
  62
0
  100
AcDb2dVertex
  10
10.58806
  20
6.66016
  30
0.00000
  42
0.1730
  70
32
  0
VERTEX
  5
4C9
  100
AcDbEntity
  8
Layer 1
  62
0
  100
AcDb2dVertex
  10
10.65552
  20
6.68077
  30
0.00000
  42
0.1726
  70
32
  0
VERTEX
  5
4CA
  100
AcDbEntity
  8
Layer 1
  62
0
  100
AcDb2dVertex
  10
10.69815
  20
6.77026
  30
0.00000
  42
0.1316
  70
32
  0
VERTEX
  5
4CB
  100
AcDbEntity
  8
Layer 1
  62
0
  100
AcDb2dVertex
  10
10.65557
  20
7.10414
  30
0.00000
  42
0.3028
  70
32
  0
VERTEX
  5
4CC
  100
AcDbEntity
  8
Layer 1
  62
0
  100
AcDb2dVertex
  10
10.60805
  20
7.13840
  30
0.00000
  70
32
  0
VERTEX
  5
4CD
  100
AcDbEntity
  8
Layer 1
  62
0
  100
AcDb2dVertex
  10
10.31186
  20
7.14263
  30
0.00000
  42
-0.1735
  70
32
  0
VERTEX
  5
4CE
  100
AcDbEntity
  8
Layer 1
  62
0
  100
AcDb2dVertex
  10
10.27694
  20
7.15571
  30
0.00000
  42
-0.1738
  70
32
  0
VERTEX
  5
4CF
  100
AcDbEntity
  8
Layer 1
  62
0
  100
AcDb2dVertex
  10
10.26386
  20
7.19067
  30
0.00000
  42
-0.0166
  70
32
  0
VERTEX
  5
4D0
  100
AcDbEntity
  8
Layer 1
  62
0
  100
AcDb2dVertex
  10
10.26386
  20
7.39875
  30
0.00000
  42
-0.1738
  70
32
  0
VERTEX
  5
4D1
  100
AcDbEntity
  8
Layer 1
  62
0
  100
AcDb2dVertex
  10
10.27694
  20
7.43371
  30
0.00000
  42
-0.1734
  70
32
  0
VERTEX
  5
4D2
  100
AcDbEntity
  8
Layer 1
  62
0
  100
AcDb2dVertex
  10
10.31186
  20
7.44679
  30
0.00000
  70
32
  0
VERTEX
  5
4D3
  100
AcDbEntity
  8
Layer 1
  62
0
  100
AcDb2dVertex
  10
10.82823
  20
7.45089
  30
0.00000
  42
0.1735
  70
32
  0
VERTEX
  5
4D4
  100
AcDbEntity
  8
Layer 1
  62
0
  100
AcDb2dVertex
  10
10.86315
  20
7.46397
  30
0.00000
  42
0.1761
  70
32
  0
VERTEX
  5
4D5
  100
AcDbEntity
  8
Layer 1
  62
0
  100
AcDb2dVertex
  10
10.87610
  20
7.49880
  30
0.00000
  42
0.0658
  70
32
  0
VERTEX
  5
4D6
  100
AcDbEntity
  8
Layer 1
  62
0
  100
AcDb2dVertex
  10
10.83017
  20
7.73065
  30
0.00000
  42
-0.0118
  70
32
  0
VERTEX
  5
4D7
  100
AcDbEntity
  8
Layer 1
  62
0
  100
AcDb2dVertex
  10
10.78398
  20
7.90402
  30
0.00000
  42
0.2341
  70
32
  0
VERTEX
  5
4D8
  100
AcDbEntity
  8
Layer 1
  62
0
  100
AcDb2dVertex
  10
10.76090
  20
7.92684
  30
0.00000
  42
0.0894
  70
32
  0
VERTEX
  5
4D9
  100
AcDbEntity
  8
Layer 1
  62
0
  100
AcDb2dVertex
  10
10.67437
  20
7.93304
  30
0.00000
  70
32
  0
SEQEND
  5
4DA
  100
AcDbEntity
  8
Layer 1
  62
0
  0
POLYLINE
  5
4DB
  100
AcDbEntity
  8
Layer 1
  62
0
  100
AcDb2dPolyline
 66
     1
  10
0
  20
0
  30
0
  70
1
  0
VERTEX
  5
4DC
  100
AcDbEntity
  8
Layer 1
  62
0
  100
AcDb2dVertex
  10
13.08014
  20
5.97394
  30
0.00000
  70
32
  0
VERTEX
  5
4DD
  100
AcDbEntity
  8
Layer 1
  62
0
  100
AcDb2dVertex
  10
12.45737
  20
7.90402
  30
0.00000
  42
0.2341
  70
32
  0
VERTEX
  5
4DE
  100
AcDbEntity
  8
Layer 1
  62
0
  100
AcDb2dVertex
  10
12.43430
  20
7.92684
  30
0.00000
  42
0.0894
  70
32
  0
VERTEX
  5
4DF
  100
AcDbEntity
  8
Layer 1
  62
0
  100
AcDb2dVertex
  10
12.34776
  20
7.93304
  30
0.00000
  70
32
  0
VERTEX
  5
4E0
  100
AcDbEntity
  8
Layer 1
  62
0
  100
AcDb2dVertex
  10
11.72103
  20
7.93106
  30
0.00000
  42
0.3076
  70
32
  0
VERTEX
  5
4E1
  100
AcDbEntity
  8
Layer 1
  62
0
  100
AcDb2dVertex
  10
11.67352
  20
7.89680
  30
0.00000
  70
32
  0
VERTEX
  5
4E2
  100
AcDbEntity
  8
Layer 1
  62
0
  100
AcDb2dVertex
  10
11.01579
  20
5.88613
  30
0.00000
  42
0.0393
  70
32
  0
VERTEX
  5
4E3
  100
AcDbEntity
  8
Layer 1
  62
0
  100
AcDb2dVertex
  10
11.01261
  20
5.82540
  30
0.00000
  42
0.3003
  70
32
  0
VERTEX
  5
4E4
  100
AcDbEntity
  8
Layer 1
  62
0
  100
AcDb2dVertex
  10
11.03974
  20
5.78185
  30
0.00000
  42
0.0894
  70
32
  0
VERTEX
  5
4E5
  100
AcDbEntity
  8
Layer 1
  62
0
  100
AcDb2dVertex
  10
11.12627
  20
5.77564
  30
0.00000
  42
0.0097
  70
32
  0
VERTEX
  5
4E6
  100
AcDbEntity
  8
Layer 1
  62
0
  100
AcDb2dVertex
  10
11.55686
  20
5.77943
  30
0.00000
  42
0.3113
  70
32
  0
VERTEX
  5
4E7
  100
AcDbEntity
  8
Layer 1
  62
0
  100
AcDb2dVertex
  10
11.65907
  20
5.85337
  30
0.00000
  42
-0.0118
  70
32
  0
VERTEX
  5
4E8
  100
AcDbEntity
  8
Layer 1
  62
0
  100
AcDb2dVertex
  10
11.72125
  20
6.09852
  30
0.00000
  42
-0.2294
  70
32
  0
VERTEX
  5
4E9
  100
AcDbEntity
  8
Layer 1
  62
0
  100
AcDb2dVertex
  10
11.74221
  20
6.12287
  30
0.00000
  42
-0.0839
  70
32
  0
VERTEX
  5
4EA
  100
AcDbEntity
  8
Layer 1
  62
0
  100
AcDb2dVertex
  10
11.83086
  20
6.12754
  30
0.00000
  70
32
  0
VERTEX
  5
4EB
  100
AcDbEntity
  8
Layer 1
  62
0
  100
AcDb2dVertex
  10
12.17708
  20
6.12741
  30
0.00000
  42
-0.0065
  70
32
  0
VERTEX
  5
4EC
  100
AcDbEntity
  8
Layer 1
  62
0
  100
AcDb2dVertex
  10
12.30549
  20
6.12375
  30
0.00000
  42
-0.3330
  70
32
  0
VERTEX
  5
4ED
  100
AcDbEntity
  8
Layer 1
  62
0
  100
AcDb2dVertex
  10
12.41012
  20
6.05224
  30
0.00000
  42
0.1087
  70
32
  0
VERTEX
  5
4EE
  100
AcDbEntity
  8
Layer 1
  62
0
  100
AcDb2dVertex
  10
12.48793
  20
5.82179
  30
0.00000
  42
0.2427
  70
32
  0
VERTEX
  5
4EF
  100
AcDbEntity
  8
Layer 1
  62
0
  100
AcDb2dVertex
  10
12.57772
  20
5.77943
  30
0.00000
  42
0.0121
  70
32
  0
VERTEX
  5
4F0
  100
AcDbEntity
  8
Layer 1
  62
0
  100
AcDb2dVertex
  10
13.07410
  20
5.77749
  30
0.00000
  42
0.1735
  70
32
  0
VERTEX
  5
4F1
  100
AcDbEntity
  8
Layer 1
  62
0
  100
AcDb2dVertex
  10
13.10903
  20
5.79057
  30
0.00000
  42
0.1876
  70
32
  0
VERTEX
  5
4F2
  100
AcDbEntity
  8
Layer 1
  62
0
  100
AcDb2dVertex
  10
13.12118
  20
5.82461
  30
0.00000
  42
0.0752
  70
32
  0
VERTEX
  5
4F3
  100
AcDbEntity
  8
Layer 1
  62
0
  100
AcDb2dVertex
  10
13.08014
  20
5.97394
  30
0.00000
  70
32
  0
SEQEND
  5
4F4
  100
AcDbEntity
  8
Layer 1
  62
0
  0
POLYLINE
  5
4F5
  100
AcDbEntity
  8
Layer 1
  62
0
  100
AcDb2dPolyline
 66
     1
  10
0
  20
0
  30
0
  70
1
  0
VERTEX
  5
4F6
  100
AcDbEntity
  8
Layer 1
  62
0
  100
AcDb2dVertex
  10
14.24134
  20
7.93304
  30
0.00000
  70
32
  0
VERTEX
  5
4F7
  100
AcDbEntity
  8
Layer 1
  62
0
  100
AcDb2dVertex
  10
13.35039
  20
7.93119
  30
0.00000
  42
0.1735
  70
32
  0
VERTEX
  5
4F8
  100
AcDbEntity
  8
Layer 1
  62
0
  100
AcDb2dVertex
  10
13.31547
  20
7.91812
  30
0.00000
  42
0.1738
  70
32
  0
VERTEX
  5
4F9
  100
AcDbEntity
  8
Layer 1
  62
0
  100
AcDb2dVertex
  10
13.30239
  20
7.88315
  30
0.00000
  70
32
  0
VERTEX
  5
4FA
  100
AcDbEntity
  8
Layer 1
  62
0
  100
AcDb2dVertex
  10
13.30239
  20
5.82554
  30
0.00000
  42
0.1738
  70
32
  0
VERTEX
  5
4FB
  100
AcDbEntity
  8
Layer 1
  62
0
  100
AcDb2dVertex
  10
13.31547
  20
5.79057
  30
0.00000
  42
0.1734
  70
32
  0
VERTEX
  5
4FC
  100
AcDbEntity
  8
Layer 1
  62
0
  100
AcDb2dVertex
  10
13.35039
  20
5.77749
  30
0.00000
  42
0.0081
  70
32
  0
VERTEX
  5
4FD
  100
AcDbEntity
  8
Layer 1
  62
0
  100
AcDb2dVertex
  10
13.86677
  20
5.77749
  30
0.00000
  42
0.1735
  70
32
  0
VERTEX
  5
4FE
  100
AcDbEntity
  8
Layer 1
  62
0
  100
AcDb2dVertex
  10
13.90169
  20
5.79057
  30
0.00000
  42
0.1738
  70
32
  0
VERTEX
  5
4FF
  100
AcDbEntity
  8
Layer 1
  62
0
  100
AcDb2dVertex
  10
13.91477
  20
5.82554
  30
0.00000
  70
32
  0
VERTEX
  5
500
  100
AcDbEntity
  8
Layer 1
  62
0
  100
AcDb2dVertex
  10
13.91798
  20
6.47657
  30
0.00000
  42
-0.1846
  70
32
  0
VERTEX
  5
501
  100
AcDbEntity
  8
Layer 1
  62
0
  100
AcDb2dVertex
  10
13.93013
  20
6.51075
  30
0.00000
  42
-0.1846
  70
32
  0
VERTEX
  5
502
  100
AcDbEntity
  8
Layer 1
  62
0
  100
AcDb2dVertex
  10
13.96431
  20
6.52290
  30
0.00000
  42
-0.0178
  70
32
  0
VERTEX
  5
503
  100
AcDbEntity
  8
Layer 1
  62
0
  100
AcDb2dVertex
  10
14.07427
  20
6.52391
  30
0.00000
  42
0.0069
  70
32
  0
VERTEX
  5
504
  100
AcDbEntity
  8
Layer 1
  62
0
  100
AcDb2dVertex
  10
14.26310
  20
6.52612
  30
0.00000
  42
0.1735
  70
32
  0
VERTEX
  5
505
  100
AcDbEntity
  8
Layer 1
  62
0
  100
AcDb2dVertex
  10
14.29802
  20
6.53919
  30
0.00000
  42
0.1738
  70
32
  0
VERTEX
  5
506
  100
AcDbEntity
  8
Layer 1
  62
0
  100
AcDb2dVertex
  10
14.31110
  20
6.57416
  30
0.00000
  42
0.0107
  70
32
  0
VERTEX
  5
507
  100
AcDbEntity
  8
Layer 1
  62
0
  100
AcDb2dVertex
  10
14.31110
  20
6.95838
  30
0.00000
  42
0.1738
  70
32
  0
VERTEX
  5
508
  100
AcDbEntity
  8
Layer 1
  62
0
  100
AcDb2dVertex
  10
14.29802
  20
6.99335
  30
0.00000
  42
0.1734
  70
32
  0
VERTEX
  5
509
  100
AcDbEntity
  8
Layer 1
  62
0
  100
AcDb2dVertex
  10
14.26310
  20
7.00642
  30
0.00000
  70
32
  0
VERTEX
  5
50A
  100
AcDbEntity
  8
Layer 1
  62
0
  100
AcDb2dVertex
  10
13.96690
  20
7.01052
  30
0.00000
  42
-0.1735
  70
32
  0
VERTEX
  5
50B
  100
AcDbEntity
  8
Layer 1
  62
0
  100
AcDb2dVertex
  10
13.93198
  20
7.02360
  30
0.00000
  42
-0.1738
  70
32
  0
VERTEX
  5
50C
  100
AcDbEntity
  8
Layer 1
  62
0
  100
AcDb2dVertex
  10
13.91890
  20
7.05856
  30
0.00000
  42
-0.0134
  70
32
  0
VERTEX
  5
50D
  100
AcDbEntity
  8
Layer 1
  62
0
  100
AcDb2dVertex
  10
13.91890
  20
7.35471
  30
0.00000
  42
-0.1738
  70
32
  0
VERTEX
  5
50E
  100
AcDbEntity
  8
Layer 1
  62
0
  100
AcDb2dVertex
  10
13.93198
  20
7.38968
  30
0.00000
  42
-0.1734
  70
32
  0
VERTEX
  5
50F
  100
AcDbEntity
  8
Layer 1
  62
0
  100
AcDb2dVertex
  10
13.96690
  20
7.40275
  30
0.00000
  70
32
  0
VERTEX
  5
510
  100
AcDbEntity
  8
Layer 1
  62
0
  100
AcDb2dVertex
  10
14.39521
  20
7.40685
  30
0.00000
  42
0.1735
  70
32
  0
VERTEX
  5
511
  100
AcDbEntity
  8
Layer 1
  62
0
  100
AcDb2dVertex
  10
14.43013
  20
7.41993
  30
0.00000
  42
0.1761
  70
32
  0
VERTEX
  5
512
  100
AcDbEntity
  8
Layer 1
  62
0
  100
AcDb2dVertex
  10
14.44307
  20
7.45476
  30
0.00000
  42
0.0487
  70
32
  0
VERTEX
  5
513
  100
AcDbEntity
  8
Layer 1
  62
0
  100
AcDb2dVertex
  10
14.40124
  20
7.69097
  30
0.00000
  42
0.0272
  70
32
  0
VERTEX
  5
514
  100
AcDbEntity
  8
Layer 1
  62
0
  100
AcDb2dVertex
  10
14.35095
  20
7.90402
  30
0.00000
  42
0.2341
  70
32
  0
VERTEX
  5
515
  100
AcDbEntity
  8
Layer 1
  62
0
  100
AcDb2dVertex
  10
14.32787
  20
7.92684
  30
0.00000
  42
0.0894
  70
32
  0
VERTEX
  5
516
  100
AcDbEntity
  8
Layer 1
  62
0
  100
AcDb2dVertex
  10
14.24134
  20
7.93304
  30
0.00000
  70
32
  0
SEQEND
  5
517
  100
AcDbEntity
  8
Layer 1
  62
0
  0
POLYLINE
  5
518
  100
AcDbEntity
  8
Layer 1
  62
0
  100
AcDb2dPolyline
 66
     1
  10
0
  20
0
  30
0
  70
1
  0
VERTEX
  5
519
  100
AcDbEntity
  8
Layer 1
  62
0
  100
AcDb2dVertex
  10
7.32348
  20
9.52841
  30
0.00000
  42
-0.0460
  70
32
  0
VERTEX
  5
51A
  100
AcDbEntity
  8
Layer 1
  62
0
  100
AcDb2dVertex
  10
7.27033
  20
9.09715
  30
0.00000
  42
0.0137
  70
32
  0
VERTEX
  5
51B
  100
AcDbEntity
  8
Layer 1
  62
0
  100
AcDb2dVertex
  10
7.22533
  20
8.59985
  30
0.00000
  42
0.1738
  70
32
  0
VERTEX
  5
51C
  100
AcDbEntity
  8
Layer 1
  62
0
  100
AcDb2dVertex
  10
7.23841
  20
8.56488
  30
0.00000
  42
0.1734
  70
32
  0
VERTEX
  5
51D
  100
AcDbEntity
  8
Layer 1
  62
0
  100
AcDb2dVertex
  10
7.27333
  20
8.55180
  30
0.00000
  42
0.0087
  70
32
  0
VERTEX
  5
51E
  100
AcDbEntity
  8
Layer 1
  62
0
  100
AcDb2dVertex
  10
7.74566
  20
8.55180
  30
0.00000
  42
0.1735
  70
32
  0
VERTEX
  5
51F
  100
AcDbEntity
  8
Layer 1
  62
0
  100
AcDb2dVertex
  10
7.78059
  20
8.56488
  30
0.00000
  42
0.1735
  70
32
  0
VERTEX
  5
520
  100
AcDbEntity
  8
Layer 1
  62
0
  100
AcDb2dVertex
  10
7.79366
  20
8.59985
  30
0.00000
  42
-0.0804
  70
32
  0
VERTEX
  5
521
  100
AcDbEntity
  8
Layer 1
  62
0
  100
AcDb2dVertex
  10
7.82762
  20
8.80413
  30
0.00000
  42
-0.0408
  70
32
  0
VERTEX
  5
522
  100
AcDbEntity
  8
Layer 1
  62
0
  100
AcDb2dVertex
  10
7.88301
  20
9.23310
  30
0.00000
  42
0.0105
  70
32
  0
VERTEX
  5
523
  100
AcDbEntity
  8
Layer 1
  62
0
  100
AcDb2dVertex
  10
7.88610
  20
9.36212
  30
0.00000
  42
-0.2387
  70
32
  0
VERTEX
  5
524
  100
AcDbEntity
  8
Layer 1
  62
0
  100
AcDb2dVertex
  10
7.93692
  20
9.45733
  30
0.00000
  42
-0.4815
  70
32
  0
VERTEX
  5
525
  100
AcDbEntity
  8
Layer 1
  62
0
  100
AcDb2dVertex
  10
7.96607
  20
9.44482
  30
0.00000
  42
0.0275
  70
32
  0
VERTEX
  5
526
  100
AcDbEntity
  8
Layer 1
  62
0
  100
AcDb2dVertex
  10
7.98527
  20
9.37080
  30
0.00000
  42
-0.0155
  70
32
  0
VERTEX
  5
527
  100
AcDbEntity
  8
Layer 1
  62
0
  100
AcDb2dVertex
  10
8.32673
  20
8.63023
  30
0.00000
  42
0.1828
  70
32
  0
VERTEX
  5
528
  100
AcDbEntity
  8
Layer 1
  62
0
  100
AcDb2dVertex
  10
8.35201
  20
8.60148
  30
0.00000
  42
0.1853
  70
32
  0
VERTEX
  5
529
  100
AcDbEntity
  8
Layer 1
  62
0
  100
AcDb2dVertex
  10
8.38442
  20
8.60148
  30
0.00000
  42
0.1829
  70
32
  0
VERTEX
  5
52A
  100
AcDbEntity
  8
Layer 1
  62
0
  100
AcDb2dVertex
  10
8.40969
  20
8.63023
  30
0.00000
  70
32
  0
VERTEX
  5
52B
  100
AcDbEntity
  8
Layer 1
  62
0
  100
AcDb2dVertex
  10
8.76172
  20
9.42549
  30
0.00000
  70
32
  0
VERTEX
  5
52C
  100
AcDbEntity
  8
Layer 1
  62
0
  100
AcDb2dVertex
  10
8.77736
  20
9.45746
  30
0.00000
  42
-0.4711
  70
32
  0
VERTEX
  5
52D
  100
AcDbEntity
  8
Layer 1
  62
0
  100
AcDb2dVertex
  10
8.79563
  20
9.45733
  30
0.00000
  42
-0.1587
  70
32
  0
VERTEX
  5
52E
  100
AcDbEntity
  8
Layer 1
  62
0
  100
AcDb2dVertex
  10
8.80660
  20
9.42439
  30
0.00000
  42
0.0807
  70
32
  0
VERTEX
  5
52F
  100
AcDbEntity
  8
Layer 1
  62
0
  100
AcDb2dVertex
  10
8.84046
  20
9.22015
  30
0.00000
  42
0.0183
  70
32
  0
VERTEX
  5
530
  100
AcDbEntity
  8
Layer 1
  62
0
  100
AcDb2dVertex
  10
8.87463
  20
8.85804
  30
0.00000
  42
-0.0662
  70
32
  0
VERTEX
  5
531
  100
AcDbEntity
  8
Layer 1
  62
0
  100
AcDb2dVertex
  10
8.89872
  20
8.59985
  30
0.00000
  42
0.1738
  70
32
  0
VERTEX
  5
532
  100
AcDbEntity
  8
Layer 1
  62
0
  100
AcDb2dVertex
  10
8.91180
  20
8.56488
  30
0.00000
  42
0.1734
  70
32
  0
VERTEX
  5
533
  100
AcDbEntity
  8
Layer 1
  62
0
  100
AcDb2dVertex
  10
8.94672
  20
8.55180
  30
0.00000
  42
0.0081
  70
32
  0
VERTEX
  5
534
  100
AcDbEntity
  8
Layer 1
  62
0
  100
AcDb2dVertex
  10
9.46310
  20
8.55180
  30
0.00000
  42
0.1735
  70
32
  0
VERTEX
  5
535
  100
AcDbEntity
  8
Layer 1
  62
0
  100
AcDb2dVertex
  10
9.49802
  20
8.56488
  30
0.00000
  42
0.1740
  70
32
  0
VERTEX
  5
536
  100
AcDbEntity
  8
Layer 1
  62
0
  100
AcDb2dVertex
  10
9.51110
  20
8.59985
  30
0.00000
  42
0.1107
  70
32
  0
VERTEX
  5
537
  100
AcDbEntity
  8
Layer 1
  62
0
  100
AcDb2dVertex
  10
9.48128
  20
8.80413
  30
0.00000
  42
0.0183
  70
32
  0
VERTEX
  5
538
  100
AcDbEntity
  8
Layer 1
  62
0
  100
AcDb2dVertex
  10
9.44711
  20
9.16625
  30
0.00000
  70
32
  0
VERTEX
  5
539
  100
AcDbEntity
  8
Layer 1
  62
0
  100
AcDb2dVertex
  10
9.30514
  20
10.25735
  30
0.00000
  42
-0.0275
  70
32
  0
VERTEX
  5
53A
  100
AcDbEntity
  8
Layer 1
  62
0
  100
AcDb2dVertex
  10
9.28779
  20
10.54816
  30
0.00000
  42
0.0662
  70
32
  0
VERTEX
  5
53B
  100
AcDbEntity
  8
Layer 1
  62
0
  100
AcDb2dVertex
  10
9.24639
  20
10.67111
  30
0.00000
  42
0.3028
  70
32
  0
VERTEX
  5
53C
  100
AcDbEntity
  8
Layer 1
  62
0
  100
AcDb2dVertex
  10
9.19888
  20
10.70537
  30
0.00000
  42
0.0090
  70
32
  0
VERTEX
  5
53D
  100
AcDbEntity
  8
Layer 1
  62
0
  100
AcDb2dVertex
  10
8.72654
  20
10.70551
  30
0.00000
  42
0.2945
  70
32
  0
VERTEX
  5
53E
  100
AcDbEntity
  8
Layer 1
  62
0
  100
AcDb2dVertex
  10
8.68272
  20
10.67834
  30
0.00000
  70
32
  0
VERTEX
  5
53F
  100
AcDbEntity
  8
Layer 1
  62
0
  100
AcDb2dVertex
  10
8.67779
  20
10.65663
  30
0.00000
  42
0.0067
  70
32
  0
VERTEX
  5
540
  100
AcDbEntity
  8
Layer 1
  62
0
  100
AcDb2dVertex
  10
8.40644
  20
9.85648
  30
0.00000
  42
-0.4842
  70
32
  0
VERTEX
  5
541
  100
AcDbEntity
  8
Layer 1
  62
0
  100
AcDb2dVertex
  10
8.37728
  20
9.84402
  30
0.00000
  42
-0.1526
  70
32
  0
VERTEX
  5
542
  100
AcDbEntity
  8
Layer 1
  62
0
  100
AcDb2dVertex
  10
8.33466
  20
9.90430
  30
0.00000
  42
-0.0071
  70
32
  0
VERTEX
  5
543
  100
AcDbEntity
  8
Layer 1
  62
0
  100
AcDb2dVertex
  10
8.05740
  20
10.67111
  30
0.00000
  42
0.3028
  70
32
  0
VERTEX
  5
544
  100
AcDbEntity
  8
Layer 1
  62
0
  100
AcDb2dVertex
  10
8.00988
  20
10.70537
  30
0.00000
  42
0.0093
  70
32
  0
VERTEX
  5
545
  100
AcDbEntity
  8
Layer 1
  62
0
  100
AcDb2dVertex
  10
7.53755
  20
10.70537
  30
0.00000
  42
0.3076
  70
32
  0
VERTEX
  5
546
  100
AcDbEntity
  8
Layer 1
  62
0
  100
AcDb2dVertex
  10
7.49003
  20
10.67111
  30
0.00000
  42
0.1096
  70
32
  0
VERTEX
  5
547
  100
AcDbEntity
  8
Layer 1
  62
0
  100
AcDb2dVertex
  10
7.43824
  20
10.29438
  30
0.00000
  42
0.0318
  70
32
  0
VERTEX
  5
548
  100
AcDbEntity
  8
Layer 1
  62
0
  100
AcDb2dVertex
  10
7.40222
  20
10.11026
  30
0.00000
  42
-0.0922
  70
32
  0
VERTEX
  5
549
  100
AcDbEntity
  8
Layer 1
  62
0
  100
AcDb2dVertex
  10
7.36752
  20
9.88070
  30
0.00000
  42
-0.0419
  70
32
  0
VERTEX
  5
54A
  100
AcDbEntity
  8
Layer 1
  62
0
  100
AcDb2dVertex
  10
7.32348
  20
9.52841
  30
0.00000
  70
32
  0
SEQEND
  5
54B
  100
AcDbEntity
  8
Layer 1
  62
0
  0
POLYLINE
  5
54C
  100
AcDbEntity
  8
Layer 1
  62
0
  100
AcDb2dPolyline
 66
     1
  10
0
  20
0
  30
0
  70
1
  0
VERTEX
  5
54D
  100
AcDbEntity
  8
Layer 1
  62
0
  100
AcDb2dVertex
  10
11.75930
  20
8.88027
  30
0.00000
  70
32
  0
VERTEX
  5
54E
  100
AcDbEntity
  8
Layer 1
  62
0
  100
AcDb2dVertex
  10
11.18031
  20
10.67834
  30
0.00000
  42
0.2341
  70
32
  0
VERTEX
  5
54F
  100
AcDbEntity
  8
Layer 1
  62
0
  100
AcDb2dVertex
  10
11.15723
  20
10.70115
  30
0.00000
  42
0.0894
  70
32
  0
VERTEX
  5
550
  100
AcDbEntity
  8
Layer 1
  62
0
  100
AcDb2dVertex
  10
11.07070
  20
10.70736
  30
0.00000
  70
32
  0
VERTEX
  5
551
  100
AcDbEntity
  8
Layer 1
  62
0
  100
AcDb2dVertex
  10
10.44397
  20
10.70537
  30
0.00000
  42
0.3076
  70
32
  0
VERTEX
  5
552
  100
AcDbEntity
  8
Layer 1
  62
0
  100
AcDb2dVertex
  10
10.39645
  20
10.67111
  30
0.00000
  70
32
  0
VERTEX
  5
553
  100
AcDbEntity
  8
Layer 1
  62
0
  100
AcDb2dVertex
  10
9.73943
  20
8.62539
  30
0.00000
  42
0.1477
  70
32
  0
VERTEX
  5
554
  100
AcDbEntity
  8
Layer 1
  62
0
  100
AcDb2dVertex
  10
9.73991
  20
8.57897
  30
0.00000
  42
0.2408
  70
32
  0
VERTEX
  5
555
  100
AcDbEntity
  8
Layer 1
  62
0
  100
AcDb2dVertex
  10
9.76268
  20
8.55616
  30
0.00000
  42
0.0894
  70
32
  0
VERTEX
  5
556
  100
AcDbEntity
  8
Layer 1
  62
0
  100
AcDb2dVertex
  10
9.84921
  20
8.54995
  30
0.00000
  42
0.0051
  70
32
  0
VERTEX
  5
557
  100
AcDbEntity
  8
Layer 1
  62
0
  100
AcDb2dVertex
  10
10.29979
  20
8.55194
  30
0.00000
  42
0.3076
  70
32
  0
VERTEX
  5
558
  100
AcDbEntity
  8
Layer 1
  62
0
  100
AcDb2dVertex
  10
10.34731
  20
8.58620
  30
0.00000
  42
0.0409
  70
32
  0
VERTEX
  5
559
  100
AcDbEntity
  8
Layer 1
  62
0
  100
AcDb2dVertex
  10
10.44419
  20
8.87283
  30
0.00000
  42
-0.2294
  70
32
  0
VERTEX
  5
55A
  100
AcDbEntity
  8
Layer 1
  62
0
  100
AcDb2dVertex
  10
10.46515
  20
8.89718
  30
0.00000
  42
-0.0839
  70
32
  0
VERTEX
  5
55B
  100
AcDbEntity
  8
Layer 1
  62
0
  100
AcDb2dVertex
  10
10.55380
  20
8.90185
  30
0.00000
  70
32
  0
VERTEX
  5
55C
  100
AcDbEntity
  8
Layer 1
  62
0
  100
AcDb2dVertex
  10
10.90001
  20
8.90172
  30
0.00000
  42
-0.0065
  70
32
  0
VERTEX
  5
55D
  100
AcDbEntity
  8
Layer 1
  62
0
  100
AcDb2dVertex
  10
11.02842
  20
8.89806
  30
0.00000
  42
-0.3113
  70
32
  0
VERTEX
  5
55E
  100
AcDbEntity
  8
Layer 1
  62
0
  100
AcDb2dVertex
  10
11.13063
  20
8.82413
  30
0.00000
  42
0.0118
  70
32
  0
VERTEX
  5
55F
  100
AcDbEntity
  8
Layer 1
  62
0
  100
AcDb2dVertex
  10
11.19281
  20
8.57897
  30
0.00000
  42
0.2341
  70
32
  0
VERTEX
  5
560
  100
AcDbEntity
  8
Layer 1
  62
0
  100
AcDb2dVertex
  10
11.21589
  20
8.55616
  30
0.00000
  42
0.0894
  70
32
  0
VERTEX
  5
561
  100
AcDbEntity
  8
Layer 1
  62
0
  100
AcDb2dVertex
  10
11.30242
  20
8.54995
  30
0.00000
  70
32
  0
VERTEX
  5
562
  100
AcDbEntity
  8
Layer 1
  62
0
  100
AcDb2dVertex
  10
11.79704
  20
8.55180
  30
0.00000
  42
0.1735
  70
32
  0
VERTEX
  5
563
  100
AcDbEntity
  8
Layer 1
  62
0
  100
AcDb2dVertex
  10
11.83196
  20
8.56488
  30
0.00000
  42
0.1761
  70
32
  0
VERTEX
  5
564
  100
AcDbEntity
  8
Layer 1
  62
0
  100
AcDb2dVertex
  10
11.84491
  20
8.59972
  30
0.00000
  42
0.0995
  70
32
  0
VERTEX
  5
565
  100
AcDbEntity
  8
Layer 1
  62
0
  100
AcDb2dVertex
  10
11.75930
  20
8.88027
  30
0.00000
  70
32
  0
SEQEND
  5
566
  100
AcDbEntity
  8
Layer 1
  62
0
  0
POLYLINE
  5
567
  100
AcDbEntity
  8
Layer 1
  62
0
  100
AcDb2dPolyline
 66
     1
  10
0
  20
0
  30
0
  70
1
  0
VERTEX
  5
568
  100
AcDbEntity
  8
Layer 1
  62
0
  100
AcDb2dVertex
  10
13.37866
  20
9.46222
  30
0.00000
  42
0.3019
  70
32
  0
VERTEX
  5
569
  100
AcDbEntity
  8
Layer 1
  62
0
  100
AcDb2dVertex
  10
13.36550
  20
10.44248
  30
0.00000
  42
0.2663
  70
32
  0
VERTEX
  5
56A
  100
AcDbEntity
  8
Layer 1
  62
0
  100
AcDb2dVertex
  10
12.66179
  20
10.70753
  30
0.00000
  70
32
  0
VERTEX
  5
56B
  100
AcDbEntity
  8
Layer 1
  62
0
  100
AcDb2dVertex
  10
12.07333
  20
10.70551
  30
0.00000
  42
0.1735
  70
32
  0
VERTEX
  5
56C
  100
AcDbEntity
  8
Layer 1
  62
0
  100
AcDb2dVertex
  10
12.03841
  20
10.69243
  30
0.00000
  42
0.1738
  70
32
  0
VERTEX
  5
56D
  100
AcDbEntity
  8
Layer 1
  62
0
  100
AcDb2dVertex
  10
12.02533
  20
10.65746
  30
0.00000
  70
32
  0
VERTEX
  5
56E
  100
AcDbEntity
  8
Layer 1
  62
0
  100
AcDb2dVertex
  10
12.02533
  20
8.59985
  30
0.00000
  42
0.1738
  70
32
  0
VERTEX
  5
56F
  100
AcDbEntity
  8
Layer 1
  62
0
  100
AcDb2dVertex
  10
12.03841
  20
8.56488
  30
0.00000
  42
0.1734
  70
32
  0
VERTEX
  5
570
  100
AcDbEntity
  8
Layer 1
  62
0
  100
AcDb2dVertex
  10
12.07333
  20
8.55180
  30
0.00000
  42
0.0081
  70
32
  0
VERTEX
  5
571
  100
AcDbEntity
  8
Layer 1
  62
0
  100
AcDb2dVertex
  10
12.58970
  20
8.55180
  30
0.00000
  42
0.1735
  70
32
  0
VERTEX
  5
572
  100
AcDbEntity
  8
Layer 1
  62
0
  100
AcDb2dVertex
  10
12.62462
  20
8.56488
  30
0.00000
  42
0.1738
  70
32
  0
VERTEX
  5
573
  100
AcDbEntity
  8
Layer 1
  62
0
  100
AcDb2dVertex
  10
12.63770
  20
8.59985
  30
0.00000
  70
32
  0
VERTEX
  5
574
  100
AcDbEntity
  8
Layer 1
  62
0
  100
AcDb2dVertex
  10
12.64092
  20
9.16281
  30
0.00000
  42
-0.1846
  70
32
  0
VERTEX
  5
575
  100
AcDbEntity
  8
Layer 1
  62
0
  100
AcDb2dVertex
  10
12.65307
  20
9.19699
  30
0.00000
  42
-0.1846
  70
32
  0
VERTEX
  5
576
  100
AcDbEntity
  8
Layer 1
  62
0
  100
AcDb2dVertex
  10
12.68724
  20
9.20914
  30
0.00000
  42
0.0064
  70
32
  0
VERTEX
  5
577
  100
AcDbEntity
  8
Layer 1
  62
0
  100
AcDb2dVertex
  10
12.87915
  20
9.21341
  30
0.00000
  42
0.1855
  70
32
  0
VERTEX
  5
578
  100
AcDbEntity
  8
Layer 1
  62
0
  100
AcDb2dVertex
  10
13.37866
  20
9.46222
  30
0.00000
  70
32
  0
SEQEND
  5
579
  100
AcDbEntity
  8
Layer 1
  62
0
  0
POLYLINE
  5
57A
  100
AcDbEntity
  8
Layer 1
  62
0
  100
AcDb2dPolyline
 66
     1
  10
0
  20
0
  30
0
  70
1
  0
VERTEX
  5
57B
  100
AcDbEntity
  8
Layer 1
  62
0
  100
AcDb2dVertex
  10
14.98997
  20
9.12204
  30
0.00000
  70
32
  0
VERTEX
  5
57C
  100
AcDbEntity
  8
Layer 1
  62
0
  100
AcDb2dVertex
  10
14.40727
  20
9.12428
  30
0.00000
  42
-0.1735
  70
32
  0
VERTEX
  5
57D
  100
AcDbEntity
  8
Layer 1
  62
0
  100
AcDb2dVertex
  10
14.37235
  20
9.13736
  30
0.00000
  42
-0.1738
  70
32
  0
VERTEX
  5
57E
  100
AcDbEntity
  8
Layer 1
  62
0
  100
AcDb2dVertex
  10
14.35927
  20
9.17233
  30
0.00000
  70
32
  0
VERTEX
  5
57F
  100
AcDbEntity
  8
Layer 1
  62
0
  100
AcDb2dVertex
  10
14.35513
  20
10.65746
  30
0.00000
  42
0.1738
  70
32
  0
VERTEX
  5
580
  100
AcDbEntity
  8
Layer 1
  62
0
  100
AcDb2dVertex
  10
14.34205
  20
10.69243
  30
0.00000
  42
0.1734
  70
32
  0
VERTEX
  5
581
  100
AcDbEntity
  8
Layer 1
  62
0
  100
AcDb2dVertex
  10
14.30713
  20
10.70551
  30
0.00000
  42
0.0081
  70
32
  0
VERTEX
  5
582
  100
AcDbEntity
  8
Layer 1
  62
0
  100
AcDb2dVertex
  10
13.79076
  20
10.70551
  30
0.00000
  42
0.1735
  70
32
  0
VERTEX
  5
583
  100
AcDbEntity
  8
Layer 1
  62
0
  100
AcDb2dVertex
  10
13.75584
  20
10.69243
  30
0.00000
  42
0.1738
  70
32
  0
VERTEX
  5
584
  100
AcDbEntity
  8
Layer 1
  62
0
  100
AcDb2dVertex
  10
13.74276
  20
10.65746
  30
0.00000
  70
32
  0
VERTEX
  5
585
  100
AcDbEntity
  8
Layer 1
  62
0
  100
AcDb2dVertex
  10
13.74276
  20
8.59985
  30
0.00000
  42
0.1738
  70
32
  0
VERTEX
  5
586
  100
AcDbEntity
  8
Layer 1
  62
0
  100
AcDb2dVertex
  10
13.75584
  20
8.56488
  30
0.00000
  42
0.1734
  70
32
  0
VERTEX
  5
587
  100
AcDbEntity
  8
Layer 1
  62
0
  100
AcDb2dVertex
  10
13.79076
  20
8.55180
  30
0.00000
  70
32
  0
VERTEX
  5
588
  100
AcDbEntity
  8
Layer 1
  62
0
  100
AcDb2dVertex
  10
14.89533
  20
8.55022
  30
0.00000
  70
32
  0
VERTEX
  5
589
  100
AcDbEntity
  8
Layer 1
  62
0
  100
AcDb2dVertex
  10
14.94650
  20
8.55462
  30
0.00000
  42
0.2430
  70
32
  0
VERTEX
  5
58A
  100
AcDbEntity
  8
Layer 1
  62
0
  100
AcDb2dVertex
  10
14.96887
  20
8.57695
  30
0.00000
  70
32
  0
VERTEX
  5
58B
  100
AcDbEntity
  8
Layer 1
  62
0
  100
AcDb2dVertex
  10
14.97239
  20
8.60068
  30
0.00000
  42
0.0119
  70
32
  0
VERTEX
  5
58C
  100
AcDbEntity
  8
Layer 1
  62
0
  100
AcDb2dVertex
  10
15.02185
  20
8.78793
  30
0.00000
  42
-0.0134
  70
32
  0
VERTEX
  5
58D
  100
AcDbEntity
  8
Layer 1
  62
0
  100
AcDb2dVertex
  10
15.09992
  20
9.07597
  30
0.00000
  42
0.3685
  70
32
  0
VERTEX
  5
58E
  100
AcDbEntity
  8
Layer 1
  62
0
  100
AcDb2dVertex
  10
15.07645
  20
9.11583
  30
0.00000
  42
0.0892
  70
32
  0
VERTEX
  5
58F
  100
AcDbEntity
  8
Layer 1
  62
0
  100
AcDb2dVertex
  10
14.98997
  20
9.12204
  30
0.00000
  70
32
  0
SEQEND
  5
590
  100
AcDbEntity
  8
Layer 1
  62
0
  0
POLYLINE
  5
591
  100
AcDbEntity
  8
Layer 1
  62
0
  100
AcDb2dPolyline
 66
     1
  10
0
  20
0
  30
0
  70
1
  0
VERTEX
  5
592
  100
AcDbEntity
  8
Layer 1
  62
0
  100
AcDb2dVertex
  10
16.46150
  20
10.63205
  30
0.00000
  42
0.3160
  70
32
  0
VERTEX
  5
593
  100
AcDbEntity
  8
Layer 1
  62
0
  100
AcDb2dVertex
  10
16.35858
  20
10.70524
  30
0.00000
  70
32
  0
VERTEX
  5
594
  100
AcDbEntity
  8
Layer 1
  62
0
  100
AcDb2dVertex
  10
15.37608
  20
10.70551
  30
0.00000
  42
0.1735
  70
32
  0
VERTEX
  5
595
  100
AcDbEntity
  8
Layer 1
  62
0
  100
AcDb2dVertex
  10
15.34116
  20
10.69243
  30
0.00000
  42
0.1738
  70
32
  0
VERTEX
  5
596
  100
AcDbEntity
  8
Layer 1
  62
0
  100
AcDb2dVertex
  10
15.32808
  20
10.65746
  30
0.00000
  70
32
  0
VERTEX
  5
597
  100
AcDbEntity
  8
Layer 1
  62
0
  100
AcDb2dVertex
  10
15.32808
  20
8.59985
  30
0.00000
  42
0.1738
  70
32
  0
VERTEX
  5
598
  100
AcDbEntity
  8
Layer 1
  62
0
  100
AcDb2dVertex
  10
15.34116
  20
8.56488
  30
0.00000
  42
0.1734
  70
32
  0
VERTEX
  5
599
  100
AcDbEntity
  8
Layer 1
  62
0
  100
AcDb2dVertex
  10
15.37608
  20
8.55180
  30
0.00000
  42
0.0059
  70
32
  0
VERTEX
  5
59A
  100
AcDbEntity
  8
Layer 1
  62
0
  100
AcDb2dVertex
  10
16.40090
  20
8.55374
  30
0.00000
  42
0.3330
  70
32
  0
VERTEX
  5
59B
  100
AcDbEntity
  8
Layer 1
  62
0
  100
AcDb2dVertex
  10
16.50553
  20
8.62526
  30
0.00000
  70
32
  0
VERTEX
  5
59C
  100
AcDbEntity
  8
Layer 1
  62
0
  100
AcDb2dVertex
  10
16.51020
  20
8.66463
  30
0.00000
  42
0.0537
  70
32
  0
VERTEX
  5
59D
  100
AcDbEntity
  8
Layer 1
  62
0
  100
AcDb2dVertex
  10
16.56996
  20
8.95624
  30
0.00000
  42
0.0216
  70
32
  0
VERTEX
  5
59E
  100
AcDbEntity
  8
Layer 1
  62
0
  100
AcDb2dVertex
  10
16.59717
  20
9.03194
  30
0.00000
  42
0.3685
  70
32
  0
VERTEX
  5
59F
  100
AcDbEntity
  8
Layer 1
  62
0
  100
AcDb2dVertex
  10
16.57370
  20
9.07179
  30
0.00000
  42
0.0892
  70
32
  0
VERTEX
  5
5A0
  100
AcDbEntity
  8
Layer 1
  62
0
  100
AcDb2dVertex
  10
16.48721
  20
9.07800
  30
0.00000
  70
32
  0
VERTEX
  5
5A1
  100
AcDbEntity
  8
Layer 1
  62
0
  100
AcDb2dVertex
  10
15.94856
  20
9.08024
  30
0.00000
  42
-0.1735
  70
32
  0
VERTEX
  5
5A2
  100
AcDbEntity
  8
Layer 1
  62
0
  100
AcDb2dVertex
  10
15.91364
  20
9.09332
  30
0.00000
  42
-0.1738
  70
32
  0
VERTEX
  5
5A3
  100
AcDbEntity
  8
Layer 1
  62
0
  100
AcDb2dVertex
  10
15.90056
  20
9.12829
  30
0.00000
  42
-0.0290
  70
32
  0
VERTEX
  5
5A4
  100
AcDbEntity
  8
Layer 1
  62
0
  100
AcDb2dVertex
  10
15.90249
  20
9.31641
  30
0.00000
  42
-0.3973
  70
32
  0
VERTEX
  5
5A5
  100
AcDbEntity
  8
Layer 1
  62
0
  100
AcDb2dVertex
  10
16.01259
  20
9.42651
  30
0.00000
  42
-0.0067
  70
32
  0
VERTEX
  5
5A6
  100
AcDbEntity
  8
Layer 1
  62
0
  100
AcDb2dVertex
  10
16.28878
  20
9.43254
  30
0.00000
  42
0.1735
  70
32
  0
VERTEX
  5
5A7
  100
AcDbEntity
  8
Layer 1
  62
0
  100
AcDb2dVertex
  10
16.32370
  20
9.44562
  30
0.00000
  42
0.1738
  70
32
  0
VERTEX
  5
5A8
  100
AcDbEntity
  8
Layer 1
  62
0
  100
AcDb2dVertex
  10
16.33678
  20
9.48058
  30
0.00000
  42
0.0121
  70
32
  0
VERTEX
  5
5A9
  100
AcDbEntity
  8
Layer 1
  62
0
  100
AcDb2dVertex
  10
16.33678
  20
9.82077
  30
0.00000
  42
0.1738
  70
32
  0
VERTEX
  5
5AA
  100
AcDbEntity
  8
Layer 1
  62
0
  100
AcDb2dVertex
  10
16.32370
  20
9.85573
  30
0.00000
  42
0.1734
  70
32
  0
VERTEX
  5
5AB
  100
AcDbEntity
  8
Layer 1
  62
0
  100
AcDb2dVertex
  10
16.28878
  20
9.86881
  30
0.00000
  70
32
  0
VERTEX
  5
5AC
  100
AcDbEntity
  8
Layer 1
  62
0
  100
AcDb2dVertex
  10
15.94856
  20
9.87291
  30
0.00000
  42
-0.1735
  70
32
  0
VERTEX
  5
5AD
  100
AcDbEntity
  8
Layer 1
  62
0
  100
AcDb2dVertex
  10
15.91364
  20
9.88598
  30
0.00000
  42
-0.1738
  70
32
  0
VERTEX
  5
5AE
  100
AcDbEntity
  8
Layer 1
  62
0
  100
AcDb2dVertex
  10
15.90056
  20
9.92095
  30
0.00000
  42
-0.0166
  70
32
  0
VERTEX
  5
5AF
  100
AcDbEntity
  8
Layer 1
  62
0
  100
AcDb2dVertex
  10
15.90056
  20
10.12902
  30
0.00000
  42
-0.1738
  70
32
  0
VERTEX
  5
5B0
  100
AcDbEntity
  8
Layer 1
  62
0
  100
AcDb2dVertex
  10
15.91364
  20
10.16399
  30
0.00000
  42
-0.1734
  70
32
  0
VERTEX
  5
5B1
  100
AcDbEntity
  8
Layer 1
  62
0
  100
AcDb2dVertex
  10
15.94856
  20
10.17707
  30
0.00000
  70
32
  0
VERTEX
  5
5B2
  100
AcDbEntity
  8
Layer 1
  62
0
  100
AcDb2dVertex
  10
16.44489
  20
10.18301
  30
0.00000
  42
0.2728
  70
32
  0
VERTEX
  5
5B3
  100
AcDbEntity
  8
Layer 1
  62
0
  100
AcDb2dVertex
  10
16.55173
  20
10.25065
  30
0.00000
  42
0.1391
  70
32
  0
VERTEX
  5
5B4
  100
AcDbEntity
  8
Layer 1
  62
0
  100
AcDb2dVertex
  10
16.54596
  20
10.29174
  30
0.00000
  42
-0.0144
  70
32
  0
VERTEX
  5
5B5
  100
AcDbEntity
  8
Layer 1
  62
0
  100
AcDb2dVertex
  10
16.46150
  20
10.63205
  30
0.00000
  70
32
  0
SEQEND
  5
5B6
  100
AcDbEntity
  8
Layer 1
  62
0
  0
POLYLINE
  5
5B7
  100
AcDbEntity
  8
Layer 1
  62
0
  100
AcDb2dPolyline
 66
     1
  10
0
  20
0
  30
0
  70
1
  0
VERTEX
  5
5B8
  100
AcDbEntity
  8
Layer 1
  62
0
  100
AcDb2dVertex
  10
7.94506
  20
13.34493
  30
0.00000
  42
-0.0642
  70
32
  0
VERTEX
  5
5B9
  100
AcDbEntity
  8
Layer 1
  62
0
  100
AcDb2dVertex
  10
7.76191
  20
13.38122
  30
0.00000
  42
0.2114
  70
32
  0
VERTEX
  5
5BA
  100
AcDbEntity
  8
Layer 1
  62
0
  100
AcDb2dVertex
  10
7.65341
  20
13.38122
  30
0.00000
  42
0.1411
  70
32
  0
VERTEX
  5
5BB
  100
AcDbEntity
  8
Layer 1
  62
0
  100
AcDb2dVertex
  10
7.05204
  20
13.14664
  30
0.00000
  42
0.2282
  70
32
  0
VERTEX
  5
5BC
  100
AcDbEntity
  8
Layer 1
  62
0
  100
AcDb2dVertex
  10
6.60326
  20
12.31932
  30
0.00000
  42
-0.0846
  70
32
  0
VERTEX
  5
5BD
  100
AcDbEntity
  8
Layer 1
  62
0
  100
AcDb2dVertex
  10
6.58759
  20
12.25877
  30
0.00000
  70
32
  0
VERTEX
  5
5BE
  100
AcDbEntity
  8
Layer 1
  62
0
  100
AcDb2dVertex
  10
6.57882
  20
12.24067
  30
0.00000
  42
0.2600
  70
32
  0
VERTEX
  5
5BF
  100
AcDbEntity
  8
Layer 1
  62
0
  100
AcDb2dVertex
  10
6.57882
  20
12.21297
  30
0.00000
  42
-0.0999
  70
32
  0
VERTEX
  5
5C0
  100
AcDbEntity
  8
Layer 1
  62
0
  100
AcDb2dVertex
  10
6.60326
  20
12.13432
  30
0.00000
  42
0.3210
  70
32
  0
VERTEX
  5
5C1
  100
AcDbEntity
  8
Layer 1
  62
0
  100
AcDb2dVertex
  10
7.44972
  20
11.14583
  30
0.00000
  42
0.3210
  70
32
  0
VERTEX
  5
5C2
  100
AcDbEntity
  8
Layer 1
  62
0
  100
AcDb2dVertex
  10
8.65828
  20
11.62847
  30
0.00000
  42
0.1301
  70
32
  0
VERTEX
  5
5C3
  100
AcDbEntity
  8
Layer 1
  62
0
  100
AcDb2dVertex
  10
8.84839
  20
12.26885
  30
0.00000
  42
0.3369
  70
32
  0
VERTEX
  5
5C4
  100
AcDbEntity
  8
Layer 1
  62
0
  100
AcDb2dVertex
  10
7.94506
  20
13.34493
  30
0.00000
  70
32
  0
SEQEND
  5
5C5
  100
AcDbEntity
  8
Layer 1
  62
0
  0
POLYLINE
  5
5C6
  100
AcDbEntity
  8
Layer 1
  62
0
  100
AcDb2dPolyline
 66
     1
  10
0
  20
0
  30
0
  70
1
  0
VERTEX
  5
5C7
  100
AcDbEntity
  8
Layer 1
  62
0
  100
AcDb2dVertex
  10
11.68118
  20
13.36154
  30
0.00000
  42
0.3060
  70
32
  0
VERTEX
  5
5C8
  100
AcDbEntity
  8
Layer 1
  62
0
  100
AcDb2dVertex
  10
10.74238
  20
12.49954
  30
0.00000
  42
0.3060
  70
32
  0
VERTEX
  5
5C9
  100
AcDbEntity
  8
Layer 1
  62
0
  100
AcDb2dVertex
  10
11.19114
  20
11.30665
  30
0.00000
  42
0.4203
  70
32
  0
VERTEX
  5
5CA
  100
AcDbEntity
  8
Layer 1
  62
0
  100
AcDb2dVertex
  10
12.76299
  20
11.61918
  30
0.00000
  42
0.5608
  70
32
  0
VERTEX
  5
5CB
  100
AcDbEntity
  8
Layer 1
  62
0
  100
AcDb2dVertex
  10
11.93518
  20
13.37162
  30
0.00000
  42
0.1742
  70
32
  0
VERTEX
  5
5CC
  100
AcDbEntity
  8
Layer 1
  62
0
  100
AcDb2dVertex
  10
11.68118
  20
13.36154
  30
0.00000
  70
32
  0
SEQEND
  5
5CD
  100
AcDbEntity
  8
Layer 1
  62
0
  0
POLYLINE
  5
5CE
  100
AcDbEntity
  8
Layer 1
  62
0
  100
AcDb2dPolyline
 66
     1
  10
0
  20
0
  30
0
  70
1
  0
VERTEX
  5
5CF
  100
AcDbEntity
  8
Layer 1
  62
0
  100
AcDb2dVertex
  10
16.95334
  20
11.52023
  30
0.00000
  42
0.5239
  70
32
  0
VERTEX
  5
5D0
  100
AcDbEntity
  8
Layer 1
  62
0
  100
AcDb2dVertex
  10
18.74290
  20
11.62825
  30
0.00000
  42
0.1401
  70
32
  0
VERTEX
  5
5D1
  100
AcDbEntity
  8
Layer 1
  62
0
  100
AcDb2dVertex
  10
18.92486
  20
12.10689
  30
0.00000
  42
0.3837
  70
32
  0
VERTEX
  5
5D2
  100
AcDbEntity
  8
Layer 1
  62
0
  100
AcDb2dVertex
  10
18.02947
  20
13.34493
  30
0.00000
  42
-0.0642
  70
32
  0
VERTEX
  5
5D3
  100
AcDbEntity
  8
Layer 1
  62
0
  100
AcDb2dVertex
  10
17.84632
  20
13.38122
  30
0.00000
  42
0.2114
  70
32
  0
VERTEX
  5
5D4
  100
AcDbEntity
  8
Layer 1
  62
0
  100
AcDb2dVertex
  10
17.73781
  20
13.38122
  30
0.00000
  42
-0.0660
  70
32
  0
VERTEX
  5
5D5
  100
AcDbEntity
  8
Layer 1
  62
0
  100
AcDb2dVertex
  10
17.55471
  20
13.34489
  30
0.00000
  42
0.3501
  70
32
  0
VERTEX
  5
5D6
  100
AcDbEntity
  8
Layer 1
  62
0
  100
AcDb2dVertex
  10
16.69119
  20
12.22680
  30
0.00000
  42
0.0177
  70
32
  0
VERTEX
  5
5D7
  100
AcDbEntity
  8
Layer 1
  62
0
  100
AcDb2dVertex
  10
16.69639
  20
12.01186
  30
0.00000
  42
0.0913
  70
32
  0
VERTEX
  5
5D8
  100
AcDbEntity
  8
Layer 1
  62
0
  100
AcDb2dVertex
  10
16.71629
  20
11.94373
  30
0.00000
  42
0.1311
  70
32
  0
VERTEX
  5
5D9
  100
AcDbEntity
  8
Layer 1
  62
0
  100
AcDb2dVertex
  10
16.95334
  20
11.52023
  30
0.00000
  70
32
  0
SEQEND
  5
5DA
  100
AcDbEntity
  8
Layer 1
  62
0
  0
POLYLINE
  5
5DB
  100
AcDbEntity
  8
Layer 1
  62
0
  100
AcDb2dPolyline
 66
     1
  10
0
  20
0
  30
0
  70
1
  0
VERTEX
  5
5DC
  100
AcDbEntity
  8
Layer 1
  62
0
  100
AcDb2dVertex
  10
5.18132
  20
12.73344
  30
0.00000
  42
-0.0059
  70
32
  0
VERTEX
  5
5DD
  100
AcDbEntity
  8
Layer 1
  62
0
  100
AcDb2dVertex
  10
5.45576
  20
12.73119
  30
0.00000
  42
-0.1735
  70
32
  0
VERTEX
  5
5DE
  100
AcDbEntity
  8
Layer 1
  62
0
  100
AcDb2dVertex
  10
5.49068
  20
12.71812
  30
0.00000
  42
-0.1738
  70
32
  0
VERTEX
  5
5DF
  100
AcDbEntity
  8
Layer 1
  62
0
  100
AcDb2dVertex
  10
5.50376
  20
12.68315
  30
0.00000
  70
32
  0
VERTEX
  5
5E0
  100
AcDbEntity
  8
Layer 1
  62
0
  100
AcDb2dVertex
  10
5.50812
  20
11.26033
  30
0.00000
  42
0.4221
  70
32
  0
VERTEX
  5
5E1
  100
AcDbEntity
  8
Layer 1
  62
0
  100
AcDb2dVertex
  10
5.61992
  20
11.15191
  30
0.00000
  42
0.0136
  70
32
  0
VERTEX
  5
5E2
  100
AcDbEntity
  8
Layer 1
  62
0
  100
AcDb2dVertex
  10
6.07227
  20
11.14997
  30
0.00000
  42
0.1735
  70
32
  0
VERTEX
  5
5E3
  100
AcDbEntity
  8
Layer 1
  62
0
  100
AcDb2dVertex
  10
6.10719
  20
11.16305
  30
0.00000
  42
0.1738
  70
32
  0
VERTEX
  5
5E4
  100
AcDbEntity
  8
Layer 1
  62
0
  100
AcDb2dVertex
  10
6.12027
  20
11.19801
  30
0.00000
  70
32
  0
VERTEX
  5
5E5
  100
AcDbEntity
  8
Layer 1
  62
0
  100
AcDb2dVertex
  10
6.12234
  20
12.22680
  30
0.00000
  70
32
  0
VERTEX
  5
5E6
  100
AcDbEntity
  8
Layer 1
  62
0
  100
AcDb2dVertex
  10
6.12441
  20
12.68315
  30
0.00000
  42
-0.1738
  70
32
  0
VERTEX
  5
5E7
  100
AcDbEntity
  8
Layer 1
  62
0
  100
AcDb2dVertex
  10
6.13749
  20
12.71812
  30
0.00000
  42
-0.1734
  70
32
  0
VERTEX
  5
5E8
  100
AcDbEntity
  8
Layer 1
  62
0
  100
AcDb2dVertex
  10
6.17241
  20
12.73119
  30
0.00000
  70
32
  0
VERTEX
  5
5E9
  100
AcDbEntity
  8
Layer 1
  62
0
  100
AcDb2dVertex
  10
6.44856
  20
12.73714
  30
0.00000
  42
0.2140
  70
32
  0
VERTEX
  5
5EA
  100
AcDbEntity
  8
Layer 1
  62
0
  100
AcDb2dVertex
  10
6.54553
  20
12.78651
  30
0.00000
  42
0.2336
  70
32
  0
VERTEX
  5
5EB
  100
AcDbEntity
  8
Layer 1
  62
0
  100
AcDb2dVertex
  10
6.54659
  20
12.81315
  30
0.00000
  42
-0.0615
  70
32
  0
VERTEX
  5
5EC
  100
AcDbEntity
  8
Layer 1
  62
0
  100
AcDb2dVertex
  10
6.51660
  20
13.25563
  30
0.00000
  42
0.1738
  70
32
  0
VERTEX
  5
5ED
  100
AcDbEntity
  8
Layer 1
  62
0
  100
AcDb2dVertex
  10
6.50352
  20
13.29059
  30
0.00000
  42
0.1734
  70
32
  0
VERTEX
  5
5EE
  100
AcDbEntity
  8
Layer 1
  62
0
  100
AcDb2dVertex
  10
6.46860
  20
13.30367
  30
0.00000
  42
0.0050
  70
32
  0
VERTEX
  5
5EF
  100
AcDbEntity
  8
Layer 1
  62
0
  100
AcDb2dVertex
  10
5.26763
  20
13.30173
  30
0.00000
  42
0.3332
  70
32
  0
VERTEX
  5
5F0
  100
AcDbEntity
  8
Layer 1
  62
0
  100
AcDb2dVertex
  10
5.16300
  20
13.23022
  30
0.00000
  70
32
  0
VERTEX
  5
5F1
  100
AcDbEntity
  8
Layer 1
  62
0
  100
AcDb2dVertex
  10
5.15877
  20
13.19037
  30
0.00000
  42
-0.0105
  70
32
  0
VERTEX
  5
5F2
  100
AcDbEntity
  8
Layer 1
  62
0
  100
AcDb2dVertex
  10
5.07136
  20
12.77950
  30
0.00000
  42
0.3685
  70
32
  0
VERTEX
  5
5F3
  100
AcDbEntity
  8
Layer 1
  62
0
  100
AcDb2dVertex
  10
5.09483
  20
12.73965
  30
0.00000
  42
0.0891
  70
32
  0
VERTEX
  5
5F4
  100
AcDbEntity
  8
Layer 1
  62
0
  100
AcDb2dVertex
  10
5.18132
  20
12.73344
  30
0.00000
  70
32
  0
SEQEND
  5
5F5
  100
AcDbEntity
  8
Layer 1
  62
0
  0
POLYLINE
  5
5F6
  100
AcDbEntity
  8
Layer 1
  62
0
  100
AcDb2dPolyline
 66
     1
  10
0
  20
0
  30
0
  70
1
  0
VERTEX
  5
5F7
  100
AcDbEntity
  8
Layer 1
  62
0
  100
AcDb2dVertex
  10
9.71133
  20
13.30570
  30
0.00000
  70
32
  0
VERTEX
  5
5F8
  100
AcDbEntity
  8
Layer 1
  62
0
  100
AcDb2dVertex
  10
9.03479
  20
13.30367
  30
0.00000
  42
0.1735
  70
32
  0
VERTEX
  5
5F9
  100
AcDbEntity
  8
Layer 1
  62
0
  100
AcDb2dVertex
  10
8.99987
  20
13.29059
  30
0.00000
  42
0.1738
  70
32
  0
VERTEX
  5
5FA
  100
AcDbEntity
  8
Layer 1
  62
0
  100
AcDb2dVertex
  10
8.98679
  20
13.25563
  30
0.00000
  70
32
  0
VERTEX
  5
5FB
  100
AcDbEntity
  8
Layer 1
  62
0
  100
AcDb2dVertex
  10
8.98701
  20
11.26033
  30
0.00000
  42
0.4221
  70
32
  0
VERTEX
  5
5FC
  100
AcDbEntity
  8
Layer 1
  62
0
  100
AcDb2dVertex
  10
9.09882
  20
11.15191
  30
0.00000
  42
0.0145
  70
32
  0
VERTEX
  5
5FD
  100
AcDbEntity
  8
Layer 1
  62
0
  100
AcDb2dVertex
  10
9.50713
  20
11.14997
  30
0.00000
  42
0.1735
  70
32
  0
VERTEX
  5
5FE
  100
AcDbEntity
  8
Layer 1
  62
0
  100
AcDb2dVertex
  10
9.54205
  20
11.16305
  30
0.00000
  42
0.1738
  70
32
  0
VERTEX
  5
5FF
  100
AcDbEntity
  8
Layer 1
  62
0
  100
AcDb2dVertex
  10
9.55513
  20
11.19801
  30
0.00000
  70
32
  0
VERTEX
  5
600
  100
AcDbEntity
  8
Layer 1
  62
0
  100
AcDb2dVertex
  10
9.55835
  20
11.98116
  30
0.00000
  42
-0.1754
  70
32
  0
VERTEX
  5
601
  100
AcDbEntity
  8
Layer 1
  62
0
  100
AcDb2dVertex
  10
9.56936
  20
12.01419
  30
0.00000
  42
-0.4762
  70
32
  0
VERTEX
  5
602
  100
AcDbEntity
  8
Layer 1
  62
0
  100
AcDb2dVertex
  10
9.58913
  20
12.01419
  30
0.00000
  42
-0.1029
  70
32
  0
VERTEX
  5
603
  100
AcDbEntity
  8
Layer 1
  62
0
  100
AcDb2dVertex
  10
9.60406
  20
11.97962
  30
0.00000
  70
32
  0
VERTEX
  5
604
  100
AcDbEntity
  8
Layer 1
  62
0
  100
AcDb2dVertex
  10
9.89963
  20
11.21109
  30
0.00000
  70
32
  0
VERTEX
  5
605
  100
AcDbEntity
  8
Layer 1
  62
0
  100
AcDb2dVertex
  10
9.92372
  20
11.16600
  30
0.00000
  42
0.1989
  70
32
  0
VERTEX
  5
606
  100
AcDbEntity
  8
Layer 1
  62
0
  100
AcDb2dVertex
  10
9.95957
  20
11.15010
  30
0.00000
  42
0.0083
  70
32
  0
VERTEX
  5
607
  100
AcDbEntity
  8
Layer 1
  62
0
  100
AcDb2dVertex
  10
10.47594
  20
11.14997
  30
0.00000
  42
0.1735
  70
32
  0
VERTEX
  5
608
  100
AcDbEntity
  8
Layer 1
  62
0
  100
AcDb2dVertex
  10
10.51086
  20
11.16305
  30
0.00000
  42
0.1878
  70
32
  0
VERTEX
  5
609
  100
AcDbEntity
  8
Layer 1
  62
0
  100
AcDb2dVertex
  10
10.52301
  20
11.19709
  30
0.00000
  42
0.0771
  70
32
  0
VERTEX
  5
60A
  100
AcDbEntity
  8
Layer 1
  62
0
  100
AcDb2dVertex
  10
10.48166
  20
11.34611
  30
0.00000
  70
32
  0
VERTEX
  5
60B
  100
AcDbEntity
  8
Layer 1
  62
0
  100
AcDb2dVertex
  10
10.19631
  20
12.02326
  30
0.00000
  70
32
  0
VERTEX
  5
60C
  100
AcDbEntity
  8
Layer 1
  62
0
  100
AcDb2dVertex
  10
10.17962
  20
12.07064
  30
0.00000
  42
-0.1913
  70
32
  0
VERTEX
  5
60D
  100
AcDbEntity
  8
Layer 1
  62
0
  100
AcDb2dVertex
  10
10.19102
  20
12.10539
  30
0.00000
  42
-0.0964
  70
32
  0
VERTEX
  5
60E
  100
AcDbEntity
  8
Layer 1
  62
0
  100
AcDb2dVertex
  10
10.27557
  20
12.17017
  30
0.00000
  42
0.2012
  70
32
  0
VERTEX
  5
60F
  100
AcDbEntity
  8
Layer 1
  62
0
  100
AcDb2dVertex
  10
10.48083
  20
12.58019
  30
0.00000
  42
0.0234
  70
32
  0
VERTEX
  5
610
  100
AcDbEntity
  8
Layer 1
  62
0
  100
AcDb2dVertex
  10
10.47673
  20
12.79404
  30
0.00000
  42
0.0931
  70
32
  0
VERTEX
  5
611
  100
AcDbEntity
  8
Layer 1
  62
0
  100
AcDb2dVertex
  10
10.45674
  20
12.86216
  30
0.00000
  42
0.3698
  70
32
  0
VERTEX
  5
612
  100
AcDbEntity
  8
Layer 1
  62
0
  100
AcDb2dVertex
  10
9.71133
  20
13.30570
  30
0.00000
  70
32
  0
SEQEND
  5
613
  100
AcDbEntity
  8
Layer 1
  62
0
  0
POLYLINE
  5
614
  100
AcDbEntity
  8
Layer 1
  62
0
  100
AcDb2dPolyline
 66
     1
  10
0
  20
0
  30
0
  70
1
  0
VERTEX
  5
615
  100
AcDbEntity
  8
Layer 1
  62
0
  100
AcDb2dVertex
  10
14.38028
  20
12.34394
  30
0.00000
  42
-0.0116
  70
32
  0
VERTEX
  5
616
  100
AcDbEntity
  8
Layer 1
  62
0
  100
AcDb2dVertex
  10
13.76042
  20
13.25937
  30
0.00000
  42
0.2425
  70
32
  0
VERTEX
  5
617
  100
AcDbEntity
  8
Layer 1
  62
0
  100
AcDb2dVertex
  10
13.67063
  20
13.30173
  30
0.00000
  42
0.0121
  70
32
  0
VERTEX
  5
618
  100
AcDbEntity
  8
Layer 1
  62
0
  100
AcDb2dVertex
  10
13.17424
  20
13.30367
  30
0.00000
  42
0.1735
  70
32
  0
VERTEX
  5
619
  100
AcDbEntity
  8
Layer 1
  62
0
  100
AcDb2dVertex
  10
13.13932
  20
13.29059
  30
0.00000
  42
0.1738
  70
32
  0
VERTEX
  5
61A
  100
AcDbEntity
  8
Layer 1
  62
0
  100
AcDb2dVertex
  10
13.12624
  20
13.25563
  30
0.00000
  70
32
  0
VERTEX
  5
61B
  100
AcDbEntity
  8
Layer 1
  62
0
  100
AcDb2dVertex
  10
13.12646
  20
11.26033
  30
0.00000
  42
0.4084
  70
32
  0
VERTEX
  5
61C
  100
AcDbEntity
  8
Layer 1
  62
0
  100
AcDb2dVertex
  10
13.23656
  20
11.15023
  30
0.00000
  42
0.0124
  70
32
  0
VERTEX
  5
61D
  100
AcDbEntity
  8
Layer 1
  62
0
  100
AcDb2dVertex
  10
13.58427
  20
11.15023
  30
0.00000
  42
0.4084
  70
32
  0
VERTEX
  5
61E
  100
AcDbEntity
  8
Layer 1
  62
0
  100
AcDb2dVertex
  10
13.69436
  20
11.26033
  30
0.00000
  70
32
  0
VERTEX
  5
61F
  100
AcDbEntity
  8
Layer 1
  62
0
  100
AcDb2dVertex
  10
13.69678
  20
12.12913
  30
0.00000
  70
32
  0
VERTEX
  5
620
  100
AcDbEntity
  8
Layer 1
  62
0
  100
AcDb2dVertex
  10
13.70136
  20
12.17743
  30
0.00000
  70
32
  0
VERTEX
  5
621
  100
AcDbEntity
  8
Layer 1
  62
0
  100
AcDb2dVertex
  10
13.70960
  20
12.18761
  30
0.00000
  42
-0.4706
  70
32
  0
VERTEX
  5
622
  100
AcDbEntity
  8
Layer 1
  62
0
  100
AcDb2dVertex
  10
13.72787
  20
12.18774
  30
0.00000
  42
0.0191
  70
32
  0
VERTEX
  5
623
  100
AcDbEntity
  8
Layer 1
  62
0
  100
AcDb2dVertex
  10
14.32202
  20
11.31092
  30
0.00000
  42
0.0756
  70
32
  0
VERTEX
  5
624
  100
AcDbEntity
  8
Layer 1
  62
0
  100
AcDb2dVertex
  10
14.42586
  20
11.19453
  30
0.00000
  70
32
  0
VERTEX
  5
625
  100
AcDbEntity
  8
Layer 1
  62
0
  100
AcDb2dVertex
  10
14.44757
  20
11.17225
  30
0.00000
  42
0.1408
  70
32
  0
VERTEX
  5
626
  100
AcDbEntity
  8
Layer 1
  62
0
  100
AcDb2dVertex
  10
14.51362
  20
11.15023
  30
0.00000
  42
0.0114
  70
32
  0
VERTEX
  5
627
  100
AcDbEntity
  8
Layer 1
  62
0
  100
AcDb2dVertex
  10
14.90537
  20
11.15023
  30
0.00000
  42
0.4084
  70
32
  0
VERTEX
  5
628
  100
AcDbEntity
  8
Layer 1
  62
0
  100
AcDb2dVertex
  10
15.01546
  20
11.26033
  30
0.00000
  70
32
  0
VERTEX
  5
629
  100
AcDbEntity
  8
Layer 1
  62
0
  100
AcDb2dVertex
  10
15.01568
  20
13.25563
  30
0.00000
  42
0.1738
  70
32
  0
VERTEX
  5
62A
  100
AcDbEntity
  8
Layer 1
  62
0
  100
AcDb2dVertex
  10
15.00260
  20
13.29059
  30
0.00000
  42
0.1734
  70
32
  0
VERTEX
  5
62B
  100
AcDbEntity
  8
Layer 1
  62
0
  100
AcDb2dVertex
  10
14.96768
  20
13.30367
  30
0.00000
  42
0.0087
  70
32
  0
VERTEX
  5
62C
  100
AcDbEntity
  8
Layer 1
  62
0
  100
AcDb2dVertex
  10
14.49535
  20
13.30367
  30
0.00000
  42
0.1735
  70
32
  0
VERTEX
  5
62D
  100
AcDbEntity
  8
Layer 1
  62
0
  100
AcDb2dVertex
  10
14.46042
  20
13.29059
  30
0.00000
  42
0.1736
  70
32
  0
VERTEX
  5
62E
  100
AcDbEntity
  8
Layer 1
  62
0
  100
AcDb2dVertex
  10
14.44735
  20
13.25563
  30
0.00000
  70
32
  0
VERTEX
  5
62F
  100
AcDbEntity
  8
Layer 1
  62
0
  100
AcDb2dVertex
  10
14.44329
  20
12.34306
  30
0.00000
  42
-0.1629
  70
32
  0
VERTEX
  5
630
  100
AcDbEntity
  8
Layer 1
  62
0
  100
AcDb2dVertex
  10
14.43220
  20
12.31007
  30
0.00000
  42
-0.3434
  70
32
  0
VERTEX
  5
631
  100
AcDbEntity
  8
Layer 1
  62
0
  100
AcDb2dVertex
  10
14.41031
  20
12.31007
  30
0.00000
  42
-0.1075
  70
32
  0
VERTEX
  5
632
  100
AcDbEntity
  8
Layer 1
  62
0
  100
AcDb2dVertex
  10
14.38028
  20
12.34394
  30
0.00000
  70
32
  0
SEQEND
  5
633
  100
AcDbEntity
  8
Layer 1
  62
0
  0
POLYLINE
  5
634
  100
AcDbEntity
  8
Layer 1
  62
0
  100
AcDb2dPolyline
 66
     1
  10
0
  20
0
  30
0
  70
1
  0
VERTEX
  5
635
  100
AcDbEntity
  8
Layer 1
  62
0
  100
AcDb2dVertex
  10
15.23314
  20
13.06830
  30
0.00000
  42
0.0292
  70
32
  0
VERTEX
  5
636
  100
AcDbEntity
  8
Layer 1
  62
0
  100
AcDb2dVertex
  10
15.18430
  20
12.85705
  30
0.00000
  42
-0.0496
  70
32
  0
VERTEX
  5
637
  100
AcDbEntity
  8
Layer 1
  62
0
  100
AcDb2dVertex
  10
15.16598
  20
12.81315
  30
0.00000
  70
32
  0
VERTEX
  5
638
  100
AcDbEntity
  8
Layer 1
  62
0
  100
AcDb2dVertex
  10
15.16255
  20
12.79945
  30
0.00000
  42
0.1973
  70
32
  0
VERTEX
  5
639
  100
AcDbEntity
  8
Layer 1
  62
0
  100
AcDb2dVertex
  10
15.17968
  20
12.77228
  30
0.00000
  42
0.1674
  70
32
  0
VERTEX
  5
63A
  100
AcDbEntity
  8
Layer 1
  62
0
  100
AcDb2dVertex
  10
15.26401
  20
12.73714
  30
0.00000
  70
32
  0
VERTEX
  5
63B
  100
AcDbEntity
  8
Layer 1
  62
0
  100
AcDb2dVertex
  10
15.58420
  20
12.73119
  30
0.00000
  42
-0.1735
  70
32
  0
VERTEX
  5
63C
  100
AcDbEntity
  8
Layer 1
  62
0
  100
AcDb2dVertex
  10
15.61912
  20
12.71812
  30
0.00000
  42
-0.1738
  70
32
  0
VERTEX
  5
63D
  100
AcDbEntity
  8
Layer 1
  62
0
  100
AcDb2dVertex
  10
15.63220
  20
12.68315
  30
0.00000
  70
32
  0
VERTEX
  5
63E
  100
AcDbEntity
  8
Layer 1
  62
0
  100
AcDb2dVertex
  10
15.63634
  20
11.19801
  30
0.00000
  42
0.1738
  70
32
  0
VERTEX
  5
63F
  100
AcDbEntity
  8
Layer 1
  62
0
  100
AcDb2dVertex
  10
15.64941
  20
11.16305
  30
0.00000
  42
0.1734
  70
32
  0
VERTEX
  5
640
  100
AcDbEntity
  8
Layer 1
  62
0
  100
AcDb2dVertex
  10
15.68434
  20
11.14997
  30
0.00000
  42
0.0087
  70
32
  0
VERTEX
  5
641
  100
AcDbEntity
  8
Layer 1
  62
0
  100
AcDb2dVertex
  10
16.15667
  20
11.14997
  30
0.00000
  42
0.1735
  70
32
  0
VERTEX
  5
642
  100
AcDbEntity
  8
Layer 1
  62
0
  100
AcDb2dVertex
  10
16.19159
  20
11.16305
  30
0.00000
  42
0.1738
  70
32
  0
VERTEX
  5
643
  100
AcDbEntity
  8
Layer 1
  62
0
  100
AcDb2dVertex
  10
16.20467
  20
11.19801
  30
0.00000
  70
32
  0
VERTEX
  5
644
  100
AcDbEntity
  8
Layer 1
  62
0
  100
AcDb2dVertex
  10
16.20674
  20
12.22680
  30
0.00000
  70
32
  0
VERTEX
  5
645
  100
AcDbEntity
  8
Layer 1
  62
0
  100
AcDb2dVertex
  10
16.20881
  20
12.68315
  30
0.00000
  42
-0.1738
  70
32
  0
VERTEX
  5
646
  100
AcDbEntity
  8
Layer 1
  62
0
  100
AcDb2dVertex
  10
16.22189
  20
12.71812
  30
0.00000
  42
-0.1734
  70
32
  0
VERTEX
  5
647
  100
AcDbEntity
  8
Layer 1
  62
0
  100
AcDb2dVertex
  10
16.25681
  20
12.73119
  30
0.00000
  70
32
  0
VERTEX
  5
648
  100
AcDbEntity
  8
Layer 1
  62
0
  100
AcDb2dVertex
  10
16.53301
  20
12.73723
  30
0.00000
  42
0.1730
  70
32
  0
VERTEX
  5
649
  100
AcDbEntity
  8
Layer 1
  62
0
  100
AcDb2dVertex
  10
16.60048
  20
12.75784
  30
0.00000
  42
0.1726
  70
32
  0
VERTEX
  5
64A
  100
AcDbEntity
  8
Layer 1
  62
0
  100
AcDb2dVertex
  10
16.64310
  20
12.84732
  30
0.00000
  42
0.0145
  70
32
  0
VERTEX
  5
64B
  100
AcDbEntity
  8
Layer 1
  62
0
  100
AcDb2dVertex
  10
16.64504
  20
13.25563
  30
0.00000
  42
0.1738
  70
32
  0
VERTEX
  5
64C
  100
AcDbEntity
  8
Layer 1
  62
0
  100
AcDb2dVertex
  10
16.63196
  20
13.29059
  30
0.00000
  42
0.1734
  70
32
  0
VERTEX
  5
64D
  100
AcDbEntity
  8
Layer 1
  62
0
  100
AcDb2dVertex
  10
16.59704
  20
13.30367
  30
0.00000
  70
32
  0
VERTEX
  5
64E
  100
AcDbEntity
  8
Layer 1
  62
0
  100
AcDb2dVertex
  10
15.33204
  20
13.30354
  30
0.00000
  42
0.3076
  70
32
  0
VERTEX
  5
64F
  100
AcDbEntity
  8
Layer 1
  62
0
  100
AcDb2dVertex
  10
15.28453
  20
13.26928
  30
0.00000
  42
0.1319
  70
32
  0
VERTEX
  5
650
  100
AcDbEntity
  8
Layer 1
  62
0
  100
AcDb2dVertex
  10
15.23314
  20
13.06830
  30
0.00000
  70
32
  0
SEQEND
  5
651
  100
AcDbEntity
  8
Layer 1
  62
0
  0
POLYLINE
  5
652
  100
AcDbEntity
  8
Layer 1
  62
0
  100
AcDb2dPolyline
 66
     1
  10
0
  20
0
  30
0
  70
1
  0
VERTEX
  5
653
  100
AcDbEntity
  8
Layer 1
  62
0
  100
AcDb2dVertex
  10
19.58286
  20
7.22132
  30
0.00000
  42
0.1548
  70
32
  0
VERTEX
  5
654
  100
AcDbEntity
  8
Layer 1
  62
0
  100
AcDb2dVertex
  10
18.73502
  20
6.57191
  30
0.00000
  42
0.1707
  70
32
  0
VERTEX
  5
655
  100
AcDbEntity
  8
Layer 1
  62
0
  100
AcDb2dVertex
  10
18.63189
  20
5.93272
  30
0.00000
  42
0.0543
  70
32
  0
VERTEX
  5
656
  100
AcDbEntity
  8
Layer 1
  62
0
  100
AcDb2dVertex
  10
18.84164
  20
5.34976
  30
0.00000
  70
32
  0
VERTEX
  5
657
  100
AcDbEntity
  8
Layer 1
  62
0
  100
AcDb2dVertex
  10
19.49320
  20
3.96177
  30
0.00000
  42
-0.2920
  70
32
  0
VERTEX
  5
658
  100
AcDbEntity
  8
Layer 1
  62
0
  100
AcDb2dVertex
  10
19.49232
  20
3.93900
  30
0.00000
  42
-0.1630
  70
32
  0
VERTEX
  5
659
  100
AcDbEntity
  8
Layer 1
  62
0
  100
AcDb2dVertex
  10
19.45934
  20
3.92791
  30
0.00000
  70
32
  0
VERTEX
  5
65A
  100
AcDbEntity
  8
Layer 1
  62
0
  100
AcDb2dVertex
  10
13.35039
  20
3.92386
  30
0.00000
  42
0.1734
  70
32
  0
VERTEX
  5
65B
  100
AcDbEntity
  8
Layer 1
  62
0
  100
AcDb2dVertex
  10
13.31547
  20
3.91078
  30
0.00000
  42
0.1738
  70
32
  0
VERTEX
  5
65C
  100
AcDbEntity
  8
Layer 1
  62
0
  100
AcDb2dVertex
  10
13.30239
  20
3.87581
  30
0.00000
  70
32
  0
VERTEX
  5
65D
  100
AcDbEntity
  8
Layer 1
  62
0
  100
AcDb2dVertex
  10
13.29825
  20
0.10077
  30
0.00000
  42
-0.1738
  70
32
  0
VERTEX
  5
65E
  100
AcDbEntity
  8
Layer 1
  62
0
  100
AcDb2dVertex
  10
13.28517
  20
0.06580
  30
0.00000
  42
-0.1735
  70
32
  0
VERTEX
  5
65F
  100
AcDbEntity
  8
Layer 1
  62
0
  100
AcDb2dVertex
  10
13.25025
  20
0.05272
  30
0.00000
  70
32
  0
VERTEX
  5
660
  100
AcDbEntity
  8
Layer 1
  62
0
  100
AcDb2dVertex
  10
12.35353
  20
0.05065
  30
0.00000
  70
32
  0
VERTEX
  5
661
  100
AcDbEntity
  8
Layer 1
  62
0
  100
AcDb2dVertex
  10
10.75223
  20
0.05272
  30
0.00000
  42
-0.1734
  70
32
  0
VERTEX
  5
662
  100
AcDbEntity
  8
Layer 1
  62
0
  100
AcDb2dVertex
  10
10.71730
  20
0.06580
  30
0.00000
  42
-0.1738
  70
32
  0
VERTEX
  5
663
  100
AcDbEntity
  8
Layer 1
  62
0
  100
AcDb2dVertex
  10
10.70423
  20
0.10077
  30
0.00000
  70
32
  0
VERTEX
  5
664
  100
AcDbEntity
  8
Layer 1
  62
0
  100
AcDb2dVertex
  10
10.70194
  20
3.81006
  30
0.00000
  42
0.0894
  70
32
  0
VERTEX
  5
665
  100
AcDbEntity
  8
Layer 1
  62
0
  100
AcDb2dVertex
  10
10.69573
  20
3.89655
  30
0.00000
  42
0.2392
  70
32
  0
VERTEX
  5
666
  100
AcDbEntity
  8
Layer 1
  62
0
  100
AcDb2dVertex
  10
10.67283
  20
3.91950
  30
0.00000
  42
0.0753
  70
32
  0
VERTEX
  5
667
  100
AcDbEntity
  8
Layer 1
  62
0
  100
AcDb2dVertex
  10
10.62377
  20
3.92544
  30
0.00000
  70
32
  0
VERTEX
  5
668
  100
AcDbEntity
  8
Layer 1
  62
0
  100
AcDb2dVertex
  10
4.54314
  20
3.92791
  30
0.00000
  42
-0.1630
  70
32
  0
VERTEX
  5
669
  100
AcDbEntity
  8
Layer 1
  62
0
  100
AcDb2dVertex
  10
4.51016
  20
3.93900
  30
0.00000
  42
-0.2919
  70
32
  0
VERTEX
  5
66A
  100
AcDbEntity
  8
Layer 1
  62
0
  100
AcDb2dVertex
  10
4.50928
  20
3.96177
  30
0.00000
  42
0.0065
  70
32
  0
VERTEX
  5
66B
  100
AcDbEntity
  8
Layer 1
  62
0
  100
AcDb2dVertex
  10
5.19757
  20
5.44515
  30
0.00000
  42
0.1312
  70
32
  0
VERTEX
  5
66C
  100
AcDbEntity
  8
Layer 1
  62
0
  100
AcDb2dVertex
  10
5.37261
  20
6.23671
  30
0.00000
  42
0.2169
  70
32
  0
VERTEX
  5
66D
  100
AcDbEntity
  8
Layer 1
  62
0
  100
AcDb2dVertex
  10
4.90169
  20
6.95477
  30
0.00000
  42
0.0061
  70
32
  0
VERTEX
  5
66E
  100
AcDbEntity
  8
Layer 1
  62
0
  100
AcDb2dVertex
  10
2.42757
  20
8.26786
  30
0.00000
  70
32
  0
VERTEX
  5
66F
  100
AcDbEntity
  8
Layer 1
  62
0
  100
AcDb2dVertex
  10
1.65702
  20
8.68246
  30
0.00000
  42
-0.0582
  70
32
  0
VERTEX
  5
670
  100
AcDbEntity
  8
Layer 1
  62
0
  100
AcDb2dVertex
  10
1.60365
  20
8.73500
  30
0.00000
  42
-0.3285
  70
32
  0
VERTEX
  5
671
  100
AcDbEntity
  8
Layer 1
  62
0
  100
AcDb2dVertex
  10
1.60360
  20
8.76085
  30
0.00000
  42
-0.0277
  70
32
  0
VERTEX
  5
672
  100
AcDbEntity
  8
Layer 1
  62
0
  100
AcDb2dVertex
  10
1.85959
  20
9.09139
  30
0.00000
  42
0.1121
  70
32
  0
VERTEX
  5
673
  100
AcDbEntity
  8
Layer 1
  62
0
  100
AcDb2dVertex
  10
2.22395
  20
9.65184
  30
0.00000
  42
0.0055
  70
32
  0
VERTEX
  5
674
  100
AcDbEntity
  8
Layer 1
  62
0
  100
AcDb2dVertex
  10
2.26600
  20
9.91179
  30
0.00000
  42
0.0251
  70
32
  0
VERTEX
  5
675
  100
AcDbEntity
  8
Layer 1
  62
0
  100
AcDb2dVertex
  10
2.27974
  20
9.96195
  30
0.00000
  42
0.1091
  70
32
  0
VERTEX
  5
676
  100
AcDbEntity
  8
Layer 1
  62
0
  100
AcDb2dVertex
  10
2.27974
  20
9.97410
  30
0.00000
  42
-0.1035
  70
32
  0
VERTEX
  5
677
  100
AcDbEntity
  8
Layer 1
  62
0
  100
AcDb2dVertex
  10
2.24711
  20
10.15712
  30
0.00000
  70
32
  0
VERTEX
  5
678
  100
AcDbEntity
  8
Layer 1
  62
0
  100
AcDb2dVertex
  10
2.10320
  20
10.84990
  30
0.00000
  70
32
  0
VERTEX
  5
679
  100
AcDbEntity
  8
Layer 1
  62
0
  100
AcDb2dVertex
  10
0.83794
  20
15.70539
  30
0.00000
  42
-0.0752
  70
32
  0
VERTEX
  5
67A
  100
AcDbEntity
  8
Layer 1
  62
0
  100
AcDb2dVertex
  10
0.79689
  20
15.85472
  30
0.00000
  42
-0.1876
  70
32
  0
VERTEX
  5
67B
  100
AcDbEntity
  8
Layer 1
  62
0
  100
AcDb2dVertex
  10
0.80905
  20
15.88876
  30
0.00000
  42
-0.1735
  70
32
  0
VERTEX
  5
67C
  100
AcDbEntity
  8
Layer 1
  62
0
  100
AcDb2dVertex
  10
0.84397
  20
15.90184
  30
0.00000
  42
0.0360
  70
32
  0
VERTEX
  5
67D
  100
AcDbEntity
  8
Layer 1
  62
0
  100
AcDb2dVertex
  10
1.36638
  20
15.96992
  30
0.00000
  70
32
  0
VERTEX
  5
67E
  100
AcDbEntity
  8
Layer 1
  62
0
  100
AcDb2dVertex
  10
4.00858
  20
16.36625
  30
0.00000
  42
0.0053
  70
32
  0
VERTEX
  5
67F
  100
AcDbEntity
  8
Layer 1
  62
0
  100
AcDb2dVertex
  10
4.88931
  20
16.49836
  30
0.00000
  42
-0.0205
  70
32
  0
VERTEX
  5
680
  100
AcDbEntity
  8
Layer 1
  62
0
  100
AcDb2dVertex
  10
5.16340
  20
16.53257
  30
0.00000
  42
-0.1891
  70
32
  0
VERTEX
  5
681
  100
AcDbEntity
  8
Layer 1
  62
0
  100
AcDb2dVertex
  10
5.49002
  20
16.52659
  30
0.00000
  70
32
  0
VERTEX
  5
682
  100
AcDbEntity
  8
Layer 1
  62
0
  100
AcDb2dVertex
  10
8.10747
  20
14.96236
  30
0.00000
  42
0.1707
  70
32
  0
VERTEX
  5
683
  100
AcDbEntity
  8
Layer 1
  62
0
  100
AcDb2dVertex
  10
8.18687
  20
14.93801
  30
0.00000
  42
0.1774
  70
32
  0
VERTEX
  5
684
  100
AcDbEntity
  8
Layer 1
  62
0
  100
AcDb2dVertex
  10
8.21893
  20
14.94818
  30
0.00000
  42
0.2788
  70
32
  0
VERTEX
  5
685
  100
AcDbEntity
  8
Layer 1
  62
0
  100
AcDb2dVertex
  10
8.21998
  20
14.97108
  30
0.00000
  42
-0.0185
  70
32
  0
VERTEX
  5
686
  100
AcDbEntity
  8
Layer 1
  62
0
  100
AcDb2dVertex
  10
8.07176
  20
15.58539
  30
0.00000
  70
32
  0
VERTEX
  5
687
  100
AcDbEntity
  8
Layer 1
  62
0
  100
AcDb2dVertex
  10
6.86669
  20
20.76388
  30
0.00000
  42
0.1102
  70
32
  0
VERTEX
  5
688
  100
AcDbEntity
  8
Layer 1
  62
0
  100
AcDb2dVertex
  10
6.84304
  20
20.84399
  30
0.00000
  42
-0.2782
  70
32
  0
VERTEX
  5
689
  100
AcDbEntity
  8
Layer 1
  62
0
  100
AcDb2dVertex
  10
6.84410
  20
20.86693
  30
0.00000
  42
-0.1629
  70
32
  0
VERTEX
  5
68A
  100
AcDbEntity
  8
Layer 1
  62
0
  100
AcDb2dVertex
  10
6.87708
  20
20.87803
  30
0.00000
  42
-0.0079
  70
32
  0
VERTEX
  5
68B
  100
AcDbEntity
  8
Layer 1
  62
0
  100
AcDb2dVertex
  10
7.11325
  20
20.88001
  30
0.00000
  42
0.0559
  70
32
  0
VERTEX
  5
68C
  100
AcDbEntity
  8
Layer 1
  62
0
  100
AcDb2dVertex
  10
8.07717
  20
20.92885
  30
0.00000
  42
0.0996
  70
32
  0
VERTEX
  5
68D
  100
AcDbEntity
  8
Layer 1
  62
0
  100
AcDb2dVertex
  10
8.97979
  20
21.43540
  30
0.00000
  70
32
  0
VERTEX
  5
68E
  100
AcDbEntity
  8
Layer 1
  62
0
  100
AcDb2dVertex
  10
10.90032
  20
23.03785
  30
0.00000
  70
32
  0
VERTEX
  5
68F
  100
AcDbEntity
  8
Layer 1
  62
0
  100
AcDb2dVertex
  10
11.63186
  20
23.67141
  30
0.00000
  42
-0.0331
  70
32
  0
VERTEX
  5
690
  100
AcDbEntity
  8
Layer 1
  62
0
  100
AcDb2dVertex
  10
11.98750
  20
23.94633
  30
0.00000
  42
-0.2403
  70
32
  0
VERTEX
  5
691
  100
AcDbEntity
  8
Layer 1
  62
0
  100
AcDb2dVertex
  10
12.01419
  20
23.94554
  30
0.00000
  42
0.0407
  70
32
  0
VERTEX
  5
692
  100
AcDbEntity
  8
Layer 1
  62
0
  100
AcDb2dVertex
  10
12.12472
  20
23.86552
  30
0.00000
  42
0.0058
  70
32
  0
VERTEX
  5
693
  100
AcDbEntity
  8
Layer 1
  62
0
  100
AcDb2dVertex
  10
15.02268
  20
21.43540
  30
0.00000
  42
0.1405
  70
32
  0
VERTEX
  5
694
  100
AcDbEntity
  8
Layer 1
  62
0
  100
AcDb2dVertex
  10
16.10881
  20
20.89221
  30
0.00000
  42
0.0098
  70
32
  0
VERTEX
  5
695
  100
AcDbEntity
  8
Layer 1
  62
0
  100
AcDb2dVertex
  10
17.12539
  20
20.87803
  30
0.00000
  42
-0.1629
  70
32
  0
VERTEX
  5
696
  100
AcDbEntity
  8
Layer 1
  62
0
  100
AcDb2dVertex
  10
17.15838
  20
20.86693
  30
0.00000
  42
-0.2781
  70
32
  0
VERTEX
  5
697
  100
AcDbEntity
  8
Layer 1
  62
0
  100
AcDb2dVertex
  10
17.15943
  20
20.84399
  30
0.00000
  42
0.0060
  70
32
  0
VERTEX
  5
698
  100
AcDbEntity
  8
Layer 1
  62
0
  100
AcDb2dVertex
  10
16.69115
  20
18.87634
  30
0.00000
  70
32
  0
VERTEX
  5
699
  100
AcDbEntity
  8
Layer 1
  62
0
  100
AcDb2dVertex
  10
15.78249
  20
14.97108
  30
0.00000
  42
0.4353
  70
32
  0
VERTEX
  5
69A
  100
AcDbEntity
  8
Layer 1
  62
0
  100
AcDb2dVertex
  10
15.79606
  20
14.94118
  30
0.00000
  42
0.1505
  70
32
  0
VERTEX
  5
69B
  100
AcDbEntity
  8
Layer 1
  62
0
  100
AcDb2dVertex
  10
15.86867
  20
14.94699
  30
0.00000
  70
32
  0
VERTEX
  5
69C
  100
AcDbEntity
  8
Layer 1
  62
0
  100
AcDb2dVertex
  10
16.36087
  20
15.24331
  30
0.00000
  70
32
  0
VERTEX
  5
69D
  100
AcDbEntity
  8
Layer 1
  62
0
  100
AcDb2dVertex
  10
18.50189
  20
16.53715
  30
0.00000
  42
-0.1277
  70
32
  0
VERTEX
  5
69E
  100
AcDbEntity
  8
Layer 1
  62
0
  100
AcDb2dVertex
  10
18.56500
  20
16.56212
  30
0.00000
  42
-0.0143
  70
32
  0
VERTEX
  5
69F
  100
AcDbEntity
  8
Layer 1
  62
0
  100
AcDb2dVertex
  10
18.69204
  20
16.56098
  30
0.00000
  42
0.0054
  70
32
  0
VERTEX
  5
6A0
  100
AcDbEntity
  8
Layer 1
  62
0
  100
AcDb2dVertex
  10
19.34321
  20
16.46419
  30
0.00000
  42
0.1007
  70
32
  0
VERTEX
  5
6A1
  100
AcDbEntity
  8
Layer 1
  62
0
  100
AcDb2dVertex
  10
19.57476
  20
16.43155
  30
0.00000
  42
0.0141
  70
32
  0
VERTEX
  5
6A2
  100
AcDbEntity
  8
Layer 1
  62
0
  100
AcDb2dVertex
  10
21.14872
  20
16.19997
  30
0.00000
  42
0.0113
  70
32
  0
VERTEX
  5
6A3
  100
AcDbEntity
  8
Layer 1
  62
0
  100
AcDb2dVertex
  10
23.09281
  20
15.90373
  30
0.00000
  42
-0.0887
  70
32
  0
VERTEX
  5
6A4
  100
AcDbEntity
  8
Layer 1
  62
0
  100
AcDb2dVertex
  10
23.17921
  20
15.89748
  30
0.00000
  42
-0.3685
  70
32
  0
VERTEX
  5
6A5
  100
AcDbEntity
  8
Layer 1
  62
0
  100
AcDb2dVertex
  10
23.20268
  20
15.85762
  30
0.00000
  70
32
  0
VERTEX
  5
6A6
  100
AcDbEntity
  8
Layer 1
  62
0
  100
AcDb2dVertex
  10
22.21696
  20
12.11750
  30
0.00000
  42
-0.0088
  70
32
  0
VERTEX
  5
6A7
  100
AcDbEntity
  8
Layer 1
  62
0
  100
AcDb2dVertex
  10
21.95380
  20
11.10364
  30
0.00000
  42
0.0206
  70
32
  0
VERTEX
  5
6A8
  100
AcDbEntity
  8
Layer 1
  62
0
  100
AcDb2dVertex
  10
21.71688
  20
9.97617
  30
0.00000
  42
0.0812
  70
32
  0
VERTEX
  5
6A9
  100
AcDbEntity
  8
Layer 1
  62
0
  100
AcDb2dVertex
  10
21.83772
  20
9.49080
  30
0.00000
  42
0.0178
  70
32
  0
VERTEX
  5
6AA
  100
AcDbEntity
  8
Layer 1
  62
0
  100
AcDb2dVertex
  10
22.36774
  20
8.79559
  30
0.00000
  42
-0.0224
  70
32
  0
VERTEX
  5
6AB
  100
AcDbEntity
  8
Layer 1
  62
0
  100
AcDb2dVertex
  10
22.39883
  20
8.76085
  30
0.00000
  42
-0.3350
  70
32
  0
VERTEX
  5
6AC
  100
AcDbEntity
  8
Layer 1
  62
0
  100
AcDb2dVertex
  10
22.39874
  20
8.73513
  30
0.00000
  70
32
  0
VERTEX
  5
6AD
  100
AcDbEntity
  8
Layer 1
  62
0
  100
AcDb2dVertex
  10
22.36484
  20
8.70496
  30
0.00000
  42
-0.0202
  70
32
  0
VERTEX
  5
6AE
  100
AcDbEntity
  8
Layer 1
  62
0
  100
AcDb2dVertex
  10
21.45143
  20
8.21514
  30
0.00000
  70
32
  0
VERTEX
  5
6AF
  100
AcDbEntity
  8
Layer 1
  62
0
  100
AcDb2dVertex
  10
19.58286
  20
7.22132
  30
0.00000
  70
32
  0
SEQEND
  5
6B0
  100
AcDbEntity
  8
Layer 1
  62
0
 0
ENDSEC
 0
EOF
