  0
SECTION
  2
HEADER
  9
$ACADVER
  1
AC1015
  9
$ACADMAINTVER
 70
     6
  9
$DWGCODEPAGE
  3
DOS850
  9
$INSBASE
 10
0.0
 20
0.0
 30
0.0
  9
$EXTMIN
 10
-5.26499
 20
-5.4133
 30
1.000000E+20
  9
$EXTMAX
 10
5.26888
 20
5.40709
 30
-1.000000E+20
  9
$LIMMIN
 10
0.0
 20
0.0
  9
$LIMMAX
 10
0.0
 20
0.0
  9
$ORTHOMODE
 70
     0
  9
$REGENMODE
 70
     1
  9
$FILLMODE
 70
     1
  9
$QTEXTMODE
 70
     0
  9
$MIRRTEXT
 70
     1
  9
$LTSCALE
 40
1.0
  9
$ATTMODE
 70
     1
  9
$TEXTSIZE
 40
0.2
  9
$TRACEWID
 40
0.05
  9
$TEXTSTYLE
  7
Standard
  9
$CLAYER
  8
0
  9
$CELTYPE
  6
Continuous
  9
$CECOLOR
 62
   256
  9
$CELTSCALE
 40
1.0
  9
$DISPSILH
 70
     0
  9
$DIMSCALE
 40
1.0
  9
$DIMASZ
 40
0.18
  9
$DIMEXO
 40
0.0625
  9
$DIMDLI
 40
0.38
  9
$DIMRND
 40
0.0
  9
$DIMDLE
 40
0.0
  9
$DIMEXE
 40
0.18
  9
$DIMTP
 40
0.0
  9
$DIMTM
 40
0.0
  9
$DIMTXT
 40
0.18
  9
$DIMCEN
 40
0.09
  9
$DIMTSZ
 40
0.0
  9
$DIMTOL
 70
     0
  9
$DIMLIM
 70
     0
  9
$DIMTIH
 70
     1
  9
$DIMTOH
 70
     1
  9
$DIMSE1
 70
     0
  9
$DIMSE2
 70
     0
  9
$DIMTAD
 70
     0
  9
$DIMZIN
 70
     0
  9
$DIMBLK
  1

  9
$DIMASO
 70
     1
  9
$DIMSHO
 70
     1
  9
$DIMPOST
  1

  9
$DIMAPOST
  1

  9
$DIMALT
 70
     0
  9
$DIMALTD
 70
     2
  9
$DIMALTF
 40
25.4
  9
$DIMLFAC
 40
1.0
  9
$DIMTOFL
 70
     0
  9
$DIMTVP
 40
0.0
  9
$DIMTIX
 70
     0
  9
$DIMSOXD
 70
     0
  9
$DIMSAH
 70
     0
  9
$DIMBLK1
  1

  9
$DIMBLK2
  1

  9
$DIMSTYLE
  2
Standard
  9
$DIMCLRD
 70
     0
  9
$DIMCLRE
 70
     0
  9
$DIMCLRT
 70
     0
  9
$DIMTFAC
 40
1.0
  9
$DIMGAP
 40
0.09
  9
$DIMJUST
 70
     0
  9
$DIMSD1
 70
     0
  9
$DIMSD2
 70
     0
  9
$DIMTOLJ
 70
     1
  9
$DIMTZIN
 70
     0
  9
$DIMALTZ
 70
     0
  9
$DIMALTTZ
 70
     0
  9
$DIMUPT
 70
     0
  9
$DIMDEC
 70
     4
  9
$DIMTDEC
 70
     4
  9
$DIMALTU
 70
     2
  9
$DIMALTTD
 70
     2
  9
$DIMTXSTY
  7
Standard
  9
$DIMAUNIT
 70
     0
  9
$DIMADEC
 70
     0
  9
$DIMALTRND
 40
0.0
  9
$DIMAZIN
 70
     0
  9
$DIMDSEP
 70
     0
  9
$DIMATFIT
 70
     3
  9
$DIMFRAC
 70
     0
  9
$DIMLDRBLK
  1

  9
$DIMLUNIT
 70
     2
  9
$DIMLWD
 70
     0
  9
$DIMLWE
 70
     0
  9
$DIMTMOVE
 70
     0
  9
$LUNITS
 70
     2
  9
$LUPREC
 70
     4
  9
$SKETCHINC
 40
0.1
  9
$FILLETRAD
 40
0.0
  9
$AUNITS
 70
     0
  9
$AUPREC
 70
     0
  9
$MENU
  1
acad
  9
$ELEVATION
 40
0.0
  9
$PELEVATION
 40
0.0
  9
$THICKNESS
 40
0.0
  9
$LIMCHECK
 70
     0
  9
$CHAMFERA
 40
0.0
  9
$CHAMFERB
 40
0.0
  9
$CHAMFERC
 40
0.0
  9
$CHAMFERD
 40
0.0
  9
$SKPOLY
 70
     0
  9
$TDCREATE
 40
0.000000000
  9
$TDUCREATE
 40
0.000000000
  9
$TDUPDATE
 40
0.000000000
  9
$TDUUPDATE
 40
0.000000000
  9
$TDINDWG
 40
0.0000000000
  9
$TDUSRTIMER
 40
0.0000000000
  9
$USRTIMER
 70
     1
  9
$ANGBASE
 50
0.0
  9
$ANGDIR
 70
     0
  9
$PDMODE
 70
     0
  9
$PDSIZE
 40
0.0
  9
$PLINEWID
 40
0.0
  9
$SPLFRAME
 70
     0
  9
$SPLINETYPE
 70
     6
  9
$SPLINESEGS
 70
     8
  9
$HANDSEED
  5
3E
  9
$SURFTAB1
 70
     6
  9
$SURFTAB2
 70
     6
  9
$SURFTYPE
 70
     6
  9
$SURFU
 70
     6
  9
$SURFV
 70
     6
  9
$UCSBASE
  2

  9
$UCSNAME
  2

  9
$UCSORG
 10
0.0
 20
0.0
 30
0.0
  9
$UCSXDIR
 10
1.0
 20
0.0
 30
0.0
  9
$UCSYDIR
 10
0.0
 20
1.0
 30
0.0
  9
$UCSORTHOREF
  2

  9
$UCSORTHOVIEW
 70
     0
  9
$UCSORGTOP
 10
0.0
 20
0.0
 30
0.0
  9
$UCSORGBOTTOM
 10
0.0
 20
0.0
 30
0.0
  9
$UCSORGLEFT
 10
0.0
 20
0.0
 30
0.0
  9
$UCSORGRIGHT
 10
0.0
 20
0.0
 30
0.0
  9
$UCSORGFRONT
 10
0.0
 20
0.0
 30
0.0
  9
$UCSORGBACK
 10
0.0
 20
0.0
 30
0.0
  9
$PUCSBASE
  2

  9
$PUCSNAME
  2

  9
$PUCSORG
 10
0.0
 20
0.0
 30
0.0
  9
$PUCSXDIR
 10
1.0
 20
0.0
 30
0.0
  9
$PUCSYDIR
 10
0.0
 20
1.0
 30
0.0
  9
$PUCSORTHOREF
  2

  9
$PUCSORTHOVIEW
 70
     0
  9
$PUCSORGTOP
 10
0.0
 20
0.0
 30
0.0
  9
$PUCSORGBOTTOM
 10
0.0
 20
0.0
 30
0.0
  9
$PUCSORGLEFT
 10
0.0
 20
0.0
 30
0.0
  9
$PUCSORGRIGHT
 10
0.0
 20
0.0
 30
0.0
  9
$PUCSORGFRONT
 10
0.0
 20
0.0
 30
0.0
  9
$PUCSORGBACK
 10
0.0
 20
0.0
 30
0.0
  9
$USERI1
 70
     0
  9
$USERI2
 70
     0
  9
$USERI3
 70
     0
  9
$USERI4
 70
     0
  9
$USERI5
 70
     0
  9
$USERR1
 40
0.0
  9
$USERR2
 40
0.0
  9
$USERR3
 40
0.0
  9
$USERR4
 40
0.0
  9
$USERR5
 40
0.0
  9
$WORLDVIEW
 70
     1
  9
$SHADEDGE
 70
     3
  9
$SHADEDIF
 70
    70
  9
$TILEMODE
 70
     1
  9
$MAXACTVP
 70
    16
  9
$PINSBASE
 10
0.0
 20
0.0
 30
0.0
  9
$PLIMCHECK
 70
     0
  9
$PEXTMIN
 10
1.000000E+20
 20
1.000000E+20
 30
1.000000E+20
  9
$PEXTMAX
 10
-1.000000E+20
 20
-1.000000E+20
 30
-1.000000E+20
  9
$PLIMMIN
 10
0.0
 20
0.0
  9
$PLIMMAX
 10
12.0
 20
9.0
  9
$UNITMODE
 70
     0
  9
$VISRETAIN
 70
     0
  9
$PLINEGEN
 70
     1
  9
$PSLTSCALE
 70
     0
  9
$TREEDEPTH
 70
  3020
  9
$CMLSTYLE
  2
Standard
  9
$CMLJUST
 70
     0
  9
$CMLSCALE
 40
1.0
  9
$PROXYGRAPHICS
 70
     0
  9
$MEASUREMENT
 70
     0
  9
$CELWEIGHT
370
     0
  9
$ENDCAPS
280
     0
  9
$JOINSTYLE
280
     0
  9
$LWDISPLAY
290
     0
  9
$INSUNITS
 70
     5
  9
$HYPERLINKBASE
  1

  9
$XEDIT
290
     1
  9
$CEPSNTYPE
380
     0
  9
$PSTYLEMODE
290
     1
  9
$FINGERPRINTGUID
  2

  9
$VERSIONGUID
  2

  9
$EXTNAMES
290
     1
  9
$PSVPSCALE
 40
0.0
  0
ENDSEC
  0
SECTION
  2
CLASSES
  0
CLASS
  1
LWPOLYLINE
  2
AcDbPolyline
  3
AutoCAD 2000
 90
    32768
280
     0
281
     1
  0
CLASS
  1
IMAGE
  2
AcDbRasterImage
  3
ISM
 90
    32895
280
     0
281
     1
  0
CLASS
  1
OLE2FRAME
  2
AcDbOle2Frame
  3
AutoCAD 2000
 90
    32768
280
     0
281
     1
  0
CLASS
  1
HATCH
  2
AcDbHatch
  3
AutoCAD 2000
 90
    32768
280
     0
281
     1
  0
CLASS
  1
DICTIONARYVAR
  2
AcDbDictionaryVar
  3
AutoCAD 2000
 90
    32768
280
     0
281
     0
  0
CLASS
  1
RASTERVARIABLES
  2
AcDbRasterVariables
  3
ISM
 90
    32768
280
     0
281
     0
  0
CLASS
  1
IMAGEDEF
  2
AcDbRasterImageDef
  3
ISM
 90
    32768
280
     0
281
     0
  0
CLASS
  1
IMAGEDEF_REACTOR
  2
AcDbRasterImageDefReactor
  3
ISM
 90
    32769
280
     0
281
     0
  0
CLASS
  1
IDBUFFER
  2
AcDbIdBuffer
  3
AutoCAD 2000
 90
    32768
280
     0
281
     0
  0
CLASS
  1
SPATIAL_FILTER
  2
AcDbSpatialFilter
  3
AutoCAD 2000
 90
    32768
280
     0
281
     0
  0
CLASS
  1
XRECORD
  2
AcDbXrecord
  3
AutoCAD 2000
 90
    32768
280
     0
281
     0
  0
CLASS
  1
SORTENTSTABLE
  2
AcDbSortentsTable
  3
AutoCAD 2000
 90
    32768
280
     0
281
     0
  0
CLASS
  1
LAYER_INDEX
  2
AcDbLayerIndex
  3
AutoCAD 2000
 90
    32768
280
     0
281
     0
  0
CLASS
  1
SPATIAL_INDEX
  2
AcDbSpatialIndex
  3
AutoCAD 2000
 90
    32768
280
     0
281
     0
  0
CLASS
  1
OBJECT_PTR
  2
CAseDLPNTableRecord
  3
"ASE-LPNTableRecord"
 90
    32769
280
     0
281
     0
  0
CLASS
  1
LAYOUT
  2
AcDbLayout
  3
AutoCAD 2000
 90
        0
280
     0
281
     0
  0
CLASS
  1
PLOTSETTINGS
  2
AcDbPlotSettings
  3
AutoCAD 2000
 90
    32768
280
     0
281
     0
  0
CLASS
  1
ACDBDICTIONARYWDFLT
  2
AcDbDictionaryWithDefault
  3
AutoCAD 2000
 90
        0
280
     0
281
     0
  0
CLASS
  1
ACDBPLACEHOLDER
  2
AcDbPlaceHolder
  3
AutoCAD 2000
 90
        0
280
     0
281
     0
  0
CLASS
  1
VBA_PROJECT
  2
AcDbVbaProject
  3
acadvba
 90
    32768
280
     0
281
     0
  0
CLASS
  1
WIPEOUT
  2
AcDbWipeout
  3
WipeOut|AutoCAD Express Tool|expresstools@autodesk.com
 90
    32895
280
     0
281
     1
  0
CLASS
  1
WIPEOUTVARIABLES
  2
AcDbWipeoutVariables
  3
WipeOut|AutoCAD Express Tool|expresstools@autodesk.com
 90
        0
280
     0
281
     0
  0
CLASS
  1
RTEXT
  2
RText
  3
RText|AutoCAD Express Tool|expresstools@autodesk.com
 90
    32768
280
     0
281
     1
  0
CLASS
  1
ARCALIGNEDTEXT
  2
AcDbArcAlignedText
  3
ATEXT|AutoCAD Express Tool|expresstools@autodesk.com
 90
    32768
280
     0
281
     1
  0
ENDSEC
  0
SECTION
  2
TABLES
  0
TABLE
  2
VPORT
  5
7
100
AcDbSymbolTable
 70
     1
  0
VPORT
  5
15
100
AcDbSymbolTableRecord
100
AcDbViewportTableRecord
  2
*ACTIVE
 70
     0
 10
0.0
 20
0.0
 11
1.0
 21
1.0
 12
6.591288
 22
4.579184
 13
0.0
 23
0.0
 14
1.0
 24
1.0
 15
0.0
 25
0.0
 16
0.0
 26
0.0
 36
1.0
 17
0.0
 27
0.0
 37
0.0
 40
9.158369
 41
0.688564
 42
50.0
 43
0.0
 44
0.0
 50
0.0
 51
0.0
 71
     0
 72
   100
 73
     1
 74
     1
 75
     0
 76
     0
 77
     0
 78
     0
281
     0
 65
     0
110
0.0
120
0.0
130
0.0
111
1.0
121
0.0
131
0.0
112
0.0
122
1.0
132
0.0
345
0
346
0
 79
     0
146
0.0
  0
ENDTAB
  0
TABLE
  2
LTYPE
  5
4
100
AcDbSymbolTable
 70
     3
  0
LTYPE
  5
11
100
AcDbSymbolTableRecord
100
AcDbLinetypeTableRecord
  2
ByBlock
 70
    64
  3

 72
    65
 73
     0
 40
0.0
  0
LTYPE
  5
12
100
AcDbSymbolTableRecord
100
AcDbLinetypeTableRecord
  2
ByLayer
 70
    64
  3

 72
    65
 73
     0
 40
0.0
  0
LTYPE
  5
13
100
AcDbSymbolTableRecord
100
AcDbLinetypeTableRecord
  2
Continuous
 70
    64
  3
Solid line
 72
    65
 73
     0
 40
0.0
  0
ENDTAB
  0
TABLE
  2
LAYER
  5
2
100
AcDbSymbolTable
 70
     2
  0
LAYER
  5
14
100
AcDbSymbolTableRecord
100
AcDbLayerTableRecord
  2
0
 70
     0
 62
     7
  6
Continuous
290
     1
370
    -3
390
1D
  0
LAYER
  5
24
100
AcDbSymbolTableRecord
100
AcDbLayerTableRecord
  2
Ebene 1
 70
     0
 62
     7
  6
Continuous
290
     1
370
    -3
390
1F
  0
ENDTAB
  0
TABLE
  2
STYLE
  5
3
100
AcDbSymbolTable
 70
     1
  0
STYLE
  5
17
100
AcDbSymbolTableRecord
100
AcDbTextStyleTableRecord
  2
Standard
 70
     0
 40
0.0
 41
1.0
 50
0.0
 71
     0
 42
0.0
  3
txt
  4

  0
ENDTAB
  0
TABLE
  2
VIEW
  5
5
100
AcDbSymbolTable
 70
     0
  0
ENDTAB
  0
TABLE
  2
UCS
  5
6
100
AcDbSymbolTable
 70
     0
  0
ENDTAB
  0
TABLE
  2
APPID
  5
8
100
AcDbSymbolTable
 70
     1
  0
APPID
  5
16
100
AcDbSymbolTableRecord
100
AcDbRegAppTableRecord
  2
ACAD
 70
     0
  0
ENDTAB
  0
TABLE
  2
DIMSTYLE
  5
9
100
AcDbSymbolTable
 70
     1
100
AcDbDimStyleTable
 71
     0
  0
DIMSTYLE
105
18
100
AcDbSymbolTableRecord
100
AcDbDimStyleTableRecord
  2
Standard
 70
     0
  3

  4

 40
1.0
 41
0.18
 42
0.0625
 43
0.38
 44
0.18
 45
0.0
 46
0.0
 47
0.0
 48
0.0
 71
     0
 72
     0
 73
     1
 74
     1
 75
     0
 76
     0
 77
     0
 78
     0
 79
     0
140
0.18
141
0.09
142
0.0
143
25.4
144
1.0
145
0.0
146
1.0
147
0.09
148
0.0
170
     0
171
     2
172
     0
173
     0
174
     0
175
     0
176
     0
177
     0
178
     0
179
     0
271
     4
272
     4
273
     2
274
     2
275
     0
276
     0
277
     2
278
    46
279
     0
280
     0
281
     0
282
     0
283
     1
284
     0
285
     0
286
     0
288
     0
340
17
341
0
342
0
343
0
344
0
371
    -2
372
    -2
  0
ENDTAB
  0
TABLE
  2
BLOCK_RECORD
  5
1
100
AcDbSymbolTable
 70
     0
  0
BLOCK_RECORD
  5
A
100
AcDbSymbolTableRecord
100
AcDbBlockTableRecord
  2
*MODEL_SPACE
340
20
  0
BLOCK_RECORD
  5
B
100
AcDbSymbolTableRecord
100
AcDbBlockTableRecord
  2
*PAPER_SPACE
340
21
  0
ENDTAB
  0
ENDSEC
  0
SECTION
  2
BLOCKS
  0
BLOCK
  5
D
100
AcDbEntity
  8
0
100
AcDbBlockBegin
  2
*MODEL_SPACE
 70
     0
 10
0.0
 20
0.0
 30
0.0
  3
*MODEL_SPACE
  1

  0
ENDBLK
  5
E
100
AcDbEntity
  8
0
100
AcDbBlockEnd
  0
BLOCK
  5
F
100
AcDbEntity
 67
     1
  8
0
100
AcDbBlockBegin
  2
*PAPER_SPACE
 70
     0
 10
0.0
 20
0.0
 30
0.0
  3
*PAPER_SPACE
  1

  0
ENDBLK
  5
10
100
AcDbEntity
 67
     1
  8
0
100
AcDbBlockEnd
  0
ENDSEC
  0
SECTION
  2
ENTITIES
  0
SPLINE
  5
25
100
AcDbEntity
  8
Ebene 1
100
AcDbSpline
210
0.0
220
0.0
230
1.0
 70
     1
 71
     3
 72
   176
 73
   172
 74
     0
 42
0.0000000001
 43
0.0000000001
 40
0.0
 40
0.0
 40
0.0
 40
0.0
 40
0.0232558139534884
 40
0.0232558139534884
 40
0.0232558139534884
 40
0.0232558139534884
 40
0.0465116279069767
 40
0.0465116279069767
 40
0.0465116279069767
 40
0.0465116279069767
 40
0.0697674418604651
 40
0.0697674418604651
 40
0.0697674418604651
 40
0.0697674418604651
 40
0.0930232558139535
 40
0.0930232558139535
 40
0.0930232558139535
 40
0.0930232558139535
 40
0.1162790697674419
 40
0.1162790697674419
 40
0.1162790697674419
 40
0.1162790697674419
 40
0.1395348837209302
 40
0.1395348837209302
 40
0.1395348837209302
 40
0.1395348837209302
 40
0.1627906976744186
 40
0.1627906976744186
 40
0.1627906976744186
 40
0.1627906976744186
 40
0.186046511627907
 40
0.186046511627907
 40
0.186046511627907
 40
0.186046511627907
 40
0.2093023255813953
 40
0.2093023255813953
 40
0.2093023255813953
 40
0.2093023255813953
 40
0.2325581395348837
 40
0.2325581395348837
 40
0.2325581395348837
 40
0.2325581395348837
 40
0.2558139534883721
 40
0.2558139534883721
 40
0.2558139534883721
 40
0.2558139534883721
 40
0.2790697674418604
 40
0.2790697674418604
 40
0.2790697674418604
 40
0.2790697674418604
 40
0.3023255813953488
 40
0.3023255813953488
 40
0.3023255813953488
 40
0.3023255813953488
 40
0.3255813953488371
 40
0.3255813953488371
 40
0.3255813953488371
 40
0.3255813953488371
 40
0.3488372093023255
 40
0.3488372093023255
 40
0.3488372093023255
 40
0.3488372093023255
 40
0.3720930232558138
 40
0.3720930232558138
 40
0.3720930232558138
 40
0.3720930232558138
 40
0.3953488372093022
 40
0.3953488372093022
 40
0.3953488372093022
 40
0.3953488372093022
 40
0.4186046511627906
 40
0.4186046511627906
 40
0.4186046511627906
 40
0.4186046511627906
 40
0.4418604651162789
 40
0.4418604651162789
 40
0.4418604651162789
 40
0.4418604651162789
 40
0.4651162790697673
 40
0.4651162790697673
 40
0.4651162790697673
 40
0.4651162790697673
 40
0.4883720930232556
 40
0.4883720930232556
 40
0.4883720930232556
 40
0.4883720930232556
 40
0.511627906976744
 40
0.511627906976744
 40
0.511627906976744
 40
0.511627906976744
 40
0.5348837209302324
 40
0.5348837209302324
 40
0.5348837209302324
 40
0.5348837209302324
 40
0.5581395348837208
 40
0.5581395348837208
 40
0.5581395348837208
 40
0.5581395348837208
 40
0.5813953488372092
 40
0.5813953488372092
 40
0.5813953488372092
 40
0.5813953488372092
 40
0.6046511627906976
 40
0.6046511627906976
 40
0.6046511627906976
 40
0.6046511627906976
 40
0.6279069767441861
 40
0.6279069767441861
 40
0.6279069767441861
 40
0.6279069767441861
 40
0.6511627906976745
 40
0.6511627906976745
 40
0.6511627906976745
 40
0.6511627906976745
 40
0.6744186046511629
 40
0.6744186046511629
 40
0.6744186046511629
 40
0.6744186046511629
 40
0.6976744186046513
 40
0.6976744186046513
 40
0.6976744186046513
 40
0.6976744186046513
 40
0.7209302325581397
 40
0.7209302325581397
 40
0.7209302325581397
 40
0.7209302325581397
 40
0.7441860465116281
 40
0.7441860465116281
 40
0.7441860465116281
 40
0.7441860465116281
 40
0.7674418604651165
 40
0.7674418604651165
 40
0.7674418604651165
 40
0.7674418604651165
 40
0.790697674418605
 40
0.790697674418605
 40
0.790697674418605
 40
0.790697674418605
 40
0.8139534883720934
 40
0.8139534883720934
 40
0.8139534883720934
 40
0.8139534883720934
 40
0.8372093023255818
 40
0.8372093023255818
 40
0.8372093023255818
 40
0.8372093023255818
 40
0.8604651162790702
 40
0.8604651162790702
 40
0.8604651162790702
 40
0.8604651162790702
 40
0.8837209302325586
 40
0.8837209302325586
 40
0.8837209302325586
 40
0.8837209302325586
 40
0.906976744186047
 40
0.906976744186047
 40
0.906976744186047
 40
0.906976744186047
 40
0.9302325581395354
 40
0.9302325581395354
 40
0.9302325581395354
 40
0.9302325581395354
 40
0.9534883720930238
 40
0.9534883720930238
 40
0.9534883720930238
 40
0.9534883720930238
 40
0.9767441860465123
 40
0.9767441860465123
 40
0.9767441860465123
 40
0.9767441860465123
 40
1.0
 40
1.0
 40
1.0
 40
1.0
 10
-2.8294100000000002
 20
5.4070900000000002
 30
0.0
 10
-2.7125700000000004
 20
4.8787700000000003
 30
0.0
 10
-2.4128500000000002
 20
4.3758500000000007
 30
0.0
 10
-2.1207500000000001
 20
3.9084900000000005
 30
0.0
 10
-2.1207500000000001
 20
3.9084900000000005
 30
0.0
 10
-2.0420100000000003
 20
3.7840300000000004
 30
0.0
 10
-2.2960100000000003
 20
3.4690700000000003
 30
0.0
 10
-2.2629900000000003
 20
3.2684100000000003
 30
0.0
 10
-2.2629900000000003
 20
3.2684100000000003
 30
0.0
 10
0.00268
 20
5.0210100000000004
 30
0.0
 10
3.3275400000000004
 20
2.9128100000000003
 30
0.0
 10
3.1497400000000004
 20
0.29915
 30
0.0
 10
3.1497400000000004
 20
0.29915
 30
0.0
 10
3.7136200000000001
 20
-0.4984000000000001
 30
0.0
 10
4.6051600000000006
 20
-1.0191000000000001
 30
0.0
 10
5.1538000000000004
 20
-1.7912600000000001
 30
0.0
 10
5.1538000000000004
 20
-1.7912600000000001
 30
0.0
 10
5.3468400000000003
 20
-2.2510000000000003
 30
0.0
 10
5.2579400000000005
 20
-2.7869400000000004
 30
0.0
 10
5.1690400000000007
 20
-3.2593800000000002
 30
0.0
 10
5.1690400000000007
 20
-3.2593800000000002
 30
0.0
 10
4.4273600000000002
 20
-5.0399200000000004
 30
0.0
 10
2.2455000000000003
 20
-4.3744400000000008
 30
0.0
 10
1.0720200000000002
 20
-5.4133000000000004
 30
0.0
 10
1.0720200000000002
 20
-5.4133000000000004
 30
0.0
 10
0.95264
 20
-4.4328600000000007
 30
0.0
 10
1.9762600000000001
 20
-3.7800800000000003
 30
0.0
 10
2.1845400000000001
 20
-2.8758400000000002
 30
0.0
 10
2.1845400000000001
 20
-2.8758400000000002
 30
0.0
 10
1.44286
 20
-2.9342600000000001
 30
0.0
 10
0.6249800000000001
 20
-2.4440400000000002
 30
0.0
 10
-0.15733
 20
-2.7412200000000002
 30
0.0
 10
-0.15733
 20
-2.7412200000000002
 30
0.0
 10
-0.15733
 20
-2.7412200000000002
 30
0.0
 10
-0.01001
 20
-2.9774400000000001
 30
0.0
 10
-0.01001
 20
-2.9774400000000001
 30
0.0
 10
-0.01001
 20
-2.9774400000000001
 30
0.0
 10
-0.18019
 20
-2.9291800000000001
 30
0.0
 10
-0.27163
 20
-2.90124
 30
0.0
 10
-0.25639
 20
-2.9901400000000002
 30
0.0
 10
-0.25639
 20
-2.9901400000000002
 30
0.0
 10
-0.25131
 20
-3.0206200000000001
 30
0.0
 10
-0.20559
 20
-3.0841200000000004
 30
0.0
 10
-0.18527
 20
-3.1374600000000004
 30
0.0
 10
-0.18527
 20
-3.1374600000000004
 30
0.0
 10
-0.17765
 20
-3.1603200000000005
 30
0.0
 10
-0.18527
 20
-3.1908000000000003
 30
0.0
 10
-0.17257
 20
-3.2162000000000002
 30
0.0
 10
-0.17257
 20
-3.2162000000000002
 30
0.0
 10
-0.52817
 20
-2.9037800000000002
 30
0.0
 10
-0.3656100000000001
 20
-3.2898600000000005
 30
0.0
 10
-0.41133
 20
-3.3940000000000001
 30
0.0
 10
-0.41133
 20
-3.3940000000000001
 30
0.0
 10
-0.75931
 20
-3.0384000000000002
 30
0.0
 10
-0.5002300000000001
 20
-3.4829000000000003
 30
0.0
 10
-0.5002300000000001
 20
-3.7216600000000004
 30
0.0
 10
-0.5002300000000001
 20
-3.7216600000000004
 30
0.0
 10
-0.6018300000000001
 20
-3.6454600000000004
 30
0.0
 10
-0.65517
 20
-3.4092400000000005
 30
0.0
 10
-0.8355100000000001
 20
-3.3940000000000001
 30
0.0
 10
-0.8355100000000001
 20
-3.3940000000000001
 30
0.0
 10
-0.8101100000000001
 20
-3.5565600000000002
 30
0.0
 10
-0.6500900000000001
 20
-3.7521400000000003
 30
0.0
 10
-0.7364500000000001
 20
-3.9147000000000003
 30
0.0
 10
-0.7364500000000001
 20
-3.9147000000000003
 30
0.0
 10
-0.8304300000000001
 20
-3.8410400000000005
 30
0.0
 10
-0.8583700000000001
 20
-3.6607000000000003
 30
0.0
 10
-0.9853700000000001
 20
-3.6302200000000004
 30
0.0
 10
-0.9853700000000001
 20
-3.6302200000000004
 30
0.0
 10
-0.99299
 20
-3.7800800000000003
 30
0.0
 10
-0.8990100000000001
 20
-3.9578800000000003
 30
0.0
 10
-0.9752100000000001
 20
-4.0772600000000008
 30
0.0
 10
-0.9752100000000001
 20
-4.0772600000000008
 30
0.0
 10
-1.0539500000000002
 20
-3.9731200000000002
 30
0.0
 10
-1.08189
 20
-3.7800800000000003
 30
0.0
 10
-1.2215900000000002
 20
-3.7064200000000005
 30
0.0
 10
-1.2215900000000002
 20
-3.7064200000000005
 30
0.0
 10
-1.2215900000000002
 20
-3.7064200000000005
 30
0.0
 10
-1.1961900000000001
 20
-3.9578800000000003
 30
0.0
 10
-1.1961900000000001
 20
-3.9578800000000003
 30
0.0
 10
-1.1961900000000001
 20
-3.9578800000000003
 30
0.0
 10
-1.1961900000000001
 20
-3.9578800000000003
 30
0.0
 10
-1.1809500000000002
 20
-4.1229800000000001
 30
0.0
 10
-1.1809500000000002
 20
-4.1229800000000001
 30
0.0
 10
-1.1809500000000002
 20
-4.1229800000000001
 30
0.0
 10
-1.1885700000000001
 20
-4.1737800000000007
 30
0.0
 10
-1.16825
 20
-4.2068000000000003
 30
0.0
 10
-1.1885700000000001
 20
-4.2042600000000006
 30
0.0
 10
-1.1885700000000001
 20
-4.2042600000000006
 30
0.0
 10
-1.2723900000000001
 20
-4.1966400000000004
 30
0.0
 10
-1.4781300000000002
 20
-3.7775400000000001
 30
0.0
 10
-1.46543
 20
-3.9578800000000003
 30
0.0
 10
-1.46543
 20
-3.9578800000000003
 30
0.0
 10
-1.4400300000000001
 20
-3.9883600000000001
 30
0.0
 10
-1.4501900000000001
 20
-4.0315400000000006
 30
0.0
 10
-1.4501900000000001
 20
-4.0620200000000004
 30
0.0
 10
-1.4501900000000001
 20
-4.0620200000000004
 30
0.0
 10
-1.4324100000000002
 20
-4.1509200000000002
 30
0.0
 10
-1.4425700000000001
 20
-4.1941000000000006
 30
0.0
 10
-1.4095500000000001
 20
-4.2830000000000004
 30
0.0
 10
-1.4095500000000001
 20
-4.2830000000000004
 30
0.0
 10
-1.41717
 20
-4.3312600000000003
 30
0.0
 10
-1.3638300000000001
 20
-4.4125400000000008
 30
0.0
 10
-1.38161
 20
-4.4176200000000003
 30
0.0
 10
-1.38161
 20
-4.4176200000000003
 30
0.0
 10
-1.4730500000000002
 20
-4.4354000000000005
 30
0.0
 10
-1.6965700000000001
 20
-3.8867600000000002
 30
0.0
 10
-1.6584700000000001
 20
-4.1382200000000005
 30
0.0
 10
-1.6584700000000001
 20
-4.1382200000000005
 30
0.0
 10
-1.62799
 20
-4.3033200000000003
 30
0.0
 10
-1.5848100000000001
 20
-4.3769800000000005
 30
0.0
 10
-1.6000500000000002
 20
-4.3871400000000005
 30
0.0
 10
-1.6000500000000002
 20
-4.3871400000000005
 30
0.0
 10
-1.6330700000000002
 20
-4.4100000000000001
 30
0.0
 10
-1.7930900000000001
 20
-4.1458400000000006
 30
0.0
 10
-1.8642100000000001
 20
-4.0315400000000006
 30
0.0
 10
-1.8642100000000001
 20
-4.0315400000000006
 30
0.0
 10
-1.9099300000000001
 20
-4.1077400000000006
 30
0.0
 10
-1.8642100000000001
 20
-4.1763200000000005
 30
0.0
 10
-1.8337300000000001
 20
-4.2982400000000007
 30
0.0
 10
-1.8337300000000001
 20
-4.2982400000000007
 30
0.0
 10
-1.9759700000000002
 20
-4.2093400000000001
 30
0.0
 10
-2.1232900000000003
 20
-3.9807400000000004
 30
0.0
 10
-2.1740900000000001
 20
-3.8258000000000005
 30
0.0
 10
-2.1740900000000001
 20
-3.8258000000000005
 30
0.0
 10
-2.2807700000000004
 20
-3.5083000000000002
 30
0.0
 10
-2.1969500000000002
 20
-3.2085800000000004
 30
0.0
 10
-2.3290300000000004
 20
-3.0384000000000002
 30
0.0
 10
-2.3290300000000004
 20
-3.0384000000000002
 30
0.0
 10
-2.4839700000000002
 20
-3.0841200000000004
 30
0.0
 10
-2.6262100000000004
 20
-3.0231600000000003
 30
0.0
 10
-2.7709900000000003
 20
-2.9926800000000005
 30
0.0
 10
-2.7709900000000003
 20
-2.9926800000000005
 30
0.0
 10
-4.1552899999999999
 20
-2.3399000000000001
 30
0.0
 10
-4.5515300000000005
 20
-4.4328600000000007
 30
0.0
 10
-4.1527500000000002
 20
-5.3244000000000007
 30
0.0
 10
-4.1527500000000002
 20
-5.3244000000000007
 30
0.0
 10
-5.8672500000000003
 20
-4.6716200000000008
 30
0.0
 10
-5.4913300000000005
 20
-2.3246600000000002
 30
0.0
 10
-3.7692100000000002
 20
-1.9538200000000001
 30
0.0
 10
-3.7692100000000002
 20
-1.9538200000000001
 30
0.0
 10
-3.5685500000000001
 20
-1.7912600000000001
 30
0.0
 10
-3.4517100000000003
 20
-1.5677400000000001
 30
0.0
 10
-3.3678900000000005
 20
-1.3467600000000002
 30
0.0
 10
-3.3678900000000005
 20
-1.3467600000000002
 30
0.0
 10
-3.3272500000000003
 20
-1.21214
 30
0.0
 10
-3.2967700000000004
 20
-1.0927600000000002
 30
0.0
 10
-3.2891500000000002
 20
-0.9581400000000001
 30
0.0
 10
-3.2891500000000002
 20
-0.9581400000000001
 30
0.0
 10
-3.4466300000000003
 20
-0.6762
 30
0.0
 10
-3.6650700000000005
 20
-0.04628
 30
0.0
 10
-3.5888700000000004
 20
0.31185
 30
0.0
 10
-3.5888700000000004
 20
0.31185
 30
0.0
 10
-3.5660100000000003
 20
0.4210700000000001
 30
0.0
 10
-3.4923500000000001
 20
0.40583
 30
0.0
 10
-3.3958300000000001
 20
0.47949
 30
0.0
 10
-3.3958300000000001
 20
0.47949
 30
0.0
 10
-3.4034500000000003
 20
1.3380100000000001
 30
0.0
 10
-3.4136100000000003
 20
2.2651100000000004
 30
0.0
 10
-2.7557500000000004
 20
2.8594700000000004
 30
0.0
 10
-2.7557500000000004
 20
2.8594700000000004
 30
0.0
 10
-2.8192500000000003
 20
3.0474300000000003
 30
0.0
 10
-2.8522700000000003
 20
3.3090500000000005
 30
0.0
 10
-2.8827500000000001
 20
3.5020900000000004
 30
0.0
 10
-2.8827500000000001
 20
3.5020900000000004
 30
0.0
 10
-2.9233900000000004
 20
3.7611700000000003
 30
0.0
 10
-2.94625
 20
3.5579700000000001
 30
0.0
 10
-2.9614900000000004
 20
3.8068900000000001
 30
0.0
 10
-2.9614900000000004
 20
3.8068900000000001
 30
0.0
 10
-2.9843500000000001
 20
4.1701100000000002
 30
0.0
 10
-2.8852900000000004
 20
5.0083100000000007
 30
0.0
 10
-2.8294100000000002
 20
5.4070900000000002
 30
0.0
  0
SPLINE
  5
26
100
AcDbEntity
  8
Ebene 1
 62
     7
100
AcDbSpline
210
0.0
220
0.0
230
1.0
 70
     1
 71
     3
 72
    56
 73
    52
 74
     0
 42
0.0000000001
 43
0.0000000001
 40
0.0
 40
0.0
 40
0.0
 40
0.0
 40
0.0769230769230769
 40
0.0769230769230769
 40
0.0769230769230769
 40
0.0769230769230769
 40
0.1538461538461539
 40
0.1538461538461539
 40
0.1538461538461539
 40
0.1538461538461539
 40
0.2307692307692308
 40
0.2307692307692308
 40
0.2307692307692308
 40
0.2307692307692308
 40
0.3076923076923077
 40
0.3076923076923077
 40
0.3076923076923077
 40
0.3076923076923077
 40
0.3846153846153846
 40
0.3846153846153846
 40
0.3846153846153846
 40
0.3846153846153846
 40
0.4615384615384616
 40
0.4615384615384616
 40
0.4615384615384616
 40
0.4615384615384616
 40
0.5384615384615386
 40
0.5384615384615386
 40
0.5384615384615386
 40
0.5384615384615386
 40
0.6153846153846154
 40
0.6153846153846154
 40
0.6153846153846154
 40
0.6153846153846154
 40
0.6923076923076923
 40
0.6923076923076923
 40
0.6923076923076923
 40
0.6923076923076923
 40
0.7692307692307692
 40
0.7692307692307692
 40
0.7692307692307692
 40
0.7692307692307692
 40
0.846153846153846
 40
0.846153846153846
 40
0.846153846153846
 40
0.846153846153846
 40
0.9230769230769229
 40
0.9230769230769229
 40
0.9230769230769229
 40
0.9230769230769229
 40
1.0
 40
1.0
 40
1.0
 40
1.0
 10
-2.81671
 20
4.7695500000000006
 30
0.0
 10
-2.81671
 20
4.7695500000000006
 30
0.0
 10
-2.2502900000000001
 20
3.7281500000000003
 30
0.0
 10
-2.2502900000000001
 20
3.7281500000000003
 30
0.0
 10
-2.2502900000000001
 20
3.7281500000000003
 30
0.0
 10
-2.2502900000000001
 20
3.7281500000000003
 30
0.0
 10
-2.40015
 20
3.2531700000000003
 30
0.0
 10
-2.40015
 20
3.2531700000000003
 30
0.0
 10
-2.40015
 20
3.2531700000000003
 30
0.0
 10
-2.3899900000000001
 20
2.4683100000000002
 30
0.0
 10
-2.27569
 20
1.6809100000000001
 30
0.0
 10
-2.14615
 20
0.9239900000000001
 30
0.0
 10
-2.14615
 20
0.9239900000000001
 30
0.0
 10
-2.1385300000000003
 20
0.74619
 30
0.0
 10
-2.1918700000000002
 20
0.89351
 30
0.0
 10
-2.2071100000000001
 20
0.9824100000000001
 30
0.0
 10
-2.2071100000000001
 20
0.9824100000000001
 30
0.0
 10
-2.2071100000000001
 20
0.9824100000000001
 30
0.0
 10
-2.3366500000000001
 20
1.3837300000000001
 30
0.0
 10
-2.3366500000000001
 20
1.3837300000000001
 30
0.0
 10
-2.3366500000000001
 20
1.3837300000000001
 30
0.0
 10
-2.2909300000000004
 20
0.8198500000000001
 30
0.0
 10
-2.1817100000000003
 20
0.25597
 30
0.0
 10
-1.7905500000000001
 20
-0.17328
 30
0.0
 10
-1.7905500000000001
 20
-0.17328
 30
0.0
 10
-1.8083300000000002
 20
-0.5136400000000001
 30
0.0
 10
-1.92517
 20
-0.8565400000000001
 30
0.0
 10
-2.1182100000000004
 20
-1.1384800000000002
 30
0.0
 10
-2.1182100000000004
 20
-1.1384800000000002
 30
0.0
 10
-2.3315700000000001
 20
-0.9454400000000001
 30
0.0
 10
-2.39507
 20
-0.61778
 30
0.0
 10
-2.4890500000000002
 20
-0.35108
 30
0.0
 10
-2.4890500000000002
 20
-0.35108
 30
0.0
 10
-2.5601700000000003
 20
-0.08438
 30
0.0
 10
-2.3315700000000001
 20
0.15183
 30
0.0
 10
-2.3696700000000002
 20
0.41853
 30
0.0
 10
-2.3696700000000002
 20
0.41853
 30
0.0
 10
-2.4331700000000001
 20
0.43377
 30
0.0
 10
-2.4026900000000002
 20
0.28391
 30
0.0
 10
-2.4534900000000004
 20
0.25597
 30
0.0
 10
-2.4534900000000004
 20
0.25597
 30
0.0
 10
-2.4534900000000004
 20
0.25597
 30
0.0
 10
-2.7278100000000003
 20
3.9821500000000003
 30
0.0
 10
-2.7278100000000003
 20
3.9821500000000003
 30
0.0
 10
-2.7278100000000003
 20
3.9821500000000003
 30
0.0
 10
-2.8014700000000001
 20
4.0100899999999999
 30
0.0
 10
-2.7760700000000003
 20
3.7586300000000001
 30
0.0
 10
-2.85989
 20
3.8043500000000003
 30
0.0
 10
-2.85989
 20
3.8043500000000003
 30
0.0
 10
-2.8116300000000001
 20
4.1167700000000007
 30
0.0
 10
-2.8903700000000003
 20
4.4571300000000003
 30
0.0
 10
-2.81671
 20
4.7695500000000006
 30
0.0
  0
SPLINE
  5
27
100
AcDbEntity
  8
Ebene 1
 62
     7
100
AcDbSpline
210
0.0
220
0.0
230
1.0
 70
     1
 71
     3
 72
    92
 73
    88
 74
     0
 42
0.0000000001
 43
0.0000000001
 40
0.0
 40
0.0
 40
0.0
 40
0.0
 40
0.0454545454545455
 40
0.0454545454545455
 40
0.0454545454545455
 40
0.0454545454545455
 40
0.0909090909090909
 40
0.0909090909090909
 40
0.0909090909090909
 40
0.0909090909090909
 40
0.1363636363636364
 40
0.1363636363636364
 40
0.1363636363636364
 40
0.1363636363636364
 40
0.1818181818181818
 40
0.1818181818181818
 40
0.1818181818181818
 40
0.1818181818181818
 40
0.2272727272727273
 40
0.2272727272727273
 40
0.2272727272727273
 40
0.2272727272727273
 40
0.2727272727272728
 40
0.2727272727272728
 40
0.2727272727272728
 40
0.2727272727272728
 40
0.3181818181818182
 40
0.3181818181818182
 40
0.3181818181818182
 40
0.3181818181818182
 40
0.3636363636363637
 40
0.3636363636363637
 40
0.3636363636363637
 40
0.3636363636363637
 40
0.4090909090909092
 40
0.4090909090909092
 40
0.4090909090909092
 40
0.4090909090909092
 40
0.4545454545454546
 40
0.4545454545454546
 40
0.4545454545454546
 40
0.4545454545454546
 40
0.5000000000000001
 40
0.5000000000000001
 40
0.5000000000000001
 40
0.5000000000000001
 40
0.5454545454545455
 40
0.5454545454545455
 40
0.5454545454545455
 40
0.5454545454545455
 40
0.5909090909090909
 40
0.5909090909090909
 40
0.5909090909090909
 40
0.5909090909090909
 40
0.6363636363636364
 40
0.6363636363636364
 40
0.6363636363636364
 40
0.6363636363636364
 40
0.6818181818181818
 40
0.6818181818181818
 40
0.6818181818181818
 40
0.6818181818181818
 40
0.7272727272727272
 40
0.7272727272727272
 40
0.7272727272727272
 40
0.7272727272727272
 40
0.7727272727272726
 40
0.7727272727272726
 40
0.7727272727272726
 40
0.7727272727272726
 40
0.818181818181818
 40
0.818181818181818
 40
0.818181818181818
 40
0.818181818181818
 40
0.8636363636363634
 40
0.8636363636363634
 40
0.8636363636363634
 40
0.8636363636363634
 40
0.9090909090909088
 40
0.9090909090909088
 40
0.9090909090909088
 40
0.9090909090909088
 40
0.9545454545454543
 40
0.9545454545454543
 40
0.9545454545454543
 40
0.9545454545454543
 40
1.0
 40
1.0
 40
1.0
 40
1.0
 10
-0.06843
 20
3.7738700000000005
 30
0.0
 10
1.1761600000000001
 20
3.8348300000000002
 30
0.0
 10
2.4537800000000001
 20
2.8086700000000002
 30
0.0
 10
2.6595200000000001
 20
1.5767700000000002
 30
0.0
 10
2.6595200000000001
 20
1.5767700000000002
 30
0.0
 10
2.2607400000000002
 20
2.4073500000000001
 30
0.0
 10
1.5622400000000001
 20
3.2252300000000003
 30
0.0
 10
0.64022
 20
3.4614500000000001
 30
0.0
 10
0.64022
 20
3.4614500000000001
 30
0.0
 10
0.4497200000000001
 20
3.4919300000000004
 30
0.0
 10
0.25414
 20
3.5655900000000003
 30
0.0
 10
0.0484
 20
3.5503500000000003
 30
0.0
 10
0.0484
 20
3.5503500000000003
 30
0.0
 10
0.07634
 20
3.3877900000000003
 30
0.0
 10
0.00268
 20
3.2404700000000002
 30
0.0
 10
-0.14209
 20
3.1795100000000001
 30
0.0
 10
-0.14209
 20
3.1795100000000001
 30
0.0
 10
-0.4265700000000001
 20
2.9864700000000002
 30
0.0
 10
-0.6881900000000001
 20
3.2531700000000003
 30
0.0
 10
-0.51293
 20
3.5071700000000003
 30
0.0
 10
-0.51293
 20
3.5071700000000003
 30
0.0
 10
-0.8355100000000001
 20
3.4614500000000001
 30
0.0
 10
-1.4120900000000001
 20
3.2836500000000002
 30
0.0
 10
-1.4832100000000001
 20
3.0601300000000005
 30
0.0
 10
-1.4832100000000001
 20
3.0601300000000005
 30
0.0
 10
-1.2774700000000001
 20
3.2531700000000003
 30
0.0
 10
-0.99553
 20
3.2988900000000001
 30
0.0
 10
-0.73899
 20
3.3725500000000004
 30
0.0
 10
-0.73899
 20
3.3725500000000004
 30
0.0
 10
-0.8507500000000001
 20
3.1668100000000003
 30
0.0
 10
-0.7974100000000001
 20
2.8391500000000001
 30
0.0
 10
-0.5002300000000001
 20
2.8975700000000004
 30
0.0
 10
-0.5002300000000001
 20
2.8975700000000004
 30
0.0
 10
-0.3656100000000001
 20
2.9280500000000003
 30
0.0
 10
-0.23099
 20
2.9280500000000003
 30
0.0
 10
-0.11415
 20
3.0017100000000001
 30
0.0
 10
-0.11415
 20
3.0017100000000001
 30
0.0
 10
0.0484
 20
3.0906100000000003
 30
0.0
 10
0.06364
 20
3.3141300000000005
 30
0.0
 10
0.19572
 20
3.4182700000000001
 30
0.0
 10
0.19572
 20
3.4182700000000001
 30
0.0
 10
1.23458
 20
3.3877900000000003
 30
0.0
 10
2.2607400000000002
 20
2.37941
 30
0.0
 10
2.21502
 20
1.3380100000000001
 30
0.0
 10
2.21502
 20
1.3380100000000001
 30
0.0
 10
2.1566000000000001
 20
1.14751
 30
0.0
 10
1.7552800000000002
 20
0.9239900000000001
 30
0.0
 10
1.8289400000000002
 20
1.27959
 30
0.0
 10
1.8289400000000002
 20
1.27959
 30
0.0
 10
1.8289400000000002
 20
1.27959
 30
0.0
 10
1.7857600000000002
 20
1.3837300000000001
 30
0.0
 10
1.7857600000000002
 20
1.3837300000000001
 30
0.0
 10
1.7857600000000002
 20
1.3837300000000001
 30
0.0
 10
1.7552800000000002
 20
1.53105
 30
0.0
 10
1.7248000000000001
 20
1.7698100000000001
 30
0.0
 10
1.5622400000000001
 20
1.8434700000000002
 30
0.0
 10
1.5622400000000001
 20
1.8434700000000002
 30
0.0
 10
1.6206600000000002
 20
1.6199500000000002
 30
0.0
 10
1.7248000000000001
 20
1.3837300000000001
 30
0.0
 10
1.6663800000000002
 20
1.1322700000000001
 30
0.0
 10
1.6663800000000002
 20
1.1322700000000001
 30
0.0
 10
1.6054200000000001
 20
1.0560700000000001
 30
0.0
 10
1.5622400000000001
 20
0.9671700000000001
 30
0.0
 10
1.5038200000000002
 20
0.89351
 30
0.0
 10
1.5038200000000002
 20
0.89351
 30
0.0
 10
0.55132
 20
0.59633
 30
0.0
 10
-0.41133
 20
0.29915
 30
0.0
 10
-1.4298700000000002
 20
0.24073
 30
0.0
 10
-1.4298700000000002
 20
0.24073
 30
0.0
 10
-1.8235700000000001
 20
0.78937
 30
0.0
 10
-1.8870700000000002
 20
1.5615300000000001
 30
0.0
 10
-1.7346700000000002
 20
2.1990700000000003
 30
0.0
 10
-1.7346700000000002
 20
2.1990700000000003
 30
0.0
 10
-1.7346700000000002
 20
2.1990700000000003
 30
0.0
 10
-1.8057900000000002
 20
2.0517500000000002
 30
0.0
 10
-1.8057900000000002
 20
2.0517500000000002
 30
0.0
 10
-1.8057900000000002
 20
2.0517500000000002
 30
0.0
 10
-1.9708900000000003
 20
1.4573900000000002
 30
0.0
 10
-1.8769100000000001
 20
0.8198500000000001
 30
0.0
 10
-1.7930900000000001
 20
0.21025
 30
0.0
 10
-1.7930900000000001
 20
0.21025
 30
0.0
 10
-2.1740900000000001
 20
1.0433700000000001
 30
0.0
 10
-2.2020300000000002
 20
2.0212700000000003
 30
0.0
 10
-2.3061700000000003
 20
2.9559900000000003
 30
0.0
 10
-2.3061700000000003
 20
2.9559900000000003
 30
0.0
 10
-1.7702300000000002
 20
3.6240100000000002
 30
0.0
 10
-0.8583700000000001
 20
3.7002100000000002
 30
0.0
 10
-0.06843
 20
3.7738700000000005
 30
0.0
  0
SPLINE
  5
28
100
AcDbEntity
  8
Ebene 1
 62
     7
100
AcDbSpline
210
0.0
220
0.0
230
1.0
 70
     1
 71
     3
 72
    36
 73
    32
 74
     0
 42
0.0000000001
 43
0.0000000001
 40
0.0
 40
0.0
 40
0.0
 40
0.0
 40
0.125
 40
0.125
 40
0.125
 40
0.125
 40
0.25
 40
0.25
 40
0.25
 40
0.25
 40
0.375
 40
0.375
 40
0.375
 40
0.375
 40
0.5
 40
0.5
 40
0.5
 40
0.5
 40
0.625
 40
0.625
 40
0.625
 40
0.625
 40
0.75
 40
0.75
 40
0.75
 40
0.75
 40
0.875
 40
0.875
 40
0.875
 40
0.875
 40
1.0
 40
1.0
 40
1.0
 40
1.0
 10
-2.7405100000000004
 20
2.7654900000000002
 30
0.0
 10
-2.6287500000000001
 20
2.4378300000000004
 30
0.0
 10
-2.6389100000000001
 20
1.9476100000000001
 30
0.0
 10
-2.5779500000000004
 20
1.5615300000000001
 30
0.0
 10
-2.5779500000000004
 20
1.5615300000000001
 30
0.0
 10
-2.5779500000000004
 20
1.5615300000000001
 30
0.0
 10
-2.5042900000000001
 20
0.40329
 30
0.0
 10
-2.5042900000000001
 20
0.40329
 30
0.0
 10
-2.5042900000000001
 20
0.40329
 30
0.0
 10
-2.5042900000000001
 20
0.40329
 30
0.0
 10
-2.5322300000000002
 20
0.21025
 30
0.0
 10
-2.5322300000000002
 20
0.21025
 30
0.0
 10
-2.5322300000000002
 20
0.21025
 30
0.0
 10
-3.1926300000000003
 20
0.64205
 30
0.0
 10
-2.8700500000000004
 20
1.7113900000000002
 30
0.0
 10
-2.7151100000000001
 20
2.3184500000000003
 30
0.0
 10
-2.7151100000000001
 20
2.3184500000000003
 30
0.0
 10
-2.7989300000000004
 20
2.2447900000000001
 30
0.0
 10
-2.85989
 20
2.1406500000000004
 30
0.0
 10
-2.8903700000000003
 20
2.0365100000000003
 30
0.0
 10
-2.8903700000000003
 20
2.0365100000000003
 30
0.0
 10
-2.8903700000000003
 20
2.0365100000000003
 30
0.0
 10
-3.0376900000000004
 20
1.5183500000000001
 30
0.0
 10
-3.0376900000000004
 20
1.5183500000000001
 30
0.0
 10
-3.0376900000000004
 20
1.5183500000000001
 30
0.0
 10
-3.1367500000000001
 20
1.1602100000000002
 30
0.0
 10
-3.0376900000000004
 20
0.70047
 30
0.0
 10
-3.1418300000000001
 20
0.37535
 30
0.0
 10
-3.1418300000000001
 20
0.37535
 30
0.0
 10
-3.4288500000000002
 20
1.14751
 30
0.0
 10
-3.2688300000000003
 20
2.12541
 30
0.0
 10
-2.7405100000000004
 20
2.7654900000000002
 30
0.0
  0
SPLINE
  5
29
100
AcDbEntity
  8
Ebene 1
 62
     7
100
AcDbSpline
210
0.0
220
0.0
230
1.0
 70
     1
 71
     3
 72
   104
 73
   100
 74
     0
 42
0.0000000001
 43
0.0000000001
 40
0.0
 40
0.0
 40
0.0
 40
0.0
 40
0.04
 40
0.04
 40
0.04
 40
0.04
 40
0.08
 40
0.08
 40
0.08
 40
0.08
 40
0.12
 40
0.12
 40
0.12
 40
0.12
 40
0.16
 40
0.16
 40
0.16
 40
0.16
 40
0.2
 40
0.2
 40
0.2
 40
0.2
 40
0.24
 40
0.24
 40
0.24
 40
0.24
 40
0.28
 40
0.28
 40
0.28
 40
0.28
 40
0.32
 40
0.32
 40
0.32
 40
0.32
 40
0.36
 40
0.36
 40
0.36
 40
0.36
 40
0.4
 40
0.4
 40
0.4
 40
0.4
 40
0.44
 40
0.44
 40
0.44
 40
0.44
 40
0.4799999999999999
 40
0.4799999999999999
 40
0.4799999999999999
 40
0.4799999999999999
 40
0.5199999999999999
 40
0.5199999999999999
 40
0.5199999999999999
 40
0.5199999999999999
 40
0.5599999999999999
 40
0.5599999999999999
 40
0.5599999999999999
 40
0.5599999999999999
 40
0.6
 40
0.6
 40
0.6
 40
0.6
 40
0.64
 40
0.64
 40
0.64
 40
0.64
 40
0.6800000000000001
 40
0.6800000000000001
 40
0.6800000000000001
 40
0.6800000000000001
 40
0.7200000000000001
 40
0.7200000000000001
 40
0.7200000000000001
 40
0.7200000000000001
 40
0.7600000000000001
 40
0.7600000000000001
 40
0.7600000000000001
 40
0.7600000000000001
 40
0.8000000000000002
 40
0.8000000000000002
 40
0.8000000000000002
 40
0.8000000000000002
 40
0.8400000000000002
 40
0.8400000000000002
 40
0.8400000000000002
 40
0.8400000000000002
 40
0.8800000000000002
 40
0.8800000000000002
 40
0.8800000000000002
 40
0.8800000000000002
 40
0.9200000000000003
 40
0.9200000000000003
 40
0.9200000000000003
 40
0.9200000000000003
 40
0.9600000000000003
 40
0.9600000000000003
 40
0.9600000000000003
 40
0.9600000000000003
 40
1.0
 40
1.0
 40
1.0
 40
1.0
 10
2.9135200000000001
 20
1.4294500000000001
 30
0.0
 10
3.0760800000000001
 20
1.1754500000000001
 30
0.0
 10
2.8525600000000004
 20
0.8350900000000001
 30
0.0
 10
2.7052400000000003
 20
0.6268100000000001
 30
0.0
 10
2.7052400000000003
 20
0.6268100000000001
 30
0.0
 10
2.8246200000000004
 20
0.64205
 30
0.0
 10
2.9135200000000001
 20
0.7766700000000001
 30
0.0
 10
3.0303600000000004
 20
0.78937
 30
0.0
 10
3.0303600000000004
 20
0.78937
 30
0.0
 10
3.0608400000000002
 20
0.7157100000000001
 30
0.0
 10
3.0456000000000003
 20
0.64205
 30
0.0
 10
3.0303600000000004
 20
0.5658500000000001
 30
0.0
 10
3.0303600000000004
 20
0.5658500000000001
 30
0.0
 10
2.6595200000000001
 20
0.36011
 30
0.0
 10
2.2607400000000002
 20
0.16707
 30
0.0
 10
1.8441800000000002
 20
0.07817
 30
0.0
 10
1.8441800000000002
 20
0.07817
 30
0.0
 10
1.8289400000000002
 20
0.29915
 30
0.0
 10
2.0804
 20
0.4642500000000001
 30
0.0
 10
2.1108800000000003
 20
0.6268100000000001
 30
0.0
 10
2.1108800000000003
 20
0.6268100000000001
 30
0.0
 10
1.7095600000000002
 20
0.00197
 30
0.0
 10
1.0872600000000001
 20
-0.26218
 30
0.0
 10
0.3887600000000001
 20
-0.33584
 30
0.0
 10
0.3887600000000001
 20
-0.33584
 30
0.0
 10
0.3887600000000001
 20
-0.33584
 30
0.0
 10
0.6122800000000001
 20
-0.35108
 30
0.0
 10
0.6122800000000001
 20
-0.35108
 30
0.0
 10
0.6122800000000001
 20
-0.35108
 30
0.0
 10
0.6859400000000001
 20
-0.36632
 30
0.0
 10
0.59704
 20
-0.43998
 30
0.0
 10
0.5665600000000001
 20
-0.45522
 30
0.0
 10
0.5665600000000001
 20
-0.45522
 30
0.0
 10
0.5665600000000001
 20
-0.45522
 30
0.0
 10
0.4497200000000001
 20
-0.5441200000000001
 30
0.0
 10
0.4497200000000001
 20
-0.5441200000000001
 30
0.0
 10
0.4497200000000001
 20
-0.5441200000000001
 30
0.0
 10
0.29986
 20
-0.5136400000000001
 30
0.0
 10
0.12206
 20
-0.43998
 30
0.0
 10
0.03316
 20
-0.3206000000000001
 30
0.0
 10
0.03316
 20
-0.3206000000000001
 30
0.0
 10
0.2262
 20
-0.09962
 30
0.0
 10
0.5233800000000001
 20
0.00197
 30
0.0
 10
0.7748400000000001
 20
0.12135
 30
0.0
 10
0.7748400000000001
 20
0.12135
 30
0.0
 10
0.07634
 20
0.01721
 30
0.0
 10
-0.51293
 20
-0.52888
 30
0.0
 10
-1.2266700000000001
 20
-0.6635000000000001
 30
0.0
 10
-1.2266700000000001
 20
-0.6635000000000001
 30
0.0
 10
-1.42225
 20
-0.5873
 30
0.0
 10
-1.33335
 20
-0.33584
 30
0.0
 10
-1.3409700000000002
 20
-0.21646
 30
0.0
 10
-1.3409700000000002
 20
-0.21646
 30
0.0
 10
-1.4298700000000002
 20
-0.27742
 30
0.0
 10
-1.46035
 20
-0.38156
 30
0.0
 10
-1.4933700000000001
 20
-0.47046
 30
0.0
 10
-1.4933700000000001
 20
-0.47046
 30
0.0
 10
-1.3104900000000002
 20
-0.9454400000000001
 30
0.0
 10
-1.7880100000000001
 20
-1.3899400000000002
 30
0.0
 10
-1.8642100000000001
 20
-1.8801600000000001
 30
0.0
 10
-1.8642100000000001
 20
-1.8801600000000001
 30
0.0
 10
-1.8642100000000001
 20
-1.8801600000000001
 30
0.0
 10
-1.8642100000000001
 20
-1.9995400000000001
 30
0.0
 10
-1.8642100000000001
 20
-1.9995400000000001
 30
0.0
 10
-1.8642100000000001
 20
-1.9995400000000001
 30
0.0
 10
-1.4882900000000001
 20
-1.5677400000000001
 30
0.0
 10
-1.5721100000000001
 20
-2.4008600000000002
 30
0.0
 10
-1.9378700000000002
 20
-2.5786600000000002
 30
0.0
 10
-1.9378700000000002
 20
-2.5786600000000002
 30
0.0
 10
-2.0572500000000002
 20
-2.4161000000000001
 30
0.0
 10
-2.3899900000000001
 20
-1.8496800000000002
 30
0.0
 10
-2.1334500000000003
 20
-2.0427200000000001
 30
0.0
 10
-2.1334500000000003
 20
-2.0427200000000001
 30
0.0
 10
-2.0369300000000004
 20
-2.0376400000000001
 30
0.0
 10
-2.1740900000000001
 20
-1.9131800000000001
 30
0.0
 10
-2.1994900000000004
 20
-1.8827000000000003
 30
0.0
 10
-2.1994900000000004
 20
-1.8827000000000003
 30
0.0
 10
-2.4407900000000002
 20
-1.5677400000000001
 30
0.0
 10
-2.23251
 20
-1.1765800000000002
 30
0.0
 10
-2.43825
 20
-0.82606
 30
0.0
 10
-2.43825
 20
-0.82606
 30
0.0
 10
-2.3036300000000001
 20
-0.9454400000000001
 30
0.0
 10
-2.2579100000000003
 20
-1.2400800000000001
 30
0.0
 10
-2.0445500000000001
 20
-1.2400800000000001
 30
0.0
 10
-2.0445500000000001
 20
-1.2400800000000001
 30
0.0
 10
-1.8286500000000001
 20
-0.8692400000000001
 30
0.0
 10
-1.5975100000000002
 20
-0.36632
 30
0.0
 10
-1.7118100000000001
 20
0.04769
 30
0.0
 10
-1.7118100000000001
 20
0.04769
 30
0.0
 10
-0.7923300000000001
 20
0.15183
 30
0.0
 10
0.07634
 20
0.49219
 30
0.0
 10
0.9678800000000001
 20
0.6268100000000001
 30
0.0
 10
0.9678800000000001
 20
0.6268100000000001
 30
0.0
 10
0.95264
 20
0.5074300000000001
 30
0.0
 10
0.74436
 20
0.40329
 30
0.0
 10
0.7900800000000001
 20
0.32963
 30
0.0
 10
0.7900800000000001
 20
0.32963
 30
0.0
 10
1.3234800000000002
 20
1.02813
 30
0.0
 10
2.3191600000000001
 20
0.89351
 30
0.0
 10
2.9135200000000001
 20
1.4294500000000001
 30
0.0
  0
SPLINE
  5
2A
100
AcDbEntity
  8
Ebene 1
 62
     7
100
AcDbSpline
210
0.0
220
0.0
230
1.0
 70
     1
 71
     3
 72
    32
 73
    28
 74
     0
 42
0.0000000001
 43
0.0000000001
 40
0.0
 40
0.0
 40
0.0
 40
0.0
 40
0.1428571428571429
 40
0.1428571428571429
 40
0.1428571428571429
 40
0.1428571428571429
 40
0.2857142857142857
 40
0.2857142857142857
 40
0.2857142857142857
 40
0.2857142857142857
 40
0.4285714285714286
 40
0.4285714285714286
 40
0.4285714285714286
 40
0.4285714285714286
 40
0.5714285714285714
 40
0.5714285714285714
 40
0.5714285714285714
 40
0.5714285714285714
 40
0.7142857142857142
 40
0.7142857142857142
 40
0.7142857142857142
 40
0.7142857142857142
 40
0.857142857142857
 40
0.857142857142857
 40
0.857142857142857
 40
0.857142857142857
 40
1.0
 40
1.0
 40
1.0
 40
1.0
 10
-3.5126700000000004
 20
0.32963
 30
0.0
 10
-3.3424900000000002
 20
0.28391
 30
0.0
 10
-3.4390100000000001
 20
0.00197
 30
0.0
 10
-3.2866100000000005
 20
-0.09962
 30
0.0
 10
-3.2866100000000005
 20
-0.09962
 30
0.0
 10
-3.1977100000000003
 20
-0.06914
 30
0.0
 10
-3.4009100000000001
 20
0.10611
 30
0.0
 10
-3.2866100000000005
 20
0.19501
 30
0.0
 10
-3.2866100000000005
 20
0.19501
 30
0.0
 10
-3.2866100000000005
 20
0.19501
 30
0.0
 10
-2.5220700000000003
 20
0.04769
 30
0.0
 10
-2.5220700000000003
 20
0.04769
 30
0.0
 10
-2.5220700000000003
 20
0.04769
 30
0.0
 10
-2.6820900000000001
 20
-0.26218
 30
0.0
 10
-2.44333
 20
-0.5593600000000001
 30
0.0
 10
-2.6262100000000004
 20
-0.8565400000000001
 30
0.0
 10
-2.6262100000000004
 20
-0.8565400000000001
 30
0.0
 10
-2.8040100000000003
 20
-0.7676400000000001
 30
0.0
 10
-2.9411700000000001
 20
-0.5593600000000001
 30
0.0
 10
-3.1418300000000001
 20
-0.5136400000000001
 30
0.0
 10
-3.1418300000000001
 20
-0.5136400000000001
 30
0.0
 10
-2.9970500000000002
 20
-0.6914400000000001
 30
0.0
 10
-3.2993100000000002
 20
-0.6482600000000001
 30
0.0
 10
-3.4034500000000003
 20
-0.61778
 30
0.0
 10
-3.4034500000000003
 20
-0.61778
 30
0.0
 10
-3.4593300000000005
 20
-0.30536
 30
0.0
 10
-3.5660100000000003
 20
0.03245
 30
0.0
 10
-3.5126700000000004
 20
0.32963
 30
0.0
  0
SPLINE
  5
2B
100
AcDbEntity
  8
Ebene 1
 62
     7
100
AcDbSpline
210
0.0
220
0.0
230
1.0
 70
     1
 71
     3
 72
    56
 73
    52
 74
     0
 42
0.0000000001
 43
0.0000000001
 40
0.0
 40
0.0
 40
0.0
 40
0.0
 40
0.0769230769230769
 40
0.0769230769230769
 40
0.0769230769230769
 40
0.0769230769230769
 40
0.1538461538461539
 40
0.1538461538461539
 40
0.1538461538461539
 40
0.1538461538461539
 40
0.2307692307692308
 40
0.2307692307692308
 40
0.2307692307692308
 40
0.2307692307692308
 40
0.3076923076923077
 40
0.3076923076923077
 40
0.3076923076923077
 40
0.3076923076923077
 40
0.3846153846153846
 40
0.3846153846153846
 40
0.3846153846153846
 40
0.3846153846153846
 40
0.4615384615384616
 40
0.4615384615384616
 40
0.4615384615384616
 40
0.4615384615384616
 40
0.5384615384615386
 40
0.5384615384615386
 40
0.5384615384615386
 40
0.5384615384615386
 40
0.6153846153846154
 40
0.6153846153846154
 40
0.6153846153846154
 40
0.6153846153846154
 40
0.6923076923076923
 40
0.6923076923076923
 40
0.6923076923076923
 40
0.6923076923076923
 40
0.7692307692307692
 40
0.7692307692307692
 40
0.7692307692307692
 40
0.7692307692307692
 40
0.846153846153846
 40
0.846153846153846
 40
0.846153846153846
 40
0.846153846153846
 40
0.9230769230769229
 40
0.9230769230769229
 40
0.9230769230769229
 40
0.9230769230769229
 40
1.0
 40
1.0
 40
1.0
 40
1.0
 10
2.7204800000000002
 20
0.28391
 30
0.0
 10
3.2538800000000001
 20
0.12135
 30
0.0
 10
3.6552000000000002
 20
-0.36632
 30
0.0
 10
4.0108000000000006
 20
-0.7955800000000001
 30
0.0
 10
4.0108000000000006
 20
-0.7955800000000001
 30
0.0
 10
3.8939600000000003
 20
-0.7676400000000001
 30
0.0
 10
3.7898200000000002
 20
-0.67874
 30
0.0
 10
3.6831400000000003
 20
-0.61778
 30
0.0
 10
3.6831400000000003
 20
-0.61778
 30
0.0
 10
3.5510600000000001
 20
-0.61778
 30
0.0
 10
3.2107000000000001
 20
-0.3206000000000001
 30
0.0
 10
3.2386400000000002
 20
-0.47046
 30
0.0
 10
3.2386400000000002
 20
-0.47046
 30
0.0
 10
3.9371400000000003
 20
-0.9302
 30
0.0
 10
4.8134400000000008
 20
-1.5245600000000001
 30
0.0
 10
5.1106200000000008
 20
-2.3246600000000002
 30
0.0
 10
5.1106200000000008
 20
-2.3246600000000002
 30
0.0
 10
5.4128800000000004
 20
-3.7292800000000002
 30
0.0
 10
3.7771200000000005
 20
-4.6386000000000003
 30
0.0
 10
2.5553800000000004
 20
-4.6716200000000008
 30
0.0
 10
2.5553800000000004
 20
-4.6716200000000008
 30
0.0
 10
2.5553800000000004
 20
-4.6716200000000008
 30
0.0
 10
2.7484200000000003
 20
-4.5217600000000004
 30
0.0
 10
2.7484200000000003
 20
-4.5217600000000004
 30
0.0
 10
2.7484200000000003
 20
-4.5217600000000004
 30
0.0
 10
3.2107000000000001
 20
-4.2245800000000004
 30
0.0
 10
3.6983800000000002
 20
-3.9578800000000003
 30
0.0
 10
4.1301800000000002
 20
-3.5870400000000005
 30
0.0
 10
4.1301800000000002
 20
-3.5870400000000005
 30
0.0
 10
3.3123000000000005
 20
-4.1382200000000005
 30
0.0
 10
2.3928200000000004
 20
-4.6868600000000002
 30
0.0
 10
1.39968
 20
-4.8595800000000002
 30
0.0
 10
1.39968
 20
-4.8595800000000002
 30
0.0
 10
1.5470000000000002
 20
-3.9731200000000002
 30
0.0
 10
2.3928200000000004
 20
-3.2898600000000005
 30
0.0
 10
2.3039200000000002
 20
-2.3094200000000003
 30
0.0
 10
2.3039200000000002
 20
-2.3094200000000003
 30
0.0
 10
2.2455000000000003
 20
-1.92334
 30
0.0
 10
2.4080600000000003
 20
-2.23576
 30
0.0
 10
2.4817200000000001
 20
-2.4161000000000001
 30
0.0
 10
2.4817200000000001
 20
-2.4161000000000001
 30
0.0
 10
2.63158
 20
-2.7107400000000004
 30
0.0
 10
2.67476
 20
-3.0384000000000002
 30
0.0
 10
2.7636600000000002
 20
-3.3508200000000001
 30
0.0
 10
2.7636600000000002
 20
-3.3508200000000001
 30
0.0
 10
2.7484200000000003
 20
-2.19258
 30
0.0
 10
2.0804
 20
-1.1384800000000002
 30
0.0
 10
1.39968
 20
-0.2317
 30
0.0
 10
1.39968
 20
-0.2317
 30
0.0
 10
1.8289400000000002
 20
-0.01072
 30
0.0
 10
2.3039200000000002
 20
0.07817
 30
0.0
 10
2.7204800000000002
 20
0.28391
 30
0.0
  0
SPLINE
  5
2C
100
AcDbEntity
  8
Ebene 1
100
AcDbSpline
210
0.0
220
0.0
230
1.0
 70
     1
 71
     3
 72
    16
 73
    12
 74
     0
 42
0.0000000001
 43
0.0000000001
 40
0.0
 40
0.0
 40
0.0
 40
0.0
 40
0.3333333333333333
 40
0.3333333333333333
 40
0.3333333333333333
 40
0.3333333333333333
 40
0.6666666666666666
 40
0.6666666666666666
 40
0.6666666666666666
 40
0.6666666666666666
 40
1.0
 40
1.0
 40
1.0
 40
1.0
 10
-2.2960100000000003
 20
0.01721
 30
0.0
 10
-2.2071100000000001
 20
-0.02342
 30
0.0
 10
-2.14615
 20
-0.11232
 30
0.0
 10
-2.0877300000000001
 20
-0.18852
 30
0.0
 10
-2.0877300000000001
 20
-0.18852
 30
0.0
 10
-2.0851900000000003
 20
-0.33584
 30
0.0
 10
-2.15123
 20
-0.47046
 30
0.0
 10
-2.22235
 20
-0.5873
 30
0.0
 10
-2.22235
 20
-0.5873
 30
0.0
 10
-2.4509500000000002
 20
-0.4857
 30
0.0
 10
-2.5093700000000001
 20
-0.1428
 30
0.0
 10
-2.2960100000000003
 20
0.01721
 30
0.0
  0
SPLINE
  5
2D
100
AcDbEntity
  8
Ebene 1
 62
     7
100
AcDbSpline
210
0.0
220
0.0
230
1.0
 70
     1
 71
     3
 72
    20
 73
    16
 74
     0
 42
0.0000000001
 43
0.0000000001
 40
0.0
 40
0.0
 40
0.0
 40
0.0
 40
0.25
 40
0.25
 40
0.25
 40
0.25
 40
0.5
 40
0.5
 40
0.5
 40
0.5
 40
0.75
 40
0.75
 40
0.75
 40
0.75
 40
1.0
 40
1.0
 40
1.0
 40
1.0
 10
-2.3264900000000002
 20
-0.1428
 30
0.0
 10
-2.2934700000000001
 20
-0.12756
 30
0.0
 10
-2.27569
 20
-0.15804
 30
0.0
 10
-2.2502900000000001
 20
-0.17328
 30
0.0
 10
-2.2502900000000001
 20
-0.17328
 30
0.0
 10
-2.2350500000000002
 20
-0.17328
 30
0.0
 10
-2.2147300000000003
 20
-0.20122
 30
0.0
 10
-2.2248900000000003
 20
-0.21646
 30
0.0
 10
-2.2248900000000003
 20
-0.21646
 30
0.0
 10
-2.26553
 20
-0.20122
 30
0.0
 10
-2.3163300000000002
 20
-0.17328
 30
0.0
 10
-2.3493500000000003
 20
-0.21646
 30
0.0
 10
-2.3493500000000003
 20
-0.21646
 30
0.0
 10
-2.3493500000000003
 20
-0.21646
 30
0.0
 10
-2.3264900000000002
 20
-0.1428
 30
0.0
 10
-2.3264900000000002
 20
-0.1428
 30
0.0
  0
SPLINE
  5
2E
100
AcDbEntity
  8
Ebene 1
 62
     7
100
AcDbSpline
210
0.0
220
0.0
230
1.0
 70
     1
 71
     3
 72
   192
 73
   188
 74
     0
 42
0.0000000001
 43
0.0000000001
 40
0.0
 40
0.0
 40
0.0
 40
0.0
 40
0.0212765957446809
 40
0.0212765957446809
 40
0.0212765957446809
 40
0.0212765957446809
 40
0.0425531914893617
 40
0.0425531914893617
 40
0.0425531914893617
 40
0.0425531914893617
 40
0.0638297872340425
 40
0.0638297872340425
 40
0.0638297872340425
 40
0.0638297872340425
 40
0.0851063829787234
 40
0.0851063829787234
 40
0.0851063829787234
 40
0.0851063829787234
 40
0.1063829787234043
 40
0.1063829787234043
 40
0.1063829787234043
 40
0.1063829787234043
 40
0.1276595744680851
 40
0.1276595744680851
 40
0.1276595744680851
 40
0.1276595744680851
 40
0.148936170212766
 40
0.148936170212766
 40
0.148936170212766
 40
0.148936170212766
 40
0.1702127659574468
 40
0.1702127659574468
 40
0.1702127659574468
 40
0.1702127659574468
 40
0.1914893617021277
 40
0.1914893617021277
 40
0.1914893617021277
 40
0.1914893617021277
 40
0.2127659574468085
 40
0.2127659574468085
 40
0.2127659574468085
 40
0.2127659574468085
 40
0.2340425531914894
 40
0.2340425531914894
 40
0.2340425531914894
 40
0.2340425531914894
 40
0.2553191489361702
 40
0.2553191489361702
 40
0.2553191489361702
 40
0.2553191489361702
 40
0.276595744680851
 40
0.276595744680851
 40
0.276595744680851
 40
0.276595744680851
 40
0.2978723404255319
 40
0.2978723404255319
 40
0.2978723404255319
 40
0.2978723404255319
 40
0.3191489361702127
 40
0.3191489361702127
 40
0.3191489361702127
 40
0.3191489361702127
 40
0.3404255319148935
 40
0.3404255319148935
 40
0.3404255319148935
 40
0.3404255319148935
 40
0.3617021276595743
 40
0.3617021276595743
 40
0.3617021276595743
 40
0.3617021276595743
 40
0.3829787234042552
 40
0.3829787234042552
 40
0.3829787234042552
 40
0.3829787234042552
 40
0.404255319148936
 40
0.404255319148936
 40
0.404255319148936
 40
0.404255319148936
 40
0.4255319148936168
 40
0.4255319148936168
 40
0.4255319148936168
 40
0.4255319148936168
 40
0.4468085106382976
 40
0.4468085106382976
 40
0.4468085106382976
 40
0.4468085106382976
 40
0.4680851063829785
 40
0.4680851063829785
 40
0.4680851063829785
 40
0.4680851063829785
 40
0.4893617021276593
 40
0.4893617021276593
 40
0.4893617021276593
 40
0.4893617021276593
 40
0.5106382978723402
 40
0.5106382978723402
 40
0.5106382978723402
 40
0.5106382978723402
 40
0.5319148936170211
 40
0.5319148936170211
 40
0.5319148936170211
 40
0.5319148936170211
 40
0.5531914893617019
 40
0.5531914893617019
 40
0.5531914893617019
 40
0.5531914893617019
 40
0.5744680851063828
 40
0.5744680851063828
 40
0.5744680851063828
 40
0.5744680851063828
 40
0.5957446808510637
 40
0.5957446808510637
 40
0.5957446808510637
 40
0.5957446808510637
 40
0.6170212765957446
 40
0.6170212765957446
 40
0.6170212765957446
 40
0.6170212765957446
 40
0.6382978723404255
 40
0.6382978723404255
 40
0.6382978723404255
 40
0.6382978723404255
 40
0.6595744680851063
 40
0.6595744680851063
 40
0.6595744680851063
 40
0.6595744680851063
 40
0.6808510638297872
 40
0.6808510638297872
 40
0.6808510638297872
 40
0.6808510638297872
 40
0.7021276595744681
 40
0.7021276595744681
 40
0.7021276595744681
 40
0.7021276595744681
 40
0.723404255319149
 40
0.723404255319149
 40
0.723404255319149
 40
0.723404255319149
 40
0.7446808510638299
 40
0.7446808510638299
 40
0.7446808510638299
 40
0.7446808510638299
 40
0.7659574468085107
 40
0.7659574468085107
 40
0.7659574468085107
 40
0.7659574468085107
 40
0.7872340425531916
 40
0.7872340425531916
 40
0.7872340425531916
 40
0.7872340425531916
 40
0.8085106382978725
 40
0.8085106382978725
 40
0.8085106382978725
 40
0.8085106382978725
 40
0.8297872340425534
 40
0.8297872340425534
 40
0.8297872340425534
 40
0.8297872340425534
 40
0.8510638297872343
 40
0.8510638297872343
 40
0.8510638297872343
 40
0.8510638297872343
 40
0.8723404255319152
 40
0.8723404255319152
 40
0.8723404255319152
 40
0.8723404255319152
 40
0.893617021276596
 40
0.893617021276596
 40
0.893617021276596
 40
0.893617021276596
 40
0.9148936170212769
 40
0.9148936170212769
 40
0.9148936170212769
 40
0.9148936170212769
 40
0.9361702127659578
 40
0.9361702127659578
 40
0.9361702127659578
 40
0.9361702127659578
 40
0.9574468085106387
 40
0.9574468085106387
 40
0.9574468085106387
 40
0.9574468085106387
 40
0.9787234042553196
 40
0.9787234042553196
 40
0.9787234042553196
 40
0.9787234042553196
 40
1.0
 40
1.0
 40
1.0
 40
1.0
 10
-2.7862300000000002
 20
-0.9149600000000001
 30
0.0
 10
-3.0529300000000004
 20
-0.9835400000000001
 30
0.0
 10
-2.7049500000000002
 20
-1.7912600000000001
 30
0.0
 10
-2.3874500000000003
 20
-1.5677400000000001
 30
0.0
 10
-2.3874500000000003
 20
-1.5677400000000001
 30
0.0
 10
-2.3366500000000001
 20
-2.0427200000000001
 30
0.0
 10
-2.0928100000000001
 20
-2.4897600000000004
 30
0.0
 10
-2.0089900000000003
 20
-2.9622000000000002
 30
0.0
 10
-2.0089900000000003
 20
-2.9622000000000002
 30
0.0
 10
-1.8845300000000003
 20
-2.9622000000000002
 30
0.0
 10
-1.8362700000000001
 20
-2.81488
 30
0.0
 10
-1.7626100000000002
 20
-2.7412200000000002
 30
0.0
 10
-1.7626100000000002
 20
-2.7412200000000002
 30
0.0
 10
-0.69581
 20
-3.2898600000000005
 30
0.0
 10
-1.8311900000000001
 20
-1.7912600000000001
 30
0.0
 10
-1.5924300000000002
 20
-1.3594600000000001
 30
0.0
 10
-1.5924300000000002
 20
-1.3594600000000001
 30
0.0
 10
-1.5924300000000002
 20
-1.3594600000000001
 30
0.0
 10
-1.3003300000000002
 20
-1.3747
 30
0.0
 10
-1.3003300000000002
 20
-1.3747
 30
0.0
 10
-1.3003300000000002
 20
-1.3747
 30
0.0
 10
-0.6704100000000001
 20
-1.8954000000000002
 30
0.0
 10
-0.17257
 20
-1.16642
 30
0.0
 10
0.26938
 20
-0.8108200000000001
 30
0.0
 10
0.26938
 20
-0.8108200000000001
 30
0.0
 10
0.1373
 20
-0.72192
 30
0.0
 10
-0.05319
 20
-0.7066800000000001
 30
0.0
 10
-0.21575
 20
-0.73716
 30
0.0
 10
-0.21575
 20
-0.73716
 30
0.0
 10
-0.21575
 20
-0.73716
 30
0.0
 10
-0.5002300000000001
 20
-0.7066800000000001
 30
0.0
 10
-0.5002300000000001
 20
-0.7066800000000001
 30
0.0
 10
-0.5002300000000001
 20
-0.7066800000000001
 30
0.0
 10
-0.45451
 20
-0.67874
 30
0.0
 10
-0.3656100000000001
 20
-0.6635000000000001
 30
0.0
 10
-0.35037
 20
-0.5873
 30
0.0
 10
-0.35037
 20
-0.5873
 30
0.0
 10
-0.78217
 20
-0.67874
 30
0.0
 10
-1.0945900000000002
 20
-1.3594600000000001
 30
0.0
 10
-1.5187700000000002
 20
-1.2400800000000001
 30
0.0
 10
-1.5187700000000002
 20
-1.2400800000000001
 30
0.0
 10
-1.4451100000000001
 20
-1.1080000000000001
 30
0.0
 10
-1.3892300000000002
 20
-0.9581400000000001
 30
0.0
 10
-1.29017
 20
-0.8413000000000001
 30
0.0
 10
-1.29017
 20
-0.8413000000000001
 30
0.0
 10
-0.76185
 20
-0.45522
 30
0.0
 10
-0.09891
 20
-0.4247400000000001
 30
0.0
 10
0.47766
 20
-0.67874
 30
0.0
 10
0.47766
 20
-0.67874
 30
0.0
 10
0.64022
 20
-0.52888
 30
0.0
 10
0.8485
 20
-0.36632
 30
0.0
 10
1.0567800000000001
 20
-0.33584
 30
0.0
 10
1.0567800000000001
 20
-0.33584
 30
0.0
 10
0.55132
 20
-0.8565400000000001
 30
0.0
 10
1.1329800000000001
 20
-1.33152
 30
0.0
 10
1.6511400000000001
 20
-1.2705600000000001
 30
0.0
 10
1.6511400000000001
 20
-1.2705600000000001
 30
0.0
 10
1.0872600000000001
 20
-1.8954000000000002
 30
0.0
 10
0.29986
 20
-2.8606000000000003
 30
0.0
 10
-0.57389
 20
-2.1773400000000001
 30
0.0
 10
-0.57389
 20
-2.1773400000000001
 30
0.0
 10
-0.6907300000000001
 20
-2.1621000000000001
 30
0.0
 10
-0.82535
 20
-2.1316200000000003
 30
0.0
 10
-0.9396500000000001
 20
-2.1773400000000001
 30
0.0
 10
-0.9396500000000001
 20
-2.1773400000000001
 30
0.0
 10
-1.17079
 20
-2.3399000000000001
 30
0.0
 10
-1.08189
 20
-2.4897600000000004
 30
0.0
 10
-0.9752100000000001
 20
-2.6828000000000003
 30
0.0
 10
-0.9752100000000001
 20
-2.6828000000000003
 30
0.0
 10
-0.82281
 20
-2.9037800000000002
 30
0.0
 10
-1.0209300000000001
 20
-2.4288000000000003
 30
0.0
 10
-0.9752100000000001
 20
-2.35514
 30
0.0
 10
-0.9752100000000001
 20
-2.35514
 30
0.0
 10
-0.8939300000000001
 20
-2.4745200000000001
 30
0.0
 10
-0.8380500000000001
 20
-2.8758400000000002
 30
0.0
 10
-0.7085100000000001
 20
-2.8301200000000004
 30
0.0
 10
-0.7085100000000001
 20
-2.8301200000000004
 30
0.0
 10
-0.7085100000000001
 20
-2.65232
 30
0.0
 10
-0.9193300000000001
 20
-2.4440400000000002
 30
0.0
 10
-0.7923300000000001
 20
-2.2941800000000003
 30
0.0
 10
-0.7923300000000001
 20
-2.2941800000000003
 30
0.0
 10
-0.6907300000000001
 20
-2.4008600000000002
 30
0.0
 10
-0.71613
 20
-2.6218400000000002
 30
0.0
 10
-0.57389
 20
-2.7259800000000003
 30
0.0
 10
-0.57389
 20
-2.7259800000000003
 30
0.0
 10
-0.45451
 20
-2.6955
 30
0.0
 10
-0.7974100000000001
 20
-2.4288000000000003
 30
0.0
 10
-0.63231
 20
-2.3094200000000003
 30
0.0
 10
-0.63231
 20
-2.3094200000000003
 30
0.0
 10
-0.51293
 20
-2.4440400000000002
 30
0.0
 10
-0.41133
 20
-2.65232
 30
0.0
 10
-0.3656100000000001
 20
-2.8301200000000004
 30
0.0
 10
-0.3656100000000001
 20
-2.8301200000000004
 30
0.0
 10
-0.61707
 20
-2.6828000000000003
 30
0.0
 10
-0.70089
 20
-3.2009600000000002
 30
0.0
 10
-0.8507500000000001
 20
-2.9037800000000002
 30
0.0
 10
-0.8507500000000001
 20
-2.9037800000000002
 30
0.0
 10
-0.9040900000000001
 20
-2.8682200000000004
 30
0.0
 10
-0.8329700000000001
 20
-3.0282400000000003
 30
0.0
 10
-0.8329700000000001
 20
-3.0714200000000003
 30
0.0
 10
-0.8329700000000001
 20
-3.0714200000000003
 30
0.0
 10
-0.8355100000000001
 20
-3.2822400000000003
 30
0.0
 10
-1.1047500000000001
 20
-3.2466800000000005
 30
0.0
 10
-1.04379
 20
-2.8885400000000003
 30
0.0
 10
-1.04379
 20
-2.8885400000000003
 30
0.0
 10
-1.08189
 20
-2.8682200000000004
 30
0.0
 10
-1.08443
 20
-2.9418800000000003
 30
0.0
 10
-1.08443
 20
-2.9749000000000003
 30
0.0
 10
-1.08443
 20
-2.9749000000000003
 30
0.0
 10
-1.0717300000000001
 20
-3.2543000000000002
 30
0.0
 10
-1.1174500000000001
 20
-3.4727400000000004
 30
0.0
 10
-1.2419100000000001
 20
-3.1425400000000003
 30
0.0
 10
-1.2419100000000001
 20
-3.1425400000000003
 30
0.0
 10
-1.29525
 20
-3.1095200000000003
 30
0.0
 10
-1.2317500000000001
 20
-3.2466800000000005
 30
0.0
 10
-1.2317500000000001
 20
-3.2847800000000005
 30
0.0
 10
-1.2317500000000001
 20
-3.2847800000000005
 30
0.0
 10
-1.2368300000000001
 20
-3.4168600000000002
 30
0.0
 10
-1.33843
 20
-3.4879800000000003
 30
0.0
 10
-1.3460500000000002
 20
-3.2593800000000002
 30
0.0
 10
-1.3460500000000002
 20
-3.2593800000000002
 30
0.0
 10
-1.3460500000000002
 20
-3.2593800000000002
 30
0.0
 10
-1.3663700000000001
 20
-3.1654000000000004
 30
0.0
 10
-1.3663700000000001
 20
-3.1654000000000004
 30
0.0
 10
-1.3663700000000001
 20
-3.1654000000000004
 30
0.0
 10
-1.3663700000000001
 20
-3.1654000000000004
 30
0.0
 10
-1.3993900000000001
 20
-3.1069800000000001
 30
0.0
 10
-1.3993900000000001
 20
-3.1069800000000001
 30
0.0
 10
-1.3993900000000001
 20
-3.1069800000000001
 30
0.0
 10
-1.3028700000000002
 20
-3.5895800000000002
 30
0.0
 10
-1.6254500000000001
 20
-3.4956000000000005
 30
0.0
 10
-1.5644900000000002
 20
-3.0688800000000001
 30
0.0
 10
-1.5644900000000002
 20
-3.0688800000000001
 30
0.0
 10
-1.6076700000000002
 20
-3.0815800000000002
 30
0.0
 10
-1.6203700000000001
 20
-3.2416000000000005
 30
0.0
 10
-1.5949700000000002
 20
-3.4194000000000004
 30
0.0
 10
-1.5949700000000002
 20
-3.4194000000000004
 30
0.0
 10
-1.5848100000000001
 20
-3.4829000000000003
 30
0.0
 10
-1.6559300000000001
 20
-3.5057600000000004
 30
0.0
 10
-1.6838700000000002
 20
-3.4575000000000005
 30
0.0
 10
-1.6838700000000002
 20
-3.4575000000000005
 30
0.0
 10
-1.7372100000000001
 20
-3.3660600000000005
 30
0.0
 10
-1.7397500000000001
 20
-3.2314400000000001
 30
0.0
 10
-1.7473700000000001
 20
-3.1273000000000004
 30
0.0
 10
-1.7473700000000001
 20
-3.1273000000000004
 30
0.0
 10
-1.8565900000000002
 20
-3.0536400000000001
 30
0.0
 10
-1.6178300000000001
 20
-3.5870400000000005
 30
0.0
 10
-1.8540500000000002
 20
-3.4981400000000002
 30
0.0
 10
-1.8540500000000002
 20
-3.4981400000000002
 30
0.0
 10
-1.8540500000000002
 20
-3.4981400000000002
 30
0.0
 10
-1.8870700000000002
 20
-3.3025600000000002
 30
0.0
 10
-1.8870700000000002
 20
-3.3025600000000002
 30
0.0
 10
-1.8870700000000002
 20
-3.3025600000000002
 30
0.0
 10
-1.9454900000000002
 20
-3.2492200000000002
 30
0.0
 10
-1.8921500000000002
 20
-3.4422600000000001
 30
0.0
 10
-1.9658100000000001
 20
-3.4625800000000004
 30
0.0
 10
-1.9658100000000001
 20
-3.4625800000000004
 30
0.0
 10
-2.0089900000000003
 20
-3.4727400000000004
 30
0.0
 10
-2.0521700000000003
 20
-3.4651200000000002
 30
0.0
 10
-2.0445500000000001
 20
-3.2898600000000005
 30
0.0
 10
-2.0445500000000001
 20
-3.2898600000000005
 30
0.0
 10
-2.05979
 20
-3.2822400000000003
 30
0.0
 10
-2.0724900000000002
 20
-3.3432000000000004
 30
0.0
 10
-2.0750300000000004
 20
-3.4397200000000003
 30
0.0
 10
-2.0750300000000004
 20
-3.4397200000000003
 30
0.0
 10
-2.3493500000000003
 20
-3.1857200000000003
 30
0.0
 10
-2.0496300000000001
 20
-2.6370800000000001
 30
0.0
 10
-2.2833100000000002
 20
-2.3246600000000002
 30
0.0
 10
-2.2833100000000002
 20
-2.3246600000000002
 30
0.0
 10
-2.5957300000000001
 20
-2.4161000000000001
 30
0.0
 10
-2.9437100000000003
 20
-2.4897600000000004
 30
0.0
 10
-3.1723100000000004
 20
-2.1189200000000001
 30
0.0
 10
-3.1723100000000004
 20
-2.1189200000000001
 30
0.0
 10
-3.0935700000000002
 20
-1.9284200000000002
 30
0.0
 10
-2.9386300000000003
 20
-1.8801600000000001
 30
0.0
 10
-2.8929100000000001
 20
-1.3874000000000002
 30
0.0
 10
-2.8929100000000001
 20
-1.3874000000000002
 30
0.0
 10
-2.8802100000000004
 20
-1.2477
 30
0.0
 10
-2.8395700000000001
 20
-1.07498
 30
0.0
 10
-3.0376900000000004
 20
-0.9149600000000001
 30
0.0
 10
-3.0376900000000004
 20
-0.9149600000000001
 30
0.0
 10
-3.0376900000000004
 20
-0.9149600000000001
 30
0.0
 10
-2.9741900000000001
 20
-0.78288
 30
0.0
 10
-2.9741900000000001
 20
-0.78288
 30
0.0
 10
-2.9741900000000001
 20
-0.78288
 30
0.0
 10
-2.8878300000000001
 20
-0.7524000000000001
 30
0.0
 10
-2.8522700000000003
 20
-0.8692400000000001
 30
0.0
 10
-2.7862300000000002
 20
-0.9149600000000001
 30
0.0
  0
SPLINE
  5
2F
100
AcDbEntity
  8
Ebene 1
 62
     7
100
AcDbSpline
210
0.0
220
0.0
230
1.0
 70
     1
 71
     3
 72
    32
 73
    28
 74
     0
 42
0.0000000001
 43
0.0000000001
 40
0.0
 40
0.0
 40
0.0
 40
0.0
 40
0.1428571428571429
 40
0.1428571428571429
 40
0.1428571428571429
 40
0.1428571428571429
 40
0.2857142857142857
 40
0.2857142857142857
 40
0.2857142857142857
 40
0.2857142857142857
 40
0.4285714285714286
 40
0.4285714285714286
 40
0.4285714285714286
 40
0.4285714285714286
 40
0.5714285714285714
 40
0.5714285714285714
 40
0.5714285714285714
 40
0.5714285714285714
 40
0.7142857142857142
 40
0.7142857142857142
 40
0.7142857142857142
 40
0.7142857142857142
 40
0.857142857142857
 40
0.857142857142857
 40
0.857142857142857
 40
0.857142857142857
 40
1.0
 40
1.0
 40
1.0
 40
1.0
 10
1.2066400000000002
 20
-0.5441200000000001
 30
0.0
 10
1.6511400000000001
 20
-0.7676400000000001
 30
0.0
 10
2.03722
 20
-1.2400800000000001
 30
0.0
 10
2.1566000000000001
 20
-1.7176000000000002
 30
0.0
 10
2.1566000000000001
 20
-1.7176000000000002
 30
0.0
 10
1.9483200000000001
 20
-2.0732000000000004
 30
0.0
 10
1.5317600000000002
 20
-2.2814800000000002
 30
0.0
 10
1.14568
 20
-2.3094200000000003
 30
0.0
 10
1.14568
 20
-2.3094200000000003
 30
0.0
 10
1.1025
 20
-2.2662400000000003
 30
0.0
 10
1.0567800000000001
 20
-2.2052800000000001
 30
0.0
 10
1.0567800000000001
 20
-2.1468600000000002
 30
0.0
 10
1.0567800000000001
 20
-2.1468600000000002
 30
0.0
 10
1.2498200000000002
 20
-1.8217400000000001
 30
0.0
 10
1.6206600000000002
 20
-1.6134600000000001
 30
0.0
 10
1.7705200000000001
 20
-1.2705600000000001
 30
0.0
 10
1.7705200000000001
 20
-1.2705600000000001
 30
0.0
 10
1.7705200000000001
 20
-1.2705600000000001
 30
0.0
 10
1.6663800000000002
 20
-1.1080000000000001
 30
0.0
 10
1.6663800000000002
 20
-1.1080000000000001
 30
0.0
 10
1.6663800000000002
 20
-1.1080000000000001
 30
0.0
 10
1.4276200000000001
 20
-1.12324
 30
0.0
 10
1.1761600000000001
 20
-1.08006
 30
0.0
 10
0.9983600000000001
 20
-0.8997200000000001
 30
0.0
 10
0.9983600000000001
 20
-0.8997200000000001
 30
0.0
 10
0.9678800000000001
 20
-0.73716
 30
0.0
 10
1.0567800000000001
 20
-0.5873
 30
0.0
 10
1.2066400000000002
 20
-0.5441200000000001
 30
0.0
  0
SPLINE
  5
30
100
AcDbEntity
  8
Ebene 1
 62
     7
100
AcDbSpline
210
0.0
220
0.0
230
1.0
 70
     1
 71
     3
 72
    16
 73
    12
 74
     0
 42
0.0000000001
 43
0.0000000001
 40
0.0
 40
0.0
 40
0.0
 40
0.0
 40
0.3333333333333333
 40
0.3333333333333333
 40
0.3333333333333333
 40
0.3333333333333333
 40
0.6666666666666666
 40
0.6666666666666666
 40
0.6666666666666666
 40
0.6666666666666666
 40
1.0
 40
1.0
 40
1.0
 40
1.0
 10
-2.7557500000000004
 20
-0.9149600000000001
 30
0.0
 10
-2.6795500000000003
 20
-0.9149600000000001
 30
0.0
 10
-2.6211300000000004
 20
-0.9581400000000001
 30
0.0
 10
-2.57287
 20
-1.0191000000000001
 30
0.0
 10
-2.57287
 20
-1.0191000000000001
 30
0.0
 10
-2.5068300000000003
 20
-1.00386
 30
0.0
 10
-2.4915900000000004
 20
-1.08006
 30
0.0
 10
-2.4763500000000001
 20
-1.12324
 30
0.0
 10
-2.4763500000000001
 20
-1.12324
 30
0.0
 10
-2.4763500000000001
 20
-1.12324
 30
0.0
 10
-2.7557500000000004
 20
-0.9149600000000001
 30
0.0
 10
-2.7557500000000004
 20
-0.9149600000000001
 30
0.0
  0
SPLINE
  5
31
100
AcDbEntity
  8
Ebene 1
 62
     7
100
AcDbSpline
210
0.0
220
0.0
230
1.0
 70
     1
 71
     3
 72
    36
 73
    32
 74
     0
 42
0.0000000001
 43
0.0000000001
 40
0.0
 40
0.0
 40
0.0
 40
0.0
 40
0.125
 40
0.125
 40
0.125
 40
0.125
 40
0.25
 40
0.25
 40
0.25
 40
0.25
 40
0.375
 40
0.375
 40
0.375
 40
0.375
 40
0.5
 40
0.5
 40
0.5
 40
0.5
 40
0.625
 40
0.625
 40
0.625
 40
0.625
 40
0.75
 40
0.75
 40
0.75
 40
0.75
 40
0.875
 40
0.875
 40
0.875
 40
0.875
 40
1.0
 40
1.0
 40
1.0
 40
1.0
 10
-3.1265900000000002
 20
-1.12324
 30
0.0
 10
-2.9335500000000003
 20
-1.16642
 30
0.0
 10
-2.9716500000000003
 20
-1.4051800000000001
 30
0.0
 10
-2.9945100000000004
 20
-1.5525000000000002
 30
0.0
 10
-2.9945100000000004
 20
-1.5525000000000002
 30
0.0
 10
-3.0605500000000001
 20
-1.7176000000000002
 30
0.0
 10
-3.1062700000000003
 20
-1.8954000000000002
 30
0.0
 10
-3.2713700000000001
 20
-1.9995400000000001
 30
0.0
 10
-3.2713700000000001
 20
-1.9995400000000001
 30
0.0
 10
-3.2764500000000001
 20
-2.65232
 30
0.0
 10
-4.2441900000000006
 20
-2.7996400000000001
 30
0.0
 10
-4.4346900000000007
 20
-3.4092400000000005
 30
0.0
 10
-4.4346900000000007
 20
-3.4092400000000005
 30
0.0
 10
-4.2797499999999999
 20
-3.3787600000000002
 30
0.0
 10
-4.0638500000000004
 20
-2.9037800000000002
 30
0.0
 10
-3.7819100000000003
 20
-2.8453600000000003
 30
0.0
 10
-3.7819100000000003
 20
-2.8453600000000003
 30
0.0
 10
-4.1756100000000007
 20
-3.4397200000000003
 30
0.0
 10
-4.3991300000000004
 20
-4.1229800000000001
 30
0.0
 10
-4.4651700000000005
 20
-4.8291000000000004
 30
0.0
 10
-4.4651700000000005
 20
-4.8291000000000004
 30
0.0
 10
-4.9528500000000006
 20
-4.6563800000000004
 30
0.0
 10
-5.2881300000000007
 20
-4.0772600000000008
 30
0.0
 10
-5.2322500000000005
 20
-3.5870400000000005
 30
0.0
 10
-5.2322500000000005
 20
-3.5870400000000005
 30
0.0
 10
-5.11287
 20
-3.6607000000000003
 30
0.0
 10
-5.0290500000000007
 20
-3.9426400000000004
 30
0.0
 10
-4.9223700000000008
 20
-3.9147000000000003
 30
0.0
 10
-4.9223700000000008
 20
-3.9147000000000003
 30
0.0
 10
-5.8723300000000007
 20
-2.4440400000000002
 30
0.0
 10
-3.2281900000000001
 20
-2.4008600000000002
 30
0.0
 10
-3.1265900000000002
 20
-1.12324
 30
0.0
  0
SPLINE
  5
32
100
AcDbEntity
  8
Ebene 1
 62
     7
100
AcDbSpline
210
0.0
220
0.0
230
1.0
 70
     1
 71
     3
 72
    16
 73
    12
 74
     0
 42
0.0000000001
 43
0.0000000001
 40
0.0
 40
0.0
 40
0.0
 40
0.0
 40
0.3333333333333333
 40
0.3333333333333333
 40
0.3333333333333333
 40
0.3333333333333333
 40
0.6666666666666666
 40
0.6666666666666666
 40
0.6666666666666666
 40
0.6666666666666666
 40
1.0
 40
1.0
 40
1.0
 40
1.0
 10
-0.45451
 20
-2.3703800000000004
 30
0.0
 10
-0.3656100000000001
 20
-2.4161000000000001
 30
0.0
 10
-0.38085
 20
-2.5634200000000003
 30
0.0
 10
-0.30719
 20
-2.6370800000000001
 30
0.0
 10
-0.30719
 20
-2.6370800000000001
 30
0.0
 10
-0.30719
 20
-2.6370800000000001
 30
0.0
 10
-0.3224300000000001
 20
-2.6675600000000004
 30
0.0
 10
-0.3224300000000001
 20
-2.6675600000000004
 30
0.0
 10
-0.3224300000000001
 20
-2.6675600000000004
 30
0.0
 10
-0.4265700000000001
 20
-2.6066000000000003
 30
0.0
 10
-0.4392700000000001
 20
-2.4745200000000001
 30
0.0
 10
-0.45451
 20
-2.3703800000000004
 30
0.0
  0
SPLINE
  5
33
100
AcDbEntity
  8
Ebene 1
 62
     7
100
AcDbSpline
210
0.0
220
0.0
230
1.0
 70
     1
 71
     3
 72
    16
 73
    12
 74
     0
 42
0.0000000001
 43
0.0000000001
 40
0.0
 40
0.0
 40
0.0
 40
0.0
 40
0.3333333333333333
 40
0.3333333333333333
 40
0.3333333333333333
 40
0.3333333333333333
 40
0.6666666666666666
 40
0.6666666666666666
 40
0.6666666666666666
 40
0.6666666666666666
 40
1.0
 40
1.0
 40
1.0
 40
1.0
 10
-0.27671
 20
-2.7259800000000003
 30
0.0
 10
-0.20305
 20
-2.7412200000000002
 30
0.0
 10
-0.15733
 20
-2.8301200000000004
 30
0.0
 10
-0.12939
 20
-2.9037800000000002
 30
0.0
 10
-0.12939
 20
-2.9037800000000002
 30
0.0
 10
-0.18781
 20
-2.8885400000000003
 30
0.0
 10
-0.26147
 20
-2.8606000000000003
 30
0.0
 10
-0.3224300000000001
 20
-2.8885400000000003
 30
0.0
 10
-0.3224300000000001
 20
-2.8885400000000003
 30
0.0
 10
-0.3224300000000001
 20
-2.8885400000000003
 30
0.0
 10
-0.27671
 20
-2.7259800000000003
 30
0.0
 10
-0.27671
 20
-2.7259800000000003
 30
0.0
  0
SPLINE
  5
34
100
AcDbEntity
  8
Ebene 1
 62
     7
100
AcDbSpline
210
0.0
220
0.0
230
1.0
 70
     1
 71
     3
 72
    16
 73
    12
 74
     0
 42
0.0000000001
 43
0.0000000001
 40
0.0
 40
0.0
 40
0.0
 40
0.0
 40
0.3333333333333333
 40
0.3333333333333333
 40
0.3333333333333333
 40
0.3333333333333333
 40
0.6666666666666666
 40
0.6666666666666666
 40
0.6666666666666666
 40
0.6666666666666666
 40
1.0
 40
1.0
 40
1.0
 40
1.0
 10
-0.47483
 20
-2.8326600000000002
 30
0.0
 10
-0.37323
 20
-2.86314
 30
0.0
 10
-0.29195
 20
-2.9774400000000001
 30
0.0
 10
-0.27671
 20
-3.0841200000000004
 30
0.0
 10
-0.27671
 20
-3.0841200000000004
 30
0.0
 10
-0.35037
 20
-3.0536400000000001
 30
0.0
 10
-0.4265700000000001
 20
-3.0231600000000003
 30
0.0
 10
-0.5002300000000001
 20
-3.0231600000000003
 30
0.0
 10
-0.5002300000000001
 20
-3.0231600000000003
 30
0.0
 10
-0.5586500000000001
 20
-2.9622000000000002
 30
0.0
 10
-0.5205500000000001
 20
-2.8783800000000004
 30
0.0
 10
-0.47483
 20
-2.8326600000000002
 30
0.0
  0
SPLINE
  5
35
100
AcDbEntity
  8
Ebene 1
 62
     7
100
AcDbSpline
210
0.0
220
0.0
230
1.0
 70
     1
 71
     3
 72
    16
 73
    12
 74
     0
 42
0.0000000001
 43
0.0000000001
 40
0.0
 40
0.0
 40
0.0
 40
0.0
 40
0.3333333333333333
 40
0.3333333333333333
 40
0.3333333333333333
 40
0.3333333333333333
 40
0.6666666666666666
 40
0.6666666666666666
 40
0.6666666666666666
 40
0.6666666666666666
 40
1.0
 40
1.0
 40
1.0
 40
1.0
 10
-0.63739
 20
-2.9774400000000001
 30
0.0
 10
-0.4900700000000001
 20
-3.0206200000000001
 30
0.0
 10
-0.48499
 20
-3.1857200000000003
 30
0.0
 10
-0.4392700000000001
 20
-3.3051000000000004
 30
0.0
 10
-0.4392700000000001
 20
-3.3051000000000004
 30
0.0
 10
-0.5002300000000001
 20
-3.2466800000000005
 30
0.0
 10
-0.57389
 20
-3.1857200000000003
 30
0.0
 10
-0.65771
 20
-3.1857200000000003
 30
0.0
 10
-0.65771
 20
-3.1857200000000003
 30
0.0
 10
-0.69581
 20
-3.11206
 30
0.0
 10
-0.7110500000000001
 20
-3.0358600000000004
 30
0.0
 10
-0.63739
 20
-2.9774400000000001
 30
0.0
  0
SPLINE
  5
36
100
AcDbEntity
  8
Ebene 1
 62
     7
100
AcDbSpline
210
0.0
220
0.0
230
1.0
 70
     1
 71
     3
 72
    16
 73
    12
 74
     0
 42
0.0000000001
 43
0.0000000001
 40
0.0
 40
0.0
 40
0.0
 40
0.0
 40
0.3333333333333333
 40
0.3333333333333333
 40
0.3333333333333333
 40
0.3333333333333333
 40
0.6666666666666666
 40
0.6666666666666666
 40
0.6666666666666666
 40
0.6666666666666666
 40
1.0
 40
1.0
 40
1.0
 40
1.0
 10
-0.8101100000000001
 20
-3.1857200000000003
 30
0.0
 10
-0.65771
 20
-3.2162000000000002
 30
0.0
 10
-0.63231
 20
-3.4092400000000005
 30
0.0
 10
-0.57389
 20
-3.5286200000000001
 30
0.0
 10
-0.57389
 20
-3.5286200000000001
 30
0.0
 10
-0.6678700000000001
 20
-3.4397200000000003
 30
0.0
 10
-0.76439
 20
-3.3508200000000001
 30
0.0
 10
-0.8964700000000001
 20
-3.3508200000000001
 30
0.0
 10
-0.8964700000000001
 20
-3.3508200000000001
 30
0.0
 10
-0.95235
 20
-3.2746200000000001
 30
0.0
 10
-0.8507500000000001
 20
-3.2314400000000001
 30
0.0
 10
-0.8101100000000001
 20
-3.1857200000000003
 30
0.0
  0
SPLINE
  5
37
100
AcDbEntity
  8
Ebene 1
 62
     7
100
AcDbSpline
210
0.0
220
0.0
230
1.0
 70
     1
 71
     3
 72
    20
 73
    16
 74
     0
 42
0.0000000001
 43
0.0000000001
 40
0.0
 40
0.0
 40
0.0
 40
0.0
 40
0.25
 40
0.25
 40
0.25
 40
0.25
 40
0.5
 40
0.5
 40
0.5
 40
0.5
 40
0.75
 40
0.75
 40
0.75
 40
0.75
 40
1.0
 40
1.0
 40
1.0
 40
1.0
 10
-1.0488700000000002
 20
-3.2898600000000005
 30
0.0
 10
-0.8710700000000001
 20
-3.3355800000000002
 30
0.0
 10
-0.82281
 20
-3.5870400000000005
 30
0.0
 10
-0.78471
 20
-3.7521400000000003
 30
0.0
 10
-0.78471
 20
-3.7521400000000003
 30
0.0
 10
-0.84821
 20
-3.6911800000000001
 30
0.0
 10
-0.9066300000000001
 20
-3.5870400000000005
 30
0.0
 10
-1.0133100000000002
 20
-3.5870400000000005
 30
0.0
 10
-1.0133100000000002
 20
-3.5870400000000005
 30
0.0
 10
-1.0133100000000002
 20
-3.5870400000000005
 30
0.0
 10
-1.1174500000000001
 20
-3.3940000000000001
 30
0.0
 10
-1.1174500000000001
 20
-3.3940000000000001
 30
0.0
 10
-1.1174500000000001
 20
-3.3940000000000001
 30
0.0
 10
-1.1174500000000001
 20
-3.3940000000000001
 30
0.0
 10
-1.0488700000000002
 20
-3.2898600000000005
 30
0.0
 10
-1.0488700000000002
 20
-3.2898600000000005
 30
0.0
  0
SPLINE
  5
38
100
AcDbEntity
  8
Ebene 1
 62
     7
100
AcDbSpline
210
0.0
220
0.0
230
1.0
 70
     1
 71
     3
 72
    16
 73
    12
 74
     0
 42
0.0000000001
 43
0.0000000001
 40
0.0
 40
0.0
 40
0.0
 40
0.0
 40
0.3333333333333333
 40
0.3333333333333333
 40
0.3333333333333333
 40
0.3333333333333333
 40
0.6666666666666666
 40
0.6666666666666666
 40
0.6666666666666666
 40
0.6666666666666666
 40
1.0
 40
1.0
 40
1.0
 40
1.0
 10
-1.21143
 20
-3.4092400000000005
 30
0.0
 10
-1.04633
 20
-3.4981400000000002
 30
0.0
 10
-1.0183900000000001
 20
-3.7216600000000004
 30
0.0
 10
-1.00569
 20
-3.8994600000000004
 30
0.0
 10
-1.00569
 20
-3.8994600000000004
 30
0.0
 10
-1.0590300000000001
 20
-3.8105600000000002
 30
0.0
 10
-1.1352300000000002
 20
-3.6759400000000002
 30
0.0
 10
-1.25207
 20
-3.6454600000000004
 30
0.0
 10
-1.25207
 20
-3.6454600000000004
 30
0.0
 10
-1.2850900000000001
 20
-3.5565600000000002
 30
0.0
 10
-1.29271
 20
-3.4549600000000003
 30
0.0
 10
-1.21143
 20
-3.4092400000000005
 30
0.0
  0
SPLINE
  5
39
100
AcDbEntity
  8
Ebene 1
 62
     7
100
AcDbSpline
210
0.0
220
0.0
230
1.0
 70
     1
 71
     3
 72
    12
 73
     8
 74
     0
 42
0.0000000001
 43
0.0000000001
 40
0.0
 40
0.0
 40
0.0
 40
0.0
 40
0.5
 40
0.5
 40
0.5
 40
0.5
 40
1.0
 40
1.0
 40
1.0
 40
1.0
 10
-2.1613900000000004
 20
-3.4549600000000003
 30
0.0
 10
-2.0572500000000002
 20
-3.5438600000000005
 30
0.0
 10
-2.1105900000000002
 20
-3.7369000000000003
 30
0.0
 10
-2.10297
 20
-3.8410400000000005
 30
0.0
 10
-2.10297
 20
-3.8410400000000005
 30
0.0
 10
-2.1664700000000003
 20
-3.7369000000000003
 30
0.0
 10
-2.2020300000000002
 20
-3.5870400000000005
 30
0.0
 10
-2.1613900000000004
 20
-3.4549600000000003
 30
0.0
  0
SPLINE
  5
3A
100
AcDbEntity
  8
Ebene 1
 62
     7
100
AcDbSpline
210
0.0
220
0.0
230
1.0
 70
     1
 71
     3
 72
    12
 73
     8
 74
     0
 42
0.0000000001
 43
0.0000000001
 40
0.0
 40
0.0
 40
0.0
 40
0.0
 40
0.5
 40
0.5
 40
0.5
 40
0.5
 40
1.0
 40
1.0
 40
1.0
 40
1.0
 10
-1.4349500000000002
 20
-3.4981400000000002
 30
0.0
 10
-1.24953
 20
-3.6022800000000004
 30
0.0
 10
-1.2342900000000001
 20
-3.8842200000000005
 30
0.0
 10
-1.2292100000000001
 20
-4.0925000000000002
 30
0.0
 10
-1.2292100000000001
 20
-4.0925000000000002
 30
0.0
 10
-1.3866900000000002
 20
-3.9731200000000002
 30
0.0
 10
-1.5543300000000002
 20
-3.6911800000000001
 30
0.0
 10
-1.4349500000000002
 20
-3.4981400000000002
 30
0.0
  0
SPLINE
  5
3B
100
AcDbEntity
  8
Ebene 1
 62
     7
100
AcDbSpline
210
0.0
220
0.0
230
1.0
 70
     1
 71
     3
 72
    16
 73
    12
 74
     0
 42
0.0000000001
 43
0.0000000001
 40
0.0
 40
0.0
 40
0.0
 40
0.0
 40
0.3333333333333333
 40
0.3333333333333333
 40
0.3333333333333333
 40
0.3333333333333333
 40
0.6666666666666666
 40
0.6666666666666666
 40
0.6666666666666666
 40
0.6666666666666666
 40
1.0
 40
1.0
 40
1.0
 40
1.0
 10
-2.0445500000000001
 20
-3.5286200000000001
 30
0.0
 10
-1.9302500000000002
 20
-3.5438600000000005
 30
0.0
 10
-1.9327900000000002
 20
-3.6911800000000001
 30
0.0
 10
-1.9378700000000002
 20
-3.7800800000000003
 30
0.0
 10
-1.9378700000000002
 20
-3.7800800000000003
 30
0.0
 10
-1.8870700000000002
 20
-3.8842200000000005
 30
0.0
 10
-1.8870700000000002
 20
-4.0036000000000005
 30
0.0
 10
-1.92517
 20
-4.1077400000000006
 30
0.0
 10
-1.92517
 20
-4.1077400000000006
 30
0.0
 10
-2.0394700000000001
 20
-3.9426400000000004
 30
0.0
 10
-2.0902700000000003
 20
-3.7216600000000004
 30
0.0
 10
-2.0445500000000001
 20
-3.5286200000000001
 30
0.0
  0
SPLINE
  5
3C
100
AcDbEntity
  8
Ebene 1
 62
     7
100
AcDbSpline
210
0.0
220
0.0
230
1.0
 70
     1
 71
     3
 72
    16
 73
    12
 74
     0
 42
0.0000000001
 43
0.0000000001
 40
0.0
 40
0.0
 40
0.0
 40
0.0
 40
0.3333333333333333
 40
0.3333333333333333
 40
0.3333333333333333
 40
0.3333333333333333
 40
0.6666666666666666
 40
0.6666666666666666
 40
0.6666666666666666
 40
0.6666666666666666
 40
1.0
 40
1.0
 40
1.0
 40
1.0
 10
-1.6432300000000002
 20
-3.5438600000000005
 30
0.0
 10
-1.6102100000000001
 20
-3.5438600000000005
 30
0.0
 10
-1.5848100000000001
 20
-3.5438600000000005
 30
0.0
 10
-1.5568700000000002
 20
-3.5565600000000002
 30
0.0
 10
-1.5568700000000002
 20
-3.5565600000000002
 30
0.0
 10
-1.5568700000000002
 20
-3.5565600000000002
 30
0.0
 10
-1.4679700000000002
 20
-4.2398199999999999
 30
0.0
 10
-1.4679700000000002
 20
-4.2398199999999999
 30
0.0
 10
-1.4679700000000002
 20
-4.2398199999999999
 30
0.0
 10
-1.6025900000000002
 20
-4.0772600000000008
 30
0.0
 10
-1.7930900000000001
 20
-3.7521400000000003
 30
0.0
 10
-1.6432300000000002
 20
-3.5438600000000005
 30
0.0
  0
SPLINE
  5
3D
100
AcDbEntity
  8
Ebene 1
 62
     7
100
AcDbSpline
210
0.0
220
0.0
230
1.0
 70
     1
 71
     3
 72
    16
 73
    12
 74
     0
 42
0.0000000001
 43
0.0000000001
 40
0.0
 40
0.0
 40
0.0
 40
0.0
 40
0.3333333333333333
 40
0.3333333333333333
 40
0.3333333333333333
 40
0.3333333333333333
 40
0.6666666666666666
 40
0.6666666666666666
 40
0.6666666666666666
 40
0.6666666666666666
 40
1.0
 40
1.0
 40
1.0
 40
1.0
 10
-1.8362700000000001
 20
-3.5565600000000002
 30
0.0
 10
-1.8184900000000002
 20
-3.5565600000000002
 30
0.0
 10
-1.8032500000000002
 20
-3.5565600000000002
 30
0.0
 10
-1.7930900000000001
 20
-3.5718000000000001
 30
0.0
 10
-1.7930900000000001
 20
-3.5718000000000001
 30
0.0
 10
-1.7499100000000001
 20
-3.7648400000000004
 30
0.0
 10
-1.7295900000000002
 20
-3.9731200000000002
 30
0.0
 10
-1.7041900000000001
 20
-4.1661600000000005
 30
0.0
 10
-1.7041900000000001
 20
-4.1661600000000005
 30
0.0
 10
-1.7829300000000001
 20
-3.9883600000000001
 30
0.0
 10
-2.0013700000000001
 20
-3.7369000000000003
 30
0.0
 10
-1.8362700000000001
 20
-3.5565600000000002
 30
0.0
  0
ENDSEC
  0
SECTION
  2
OBJECTS
  0
DICTIONARY
  5
19
100
AcDbDictionary
280
     0
281
     1
  3
ACAD_GROUP
350
1A
  3
ACAD_MLINESTYLE
350
1B
  3
ACAD_LAYOUT
350
1E
  3
ACAD_PLOTSETTINGS
350
22
  3
ACAD_PLOTSTYLENAME
350
1F
  3
ACAD_WIPEOUT_VARS
350
23
  0
DICTIONARY
  5
1A
102
{ACAD_REACTORS
330
19
102
}
100
AcDbDictionary
280
     0
281
     1
  0
DICTIONARY
  5
1B
102
{ACAD_REACTORS
330
19
102
}
100
AcDbDictionary
280
     0
281
     1
  3
Standard
350
1C
  0
MLINESTYLE
  5
1C
102
{ACAD_REACTORS
330
1B
102
}
100
AcDbMlineStyle
  2
Standard
 70
     0
  3

 62
     0
 51
90.0
 52
90.0
 71
     2
 49
0.5
 62
   256
  6
BYLAYER
 49
-0.5
 62
   256
  6
BYLAYER
  0
ACDBDICTIONARYWDFLT
  5
1F
102
{ACAD_REACTORS
330
19
102
}
100
AcDbDictionary
281
     1
  3
Normal
350
1D
100
AcDbDictionaryWithDefault
340
1D
  0
ACDBPLACEHOLDER
  5
1D
102
{ACAD_REACTORS
330
1F
102
}
  0
LAYOUT
  5
20
102
{ACAD_REACTORS
330
1E
102
}
100
AcDbPlotSettings
  1

  2

  4

  6

 40
0.0
 41
0.0
 42
0.0
 43
0.0
 44
0.0
 45
0.0
 46
0.0
 47
0.0
 48
0.0
 49
0.0
140
0.0
141
0.0
142
1.0
143
1.0
 70
  1024
 72
     0
 73
     0
 74
     0
  7

 75
     0
147
1.0
148
0.0
149
0.0
100
AcDbLayout
  1
Model
 70
     0
 71
     0
 10
0.0
 20
0.0
 11
0.0
 21
0.0
 12
0.0
 22
0.0
 32
0.0
 14
0.0
 24
0.0
 34
0.0
 15
0.0
 25
0.0
 35
0.0
146
0.0
 13
0.0
 23
0.0
 33
0.0
 16
0.0
 26
0.0
 36
0.0
 17
0.0
 27
0.0
 37
0.0
 76
     0
330
A
331
0
345
0
346
0
  0
LAYOUT
  5
21
102
{ACAD_REACTORS
330
1E
102
}
100
AcDbPlotSettings
  1

  2

  4

  6

 40
0.0
 41
0.0
 42
0.0
 43
0.0
 44
0.0
 45
0.0
 46
0.0
 47
0.0
 48
0.0
 49
0.0
140
0.0
141
0.0
142
1.0
143
1.0
 70
     0
 72
     0
 73
     0
 74
     0
  7

 75
     0
147
1.0
148
0.0
149
0.0
100
AcDbLayout
  1
Layout1
 70
     0
 71
     0
 10
0.0
 20
0.0
 11
0.0
 21
0.0
 12
0.0
 22
0.0
 32
0.0
 14
0.0
 24
0.0
 34
0.0
 15
0.0
 25
0.0
 35
0.0
146
0.0
 13
0.0
 23
0.0
 33
0.0
 16
0.0
 26
0.0
 36
0.0
 17
0.0
 27
0.0
 37
0.0
 76
     0
330
B
331
0
345
0
346
0
  0
DICTIONARY
  5
1E
102
{ACAD_REACTORS
330
19
102
}
100
AcDbDictionary
280
     0
281
     1
  3
Layout1
350
21
  3
Model
350
20
  0
DICTIONARY
  5
22
102
{ACAD_REACTORS
330
19
102
}
100
AcDbDictionary
280
     0
281
     1
  0
WIPEOUTVARIABLES
  5
23
100
AcDbWipeoutVariables
 70
     1
  0
ENDSEC
  0
EOF
