  0
SECTION
  2
HEADER
  9
$ACADVER
  1
AC1015
  9
$ACADMAINTVER
 70
     6
  9
$DWGCODEPAGE
  3
DOS850
  9
$INSBASE
 10
0.0
 20
0.0
 30
0.0
  9
$EXTMIN
 10
-4.10957
 20
-6.54868
 30
1.000000E+20
  9
$EXTMAX
 10
4.11494
 20
6.54247
 30
-1.000000E+20
  9
$LIMMIN
 10
0.0
 20
0.0
  9
$LIMMAX
 10
0.0
 20
0.0
  9
$ORTHOMODE
 70
     0
  9
$REGENMODE
 70
     1
  9
$FILLMODE
 70
     1
  9
$QTEXTMODE
 70
     0
  9
$MIRRTEXT
 70
     1
  9
$LTSCALE
 40
1.0
  9
$ATTMODE
 70
     1
  9
$TEXTSIZE
 40
0.2
  9
$TRACEWID
 40
0.05
  9
$TEXTSTYLE
  7
Standard
  9
$CLAYER
  8
0
  9
$CELTYPE
  6
Continuous
  9
$CECOLOR
 62
   256
  9
$CELTSCALE
 40
1.0
  9
$DISPSILH
 70
     0
  9
$DIMSCALE
 40
1.0
  9
$DIMASZ
 40
0.18
  9
$DIMEXO
 40
0.0625
  9
$DIMDLI
 40
0.38
  9
$DIMRND
 40
0.0
  9
$DIMDLE
 40
0.0
  9
$DIMEXE
 40
0.18
  9
$DIMTP
 40
0.0
  9
$DIMTM
 40
0.0
  9
$DIMTXT
 40
0.18
  9
$DIMCEN
 40
0.09
  9
$DIMTSZ
 40
0.0
  9
$DIMTOL
 70
     0
  9
$DIMLIM
 70
     0
  9
$DIMTIH
 70
     1
  9
$DIMTOH
 70
     1
  9
$DIMSE1
 70
     0
  9
$DIMSE2
 70
     0
  9
$DIMTAD
 70
     0
  9
$DIMZIN
 70
     0
  9
$DIMBLK
  1

  9
$DIMASO
 70
     1
  9
$DIMSHO
 70
     1
  9
$DIMPOST
  1

  9
$DIMAPOST
  1

  9
$DIMALT
 70
     0
  9
$DIMALTD
 70
     2
  9
$DIMALTF
 40
25.4
  9
$DIMLFAC
 40
1.0
  9
$DIMTOFL
 70
     0
  9
$DIMTVP
 40
0.0
  9
$DIMTIX
 70
     0
  9
$DIMSOXD
 70
     0
  9
$DIMSAH
 70
     0
  9
$DIMBLK1
  1

  9
$DIMBLK2
  1

  9
$DIMSTYLE
  2
Standard
  9
$DIMCLRD
 70
     0
  9
$DIMCLRE
 70
     0
  9
$DIMCLRT
 70
     0
  9
$DIMTFAC
 40
1.0
  9
$DIMGAP
 40
0.09
  9
$DIMJUST
 70
     0
  9
$DIMSD1
 70
     0
  9
$DIMSD2
 70
     0
  9
$DIMTOLJ
 70
     1
  9
$DIMTZIN
 70
     0
  9
$DIMALTZ
 70
     0
  9
$DIMALTTZ
 70
     0
  9
$DIMUPT
 70
     0
  9
$DIMDEC
 70
     4
  9
$DIMTDEC
 70
     4
  9
$DIMALTU
 70
     2
  9
$DIMALTTD
 70
     2
  9
$DIMTXSTY
  7
Standard
  9
$DIMAUNIT
 70
     0
  9
$DIMADEC
 70
     0
  9
$DIMALTRND
 40
0.0
  9
$DIMAZIN
 70
     0
  9
$DIMDSEP
 70
     0
  9
$DIMATFIT
 70
     3
  9
$DIMFRAC
 70
     0
  9
$DIMLDRBLK
  1

  9
$DIMLUNIT
 70
     2
  9
$DIMLWD
 70
     0
  9
$DIMLWE
 70
     0
  9
$DIMTMOVE
 70
     0
  9
$LUNITS
 70
     2
  9
$LUPREC
 70
     4
  9
$SKETCHINC
 40
0.1
  9
$FILLETRAD
 40
0.0
  9
$AUNITS
 70
     0
  9
$AUPREC
 70
     0
  9
$MENU
  1
acad
  9
$ELEVATION
 40
0.0
  9
$PELEVATION
 40
0.0
  9
$THICKNESS
 40
0.0
  9
$LIMCHECK
 70
     0
  9
$CHAMFERA
 40
0.0
  9
$CHAMFERB
 40
0.0
  9
$CHAMFERC
 40
0.0
  9
$CHAMFERD
 40
0.0
  9
$SKPOLY
 70
     0
  9
$TDCREATE
 40
0.000000000
  9
$TDUCREATE
 40
0.000000000
  9
$TDUPDATE
 40
0.000000000
  9
$TDUUPDATE
 40
0.000000000
  9
$TDINDWG
 40
0.0000000000
  9
$TDUSRTIMER
 40
0.0000000000
  9
$USRTIMER
 70
     1
  9
$ANGBASE
 50
0.0
  9
$ANGDIR
 70
     0
  9
$PDMODE
 70
     0
  9
$PDSIZE
 40
0.0
  9
$PLINEWID
 40
0.0
  9
$SPLFRAME
 70
     0
  9
$SPLINETYPE
 70
     6
  9
$SPLINESEGS
 70
     8
  9
$HANDSEED
  5
5D
  9
$SURFTAB1
 70
     6
  9
$SURFTAB2
 70
     6
  9
$SURFTYPE
 70
     6
  9
$SURFU
 70
     6
  9
$SURFV
 70
     6
  9
$UCSBASE
  2

  9
$UCSNAME
  2

  9
$UCSORG
 10
0.0
 20
0.0
 30
0.0
  9
$UCSXDIR
 10
1.0
 20
0.0
 30
0.0
  9
$UCSYDIR
 10
0.0
 20
1.0
 30
0.0
  9
$UCSORTHOREF
  2

  9
$UCSORTHOVIEW
 70
     0
  9
$UCSORGTOP
 10
0.0
 20
0.0
 30
0.0
  9
$UCSORGBOTTOM
 10
0.0
 20
0.0
 30
0.0
  9
$UCSORGLEFT
 10
0.0
 20
0.0
 30
0.0
  9
$UCSORGRIGHT
 10
0.0
 20
0.0
 30
0.0
  9
$UCSORGFRONT
 10
0.0
 20
0.0
 30
0.0
  9
$UCSORGBACK
 10
0.0
 20
0.0
 30
0.0
  9
$PUCSBASE
  2

  9
$PUCSNAME
  2

  9
$PUCSORG
 10
0.0
 20
0.0
 30
0.0
  9
$PUCSXDIR
 10
1.0
 20
0.0
 30
0.0
  9
$PUCSYDIR
 10
0.0
 20
1.0
 30
0.0
  9
$PUCSORTHOREF
  2

  9
$PUCSORTHOVIEW
 70
     0
  9
$PUCSORGTOP
 10
0.0
 20
0.0
 30
0.0
  9
$PUCSORGBOTTOM
 10
0.0
 20
0.0
 30
0.0
  9
$PUCSORGLEFT
 10
0.0
 20
0.0
 30
0.0
  9
$PUCSORGRIGHT
 10
0.0
 20
0.0
 30
0.0
  9
$PUCSORGFRONT
 10
0.0
 20
0.0
 30
0.0
  9
$PUCSORGBACK
 10
0.0
 20
0.0
 30
0.0
  9
$USERI1
 70
     0
  9
$USERI2
 70
     0
  9
$USERI3
 70
     0
  9
$USERI4
 70
     0
  9
$USERI5
 70
     0
  9
$USERR1
 40
0.0
  9
$USERR2
 40
0.0
  9
$USERR3
 40
0.0
  9
$USERR4
 40
0.0
  9
$USERR5
 40
0.0
  9
$WORLDVIEW
 70
     1
  9
$SHADEDGE
 70
     3
  9
$SHADEDIF
 70
    70
  9
$TILEMODE
 70
     1
  9
$MAXACTVP
 70
    16
  9
$PINSBASE
 10
0.0
 20
0.0
 30
0.0
  9
$PLIMCHECK
 70
     0
  9
$PEXTMIN
 10
1.000000E+20
 20
1.000000E+20
 30
1.000000E+20
  9
$PEXTMAX
 10
-1.000000E+20
 20
-1.000000E+20
 30
-1.000000E+20
  9
$PLIMMIN
 10
0.0
 20
0.0
  9
$PLIMMAX
 10
12.0
 20
9.0
  9
$UNITMODE
 70
     0
  9
$VISRETAIN
 70
     0
  9
$PLINEGEN
 70
     1
  9
$PSLTSCALE
 70
     0
  9
$TREEDEPTH
 70
  3020
  9
$CMLSTYLE
  2
Standard
  9
$CMLJUST
 70
     0
  9
$CMLSCALE
 40
1.0
  9
$PROXYGRAPHICS
 70
     0
  9
$MEASUREMENT
 70
     0
  9
$CELWEIGHT
370
     0
  9
$ENDCAPS
280
     0
  9
$JOINSTYLE
280
     0
  9
$LWDISPLAY
290
     0
  9
$INSUNITS
 70
     5
  9
$HYPERLINKBASE
  1

  9
$XEDIT
290
     1
  9
$CEPSNTYPE
380
     0
  9
$PSTYLEMODE
290
     1
  9
$FINGERPRINTGUID
  2

  9
$VERSIONGUID
  2

  9
$EXTNAMES
290
     1
  9
$PSVPSCALE
 40
0.0
  0
ENDSEC
  0
SECTION
  2
CLASSES
  0
CLASS
  1
LWPOLYLINE
  2
AcDbPolyline
  3
AutoCAD 2000
 90
    32768
280
     0
281
     1
  0
CLASS
  1
IMAGE
  2
AcDbRasterImage
  3
ISM
 90
    32895
280
     0
281
     1
  0
CLASS
  1
OLE2FRAME
  2
AcDbOle2Frame
  3
AutoCAD 2000
 90
    32768
280
     0
281
     1
  0
CLASS
  1
HATCH
  2
AcDbHatch
  3
AutoCAD 2000
 90
    32768
280
     0
281
     1
  0
CLASS
  1
DICTIONARYVAR
  2
AcDbDictionaryVar
  3
AutoCAD 2000
 90
    32768
280
     0
281
     0
  0
CLASS
  1
RASTERVARIABLES
  2
AcDbRasterVariables
  3
ISM
 90
    32768
280
     0
281
     0
  0
CLASS
  1
IMAGEDEF
  2
AcDbRasterImageDef
  3
ISM
 90
    32768
280
     0
281
     0
  0
CLASS
  1
IMAGEDEF_REACTOR
  2
AcDbRasterImageDefReactor
  3
ISM
 90
    32769
280
     0
281
     0
  0
CLASS
  1
IDBUFFER
  2
AcDbIdBuffer
  3
AutoCAD 2000
 90
    32768
280
     0
281
     0
  0
CLASS
  1
SPATIAL_FILTER
  2
AcDbSpatialFilter
  3
AutoCAD 2000
 90
    32768
280
     0
281
     0
  0
CLASS
  1
XRECORD
  2
AcDbXrecord
  3
AutoCAD 2000
 90
    32768
280
     0
281
     0
  0
CLASS
  1
SORTENTSTABLE
  2
AcDbSortentsTable
  3
AutoCAD 2000
 90
    32768
280
     0
281
     0
  0
CLASS
  1
LAYER_INDEX
  2
AcDbLayerIndex
  3
AutoCAD 2000
 90
    32768
280
     0
281
     0
  0
CLASS
  1
SPATIAL_INDEX
  2
AcDbSpatialIndex
  3
AutoCAD 2000
 90
    32768
280
     0
281
     0
  0
CLASS
  1
OBJECT_PTR
  2
CAseDLPNTableRecord
  3
"ASE-LPNTableRecord"
 90
    32769
280
     0
281
     0
  0
CLASS
  1
LAYOUT
  2
AcDbLayout
  3
AutoCAD 2000
 90
        0
280
     0
281
     0
  0
CLASS
  1
PLOTSETTINGS
  2
AcDbPlotSettings
  3
AutoCAD 2000
 90
    32768
280
     0
281
     0
  0
CLASS
  1
ACDBDICTIONARYWDFLT
  2
AcDbDictionaryWithDefault
  3
AutoCAD 2000
 90
        0
280
     0
281
     0
  0
CLASS
  1
ACDBPLACEHOLDER
  2
AcDbPlaceHolder
  3
AutoCAD 2000
 90
        0
280
     0
281
     0
  0
CLASS
  1
VBA_PROJECT
  2
AcDbVbaProject
  3
acadvba
 90
    32768
280
     0
281
     0
  0
CLASS
  1
WIPEOUT
  2
AcDbWipeout
  3
WipeOut|AutoCAD Express Tool|expresstools@autodesk.com
 90
    32895
280
     0
281
     1
  0
CLASS
  1
WIPEOUTVARIABLES
  2
AcDbWipeoutVariables
  3
WipeOut|AutoCAD Express Tool|expresstools@autodesk.com
 90
        0
280
     0
281
     0
  0
CLASS
  1
RTEXT
  2
RText
  3
RText|AutoCAD Express Tool|expresstools@autodesk.com
 90
    32768
280
     0
281
     1
  0
CLASS
  1
ARCALIGNEDTEXT
  2
AcDbArcAlignedText
  3
ATEXT|AutoCAD Express Tool|expresstools@autodesk.com
 90
    32768
280
     0
281
     1
  0
ENDSEC
  0
SECTION
  2
TABLES
  0
TABLE
  2
VPORT
  5
7
100
AcDbSymbolTable
 70
     1
  0
VPORT
  5
15
100
AcDbSymbolTableRecord
100
AcDbViewportTableRecord
  2
*ACTIVE
 70
     0
 10
0.0
 20
0.0
 11
1.0
 21
1.0
 12
6.591288
 22
4.579184
 13
0.0
 23
0.0
 14
1.0
 24
1.0
 15
0.0
 25
0.0
 16
0.0
 26
0.0
 36
1.0
 17
0.0
 27
0.0
 37
0.0
 40
9.158369
 41
0.688564
 42
50.0
 43
0.0
 44
0.0
 50
0.0
 51
0.0
 71
     0
 72
   100
 73
     1
 74
     1
 75
     0
 76
     0
 77
     0
 78
     0
281
     0
 65
     0
110
0.0
120
0.0
130
0.0
111
1.0
121
0.0
131
0.0
112
0.0
122
1.0
132
0.0
345
0
346
0
 79
     0
146
0.0
  0
ENDTAB
  0
TABLE
  2
LTYPE
  5
4
100
AcDbSymbolTable
 70
     3
  0
LTYPE
  5
11
100
AcDbSymbolTableRecord
100
AcDbLinetypeTableRecord
  2
ByBlock
 70
    64
  3

 72
    65
 73
     0
 40
0.0
  0
LTYPE
  5
12
100
AcDbSymbolTableRecord
100
AcDbLinetypeTableRecord
  2
ByLayer
 70
    64
  3

 72
    65
 73
     0
 40
0.0
  0
LTYPE
  5
13
100
AcDbSymbolTableRecord
100
AcDbLinetypeTableRecord
  2
Continuous
 70
    64
  3
Solid line
 72
    65
 73
     0
 40
0.0
  0
ENDTAB
  0
TABLE
  2
LAYER
  5
2
100
AcDbSymbolTable
 70
     2
  0
LAYER
  5
14
100
AcDbSymbolTableRecord
100
AcDbLayerTableRecord
  2
0
 70
     0
 62
     7
  6
Continuous
290
     1
370
    -3
390
1D
  0
LAYER
  5
24
100
AcDbSymbolTableRecord
100
AcDbLayerTableRecord
  2
Ebene 1
 70
     0
 62
     7
  6
Continuous
290
     1
370
    -3
390
1F
  0
ENDTAB
  0
TABLE
  2
STYLE
  5
3
100
AcDbSymbolTable
 70
     1
  0
STYLE
  5
17
100
AcDbSymbolTableRecord
100
AcDbTextStyleTableRecord
  2
Standard
 70
     0
 40
0.0
 41
1.0
 50
0.0
 71
     0
 42
0.0
  3
txt
  4

  0
ENDTAB
  0
TABLE
  2
VIEW
  5
5
100
AcDbSymbolTable
 70
     0
  0
ENDTAB
  0
TABLE
  2
UCS
  5
6
100
AcDbSymbolTable
 70
     0
  0
ENDTAB
  0
TABLE
  2
APPID
  5
8
100
AcDbSymbolTable
 70
     1
  0
APPID
  5
16
100
AcDbSymbolTableRecord
100
AcDbRegAppTableRecord
  2
ACAD
 70
     0
  0
ENDTAB
  0
TABLE
  2
DIMSTYLE
  5
9
100
AcDbSymbolTable
 70
     1
100
AcDbDimStyleTable
 71
     0
  0
DIMSTYLE
105
18
100
AcDbSymbolTableRecord
100
AcDbDimStyleTableRecord
  2
Standard
 70
     0
  3

  4

 40
1.0
 41
0.18
 42
0.0625
 43
0.38
 44
0.18
 45
0.0
 46
0.0
 47
0.0
 48
0.0
 71
     0
 72
     0
 73
     1
 74
     1
 75
     0
 76
     0
 77
     0
 78
     0
 79
     0
140
0.18
141
0.09
142
0.0
143
25.4
144
1.0
145
0.0
146
1.0
147
0.09
148
0.0
170
     0
171
     2
172
     0
173
     0
174
     0
175
     0
176
     0
177
     0
178
     0
179
     0
271
     4
272
     4
273
     2
274
     2
275
     0
276
     0
277
     2
278
    46
279
     0
280
     0
281
     0
282
     0
283
     1
284
     0
285
     0
286
     0
288
     0
340
17
341
0
342
0
343
0
344
0
371
    -2
372
    -2
  0
ENDTAB
  0
TABLE
  2
BLOCK_RECORD
  5
1
100
AcDbSymbolTable
 70
     0
  0
BLOCK_RECORD
  5
A
100
AcDbSymbolTableRecord
100
AcDbBlockTableRecord
  2
*MODEL_SPACE
340
20
  0
BLOCK_RECORD
  5
B
100
AcDbSymbolTableRecord
100
AcDbBlockTableRecord
  2
*PAPER_SPACE
340
21
  0
ENDTAB
  0
ENDSEC
  0
SECTION
  2
BLOCKS
  0
BLOCK
  5
D
100
AcDbEntity
  8
0
100
AcDbBlockBegin
  2
*MODEL_SPACE
 70
     0
 10
0.0
 20
0.0
 30
0.0
  3
*MODEL_SPACE
  1

  0
ENDBLK
  5
E
100
AcDbEntity
  8
0
100
AcDbBlockEnd
  0
BLOCK
  5
F
100
AcDbEntity
 67
     1
  8
0
100
AcDbBlockBegin
  2
*PAPER_SPACE
 70
     0
 10
0.0
 20
0.0
 30
0.0
  3
*PAPER_SPACE
  1

  0
ENDBLK
  5
10
100
AcDbEntity
 67
     1
  8
0
100
AcDbBlockEnd
  0
ENDSEC
  0
SECTION
  2
ENTITIES
  0
SPLINE
  5
25
100
AcDbEntity
  8
Ebene 1
100
AcDbSpline
210
0.0
220
0.0
230
1.0
 70
     1
 71
     3
 72
   192
 73
   188
 74
     0
 42
0.0000000001
 43
0.0000000001
 40
0.0
 40
0.0
 40
0.0
 40
0.0
 40
0.0212765957446809
 40
0.0212765957446809
 40
0.0212765957446809
 40
0.0212765957446809
 40
0.0425531914893617
 40
0.0425531914893617
 40
0.0425531914893617
 40
0.0425531914893617
 40
0.0638297872340425
 40
0.0638297872340425
 40
0.0638297872340425
 40
0.0638297872340425
 40
0.0851063829787234
 40
0.0851063829787234
 40
0.0851063829787234
 40
0.0851063829787234
 40
0.1063829787234043
 40
0.1063829787234043
 40
0.1063829787234043
 40
0.1063829787234043
 40
0.1276595744680851
 40
0.1276595744680851
 40
0.1276595744680851
 40
0.1276595744680851
 40
0.148936170212766
 40
0.148936170212766
 40
0.148936170212766
 40
0.148936170212766
 40
0.1702127659574468
 40
0.1702127659574468
 40
0.1702127659574468
 40
0.1702127659574468
 40
0.1914893617021277
 40
0.1914893617021277
 40
0.1914893617021277
 40
0.1914893617021277
 40
0.2127659574468085
 40
0.2127659574468085
 40
0.2127659574468085
 40
0.2127659574468085
 40
0.2340425531914894
 40
0.2340425531914894
 40
0.2340425531914894
 40
0.2340425531914894
 40
0.2553191489361702
 40
0.2553191489361702
 40
0.2553191489361702
 40
0.2553191489361702
 40
0.276595744680851
 40
0.276595744680851
 40
0.276595744680851
 40
0.276595744680851
 40
0.2978723404255319
 40
0.2978723404255319
 40
0.2978723404255319
 40
0.2978723404255319
 40
0.3191489361702127
 40
0.3191489361702127
 40
0.3191489361702127
 40
0.3191489361702127
 40
0.3404255319148935
 40
0.3404255319148935
 40
0.3404255319148935
 40
0.3404255319148935
 40
0.3617021276595743
 40
0.3617021276595743
 40
0.3617021276595743
 40
0.3617021276595743
 40
0.3829787234042552
 40
0.3829787234042552
 40
0.3829787234042552
 40
0.3829787234042552
 40
0.404255319148936
 40
0.404255319148936
 40
0.404255319148936
 40
0.404255319148936
 40
0.4255319148936168
 40
0.4255319148936168
 40
0.4255319148936168
 40
0.4255319148936168
 40
0.4468085106382976
 40
0.4468085106382976
 40
0.4468085106382976
 40
0.4468085106382976
 40
0.4680851063829785
 40
0.4680851063829785
 40
0.4680851063829785
 40
0.4680851063829785
 40
0.4893617021276593
 40
0.4893617021276593
 40
0.4893617021276593
 40
0.4893617021276593
 40
0.5106382978723402
 40
0.5106382978723402
 40
0.5106382978723402
 40
0.5106382978723402
 40
0.5319148936170211
 40
0.5319148936170211
 40
0.5319148936170211
 40
0.5319148936170211
 40
0.5531914893617019
 40
0.5531914893617019
 40
0.5531914893617019
 40
0.5531914893617019
 40
0.5744680851063828
 40
0.5744680851063828
 40
0.5744680851063828
 40
0.5744680851063828
 40
0.5957446808510637
 40
0.5957446808510637
 40
0.5957446808510637
 40
0.5957446808510637
 40
0.6170212765957446
 40
0.6170212765957446
 40
0.6170212765957446
 40
0.6170212765957446
 40
0.6382978723404255
 40
0.6382978723404255
 40
0.6382978723404255
 40
0.6382978723404255
 40
0.6595744680851063
 40
0.6595744680851063
 40
0.6595744680851063
 40
0.6595744680851063
 40
0.6808510638297872
 40
0.6808510638297872
 40
0.6808510638297872
 40
0.6808510638297872
 40
0.7021276595744681
 40
0.7021276595744681
 40
0.7021276595744681
 40
0.7021276595744681
 40
0.723404255319149
 40
0.723404255319149
 40
0.723404255319149
 40
0.723404255319149
 40
0.7446808510638299
 40
0.7446808510638299
 40
0.7446808510638299
 40
0.7446808510638299
 40
0.7659574468085107
 40
0.7659574468085107
 40
0.7659574468085107
 40
0.7659574468085107
 40
0.7872340425531916
 40
0.7872340425531916
 40
0.7872340425531916
 40
0.7872340425531916
 40
0.8085106382978725
 40
0.8085106382978725
 40
0.8085106382978725
 40
0.8085106382978725
 40
0.8297872340425534
 40
0.8297872340425534
 40
0.8297872340425534
 40
0.8297872340425534
 40
0.8510638297872343
 40
0.8510638297872343
 40
0.8510638297872343
 40
0.8510638297872343
 40
0.8723404255319152
 40
0.8723404255319152
 40
0.8723404255319152
 40
0.8723404255319152
 40
0.893617021276596
 40
0.893617021276596
 40
0.893617021276596
 40
0.893617021276596
 40
0.9148936170212769
 40
0.9148936170212769
 40
0.9148936170212769
 40
0.9148936170212769
 40
0.9361702127659578
 40
0.9361702127659578
 40
0.9361702127659578
 40
0.9361702127659578
 40
0.9574468085106387
 40
0.9574468085106387
 40
0.9574468085106387
 40
0.9574468085106387
 40
0.9787234042553196
 40
0.9787234042553196
 40
0.9787234042553196
 40
0.9787234042553196
 40
1.0
 40
1.0
 40
1.0
 40
1.0
 10
0.5005200000000001
 20
6.5424700000000007
 30
0.0
 10
4.4984800000000007
 20
6.5932700000000004
 30
0.0
 10
3.9752400000000003
 20
1.7647300000000001
 30
0.0
 10
3.7644200000000003
 20
-0.9175000000000001
 30
0.0
 10
3.7644200000000003
 20
-0.9175000000000001
 30
0.0
 10
3.8076000000000003
 20
-1.25024
 30
0.0
 10
3.9904800000000002
 20
-1.5499600000000002
 30
0.0
 10
4.1149400000000007
 20
-1.8471400000000002
 30
0.0
 10
4.1149400000000007
 20
-1.8471400000000002
 30
0.0
 10
3.8482400000000001
 20
-1.79634
 30
0.0
 10
3.7009200000000004
 20
-1.3213600000000001
 30
0.0
 10
3.5713800000000004
 20
-1.07498
 30
0.0
 10
3.5713800000000004
 20
-1.07498
 30
0.0
 10
3.4647000000000001
 20
-1.5677400000000001
 30
0.0
 10
3.3783400000000001
 20
-2.0757400000000001
 30
0.0
 10
3.5536000000000003
 20
-2.5685000000000002
 30
0.0
 10
3.5536000000000003
 20
-2.5685000000000002
 30
0.0
 10
3.0608400000000002
 20
-2.7082000000000002
 30
0.0
 10
3.2742000000000004
 20
-3.3406600000000002
 30
0.0
 10
3.0049600000000001
 20
-3.7267400000000004
 30
0.0
 10
3.0049600000000001
 20
-3.7267400000000004
 30
0.0
 10
3.1345000000000001
 20
-3.0257000000000001
 30
0.0
 10
2.8830400000000003
 20
-2.39324
 30
0.0
 10
2.0804
 20
-2.7615400000000001
 30
0.0
 10
2.0804
 20
-2.7615400000000001
 30
0.0
 10
1.8543400000000001
 20
-2.8504400000000003
 30
0.0
 10
1.61304
 20
-2.8504400000000003
 30
0.0
 10
1.39968
 20
-2.7437600000000004
 30
0.0
 10
1.39968
 20
-2.7437600000000004
 30
0.0
 10
1.44286
 20
-3.3762200000000004
 30
0.0
 10
1.14822
 20
-3.9909000000000003
 30
0.0
 10
0.7164200000000001
 20
-4.3769800000000005
 30
0.0
 10
0.7164200000000001
 20
-4.3769800000000005
 30
0.0
 10
1.15076
 20
-3.6226000000000003
 30
0.0
 10
1.0796400000000002
 20
-2.6193000000000004
 30
0.0
 10
0.5665600000000001
 20
-1.9182600000000001
 30
0.0
 10
0.5665600000000001
 20
-1.9182600000000001
 30
0.0
 10
0.4319400000000001
 20
-1.7607800000000002
 30
0.0
 10
0.28716
 20
-1.6033000000000002
 30
0.0
 10
0.1373
 20
-1.4458200000000001
 30
0.0
 10
0.1373
 20
-1.4458200000000001
 30
0.0
 10
0.5183000000000001
 20
-3.0612600000000003
 30
0.0
 10
0.6046600000000001
 20
-5.0424600000000002
 30
0.0
 10
-0.10653
 20
-6.5486800000000009
 30
0.0
 10
-0.10653
 20
-6.5486800000000009
 30
0.0
 10
-0.10653
 20
-6.5486800000000009
 30
0.0
 10
0.07888
 20
-5.0958000000000006
 30
0.0
 10
0.07888
 20
-5.0958000000000006
 30
0.0
 10
0.07888
 20
-5.0958000000000006
 30
0.0
 10
0.07888
 20
-5.0958000000000006
 30
0.0
 10
0.09666
 20
-3.4803600000000001
 30
0.0
 10
0.09666
 20
-3.4803600000000001
 30
0.0
 10
0.09666
 20
-3.4803600000000001
 30
0.0
 10
0.08396
 20
-3.2517600000000004
 30
0.0
 10
0.07634
 20
-3.0257000000000001
 30
0.0
 10
0.01284
 20
-2.81488
 30
0.0
 10
0.01284
 20
-2.81488
 30
0.0
 10
0.02808
 20
-2.4796
 30
0.0
 10
-0.3224300000000001
 20
-4.6741600000000005
 30
0.0
 10
-0.3757700000000001
 20
-3.7623000000000002
 30
0.0
 10
-0.3757700000000001
 20
-3.7623000000000002
 30
0.0
 10
-0.35545
 20
-3.6048200000000001
 30
0.0
 10
-0.3757700000000001
 20
-3.4625800000000004
 30
0.0
 10
-0.3757700000000001
 20
-3.3051000000000004
 30
0.0
 10
-0.3757700000000001
 20
-3.3051000000000004
 30
0.0
 10
-0.44435
 20
-3.0612600000000003
 30
0.0
 10
-0.36815
 20
-2.7437600000000004
 30
0.0
 10
-0.44689
 20
-2.4973800000000002
 30
0.0
 10
-0.44689
 20
-2.4973800000000002
 30
0.0
 10
-0.74153
 20
-2.81488
 30
0.0
 10
-0.63485
 20
-3.2187400000000004
 30
0.0
 10
-0.56881
 20
-3.6048200000000001
 30
0.0
 10
-0.56881
 20
-3.6048200000000001
 30
0.0
 10
-0.5154700000000001
 20
-4.2195
 30
0.0
 10
-0.51039
 20
-4.8849800000000005
 30
0.0
 10
-0.7567700000000001
 20
-5.4310800000000006
 30
0.0
 10
-0.7567700000000001
 20
-5.4310800000000006
 30
0.0
 10
-0.7567700000000001
 20
-5.4310800000000006
 30
0.0
 10
-0.74407
 20
-4.6055800000000007
 30
0.0
 10
-0.74407
 20
-4.6055800000000007
 30
0.0
 10
-0.74407
 20
-4.6055800000000007
 30
0.0
 10
-0.78471
 20
-4.1483800000000004
 30
0.0
 10
-0.7720100000000001
 20
-3.6581600000000001
 30
0.0
 10
-0.9548900000000001
 20
-3.2365200000000001
 30
0.0
 10
-0.9548900000000001
 20
-3.2365200000000001
 30
0.0
 10
-1.29017
 20
-3.6048200000000001
 30
0.0
 10
-1.16317
 20
-4.2017200000000008
 30
0.0
 10
-1.3587500000000001
 20
-4.64114
 30
0.0
 10
-1.3587500000000001
 20
-4.64114
 30
0.0
 10
-1.5086100000000002
 20
-4.9027600000000007
 30
0.0
 10
-1.6889500000000002
 20
-5.7816000000000001
 30
0.0
 10
-1.6432300000000002
 20
-5.0272200000000007
 30
0.0
 10
-1.6432300000000002
 20
-5.0272200000000007
 30
0.0
 10
-1.63053
 20
-4.7097200000000008
 30
0.0
 10
-1.2190500000000002
 20
-3.6048200000000001
 30
0.0
 10
-1.5340100000000001
 20
-3.8689800000000005
 30
0.0
 10
-1.5340100000000001
 20
-3.8689800000000005
 30
0.0
 10
-1.6813300000000002
 20
-4.0417000000000005
 30
0.0
 10
-1.6457700000000002
 20
-4.3769800000000005
 30
0.0
 10
-1.7753100000000002
 20
-4.51668
 30
0.0
 10
-1.7753100000000002
 20
-4.51668
 30
0.0
 10
-1.8184900000000002
 20
-4.3592000000000004
 30
0.0
 10
-1.8007100000000003
 20
-4.1483800000000004
 30
0.0
 10
-1.7803900000000001
 20
-3.9909000000000003
 30
0.0
 10
-1.7803900000000001
 20
-3.9909000000000003
 30
0.0
 10
-0.9218700000000001
 20
-2.5507200000000001
 30
0.0
 10
-1.6559300000000001
 20
-0.74224
 30
0.0
 10
-1.7753100000000002
 20
0.7995300000000001
 30
0.0
 10
-1.7753100000000002
 20
0.7995300000000001
 30
0.0
 10
-1.9175500000000001
 20
0.23819
 30
0.0
 10
-1.6127500000000001
 20
-0.26726
 30
0.0
 10
-1.6229100000000001
 20
-0.8311400000000001
 30
0.0
 10
-1.6229100000000001
 20
-0.8311400000000001
 30
0.0
 10
-1.5619500000000002
 20
-1.2172200000000002
 30
0.0
 10
-1.5848100000000001
 20
-1.6388600000000002
 30
0.0
 10
-1.6381500000000002
 20
-2.02494
 30
0.0
 10
-1.6381500000000002
 20
-2.02494
 30
0.0
 10
-1.6457700000000002
 20
-2.2535400000000001
 30
0.0
 10
-1.6889500000000002
 20
-2.4618200000000003
 30
0.0
 10
-1.6381500000000002
 20
-2.6726400000000003
 30
0.0
 10
-1.6381500000000002
 20
-2.6726400000000003
 30
0.0
 10
-1.6203700000000001
 20
-2.8326600000000002
 30
0.0
 10
-1.5822700000000001
 20
-2.9901400000000002
 30
0.0
 10
-1.58989
 20
-3.1654000000000004
 30
0.0
 10
-1.58989
 20
-3.1654000000000004
 30
0.0
 10
-2.10805
 20
-2.5507200000000001
 30
0.0
 10
-1.5746500000000001
 20
-1.5677400000000001
 30
0.0
 10
-1.8819900000000001
 20
-0.8667
 30
0.0
 10
-1.8819900000000001
 20
-0.8667
 30
0.0
 10
-1.8692900000000001
 20
-1.0572000000000001
 30
0.0
 10
-1.8642100000000001
 20
-1.2680200000000001
 30
0.0
 10
-1.8870700000000002
 20
-1.4636
 30
0.0
 10
-1.8870700000000002
 20
-1.4636
 30
0.0
 10
-1.8870700000000002
 20
-1.4636
 30
0.0
 10
-1.9734300000000002
 20
-2.05796
 30
0.0
 10
-1.9734300000000002
 20
-2.05796
 30
0.0
 10
-1.9734300000000002
 20
-2.05796
 30
0.0
 10
-2.0470900000000003
 20
-2.39324
 30
0.0
 10
-2.0674100000000002
 20
-2.7437600000000004
 30
0.0
 10
-2.0623300000000002
 20
-3.0942800000000004
 30
0.0
 10
-2.0623300000000002
 20
-3.0942800000000004
 30
0.0
 10
-2.0902700000000003
 20
-3.1831800000000001
 30
0.0
 10
-2.0089900000000003
 20
-3.2873200000000002
 30
0.0
 10
-2.0801100000000003
 20
-3.3406600000000002
 30
0.0
 10
-2.0801100000000003
 20
-3.3406600000000002
 30
0.0
 10
-2.2960100000000003
 20
-2.6726400000000003
 30
0.0
 10
-2.1055100000000002
 20
-1.8827000000000003
 30
0.0
 10
-2.2020300000000002
 20
-1.1994400000000001
 30
0.0
 10
-2.2020300000000002
 20
-1.1994400000000001
 30
0.0
 10
-2.2020300000000002
 20
-1.1994400000000001
 30
0.0
 10
-2.4255500000000003
 20
-1.58552
 30
0.0
 10
-2.4255500000000003
 20
-1.58552
 30
0.0
 10
-2.4255500000000003
 20
-1.58552
 30
0.0
 10
-2.4255500000000003
 20
-1.58552
 30
0.0
 10
-2.4636500000000003
 20
-2.1468600000000002
 30
0.0
 10
-2.4636500000000003
 20
-2.1468600000000002
 30
0.0
 10
-2.4636500000000003
 20
-2.1468600000000002
 30
0.0
 10
-2.52461
 20
-2.8834600000000004
 30
0.0
 10
-2.6947900000000002
 20
-3.6403800000000004
 30
0.0
 10
-2.48143
 20
-4.3414200000000003
 30
0.0
 10
-2.48143
 20
-4.3414200000000003
 30
0.0
 10
-3.0300700000000003
 20
-3.8334200000000003
 30
0.0
 10
-2.7430500000000002
 20
-2.9901400000000002
 30
0.0
 10
-2.7811500000000002
 20
-2.3221200000000004
 30
0.0
 10
-2.7811500000000002
 20
-2.3221200000000004
 30
0.0
 10
-2.7811500000000002
 20
-2.3221200000000004
 30
0.0
 10
-2.90307
 20
-2.6370800000000001
 30
0.0
 10
-2.90307
 20
-2.6370800000000001
 30
0.0
 10
-2.90307
 20
-2.6370800000000001
 30
0.0
 10
-2.9691100000000001
 20
-2.7615400000000001
 30
0.0
 10
-2.8979900000000001
 20
-2.9368000000000003
 30
0.0
 10
-2.9919700000000002
 20
-3.0257000000000001
 30
0.0
 10
-2.9919700000000002
 20
-3.0257000000000001
 30
0.0
 10
-3.0427700000000004
 20
-2.05796
 30
0.0
 10
-2.7201900000000001
 20
-1.0572000000000001
 30
0.0
 10
-3.0478500000000004
 20
-0.12756
 30
0.0
 10
-3.0478500000000004
 20
-0.12756
 30
0.0
 10
-3.1824700000000004
 20
-0.7778000000000001
 30
0.0
 10
-3.3983700000000003
 20
-1.58552
 30
0.0
 10
-4.1095700000000006
 20
-1.8649200000000001
 30
0.0
 10
-4.1095700000000006
 20
-1.8649200000000001
 30
0.0
 10
-2.6414500000000003
 20
0.08071
 30
0.0
 10
-3.4847300000000003
 20
2.7654900000000002
 30
0.0
 10
-2.7405100000000004
 20
4.9092500000000001
 30
0.0
 10
-2.7405100000000004
 20
4.9092500000000001
 30
0.0
 10
-2.0724900000000002
 20
6.0852700000000004
 30
0.0
 10
-0.7491500000000001
 20
6.4713500000000002
 30
0.0
 10
0.5005200000000001
 20
6.5424700000000007
 30
0.0
  0
SPLINE
  5
26
100
AcDbEntity
  8
Ebene 1
100
AcDbSpline
210
0.0
220
0.0
230
1.0
 70
     1
 71
     3
 72
    16
 73
    12
 74
     0
 42
0.0000000001
 43
0.0000000001
 40
0.0
 40
0.0
 40
0.0
 40
0.0
 40
0.3333333333333333
 40
0.3333333333333333
 40
0.3333333333333333
 40
0.3333333333333333
 40
0.6666666666666666
 40
0.6666666666666666
 40
0.6666666666666666
 40
0.6666666666666666
 40
1.0
 40
1.0
 40
1.0
 40
1.0
 10
-1.0945900000000002
 20
0.18485
 30
0.0
 10
-1.0945900000000002
 20
0.18485
 30
0.0
 10
-1.1961900000000001
 20
0.13151
 30
0.0
 10
-1.1961900000000001
 20
0.13151
 30
0.0
 10
-1.1961900000000001
 20
0.13151
 30
0.0
 10
-1.2266700000000001
 20
-0.28504
 30
0.0
 10
-1.1987300000000001
 20
-0.7066800000000001
 30
0.0
 10
-1.0945900000000002
 20
-1.0927600000000002
 30
0.0
 10
-1.0945900000000002
 20
-1.0927600000000002
 30
0.0
 10
-1.1377700000000002
 20
-0.67366
 30
0.0
 10
-0.84567
 20
-0.16312
 30
0.0
 10
-1.0945900000000002
 20
0.18485
 30
0.0
  0
SPLINE
  5
27
100
AcDbEntity
  8
Ebene 1
100
AcDbSpline
210
0.0
220
0.0
230
1.0
 70
     1
 71
     3
 72
    12
 73
     8
 74
     0
 42
0.0000000001
 43
0.0000000001
 40
0.0
 40
0.0
 40
0.0
 40
0.0
 40
0.5
 40
0.5
 40
0.5
 40
0.5
 40
1.0
 40
1.0
 40
1.0
 40
1.0
 10
-0.9904500000000001
 20
-0.49586
 30
0.0
 10
-1.07935
 20
-1.1461000000000001
 30
0.0
 10
-0.9879100000000001
 20
-1.8471400000000002
 30
0.0
 10
-0.7974100000000001
 20
-2.4465800000000004
 30
0.0
 10
-0.7974100000000001
 20
-2.4465800000000004
 30
0.0
 10
-0.4494300000000001
 20
-1.8293600000000001
 30
0.0
 10
-0.66025
 20
-1.07498
 30
0.0
 10
-0.9904500000000001
 20
-0.49586
 30
0.0
  0
SPLINE
  5
28
100
AcDbEntity
  8
Ebene 1
100
AcDbSpline
210
0.0
220
0.0
230
1.0
 70
     1
 71
     3
 72
    12
 73
     8
 74
     0
 42
0.0000000001
 43
0.0000000001
 40
0.0
 40
0.0
 40
0.0
 40
0.0
 40
0.5
 40
0.5
 40
0.5
 40
0.5
 40
1.0
 40
1.0
 40
1.0
 40
1.0
 10
-1.8515100000000002
 20
-0.33838
 30
0.0
 10
-1.9073900000000001
 20
-0.4780800000000001
 30
0.0
 10
-1.8286500000000001
 20
-0.65588
 30
0.0
 10
-1.7651500000000002
 20
-0.7778000000000001
 30
0.0
 10
-1.7651500000000002
 20
-0.7778000000000001
 30
0.0
 10
-1.7854700000000001
 20
-0.6381
 30
0.0
 10
-1.7346700000000002
 20
-0.4095
 30
0.0
 10
-1.8515100000000002
 20
-0.33838
 30
0.0
  0
SPLINE
  5
29
100
AcDbEntity
  8
Ebene 1
100
AcDbSpline
210
0.0
220
0.0
230
1.0
 70
     1
 71
     3
 72
    12
 73
     8
 74
     0
 42
0.0000000001
 43
0.0000000001
 40
0.0
 40
0.0
 40
0.0
 40
0.0
 40
0.5
 40
0.5
 40
0.5
 40
0.5
 40
1.0
 40
1.0
 40
1.0
 40
1.0
 10
-2.7455900000000004
 20
1.02813
 30
0.0
 10
-2.7608300000000003
 20
0.3270900000000001
 30
0.0
 10
-2.6338300000000001
 20
-0.39172
 30
0.0
 10
-2.5169900000000003
 20
-1.0572000000000001
 30
0.0
 10
-2.5169900000000003
 20
-1.0572000000000001
 30
0.0
 10
-2.1486900000000002
 20
-0.39172
 30
0.0
 10
-2.3341100000000004
 20
0.44901
 30
0.0
 10
-2.7455900000000004
 20
1.02813
 30
0.0
  0
SPLINE
  5
2A
100
AcDbEntity
  8
Ebene 1
 62
     7
100
AcDbSpline
210
0.0
220
0.0
230
1.0
 70
     1
 71
     3
 72
   152
 73
   148
 74
     0
 42
0.0000000001
 43
0.0000000001
 40
0.0
 40
0.0
 40
0.0
 40
0.0
 40
0.027027027027027
 40
0.027027027027027
 40
0.027027027027027
 40
0.027027027027027
 40
0.0540540540540541
 40
0.0540540540540541
 40
0.0540540540540541
 40
0.0540540540540541
 40
0.0810810810810811
 40
0.0810810810810811
 40
0.0810810810810811
 40
0.0810810810810811
 40
0.1081081081081081
 40
0.1081081081081081
 40
0.1081081081081081
 40
0.1081081081081081
 40
0.1351351351351351
 40
0.1351351351351351
 40
0.1351351351351351
 40
0.1351351351351351
 40
0.1621621621621622
 40
0.1621621621621622
 40
0.1621621621621622
 40
0.1621621621621622
 40
0.1891891891891892
 40
0.1891891891891892
 40
0.1891891891891892
 40
0.1891891891891892
 40
0.2162162162162162
 40
0.2162162162162162
 40
0.2162162162162162
 40
0.2162162162162162
 40
0.2432432432432433
 40
0.2432432432432433
 40
0.2432432432432433
 40
0.2432432432432433
 40
0.2702702702702703
 40
0.2702702702702703
 40
0.2702702702702703
 40
0.2702702702702703
 40
0.2972972972972973
 40
0.2972972972972973
 40
0.2972972972972973
 40
0.2972972972972973
 40
0.3243243243243243
 40
0.3243243243243243
 40
0.3243243243243243
 40
0.3243243243243243
 40
0.3513513513513514
 40
0.3513513513513514
 40
0.3513513513513514
 40
0.3513513513513514
 40
0.3783783783783784
 40
0.3783783783783784
 40
0.3783783783783784
 40
0.3783783783783784
 40
0.4054054054054054
 40
0.4054054054054054
 40
0.4054054054054054
 40
0.4054054054054054
 40
0.4324324324324325
 40
0.4324324324324325
 40
0.4324324324324325
 40
0.4324324324324325
 40
0.4594594594594595
 40
0.4594594594594595
 40
0.4594594594594595
 40
0.4594594594594595
 40
0.4864864864864865
 40
0.4864864864864865
 40
0.4864864864864865
 40
0.4864864864864865
 40
0.5135135135135136
 40
0.5135135135135136
 40
0.5135135135135136
 40
0.5135135135135136
 40
0.5405405405405406
 40
0.5405405405405406
 40
0.5405405405405406
 40
0.5405405405405406
 40
0.5675675675675675
 40
0.5675675675675675
 40
0.5675675675675675
 40
0.5675675675675675
 40
0.5945945945945945
 40
0.5945945945945945
 40
0.5945945945945945
 40
0.5945945945945945
 40
0.6216216216216215
 40
0.6216216216216215
 40
0.6216216216216215
 40
0.6216216216216215
 40
0.6486486486486485
 40
0.6486486486486485
 40
0.6486486486486485
 40
0.6486486486486485
 40
0.6756756756756754
 40
0.6756756756756754
 40
0.6756756756756754
 40
0.6756756756756754
 40
0.7027027027027024
 40
0.7027027027027024
 40
0.7027027027027024
 40
0.7027027027027024
 40
0.7297297297297294
 40
0.7297297297297294
 40
0.7297297297297294
 40
0.7297297297297294
 40
0.7567567567567564
 40
0.7567567567567564
 40
0.7567567567567564
 40
0.7567567567567564
 40
0.7837837837837833
 40
0.7837837837837833
 40
0.7837837837837833
 40
0.7837837837837833
 40
0.8108108108108103
 40
0.8108108108108103
 40
0.8108108108108103
 40
0.8108108108108103
 40
0.8378378378378373
 40
0.8378378378378373
 40
0.8378378378378373
 40
0.8378378378378373
 40
0.8648648648648643
 40
0.8648648648648643
 40
0.8648648648648643
 40
0.8648648648648643
 40
0.8918918918918912
 40
0.8918918918918912
 40
0.8918918918918912
 40
0.8918918918918912
 40
0.9189189189189182
 40
0.9189189189189182
 40
0.9189189189189182
 40
0.9189189189189182
 40
0.9459459459459452
 40
0.9459459459459452
 40
0.9459459459459452
 40
0.9459459459459452
 40
0.9729729729729721
 40
0.9729729729729721
 40
0.9729729729729721
 40
0.9729729729729721
 40
1.0
 40
1.0
 40
1.0
 40
1.0
 10
0.7469
 20
6.4535700000000009
 30
0.0
 10
2.2226400000000002
 20
6.5069100000000004
 30
0.0
 10
3.5866200000000004
 20
5.2419900000000004
 30
0.0
 10
3.6247200000000004
 20
3.7484700000000002
 30
0.0
 10
3.6247200000000004
 20
3.7484700000000002
 30
0.0
 10
3.6018600000000003
 20
3.5732100000000004
 30
0.0
 10
3.4545400000000002
 20
3.4690700000000003
 30
0.0
 10
3.3427800000000003
 20
3.3293700000000004
 30
0.0
 10
3.3427800000000003
 20
3.3293700000000004
 30
0.0
 10
4.1886000000000001
 20
3.1871300000000002
 30
0.0
 10
3.6755200000000001
 20
2.1863700000000001
 30
0.0
 10
3.01004
 20
2.3616300000000003
 30
0.0
 10
3.01004
 20
2.3616300000000003
 30
0.0
 10
3.1649800000000003
 20
2.1406500000000004
 30
0.0
 10
3.1827600000000005
 20
1.8739500000000002
 30
0.0
 10
3.1345000000000001
 20
1.6021700000000001
 30
0.0
 10
3.1345000000000001
 20
1.6021700000000001
 30
0.0
 10
3.1268800000000003
 20
1.5640700000000001
 30
0.0
 10
3.0989400000000002
 20
1.5335900000000002
 30
0.0
 10
3.0887800000000003
 20
1.4954900000000002
 30
0.0
 10
3.0887800000000003
 20
1.4954900000000002
 30
0.0
 10
3.0760800000000001
 20
1.44469
 30
0.0
 10
3.0430600000000001
 20
1.3862700000000001
 30
0.0
 10
3.0633800000000004
 20
1.3430900000000001
 30
0.0
 10
3.0633800000000004
 20
1.3430900000000001
 30
0.0
 10
3.2056200000000001
 20
1.5183500000000001
 30
0.0
 10
3.4418400000000005
 20
1.1703700000000001
 30
0.0
 10
3.7085400000000002
 20
1.5005700000000002
 30
0.0
 10
3.7085400000000002
 20
1.5005700000000002
 30
0.0
 10
3.7136200000000001
 20
1.22879
 30
0.0
 10
3.9904800000000002
 20
0.8960500000000001
 30
0.0
 10
3.6780600000000003
 20
0.85287
 30
0.0
 10
3.6780600000000003
 20
0.85287
 30
0.0
 10
3.8025200000000003
 20
0.6242700000000001
 30
0.0
 10
3.7872800000000004
 20
0.44901
 30
0.0
 10
3.5688400000000002
 20
0.25597
 30
0.0
 10
3.5688400000000002
 20
0.25597
 30
0.0
 10
3.5155000000000003
 20
0.29153
 30
0.0
 10
3.5434400000000004
 20
0.4845700000000001
 30
0.0
 10
3.4494600000000002
 20
0.4312300000000001
 30
0.0
 10
3.4494600000000002
 20
0.4312300000000001
 30
0.0
 10
3.4469200000000004
 20
0.08071
 30
0.0
 10
3.4926400000000002
 20
-0.28504
 30
0.0
 10
3.3935800000000005
 20
-0.6203200000000001
 30
0.0
 10
3.3935800000000005
 20
-0.6203200000000001
 30
0.0
 10
3.2488000000000001
 20
-0.4095
 30
0.0
 10
3.1649800000000003
 20
-0.6889000000000001
 30
0.0
 10
3.0583000000000005
 20
-0.30282
 30
0.0
 10
3.0583000000000005
 20
-0.30282
 30
0.0
 10
2.9592400000000003
 20
-0.53142
 30
0.0
 10
2.9694000000000003
 20
-0.49586
 30
0.0
 10
2.8170000000000002
 20
-0.28504
 30
0.0
 10
2.8170000000000002
 20
-0.28504
 30
0.0
 10
2.63158
 20
-0.8489200000000001
 30
0.0
 10
2.6392000000000002
 20
-0.24948
 30
0.0
 10
2.4995000000000003
 20
-0.00564
 30
0.0
 10
2.4995000000000003
 20
-0.00564
 30
0.0
 10
2.4563200000000003
 20
-0.0793
 30
0.0
 10
2.5249000000000001
 20
-0.17074
 30
0.0
 10
2.5274400000000004
 20
-0.25202
 30
0.0
 10
2.5274400000000004
 20
-0.25202
 30
0.0
 10
2.5376000000000003
 20
-0.56952
 30
0.0
 10
2.3242400000000001
 20
-0.8184400000000001
 30
0.0
 10
2.2607400000000002
 20
-0.4247400000000001
 30
0.0
 10
2.2607400000000002
 20
-0.4247400000000001
 30
0.0
 10
2.2607400000000002
 20
-0.4247400000000001
 30
0.0
 10
2.2353400000000003
 20
-0.5111
 30
0.0
 10
2.2353400000000003
 20
-0.5111
 30
0.0
 10
2.2353400000000003
 20
-0.5111
 30
0.0
 10
2.2353400000000003
 20
-0.5111
 30
0.0
 10
2.2556600000000002
 20
-0.6203200000000001
 30
0.0
 10
2.2556600000000002
 20
-0.6203200000000001
 30
0.0
 10
2.2556600000000002
 20
-0.6203200000000001
 30
0.0
 10
2.2861400000000001
 20
-0.6889000000000001
 30
0.0
 10
2.30138
 20
-0.7778000000000001
 30
0.0
 10
2.2861400000000001
 20
-0.8667
 30
0.0
 10
2.2861400000000001
 20
-0.8667
 30
0.0
 10
2.1413600000000002
 20
-0.5136400000000001
 30
0.0
 10
2.0042
 20
-0.4603
 30
0.0
 10
1.9915000000000003
 20
0.00959
 30
0.0
 10
1.9915000000000003
 20
0.00959
 30
0.0
 10
2.2353400000000003
 20
-0.39172
 30
0.0
 10
2.16676
 20
0.11627
 30
0.0
 10
1.8848200000000002
 20
0.36265
 30
0.0
 10
1.8848200000000002
 20
0.36265
 30
0.0
 10
1.6232000000000002
 20
0.3804300000000001
 30
0.0
 10
1.69686
 20
-0.0412
 30
0.0
 10
1.4479400000000002
 20
-0.05898
 30
0.0
 10
1.4479400000000002
 20
-0.05898
 30
0.0
 10
1.0644
 20
0.20263
 30
0.0
 10
0.7951600000000001
 20
0.25597
 30
0.0
 10
0.7951600000000001
 20
0.6953900000000001
 30
0.0
 10
0.7951600000000001
 20
0.6953900000000001
 30
0.0
 10
0.4802
 20
0.6064900000000001
 30
0.0
 10
0.27954
 20
0.3270900000000001
 30
0.0
 10
0.03062
 20
0.7284100000000001
 30
0.0
 10
0.03062
 20
0.7284100000000001
 30
0.0
 10
0.09412
 20
0.9239900000000001
 30
0.0
 10
0.66308
 20
1.9755500000000001
 30
0.0
 10
0.26938
 20
1.3964300000000001
 30
0.0
 10
0.26938
 20
1.3964300000000001
 30
0.0
 10
0.2008
 20
1.27959
 30
0.0
 10
0.33034
 20
1.8307700000000002
 30
0.0
 10
0.3455800000000001
 20
1.9476100000000001
 30
0.0
 10
0.3455800000000001
 20
1.9476100000000001
 30
0.0
 10
0.38368
 20
2.2473300000000003
 30
0.0
 10
0.28208
 20
2.6054700000000004
 30
0.0
 10
0.57418
 20
2.9940900000000004
 30
0.0
 10
0.57418
 20
2.9940900000000004
 30
0.0
 10
0.9272400000000001
 20
3.4157300000000004
 30
0.0
 10
1.4911200000000002
 20
3.0296500000000002
 30
0.0
 10
1.8492600000000001
 20
3.0829900000000001
 30
0.0
 10
1.8492600000000001
 20
3.0829900000000001
 30
0.0
 10
1.4276200000000001
 20
3.2226900000000001
 30
0.0
 10
0.93486
 20
3.6087700000000003
 30
0.0
 10
0.5564
 20
3.1871300000000002
 30
0.0
 10
0.5564
 20
3.1871300000000002
 30
0.0
 10
0.49798
 20
3.5376500000000002
 30
0.0
 10
0.37606
 20
3.7357700000000005
 30
0.0
 10
0.10174
 20
3.9135700000000004
 30
0.0
 10
0.10174
 20
3.9135700000000004
 30
0.0
 10
0.04586
 20
3.9516700000000005
 30
0.0
 10
-0.09637
 20
4.0151700000000003
 30
0.0
 10
-0.15225
 20
4.04819
 30
0.0
 10
-0.15225
 20
4.04819
 30
0.0
 10
0.16778
 20
3.7484700000000002
 30
0.0
 10
0.7113400000000001
 20
3.1185500000000004
 30
0.0
 10
0.21604
 20
2.5572100000000004
 30
0.0
 10
0.21604
 20
2.5572100000000004
 30
0.0
 10
-0.6246900000000001
 20
2.50387
 30
0.0
 10
-1.7524500000000001
 20
3.1871300000000002
 30
0.0
 10
-1.7397500000000001
 20
4.1193100000000005
 30
0.0
 10
-1.7397500000000001
 20
4.1193100000000005
 30
0.0
 10
-1.5136900000000002
 20
4.3123500000000003
 30
0.0
 10
-1.1758700000000002
 20
4.17265
 30
0.0
 10
-0.9371100000000001
 20
4.17265
 30
0.0
 10
-0.9371100000000001
 20
4.17265
 30
0.0
 10
-1.1936500000000001
 20
4.3987100000000003
 30
0.0
 10
-1.6660900000000001
 20
4.1878900000000003
 30
0.0
 10
-1.8642100000000001
 20
4.5206300000000006
 30
0.0
 10
-1.8642100000000001
 20
4.5206300000000006
 30
0.0
 10
-1.9531100000000001
 20
5.6458500000000003
 30
0.0
 10
-0.4697500000000001
 20
6.6821700000000002
 30
0.0
 10
0.44718
 20
6.2427500000000009
 30
0.0
 10
0.44718
 20
6.2427500000000009
 30
0.0
 10
0.5894200000000001
 20
6.2249700000000008
 30
0.0
 10
0.8358000000000001
 20
6.2605300000000002
 30
0.0
 10
0.7469
 20
6.4535700000000009
 30
0.0
  0
SPLINE
  5
2B
100
AcDbEntity
  8
Ebene 1
 62
     7
100
AcDbSpline
210
0.0
220
0.0
230
1.0
 70
     1
 71
     3
 72
    12
 73
     8
 74
     0
 42
0.0000000001
 43
0.0000000001
 40
0.0
 40
0.0
 40
0.0
 40
0.0
 40
0.5
 40
0.5
 40
0.5
 40
0.5
 40
1.0
 40
1.0
 40
1.0
 40
1.0
 10
-1.1834900000000002
 20
6.1030500000000005
 30
0.0
 10
-1.0209300000000001
 20
6.1030500000000005
 30
0.0
 10
-1.3663700000000001
 20
5.8922300000000005
 30
0.0
 10
-1.2368300000000001
 20
6.0497100000000001
 30
0.0
 10
-1.2368300000000001
 20
6.0497100000000001
 30
0.0
 10
-1.2368300000000001
 20
6.0497100000000001
 30
0.0
 10
-1.1834900000000002
 20
6.1030500000000005
 30
0.0
 10
-1.1834900000000002
 20
6.1030500000000005
 30
0.0
  0
SPLINE
  5
2C
100
AcDbEntity
  8
Ebene 1
100
AcDbSpline
210
0.0
220
0.0
230
1.0
 70
     1
 71
     3
 72
    12
 73
     8
 74
     0
 42
0.0000000001
 43
0.0000000001
 40
0.0
 40
0.0
 40
0.0
 40
0.0
 40
0.5
 40
0.5
 40
0.5
 40
0.5
 40
1.0
 40
1.0
 40
1.0
 40
1.0
 10
1.3768200000000002
 20
5.9100100000000007
 30
0.0
 10
1.5952600000000001
 20
5.9430300000000003
 30
0.0
 10
1.9254600000000002
 20
5.6814100000000005
 30
0.0
 10
1.7070200000000002
 20
5.4705900000000005
 30
0.0
 10
1.7070200000000002
 20
5.4705900000000005
 30
0.0
 10
1.4504800000000002
 20
5.3461300000000005
 30
0.0
 10
1.1228200000000002
 20
5.7169700000000008
 30
0.0
 10
1.3768200000000002
 20
5.9100100000000007
 30
0.0
  0
SPLINE
  5
2D
100
AcDbEntity
  8
Ebene 1
 62
     7
100
AcDbSpline
210
0.0
220
0.0
230
1.0
 70
     1
 71
     3
 72
    20
 73
    16
 74
     0
 42
0.0000000001
 43
0.0000000001
 40
0.0
 40
0.0
 40
0.0
 40
0.0
 40
0.25
 40
0.25
 40
0.25
 40
0.25
 40
0.5
 40
0.5
 40
0.5
 40
0.5
 40
0.75
 40
0.75
 40
0.75
 40
0.75
 40
1.0
 40
1.0
 40
1.0
 40
1.0
 10
-1.5517900000000002
 20
5.8922300000000005
 30
0.0
 10
-1.50607
 20
5.8922300000000005
 30
0.0
 10
-1.4476500000000001
 20
5.8922300000000005
 30
0.0
 10
-1.4298700000000002
 20
5.8388900000000001
 30
0.0
 10
-1.4298700000000002
 20
5.8388900000000001
 30
0.0
 10
-1.50353
 20
5.7347500000000009
 30
0.0
 10
-1.6102100000000001
 20
5.4705900000000005
 30
0.0
 10
-1.7803900000000001
 20
5.5747300000000006
 30
0.0
 10
-1.7803900000000001
 20
5.5747300000000006
 30
0.0
 10
-1.7803900000000001
 20
5.5747300000000006
 30
0.0
 10
-1.8997700000000002
 20
5.5747300000000006
 30
0.0
 10
-1.8997700000000002
 20
5.5747300000000006
 30
0.0
 10
-1.8997700000000002
 20
5.5747300000000006
 30
0.0
 10
-1.8642100000000001
 20
5.7347500000000009
 30
0.0
 10
-1.6533900000000001
 20
5.7855500000000006
 30
0.0
 10
-1.5517900000000002
 20
5.8922300000000005
 30
0.0
  0
SPLINE
  5
2E
100
AcDbEntity
  8
Ebene 1
 62
     7
100
AcDbSpline
210
0.0
220
0.0
230
1.0
 70
     1
 71
     3
 72
    12
 73
     8
 74
     0
 42
0.0000000001
 43
0.0000000001
 40
0.0
 40
0.0
 40
0.0
 40
0.0
 40
0.5
 40
0.5
 40
0.5
 40
0.5
 40
1.0
 40
1.0
 40
1.0
 40
1.0
 10
1.3768200000000002
 20
5.8033300000000008
 30
0.0
 10
1.3768200000000002
 20
5.8033300000000008
 30
0.0
 10
1.4098400000000002
 20
5.6102900000000009
 30
0.0
 10
1.4098400000000002
 20
5.6102900000000009
 30
0.0
 10
1.4098400000000002
 20
5.6102900000000009
 30
0.0
 10
1.3387200000000001
 20
5.6280700000000001
 30
0.0
 10
1.3260200000000002
 20
5.7525300000000001
 30
0.0
 10
1.3768200000000002
 20
5.8033300000000008
 30
0.0
  0
SPLINE
  5
2F
100
AcDbEntity
  8
Ebene 1
 62
     7
100
AcDbSpline
210
0.0
220
0.0
230
1.0
 70
     1
 71
     3
 72
    24
 73
    20
 74
     0
 42
0.0000000001
 43
0.0000000001
 40
0.0
 40
0.0
 40
0.0
 40
0.0
 40
0.2
 40
0.2
 40
0.2
 40
0.2
 40
0.4
 40
0.4
 40
0.4
 40
0.4
 40
0.6000000000000001
 40
0.6000000000000001
 40
0.6000000000000001
 40
0.6000000000000001
 40
0.8
 40
0.8
 40
0.8
 40
0.8
 40
1.0
 40
1.0
 40
1.0
 40
1.0
 10
-1.9912100000000001
 20
5.4705900000000005
 30
0.0
 10
-1.9912100000000001
 20
5.4705900000000005
 30
0.0
 10
-1.7829300000000001
 20
5.4350300000000002
 30
0.0
 10
-1.7829300000000001
 20
5.4350300000000002
 30
0.0
 10
-1.7829300000000001
 20
5.4350300000000002
 30
0.0
 10
-1.7829300000000001
 20
5.4350300000000002
 30
0.0
 10
-1.9581900000000001
 20
5.0667300000000006
 30
0.0
 10
-1.9581900000000001
 20
5.0667300000000006
 30
0.0
 10
-1.9581900000000001
 20
5.0667300000000006
 30
0.0
 10
-2.0902700000000003
 20
5.0311700000000004
 30
0.0
 10
-2.19441
 20
5.0845100000000008
 30
0.0
 10
-2.2147300000000003
 20
5.2064300000000001
 30
0.0
 10
-2.2147300000000003
 20
5.2064300000000001
 30
0.0
 10
-2.2147300000000003
 20
5.2064300000000001
 30
0.0
 10
-2.6871700000000001
 20
4.5917500000000002
 30
0.0
 10
-2.6871700000000001
 20
4.5917500000000002
 30
0.0
 10
-2.6871700000000001
 20
4.5917500000000002
 30
0.0
 10
-2.5804900000000002
 20
4.9625900000000005
 30
0.0
 10
-2.3239500000000004
 20
5.2953300000000008
 30
0.0
 10
-1.9912100000000001
 20
5.4705900000000005
 30
0.0
  0
SPLINE
  5
30
100
AcDbEntity
  8
Ebene 1
100
AcDbSpline
210
0.0
220
0.0
230
1.0
 70
     1
 71
     3
 72
    12
 73
     8
 74
     0
 42
0.0000000001
 43
0.0000000001
 40
0.0
 40
0.0
 40
0.0
 40
0.0
 40
0.5
 40
0.5
 40
0.5
 40
0.5
 40
1.0
 40
1.0
 40
1.0
 40
1.0
 10
1.9381600000000001
 20
5.10229
 30
0.0
 10
2.1693000000000002
 20
5.1530900000000006
 30
0.0
 10
2.4055200000000001
 20
4.8203500000000004
 30
0.0
 10
2.1997800000000001
 20
4.6450900000000006
 30
0.0
 10
2.1997800000000001
 20
4.6450900000000006
 30
0.0
 10
1.9381600000000001
 20
4.55619
 30
0.0
 10
1.7044800000000002
 20
4.9448100000000004
 30
0.0
 10
1.9381600000000001
 20
5.10229
 30
0.0
  0
SPLINE
  5
31
100
AcDbEntity
  8
Ebene 1
 62
     7
100
AcDbSpline
210
0.0
220
0.0
230
1.0
 70
     1
 71
     3
 72
    12
 73
     8
 74
     0
 42
0.0000000001
 43
0.0000000001
 40
0.0
 40
0.0
 40
0.0
 40
0.0
 40
0.5
 40
0.5
 40
0.5
 40
0.5
 40
1.0
 40
1.0
 40
1.0
 40
1.0
 10
1.9737200000000001
 20
5.0489500000000005
 30
0.0
 10
1.9711800000000002
 20
4.9625900000000005
 30
0.0
 10
1.9711800000000002
 20
4.8025700000000002
 30
0.0
 10
2.0423
 20
4.7162100000000002
 30
0.0
 10
2.0423
 20
4.7162100000000002
 30
0.0
 10
1.9153000000000002
 20
4.76701
 30
0.0
 10
1.8391000000000002
 20
4.9625900000000005
 30
0.0
 10
1.9737200000000001
 20
5.0489500000000005
 30
0.0
  0
SPLINE
  5
32
100
AcDbEntity
  8
Ebene 1
 62
     7
100
AcDbSpline
210
0.0
220
0.0
230
1.0
 70
     1
 71
     3
 72
    32
 73
    28
 74
     0
 42
0.0000000001
 43
0.0000000001
 40
0.0
 40
0.0
 40
0.0
 40
0.0
 40
0.1428571428571429
 40
0.1428571428571429
 40
0.1428571428571429
 40
0.1428571428571429
 40
0.2857142857142857
 40
0.2857142857142857
 40
0.2857142857142857
 40
0.2857142857142857
 40
0.4285714285714286
 40
0.4285714285714286
 40
0.4285714285714286
 40
0.4285714285714286
 40
0.5714285714285714
 40
0.5714285714285714
 40
0.5714285714285714
 40
0.5714285714285714
 40
0.7142857142857142
 40
0.7142857142857142
 40
0.7142857142857142
 40
0.7142857142857142
 40
0.857142857142857
 40
0.857142857142857
 40
0.857142857142857
 40
0.857142857142857
 40
1.0
 40
1.0
 40
1.0
 40
1.0
 10
-2.1309100000000001
 20
4.9270300000000002
 30
0.0
 10
-1.8921500000000002
 20
4.9092500000000001
 30
0.0
 10
-2.0851900000000003
 20
4.5028500000000005
 30
0.0
 10
-2.0293100000000002
 20
4.3123500000000003
 30
0.0
 10
-2.0293100000000002
 20
4.3123500000000003
 30
0.0
 10
-2.64907
 20
4.04819
 30
0.0
 10
-2.6592300000000004
 20
3.2049100000000004
 30
0.0
 10
-2.7760700000000003
 20
2.6257900000000003
 30
0.0
 10
-2.7760700000000003
 20
2.6257900000000003
 30
0.0
 10
-2.9284700000000004
 20
2.8543900000000004
 30
0.0
 10
-2.9665700000000004
 20
3.1337900000000003
 30
0.0
 10
-2.9919700000000002
 20
3.4157300000000004
 30
0.0
 10
-2.9919700000000002
 20
3.4157300000000004
 30
0.0
 10
-2.8522700000000003
 20
3.8373700000000004
 30
0.0
 10
-2.4966700000000004
 20
4.1548700000000007
 30
0.0
 10
-2.5474700000000001
 20
4.6273100000000005
 30
0.0
 10
-2.5474700000000001
 20
4.6273100000000005
 30
0.0
 10
-2.5474700000000001
 20
4.6273100000000005
 30
0.0
 10
-2.3417300000000001
 20
4.8025700000000002
 30
0.0
 10
-2.3417300000000001
 20
4.8025700000000002
 30
0.0
 10
-2.3417300000000001
 20
4.8025700000000002
 30
0.0
 10
-2.2477500000000004
 20
4.68065
 30
0.0
 10
-2.3595100000000002
 20
4.4342700000000006
 30
0.0
 10
-2.22235
 20
4.34537
 30
0.0
 10
-2.22235
 20
4.34537
 30
0.0
 10
-2.1867900000000002
 20
4.5384100000000007
 30
0.0
 10
-2.2883900000000001
 20
4.8203500000000004
 30
0.0
 10
-2.1309100000000001
 20
4.9270300000000002
 30
0.0
  0
SPLINE
  5
33
100
AcDbEntity
  8
Ebene 1
 62
     7
100
AcDbSpline
210
0.0
220
0.0
230
1.0
 70
     1
 71
     3
 72
    24
 73
    20
 74
     0
 42
0.0000000001
 43
0.0000000001
 40
0.0
 40
0.0
 40
0.0
 40
0.0
 40
0.2
 40
0.2
 40
0.2
 40
0.2
 40
0.4
 40
0.4
 40
0.4
 40
0.4
 40
0.6000000000000001
 40
0.6000000000000001
 40
0.6000000000000001
 40
0.6000000000000001
 40
0.8
 40
0.8
 40
0.8
 40
0.8
 40
1.0
 40
1.0
 40
1.0
 40
1.0
 10
-2.02677
 20
4.0837500000000002
 30
0.0
 10
-2.0039100000000003
 20
4.0837500000000002
 30
0.0
 10
-1.9886700000000002
 20
4.0837500000000002
 30
0.0
 10
-1.9759700000000002
 20
4.0659700000000001
 30
0.0
 10
-1.9759700000000002
 20
4.0659700000000001
 30
0.0
 10
-1.9302500000000002
 20
3.8195900000000003
 30
0.0
 10
-1.8565900000000002
 20
3.6265500000000004
 30
0.0
 10
-1.7092700000000001
 20
3.4157300000000004
 30
0.0
 10
-1.7092700000000001
 20
3.4157300000000004
 30
0.0
 10
-1.7092700000000001
 20
3.4157300000000004
 30
0.0
 10
-1.8159500000000002
 20
3.3293700000000004
 30
0.0
 10
-1.8159500000000002
 20
3.3293700000000004
 30
0.0
 10
-1.8159500000000002
 20
3.3293700000000004
 30
0.0
 10
-1.9708900000000003
 20
3.5224100000000003
 30
0.0
 10
-2.10297
 20
3.7840300000000004
 30
0.0
 10
-2.1436100000000002
 20
4.0304100000000007
 30
0.0
 10
-2.1436100000000002
 20
4.0304100000000007
 30
0.0
 10
-2.1436100000000002
 20
4.0304100000000007
 30
0.0
 10
-2.02677
 20
4.0837500000000002
 30
0.0
 10
-2.02677
 20
4.0837500000000002
 30
0.0
  0
SPLINE
  5
34
100
AcDbEntity
  8
Ebene 1
100
AcDbSpline
210
0.0
220
0.0
230
1.0
 70
     1
 71
     3
 72
    12
 73
     8
 74
     0
 42
0.0000000001
 43
0.0000000001
 40
0.0
 40
0.0
 40
0.0
 40
0.0
 40
0.5
 40
0.5
 40
0.5
 40
0.5
 40
1.0
 40
1.0
 40
1.0
 40
1.0
 10
2.5884
 20
4.0304100000000007
 30
0.0
 10
2.8195400000000004
 20
4.04819
 30
0.0
 10
2.9516200000000001
 20
3.6976700000000005
 30
0.0
 10
2.7281000000000004
 20
3.5732100000000004
 30
0.0
 10
2.7281000000000004
 20
3.5732100000000004
 30
0.0
 10
2.4741000000000004
 20
3.5224100000000003
 30
0.0
 10
2.29122
 20
3.9770700000000003
 30
0.0
 10
2.5884
 20
4.0304100000000007
 30
0.0
  0
SPLINE
  5
35
100
AcDbEntity
  8
Ebene 1
 62
     7
100
AcDbSpline
210
0.0
220
0.0
230
1.0
 70
     1
 71
     3
 72
    12
 73
     8
 74
     0
 42
0.0000000001
 43
0.0000000001
 40
0.0
 40
0.0
 40
0.0
 40
0.0
 40
0.5
 40
0.5
 40
0.5
 40
0.5
 40
1.0
 40
1.0
 40
1.0
 40
1.0
 10
2.4995000000000003
 20
3.9262700000000001
 30
0.0
 10
2.5858600000000003
 20
3.9415100000000005
 30
0.0
 10
2.5172800000000004
 20
3.8373700000000004
 30
0.0
 10
2.5325200000000003
 20
3.7840300000000004
 30
0.0
 10
2.5325200000000003
 20
3.7840300000000004
 30
0.0
 10
2.4893400000000003
 20
3.7840300000000004
 30
0.0
 10
2.4715600000000002
 20
3.8907100000000003
 30
0.0
 10
2.4995000000000003
 20
3.9262700000000001
 30
0.0
  0
SPLINE
  5
36
100
AcDbEntity
  8
Ebene 1
 62
     7
100
AcDbSpline
210
0.0
220
0.0
230
1.0
 70
     1
 71
     3
 72
    20
 73
    16
 74
     0
 42
0.0000000001
 43
0.0000000001
 40
0.0
 40
0.0
 40
0.0
 40
0.0
 40
0.25
 40
0.25
 40
0.25
 40
0.25
 40
0.5
 40
0.5
 40
0.5
 40
0.5
 40
0.75
 40
0.75
 40
0.75
 40
0.75
 40
1.0
 40
1.0
 40
1.0
 40
1.0
 10
-2.27061
 20
3.8729300000000002
 30
0.0
 10
-2.1258300000000001
 20
3.6976700000000005
 30
0.0
 10
-2.0826500000000001
 20
3.3827100000000003
 30
0.0
 10
-1.8870700000000002
 20
3.2049100000000004
 30
0.0
 10
-1.8870700000000002
 20
3.2049100000000004
 30
0.0
 10
-1.9708900000000003
 20
2.80105
 30
0.0
 10
-2.1537700000000002
 20
2.3616300000000003
 30
0.0
 10
-2.0953500000000003
 20
1.9603100000000002
 30
0.0
 10
-2.0953500000000003
 20
1.9603100000000002
 30
0.0
 10
-2.6262100000000004
 20
2.16859
 30
0.0
 10
-2.7201900000000001
 20
2.80105
 30
0.0
 10
-2.4128500000000002
 20
3.2404700000000002
 30
0.0
 10
-2.4128500000000002
 20
3.2404700000000002
 30
0.0
 10
-2.4128500000000002
 20
3.2404700000000002
 30
0.0
 10
-2.27061
 20
3.8729300000000002
 30
0.0
 10
-2.27061
 20
3.8729300000000002
 30
0.0
  0
SPLINE
  5
37
100
AcDbEntity
  8
Ebene 1
 62
     7
100
AcDbSpline
210
0.0
220
0.0
230
1.0
 70
     1
 71
     3
 72
    20
 73
    16
 74
     0
 42
0.0000000001
 43
0.0000000001
 40
0.0
 40
0.0
 40
0.0
 40
0.0
 40
0.25
 40
0.25
 40
0.25
 40
0.25
 40
0.5
 40
0.5
 40
0.5
 40
0.5
 40
0.75
 40
0.75
 40
0.75
 40
0.75
 40
1.0
 40
1.0
 40
1.0
 40
1.0
 10
-1.6229100000000001
 20
3.2404700000000002
 30
0.0
 10
-1.4120900000000001
 20
3.1871300000000002
 30
0.0
 10
-1.29779
 20
2.9407500000000004
 30
0.0
 10
-1.0996700000000001
 20
2.8543900000000004
 30
0.0
 10
-1.0996700000000001
 20
2.8543900000000004
 30
0.0
 10
-1.0996700000000001
 20
2.8543900000000004
 30
0.0
 10
-1.0996700000000001
 20
2.80105
 30
0.0
 10
-1.0996700000000001
 20
2.80105
 30
0.0
 10
-1.0996700000000001
 20
2.80105
 30
0.0
 10
-1.3181100000000001
 20
2.8188300000000002
 30
0.0
 10
-1.4578100000000001
 20
3.0474300000000003
 30
0.0
 10
-1.6330700000000002
 20
3.1515700000000004
 30
0.0
 10
-1.6330700000000002
 20
3.1515700000000004
 30
0.0
 10
-1.6483100000000002
 20
3.1871300000000002
 30
0.0
 10
-1.6381500000000002
 20
3.2226900000000001
 30
0.0
 10
-1.6229100000000001
 20
3.2404700000000002
 30
0.0
  0
SPLINE
  5
38
100
AcDbEntity
  8
Ebene 1
100
AcDbSpline
210
0.0
220
0.0
230
1.0
 70
     1
 71
     3
 72
    28
 73
    24
 74
     0
 42
0.0000000001
 43
0.0000000001
 40
0.0
 40
0.0
 40
0.0
 40
0.0
 40
0.1666666666666667
 40
0.1666666666666667
 40
0.1666666666666667
 40
0.1666666666666667
 40
0.3333333333333333
 40
0.3333333333333333
 40
0.3333333333333333
 40
0.3333333333333333
 40
0.5
 40
0.5
 40
0.5
 40
0.5
 40
0.6666666666666666
 40
0.6666666666666666
 40
0.6666666666666666
 40
0.6666666666666666
 40
0.8333333333333333
 40
0.8333333333333333
 40
0.8333333333333333
 40
0.8333333333333333
 40
1.0
 40
1.0
 40
1.0
 40
1.0
 10
3.0278200000000002
 20
3.2049100000000004
 30
0.0
 10
3.1599000000000004
 20
3.2049100000000004
 30
0.0
 10
3.4393000000000002
 20
3.1871300000000002
 30
0.0
 10
3.1726000000000001
 20
3.1185500000000004
 30
0.0
 10
3.1726000000000001
 20
3.1185500000000004
 30
0.0
 10
3.1726000000000001
 20
3.1185500000000004
 30
0.0
 10
3.0506800000000003
 20
3.0652100000000004
 30
0.0
 10
3.0506800000000003
 20
3.0652100000000004
 30
0.0
 10
3.0506800000000003
 20
3.0652100000000004
 30
0.0
 10
3.0506800000000003
 20
3.0652100000000004
 30
0.0
 10
2.9541600000000003
 20
2.8899500000000002
 30
0.0
 10
2.9541600000000003
 20
2.8899500000000002
 30
0.0
 10
2.9541600000000003
 20
2.8899500000000002
 30
0.0
 10
2.9541600000000003
 20
2.8899500000000002
 30
0.0
 10
2.2556600000000002
 20
3.1515700000000004
 30
0.0
 10
2.2556600000000002
 20
3.1515700000000004
 30
0.0
 10
2.2556600000000002
 20
3.1515700000000004
 30
0.0
 10
2.3725000000000001
 20
3.1871300000000002
 30
0.0
 10
2.5299800000000001
 20
3.1693500000000001
 30
0.0
 10
2.6569800000000003
 20
3.1515700000000004
 30
0.0
 10
2.6569800000000003
 20
3.1515700000000004
 30
0.0
 10
2.6569800000000003
 20
3.1515700000000004
 30
0.0
 10
3.0278200000000002
 20
3.2049100000000004
 30
0.0
 10
3.0278200000000002
 20
3.2049100000000004
 30
0.0
  0
SPLINE
  5
39
100
AcDbEntity
  8
Ebene 1
 62
     7
100
AcDbSpline
210
0.0
220
0.0
230
1.0
 70
     1
 71
     3
 72
    20
 73
    16
 74
     0
 42
0.0000000001
 43
0.0000000001
 40
0.0
 40
0.0
 40
0.0
 40
0.0
 40
0.25
 40
0.25
 40
0.25
 40
0.25
 40
0.5
 40
0.5
 40
0.5
 40
0.5
 40
0.75
 40
0.75
 40
0.75
 40
0.75
 40
1.0
 40
1.0
 40
1.0
 40
1.0
 10
-1.7626100000000002
 20
3.0474300000000003
 30
0.0
 10
-1.5619500000000002
 20
2.9585300000000001
 30
0.0
 10
-1.3714500000000001
 20
2.8366100000000003
 30
0.0
 10
-1.1834900000000002
 20
2.7324700000000002
 30
0.0
 10
-1.1834900000000002
 20
2.7324700000000002
 30
0.0
 10
-1.4578100000000001
 20
2.4149700000000003
 30
0.0
 10
-1.33589
 20
1.9069700000000001
 30
0.0
 10
-1.3282700000000001
 20
1.5361300000000002
 30
0.0
 10
-1.3282700000000001
 20
1.5361300000000002
 30
0.0
 10
-1.6406900000000002
 20
1.6605900000000002
 30
0.0
 10
-2.0775700000000001
 20
1.8180700000000001
 30
0.0
 10
-2.0445500000000001
 20
2.2397100000000001
 30
0.0
 10
-2.0445500000000001
 20
2.2397100000000001
 30
0.0
 10
-1.6991100000000001
 20
2.3082900000000004
 30
0.0
 10
-1.6864100000000002
 20
2.7654900000000002
 30
0.0
 10
-1.7626100000000002
 20
3.0474300000000003
 30
0.0
  0
SPLINE
  5
3A
100
AcDbEntity
  8
Ebene 1
 62
     7
100
AcDbSpline
210
0.0
220
0.0
230
1.0
 70
     1
 71
     3
 72
    36
 73
    32
 74
     0
 42
0.0000000001
 43
0.0000000001
 40
0.0
 40
0.0
 40
0.0
 40
0.0
 40
0.125
 40
0.125
 40
0.125
 40
0.125
 40
0.25
 40
0.25
 40
0.25
 40
0.25
 40
0.375
 40
0.375
 40
0.375
 40
0.375
 40
0.5
 40
0.5
 40
0.5
 40
0.5
 40
0.625
 40
0.625
 40
0.625
 40
0.625
 40
0.75
 40
0.75
 40
0.75
 40
0.75
 40
0.875
 40
0.875
 40
0.875
 40
0.875
 40
1.0
 40
1.0
 40
1.0
 40
1.0
 10
-0.8837700000000001
 20
2.6969100000000004
 30
0.0
 10
-0.72121
 20
2.6613500000000001
 30
0.0
 10
-0.57135
 20
2.5572100000000004
 30
0.0
 10
-0.4291100000000001
 20
2.4860900000000004
 30
0.0
 10
-0.4291100000000001
 20
2.4860900000000004
 30
0.0
 10
-0.6932700000000001
 20
2.16859
 30
0.0
 10
-0.7542300000000001
 20
1.69615
 30
0.0
 10
-0.7085100000000001
 20
1.3100700000000001
 30
0.0
 10
-0.7085100000000001
 20
1.3100700000000001
 30
0.0
 10
-0.88885
 20
1.3964300000000001
 30
0.0
 10
-1.1834900000000002
 20
1.3964300000000001
 30
0.0
 10
-1.25461
 20
1.6250300000000002
 30
0.0
 10
-1.25461
 20
1.6250300000000002
 30
0.0
 10
-1.16317
 20
1.7647300000000001
 30
0.0
 10
-1.0666500000000001
 20
1.8891900000000001
 30
0.0
 10
-1.0615700000000001
 20
2.0644500000000003
 30
0.0
 10
-1.0615700000000001
 20
2.0644500000000003
 30
0.0
 10
-1.0209300000000001
 20
2.2397100000000001
 30
0.0
 10
-1.1758700000000002
 20
2.37941
 30
0.0
 10
-1.1428500000000001
 20
2.5394300000000003
 30
0.0
 10
-1.1428500000000001
 20
2.5394300000000003
 30
0.0
 10
-1.0107700000000002
 20
2.6791300000000002
 30
0.0
 10
-0.8355100000000001
 20
2.4860900000000004
 30
0.0
 10
-0.6907300000000001
 20
2.4505300000000001
 30
0.0
 10
-0.6907300000000001
 20
2.4505300000000001
 30
0.0
 10
-0.5383300000000001
 20
2.4505300000000001
 30
0.0
 10
-0.7135900000000001
 20
2.5572100000000004
 30
0.0
 10
-0.7669300000000001
 20
2.59023
 30
0.0
 10
-0.7669300000000001
 20
2.59023
 30
0.0
 10
-0.7669300000000001
 20
2.59023
 30
0.0
 10
-0.8837700000000001
 20
2.6969100000000004
 30
0.0
 10
-0.8837700000000001
 20
2.6969100000000004
 30
0.0
  0
SPLINE
  5
3B
100
AcDbEntity
  8
Ebene 1
100
AcDbSpline
210
0.0
220
0.0
230
1.0
 70
     1
 71
     3
 72
    68
 73
    64
 74
     0
 42
0.0000000001
 43
0.0000000001
 40
0.0
 40
0.0
 40
0.0
 40
0.0
 40
0.0625
 40
0.0625
 40
0.0625
 40
0.0625
 40
0.125
 40
0.125
 40
0.125
 40
0.125
 40
0.1875
 40
0.1875
 40
0.1875
 40
0.1875
 40
0.25
 40
0.25
 40
0.25
 40
0.25
 40
0.3125
 40
0.3125
 40
0.3125
 40
0.3125
 40
0.375
 40
0.375
 40
0.375
 40
0.375
 40
0.4375
 40
0.4375
 40
0.4375
 40
0.4375
 40
0.5
 40
0.5
 40
0.5
 40
0.5
 40
0.5625
 40
0.5625
 40
0.5625
 40
0.5625
 40
0.625
 40
0.625
 40
0.625
 40
0.625
 40
0.6875
 40
0.6875
 40
0.6875
 40
0.6875
 40
0.75
 40
0.75
 40
0.75
 40
0.75
 40
0.8125
 40
0.8125
 40
0.8125
 40
0.8125
 40
0.875
 40
0.875
 40
0.875
 40
0.875
 40
0.9375
 40
0.9375
 40
0.9375
 40
0.9375
 40
1.0
 40
1.0
 40
1.0
 40
1.0
 10
0.6757800000000001
 20
2.1990700000000003
 30
0.0
 10
0.63768
 20
2.1762100000000002
 30
0.0
 10
0.6046600000000001
 20
2.13557
 30
0.0
 10
0.5691000000000001
 20
2.16859
 30
0.0
 10
0.5691000000000001
 20
2.16859
 30
0.0
 10
1.11266
 20
3.01187
 30
0.0
 10
2.2455000000000003
 20
1.7139300000000002
 30
0.0
 10
2.8652600000000001
 20
2.5394300000000003
 30
0.0
 10
2.8652600000000001
 20
2.5394300000000003
 30
0.0
 10
2.8830400000000003
 20
2.4149700000000003
 30
0.0
 10
2.8093800000000004
 20
2.3082900000000004
 30
0.0
 10
2.7077800000000001
 20
2.2574900000000002
 30
0.0
 10
2.7077800000000001
 20
2.2574900000000002
 30
0.0
 10
2.5960200000000002
 20
2.2041500000000003
 30
0.0
 10
2.4614000000000003
 20
2.1177900000000003
 30
0.0
 10
2.5528400000000002
 20
1.9755500000000001
 30
0.0
 10
2.5528400000000002
 20
1.9755500000000001
 30
0.0
 10
2.6290400000000003
 20
1.78251
 30
0.0
 10
2.6874600000000002
 20
1.5894700000000002
 30
0.0
 10
2.7433400000000003
 20
1.3964300000000001
 30
0.0
 10
2.7433400000000003
 20
1.3964300000000001
 30
0.0
 10
2.5782400000000001
 20
1.57169
 30
0.0
 10
2.5096600000000002
 20
1.9069700000000001
 30
0.0
 10
2.3090000000000002
 20
2.0644500000000003
 30
0.0
 10
2.3090000000000002
 20
2.0644500000000003
 30
0.0
 10
2.2353400000000003
 20
1.9755500000000001
 30
0.0
 10
2.21502
 20
1.8358500000000002
 30
0.0
 10
2.1845400000000001
 20
1.7317100000000001
 30
0.0
 10
2.1845400000000001
 20
1.7317100000000001
 30
0.0
 10
2.1997800000000001
 20
1.48533
 30
0.0
 10
2.1312000000000002
 20
1.27451
 30
0.0
 10
1.9889600000000001
 20
1.0814700000000002
 30
0.0
 10
1.9889600000000001
 20
1.0814700000000002
 30
0.0
 10
1.9889600000000001
 20
1.0814700000000002
 30
0.0
 10
1.9737200000000001
 20
1.1703700000000001
 30
0.0
 10
1.9737200000000001
 20
1.1703700000000001
 30
0.0
 10
1.9737200000000001
 20
1.1703700000000001
 30
0.0
 10
1.7197200000000001
 20
1.0459100000000001
 30
0.0
 10
1.4581000000000002
 20
1.1170300000000002
 30
0.0
 10
1.1710800000000001
 20
1.1170300000000002
 30
0.0
 10
1.1710800000000001
 20
1.1170300000000002
 30
0.0
 10
1.2523600000000001
 20
1.27451
 30
0.0
 10
0.8967600000000001
 20
1.27451
 30
0.0
 10
0.78754
 20
1.3964300000000001
 30
0.0
 10
0.78754
 20
1.3964300000000001
 30
0.0
 10
0.74436
 20
1.5183500000000001
 30
0.0
 10
0.74182
 20
1.6250300000000002
 30
0.0
 10
0.76214
 20
1.7494900000000002
 30
0.0
 10
0.76214
 20
1.7494900000000002
 30
0.0
 10
0.76468
 20
1.8358500000000002
 30
0.0
 10
0.7316600000000001
 20
1.9755500000000001
 30
0.0
 10
0.6884800000000001
 20
1.8180700000000001
 30
0.0
 10
0.6884800000000001
 20
1.8180700000000001
 30
0.0
 10
0.6122800000000001
 20
1.7494900000000002
 30
0.0
 10
0.66054
 20
1.5539100000000001
 30
0.0
 10
0.5411600000000001
 20
1.5361300000000002
 30
0.0
 10
0.5411600000000001
 20
1.5361300000000002
 30
0.0
 10
0.4954400000000001
 20
1.7240900000000001
 30
0.0
 10
0.59958
 20
1.9120500000000002
 30
0.0
 10
0.6884800000000001
 20
2.0898500000000002
 30
0.0
 10
0.6884800000000001
 20
2.0898500000000002
 30
0.0
 10
0.74182
 20
2.1889100000000004
 30
0.0
 10
0.8231000000000001
 20
2.2828900000000001
 30
0.0
 10
0.6757800000000001
 20
2.1990700000000003
 30
0.0
  0
SPLINE
  5
3C
100
AcDbEntity
  8
Ebene 1
 62
     7
100
AcDbSpline
210
0.0
220
0.0
230
1.0
 70
     1
 71
     3
 72
    20
 73
    16
 74
     0
 42
0.0000000001
 43
0.0000000001
 40
0.0
 40
0.0
 40
0.0
 40
0.0
 40
0.25
 40
0.25
 40
0.25
 40
0.25
 40
0.5
 40
0.5
 40
0.5
 40
0.5
 40
0.75
 40
0.75
 40
0.75
 40
0.75
 40
1.0
 40
1.0
 40
1.0
 40
1.0
 10
-2.7989300000000004
 20
2.3971900000000002
 30
0.0
 10
-2.7125700000000004
 20
2.3438500000000002
 30
0.0
 10
-2.6668500000000002
 20
2.2397100000000001
 30
0.0
 10
-2.6592300000000004
 20
2.1508100000000003
 30
0.0
 10
-2.6592300000000004
 20
2.1508100000000003
 30
0.0
 10
-3.1799300000000001
 20
0.5023500000000001
 30
0.0
 10
-2.1791700000000001
 20
-1.2172200000000002
 30
0.0
 10
-2.6795500000000003
 20
-2.8656800000000002
 30
0.0
 10
-2.6795500000000003
 20
-2.8656800000000002
 30
0.0
 10
-2.7252700000000001
 20
-1.16388
 30
0.0
 10
-3.2637500000000004
 20
0.53791
 30
0.0
 10
-2.90307
 20
2.2574900000000002
 30
0.0
 10
-2.90307
 20
2.2574900000000002
 30
0.0
 10
-2.8903700000000003
 20
2.3260700000000001
 30
0.0
 10
-2.8522700000000003
 20
2.3616300000000003
 30
0.0
 10
-2.7989300000000004
 20
2.3971900000000002
 30
0.0
  0
SPLINE
  5
3D
100
AcDbEntity
  8
Ebene 1
 62
     7
100
AcDbSpline
210
0.0
220
0.0
230
1.0
 70
     1
 71
     3
 72
    36
 73
    32
 74
     0
 42
0.0000000001
 43
0.0000000001
 40
0.0
 40
0.0
 40
0.0
 40
0.0
 40
0.125
 40
0.125
 40
0.125
 40
0.125
 40
0.25
 40
0.25
 40
0.25
 40
0.25
 40
0.375
 40
0.375
 40
0.375
 40
0.375
 40
0.5
 40
0.5
 40
0.5
 40
0.5
 40
0.625
 40
0.625
 40
0.625
 40
0.625
 40
0.75
 40
0.75
 40
0.75
 40
0.75
 40
0.875
 40
0.875
 40
0.875
 40
0.875
 40
1.0
 40
1.0
 40
1.0
 40
1.0
 10
-0.18273
 20
2.3971900000000002
 30
0.0
 10
-0.01763
 20
2.3616300000000003
 30
0.0
 10
0.1627
 20
2.3082900000000004
 30
0.0
 10
0.2516000000000001
 20
2.16859
 30
0.0
 10
0.2516000000000001
 20
2.16859
 30
0.0
 10
0.13222
 20
2.1177900000000003
 30
0.0
 10
0.03824
 20
2.3082900000000004
 30
0.0
 10
-0.08875
 20
2.2752700000000003
 30
0.0
 10
-0.08875
 20
2.2752700000000003
 30
0.0
 10
-0.11669
 20
2.2574900000000002
 30
0.0
 10
-0.11669
 20
2.22193
 30
0.0
 10
-0.08875
 20
2.2041500000000003
 30
0.0
 10
-0.08875
 20
2.2041500000000003
 30
0.0
 10
0.3786000000000001
 20
2.0288900000000001
 30
0.0
 10
-0.02525
 20
1.5361300000000002
 30
0.0
 10
0.02046
 20
1.2033900000000002
 30
0.0
 10
0.02046
 20
1.2033900000000002
 30
0.0
 10
-0.15733
 20
1.2033900000000002
 30
0.0
 10
-0.33767
 20
1.2211700000000001
 30
0.0
 10
-0.51039
 20
1.2567300000000001
 30
0.0
 10
-0.51039
 20
1.2567300000000001
 30
0.0
 10
-0.6729500000000001
 20
1.4497700000000002
 30
0.0
 10
-0.39355
 20
1.5183500000000001
 30
0.0
 10
-0.39355
 20
1.69615
 30
0.0
 10
-0.39355
 20
1.69615
 30
0.0
 10
-0.39355
 20
1.69615
 30
0.0
 10
-0.46467
 20
2.1330300000000002
 30
0.0
 10
-0.46467
 20
2.1330300000000002
 30
0.0
 10
-0.46467
 20
2.1330300000000002
 30
0.0
 10
-0.40879
 20
2.2574900000000002
 30
0.0
 10
-0.27925
 20
2.3260700000000001
 30
0.0
 10
-0.18273
 20
2.3971900000000002
 30
0.0
  0
SPLINE
  5
3E
100
AcDbEntity
  8
Ebene 1
 62
     7
100
AcDbSpline
210
0.0
220
0.0
230
1.0
 70
     1
 71
     3
 72
    12
 73
     8
 74
     0
 42
0.0000000001
 43
0.0000000001
 40
0.0
 40
0.0
 40
0.0
 40
0.0
 40
0.5
 40
0.5
 40
0.5
 40
0.5
 40
1.0
 40
1.0
 40
1.0
 40
1.0
 10
3.7136200000000001
 20
2.3260700000000001
 30
0.0
 10
3.7593400000000003
 20
2.1863700000000001
 30
0.0
 10
3.7136200000000001
 20
1.9933300000000003
 30
0.0
 10
3.6729800000000004
 20
1.8358500000000002
 30
0.0
 10
3.6729800000000004
 20
1.8358500000000002
 30
0.0
 10
3.5282000000000004
 20
1.9755500000000001
 30
0.0
 10
3.7110800000000004
 20
2.16859
 30
0.0
 10
3.7136200000000001
 20
2.3260700000000001
 30
0.0
  0
SPLINE
  5
3F
100
AcDbEntity
  8
Ebene 1
 62
     7
100
AcDbSpline
210
0.0
220
0.0
230
1.0
 70
     1
 71
     3
 72
    20
 73
    16
 74
     0
 42
0.0000000001
 43
0.0000000001
 40
0.0
 40
0.0
 40
0.0
 40
0.0
 40
0.25
 40
0.25
 40
0.25
 40
0.25
 40
0.5
 40
0.5
 40
0.5
 40
0.5
 40
0.75
 40
0.75
 40
0.75
 40
0.75
 40
1.0
 40
1.0
 40
1.0
 40
1.0
 10
-2.39507
 20
1.9755500000000001
 30
0.0
 10
-2.2680700000000003
 20
1.9755500000000001
 30
0.0
 10
-2.2401300000000002
 20
1.8358500000000002
 30
0.0
 10
-2.2020300000000002
 20
1.7494900000000002
 30
0.0
 10
-2.2020300000000002
 20
1.7494900000000002
 30
0.0
 10
-2.2299700000000002
 20
0.3804300000000001
 30
0.0
 10
-1.6838700000000002
 20
-0.9530600000000001
 30
0.0
 10
-2.0724900000000002
 20
-2.2891000000000004
 30
0.0
 10
-2.0724900000000002
 20
-2.2891000000000004
 30
0.0
 10
-1.9988300000000001
 20
-0.8489200000000001
 30
0.0
 10
-2.3341100000000004
 20
0.4845700000000001
 30
0.0
 10
-2.4992100000000002
 20
1.8536300000000001
 30
0.0
 10
-2.4992100000000002
 20
1.8536300000000001
 30
0.0
 10
-2.4839700000000002
 20
1.9069700000000001
 30
0.0
 10
-2.4407900000000002
 20
1.9425300000000001
 30
0.0
 10
-2.39507
 20
1.9755500000000001
 30
0.0
  0
SPLINE
  5
40
100
AcDbEntity
  8
Ebene 1
 62
     7
100
AcDbSpline
210
0.0
220
0.0
230
1.0
 70
     1
 71
     3
 72
    20
 73
    16
 74
     0
 42
0.0000000001
 43
0.0000000001
 40
0.0
 40
0.0
 40
0.0
 40
0.0
 40
0.25
 40
0.25
 40
0.25
 40
0.25
 40
0.5
 40
0.5
 40
0.5
 40
0.5
 40
0.75
 40
0.75
 40
0.75
 40
0.75
 40
1.0
 40
1.0
 40
1.0
 40
1.0
 10
-1.5517900000000002
 20
1.4675500000000001
 30
0.0
 10
-1.4806700000000002
 20
1.4675500000000001
 30
0.0
 10
-1.4527300000000001
 20
1.3964300000000001
 30
0.0
 10
-1.4298700000000002
 20
1.3430900000000001
 30
0.0
 10
-1.4298700000000002
 20
1.3430900000000001
 30
0.0
 10
-1.5746500000000001
 20
-0.44252
 30
0.0
 10
-0.67803
 20
-2.3221200000000004
 30
0.0
 10
-1.3536700000000002
 20
-4.0594800000000006
 30
0.0
 10
-1.3536700000000002
 20
-4.0594800000000006
 30
0.0
 10
-1.1022100000000001
 20
-2.3043400000000003
 30
0.0
 10
-1.6432300000000002
 20
-0.49586
 30
0.0
 10
-1.7092700000000001
 20
1.2922900000000002
 30
0.0
 10
-1.7092700000000001
 20
1.2922900000000002
 30
0.0
 10
-1.7067300000000001
 20
1.3964300000000001
 30
0.0
 10
-1.6152900000000001
 20
1.4142100000000002
 30
0.0
 10
-1.5517900000000002
 20
1.4675500000000001
 30
0.0
  0
SPLINE
  5
41
100
AcDbEntity
  8
Ebene 1
100
AcDbSpline
210
0.0
220
0.0
230
1.0
 70
     1
 71
     3
 72
    48
 73
    44
 74
     0
 42
0.0000000001
 43
0.0000000001
 40
0.0
 40
0.0
 40
0.0
 40
0.0
 40
0.0909090909090909
 40
0.0909090909090909
 40
0.0909090909090909
 40
0.0909090909090909
 40
0.1818181818181818
 40
0.1818181818181818
 40
0.1818181818181818
 40
0.1818181818181818
 40
0.2727272727272727
 40
0.2727272727272727
 40
0.2727272727272727
 40
0.2727272727272727
 40
0.3636363636363637
 40
0.3636363636363637
 40
0.3636363636363637
 40
0.3636363636363637
 40
0.4545454545454546
 40
0.4545454545454546
 40
0.4545454545454546
 40
0.4545454545454546
 40
0.5454545454545455
 40
0.5454545454545455
 40
0.5454545454545455
 40
0.5454545454545455
 40
0.6363636363636365
 40
0.6363636363636365
 40
0.6363636363636365
 40
0.6363636363636365
 40
0.7272727272727274
 40
0.7272727272727274
 40
0.7272727272727274
 40
0.7272727272727274
 40
0.8181818181818183
 40
0.8181818181818183
 40
0.8181818181818183
 40
0.8181818181818183
 40
0.9090909090909093
 40
0.9090909090909093
 40
0.9090909090909093
 40
0.9090909090909093
 40
1.0
 40
1.0
 40
1.0
 40
1.0
 10
2.7357200000000002
 20
1.2186300000000001
 30
0.0
 10
2.7738200000000002
 20
1.4142100000000002
 30
0.0
 10
2.8043
 20
0.8960500000000001
 30
0.0
 10
2.8754200000000001
 20
1.0459100000000001
 30
0.0
 10
2.8754200000000001
 20
1.0459100000000001
 30
0.0
 10
2.9186000000000001
 20
1.1348100000000001
 30
0.0
 10
2.9567000000000001
 20
1.2211700000000001
 30
0.0
 10
3.0456000000000003
 20
1.27451
 30
0.0
 10
3.0456000000000003
 20
1.27451
 30
0.0
 10
3.2335600000000002
 20
1.0459100000000001
 30
0.0
 10
3.3199200000000002
 20
0.6776100000000001
 30
0.0
 10
3.2538800000000001
 20
0.39567
 30
0.0
 10
3.2538800000000001
 20
0.39567
 30
0.0
 10
3.0989400000000002
 20
0.39567
 30
0.0
 10
3.0760800000000001
 20
0.7106300000000001
 30
0.0
 10
2.9414600000000002
 20
0.6776100000000001
 30
0.0
 10
2.9414600000000002
 20
0.6776100000000001
 30
0.0
 10
2.9465400000000002
 20
0.5023500000000001
 30
0.0
 10
2.9440000000000004
 20
0.3270900000000001
 30
0.0
 10
2.9059000000000004
 20
0.14929
 30
0.0
 10
2.9059000000000004
 20
0.14929
 30
0.0
 10
2.9059000000000004
 20
0.14929
 30
0.0
 10
2.8170000000000002
 20
0.6776100000000001
 30
0.0
 10
2.8170000000000002
 20
0.6776100000000001
 30
0.0
 10
2.8170000000000002
 20
0.6776100000000001
 30
0.0
 10
2.6392000000000002
 20
0.53791
 30
0.0
 10
2.4715600000000002
 20
0.30931
 30
0.0
 10
2.2251800000000004
 20
0.3270900000000001
 30
0.0
 10
2.2251800000000004
 20
0.3270900000000001
 30
0.0
 10
2.2251800000000004
 20
0.3270900000000001
 30
0.0
 10
2.1845400000000001
 20
0.3804300000000001
 30
0.0
 10
2.1845400000000001
 20
0.3804300000000001
 30
0.0
 10
2.1845400000000001
 20
0.3804300000000001
 30
0.0
 10
2.2455000000000003
 20
0.6953900000000001
 30
0.0
 10
2.3648800000000003
 20
1.02813
 30
0.0
 10
2.5706200000000003
 20
1.27451
 30
0.0
 10
2.5706200000000003
 20
1.27451
 30
0.0
 10
2.5706200000000003
 20
1.27451
 30
0.0
 10
2.6646000000000001
 20
1.2135500000000001
 30
0.0
 10
2.6646000000000001
 20
1.2135500000000001
 30
0.0
 10
2.6646000000000001
 20
1.2135500000000001
 30
0.0
 10
2.76112
 20
1.15005
 30
0.0
 10
2.7230200000000004
 20
1.1398900000000001
 30
0.0
 10
2.7357200000000002
 20
1.2186300000000001
 30
0.0
  0
SPLINE
  5
42
100
AcDbEntity
  8
Ebene 1
 62
     7
100
AcDbSpline
210
0.0
220
0.0
230
1.0
 70
     1
 71
     3
 72
    24
 73
    20
 74
     0
 42
0.0000000001
 43
0.0000000001
 40
0.0
 40
0.0
 40
0.0
 40
0.0
 40
0.2
 40
0.2
 40
0.2
 40
0.2
 40
0.4
 40
0.4
 40
0.4
 40
0.4
 40
0.6000000000000001
 40
0.6000000000000001
 40
0.6000000000000001
 40
0.6000000000000001
 40
0.8
 40
0.8
 40
0.8
 40
0.8
 40
1.0
 40
1.0
 40
1.0
 40
1.0
 10
-0.9904500000000001
 20
1.23895
 30
0.0
 10
-0.95235
 20
1.23895
 30
0.0
 10
-0.9167900000000001
 20
1.2211700000000001
 30
0.0
 10
-0.88885
 20
1.2033900000000002
 30
0.0
 10
-0.88885
 20
1.2033900000000002
 30
0.0
 10
-0.7999500000000001
 20
0.8884300000000001
 30
0.0
 10
-0.72375
 20
0.5709300000000001
 30
0.0
 10
-0.56881
 20
0.2737500000000001
 30
0.0
 10
-0.56881
 20
0.2737500000000001
 30
0.0
 10
-0.5992900000000001
 20
0.16707
 30
0.0
 10
-0.6018300000000001
 20
0.02737
 30
0.0
 10
-0.6907300000000001
 20
-0.05898
 30
0.0
 10
-0.6907300000000001
 20
-0.05898
 30
0.0
 10
-0.7948700000000001
 20
0.14929
 30
0.0
 10
-0.9548900000000001
 20
0.44901
 30
0.0
 10
-0.9193300000000001
 20
0.7106300000000001
 30
0.0
 10
-0.9193300000000001
 20
0.7106300000000001
 30
0.0
 10
-1.04379
 20
0.85287
 30
0.0
 10
-1.0082300000000002
 20
1.0814700000000002
 30
0.0
 10
-0.9904500000000001
 20
1.23895
 30
0.0
  0
SPLINE
  5
43
100
AcDbEntity
  8
Ebene 1
 62
     7
100
AcDbSpline
210
0.0
220
0.0
230
1.0
 70
     1
 71
     3
 72
   112
 73
   108
 74
     0
 42
0.0000000001
 43
0.0000000001
 40
0.0
 40
0.0
 40
0.0
 40
0.0
 40
0.037037037037037
 40
0.037037037037037
 40
0.037037037037037
 40
0.037037037037037
 40
0.0740740740740741
 40
0.0740740740740741
 40
0.0740740740740741
 40
0.0740740740740741
 40
0.1111111111111111
 40
0.1111111111111111
 40
0.1111111111111111
 40
0.1111111111111111
 40
0.1481481481481481
 40
0.1481481481481481
 40
0.1481481481481481
 40
0.1481481481481481
 40
0.1851851851851852
 40
0.1851851851851852
 40
0.1851851851851852
 40
0.1851851851851852
 40
0.2222222222222222
 40
0.2222222222222222
 40
0.2222222222222222
 40
0.2222222222222222
 40
0.2592592592592592
 40
0.2592592592592592
 40
0.2592592592592592
 40
0.2592592592592592
 40
0.2962962962962963
 40
0.2962962962962963
 40
0.2962962962962963
 40
0.2962962962962963
 40
0.3333333333333333
 40
0.3333333333333333
 40
0.3333333333333333
 40
0.3333333333333333
 40
0.3703703703703704
 40
0.3703703703703704
 40
0.3703703703703704
 40
0.3703703703703704
 40
0.4074074074074074
 40
0.4074074074074074
 40
0.4074074074074074
 40
0.4074074074074074
 40
0.4444444444444444
 40
0.4444444444444444
 40
0.4444444444444444
 40
0.4444444444444444
 40
0.4814814814814815
 40
0.4814814814814815
 40
0.4814814814814815
 40
0.4814814814814815
 40
0.5185185185185185
 40
0.5185185185185185
 40
0.5185185185185185
 40
0.5185185185185185
 40
0.5555555555555556
 40
0.5555555555555556
 40
0.5555555555555556
 40
0.5555555555555556
 40
0.5925925925925926
 40
0.5925925925925926
 40
0.5925925925925926
 40
0.5925925925925926
 40
0.6296296296296295
 40
0.6296296296296295
 40
0.6296296296296295
 40
0.6296296296296295
 40
0.6666666666666665
 40
0.6666666666666665
 40
0.6666666666666665
 40
0.6666666666666665
 40
0.7037037037037035
 40
0.7037037037037035
 40
0.7037037037037035
 40
0.7037037037037035
 40
0.7407407407407405
 40
0.7407407407407405
 40
0.7407407407407405
 40
0.7407407407407405
 40
0.7777777777777775
 40
0.7777777777777775
 40
0.7777777777777775
 40
0.7777777777777775
 40
0.8148148148148144
 40
0.8148148148148144
 40
0.8148148148148144
 40
0.8148148148148144
 40
0.8518518518518514
 40
0.8518518518518514
 40
0.8518518518518514
 40
0.8518518518518514
 40
0.8888888888888884
 40
0.8888888888888884
 40
0.8888888888888884
 40
0.8888888888888884
 40
0.9259259259259254
 40
0.9259259259259254
 40
0.9259259259259254
 40
0.9259259259259254
 40
0.9629629629629624
 40
0.9629629629629624
 40
0.9629629629629624
 40
0.9629629629629624
 40
1.0
 40
1.0
 40
1.0
 40
1.0
 10
2.5172800000000004
 20
-1.6388600000000002
 30
0.0
 10
2.4969600000000001
 20
-2.02494
 30
0.0
 10
2.5985600000000004
 20
-1.9004800000000002
 30
0.0
 10
2.5757000000000003
 20
-1.58552
 30
0.0
 10
2.5757000000000003
 20
-1.58552
 30
0.0
 10
2.63158
 20
-1.5321800000000001
 30
0.0
 10
2.6265000000000001
 20
-1.6566400000000001
 30
0.0
 10
2.6239600000000003
 20
-1.6896600000000002
 30
0.0
 10
2.6239600000000003
 20
-1.6896600000000002
 30
0.0
 10
2.7331800000000004
 20
-2.23576
 30
0.0
 10
2.9516200000000001
 20
-1.2172200000000002
 30
0.0
 10
2.9592400000000003
 20
-1.6896600000000002
 30
0.0
 10
2.9592400000000003
 20
-1.6896600000000002
 30
0.0
 10
2.9821000000000004
 20
-1.7252200000000002
 30
0.0
 10
3.0151200000000005
 20
-1.7785600000000001
 30
0.0
 10
3.0583000000000005
 20
-1.7785600000000001
 30
0.0
 10
3.0583000000000005
 20
-1.7785600000000001
 30
0.0
 10
3.0583000000000005
 20
-1.7785600000000001
 30
0.0
 10
3.2030800000000004
 20
-1.4813800000000001
 30
0.0
 10
3.2030800000000004
 20
-1.4813800000000001
 30
0.0
 10
3.2030800000000004
 20
-1.4813800000000001
 30
0.0
 10
3.2437200000000002
 20
-1.5499600000000002
 30
0.0
 10
3.2056200000000001
 20
-1.8293600000000001
 30
0.0
 10
3.3580200000000002
 20
-1.7252200000000002
 30
0.0
 10
3.3580200000000002
 20
-1.7252200000000002
 30
0.0
 10
3.0811600000000001
 20
-1.9716000000000002
 30
0.0
 10
3.5434400000000004
 20
-2.2891000000000004
 30
0.0
 10
3.4113600000000002
 20
-2.5685000000000002
 30
0.0
 10
3.4113600000000002
 20
-2.5685000000000002
 30
0.0
 10
3.0557600000000003
 20
-2.7463000000000002
 30
0.0
 10
2.5884
 20
-2.5532600000000003
 30
0.0
 10
2.2404200000000003
 20
-2.6421600000000001
 30
0.0
 10
2.2404200000000003
 20
-2.6421600000000001
 30
0.0
 10
1.9610200000000002
 20
-2.7107400000000004
 30
0.0
 10
1.6587600000000002
 20
-2.7234400000000001
 30
0.0
 10
1.3819000000000001
 20
-2.6548600000000002
 30
0.0
 10
1.3819000000000001
 20
-2.6548600000000002
 30
0.0
 10
1.2828400000000002
 20
-2.60406
 30
0.0
 10
1.19394
 20
-2.5329400000000004
 30
0.0
 10
1.1177400000000002
 20
-2.4465800000000004
 30
0.0
 10
1.1177400000000002
 20
-2.4465800000000004
 30
0.0
 10
0.785
 20
-1.6388600000000002
 30
0.0
 10
0.11444
 20
-1.2858000000000001
 30
0.0
 10
-0.5815100000000001
 20
-0.74224
 30
0.0
 10
-0.5815100000000001
 20
-0.74224
 30
0.0
 10
-0.8075700000000001
 20
-0.4095
 30
0.0
 10
-0.53325
 20
-0.07676
 30
0.0
 10
-0.4291100000000001
 20
0.23819
 30
0.0
 10
-0.4291100000000001
 20
0.23819
 30
0.0
 10
-0.3656100000000001
 20
0.44901
 30
0.0
 10
-0.4900700000000001
 20
0.64205
 30
0.0
 10
-0.44181
 20
0.8350900000000001
 30
0.0
 10
-0.44181
 20
0.8350900000000001
 30
0.0
 10
-0.44181
 20
0.8350900000000001
 30
0.0
 10
-0.25385
 20
0.53791
 30
0.0
 10
-0.25385
 20
0.53791
 30
0.0
 10
-0.25385
 20
0.53791
 30
0.0
 10
-0.18527
 20
0.34487
 30
0.0
 10
-0.09891
 20
0.13151
 30
0.0
 10
-0.09383
 20
-0.07676
 30
0.0
 10
-0.09383
 20
-0.07676
 30
0.0
 10
-0.18019
 20
-0.30282
 30
0.0
 10
-0.03287
 20
-0.6381
 30
0.0
 10
0.23382
 20
-0.6025400000000001
 30
0.0
 10
0.23382
 20
-0.6025400000000001
 30
0.0
 10
-0.07605
 20
-0.10978
 30
0.0
 10
-0.01509
 20
0.55315
 30
0.0
 10
-0.33513
 20
1.06369
 30
0.0
 10
-0.33513
 20
1.06369
 30
0.0
 10
0.06364
 20
1.15259
 30
0.0
 10
-0.22083
 20
0.7995300000000001
 30
0.0
 10
-0.01001
 20
0.65983
 30
0.0
 10
-0.01001
 20
0.65983
 30
0.0
 10
0.0992
 20
0.5201300000000001
 30
0.0
 10
0.31256
 20
0.46679
 30
0.0
 10
0.3405
 20
0.29153
 30
0.0
 10
0.3405
 20
0.29153
 30
0.0
 10
0.4421000000000001
 20
0.06293
 30
0.0
 10
0.3024
 20
-0.26726
 30
0.0
 10
0.46496
 20
-0.4603
 30
0.0
 10
0.46496
 20
-0.4603
 30
0.0
 10
0.7342000000000001
 20
-0.3739400000000001
 30
0.0
 10
0.7977000000000001
 20
-0.05898
 30
0.0
 10
0.9602600000000001
 20
0.14929
 30
0.0
 10
0.9602600000000001
 20
0.14929
 30
0.0
 10
1.0390000000000001
 20
0.14929
 30
0.0
 10
1.11266
 20
0.09849
 30
0.0
 10
1.1812400000000001
 20
0.06293
 30
0.0
 10
1.1812400000000001
 20
0.06293
 30
0.0
 10
0.91454
 20
-0.4247400000000001
 30
0.0
 10
0.82564
 20
-1.3747
 30
0.0
 10
1.4479400000000002
 20
-1.58552
 30
0.0
 10
1.4479400000000002
 20
-1.58552
 30
0.0
 10
1.5012800000000002
 20
-1.5677400000000001
 30
0.0
 10
1.5749400000000002
 20
-1.5321800000000001
 30
0.0
 10
1.5774800000000002
 20
-1.4636
 30
0.0
 10
1.5774800000000002
 20
-1.4636
 30
0.0
 10
1.5876400000000002
 20
-1.7074400000000001
 30
0.0
 10
1.8264000000000002
 20
-1.6566400000000001
 30
0.0
 10
1.8746600000000002
 20
-1.4458200000000001
 30
0.0
 10
1.8746600000000002
 20
-1.4458200000000001
 30
0.0
 10
1.8568800000000001
 20
-1.8141200000000002
 30
0.0
 10
2.12358
 20
-1.79634
 30
0.0
 10
2.2074000000000003
 20
-1.4636
 30
0.0
 10
2.2074000000000003
 20
-1.4636
 30
0.0
 10
2.1820000000000004
 20
-1.6896600000000002
 30
0.0
 10
2.4004400000000001
 20
-2.02494
 30
0.0
 10
2.5172800000000004
 20
-1.6388600000000002
 30
0.0
  0
SPLINE
  5
44
100
AcDbEntity
  8
Ebene 1
 62
     7
100
AcDbSpline
210
0.0
220
0.0
230
1.0
 70
     1
 71
     3
 72
    12
 73
     8
 74
     0
 42
0.0000000001
 43
0.0000000001
 40
0.0
 40
0.0
 40
0.0
 40
0.0
 40
0.5
 40
0.5
 40
0.5
 40
0.5
 40
1.0
 40
1.0
 40
1.0
 40
1.0
 10
1.8518000000000001
 20
-0.0412
 30
0.0
 10
1.9559400000000002
 20
-0.21646
 30
0.0
 10
2.0042
 20
-0.5136400000000001
 30
0.0
 10
1.9432400000000001
 20
-0.7244600000000001
 30
0.0
 10
1.9432400000000001
 20
-0.7244600000000001
 30
0.0
 10
1.9153000000000002
 20
-0.49586
 30
0.0
 10
1.9051400000000001
 20
-0.26726
 30
0.0
 10
1.8518000000000001
 20
-0.0412
 30
0.0
  0
SPLINE
  5
45
100
AcDbEntity
  8
Ebene 1
 62
     7
100
AcDbSpline
210
0.0
220
0.0
230
1.0
 70
     1
 71
     3
 72
    12
 73
     8
 74
     0
 42
0.0000000001
 43
0.0000000001
 40
0.0
 40
0.0
 40
0.0
 40
0.0
 40
0.5
 40
0.5
 40
0.5
 40
0.5
 40
1.0
 40
1.0
 40
1.0
 40
1.0
 10
1.7629000000000001
 20
-0.10978
 30
0.0
 10
1.8035400000000001
 20
-0.1809
 30
0.0
 10
1.9229200000000002
 20
-0.33838
 30
0.0
 10
1.7679800000000001
 20
-0.33838
 30
0.0
 10
1.7679800000000001
 20
-0.33838
 30
0.0
 10
1.7679800000000001
 20
-0.33838
 30
0.0
 10
1.7629000000000001
 20
-0.10978
 30
0.0
 10
1.7629000000000001
 20
-0.10978
 30
0.0
  0
SPLINE
  5
46
100
AcDbEntity
  8
Ebene 1
 62
     7
100
AcDbSpline
210
0.0
220
0.0
230
1.0
 70
     1
 71
     3
 72
    16
 73
    12
 74
     0
 42
0.0000000001
 43
0.0000000001
 40
0.0
 40
0.0
 40
0.0
 40
0.0
 40
0.3333333333333333
 40
0.3333333333333333
 40
0.3333333333333333
 40
0.3333333333333333
 40
0.6666666666666666
 40
0.6666666666666666
 40
0.6666666666666666
 40
0.6666666666666666
 40
1.0
 40
1.0
 40
1.0
 40
1.0
 10
-3.2891500000000002
 20
-0.12756
 30
0.0
 10
-3.2891500000000002
 20
-0.12756
 30
0.0
 10
-3.2205700000000004
 20
-0.26726
 30
0.0
 10
-3.2205700000000004
 20
-0.26726
 30
0.0
 10
-3.2205700000000004
 20
-0.26726
 30
0.0
 10
-3.2967700000000004
 20
-0.76002
 30
0.0
 10
-3.3907500000000002
 20
-1.3747
 30
0.0
 10
-3.8835100000000002
 20
-1.6566400000000001
 30
0.0
 10
-3.8835100000000002
 20
-1.6566400000000001
 30
0.0
 10
-3.5812500000000003
 20
-1.1994400000000001
 30
0.0
 10
-3.4288500000000002
 20
-0.65588
 30
0.0
 10
-3.2891500000000002
 20
-0.12756
 30
0.0
  0
SPLINE
  5
47
100
AcDbEntity
  8
Ebene 1
 62
     7
100
AcDbSpline
210
0.0
220
0.0
230
1.0
 70
     1
 71
     3
 72
    12
 73
     8
 74
     0
 42
0.0000000001
 43
0.0000000001
 40
0.0
 40
0.0
 40
0.0
 40
0.0
 40
0.5
 40
0.5
 40
0.5
 40
0.5
 40
1.0
 40
1.0
 40
1.0
 40
1.0
 10
1.8162400000000001
 20
-0.4095
 30
0.0
 10
1.9026000000000001
 20
-0.5492
 30
0.0
 10
1.9254600000000002
 20
-0.7778000000000001
 30
0.0
 10
1.8848200000000002
 20
-0.9530600000000001
 30
0.0
 10
1.8848200000000002
 20
-0.9530600000000001
 30
0.0
 10
1.6003400000000001
 20
-0.9530600000000001
 30
0.0
 10
1.7222600000000001
 20
-0.5492
 30
0.0
 10
1.8162400000000001
 20
-0.4095
 30
0.0
  0
SPLINE
  5
48
100
AcDbEntity
  8
Ebene 1
 62
     7
100
AcDbSpline
210
0.0
220
0.0
230
1.0
 70
     1
 71
     3
 72
    16
 73
    12
 74
     0
 42
0.0000000001
 43
0.0000000001
 40
0.0
 40
0.0
 40
0.0
 40
0.0
 40
0.3333333333333333
 40
0.3333333333333333
 40
0.3333333333333333
 40
0.3333333333333333
 40
0.6666666666666666
 40
0.6666666666666666
 40
0.6666666666666666
 40
0.6666666666666666
 40
1.0
 40
1.0
 40
1.0
 40
1.0
 10
2.8170000000000002
 20
-0.4095
 30
0.0
 10
2.9948000000000001
 20
-0.6203200000000001
 30
0.0
 10
2.9313000000000002
 20
-0.9352800000000001
 30
0.0
 10
2.9008200000000004
 20
-1.1994400000000001
 30
0.0
 10
2.9008200000000004
 20
-1.1994400000000001
 30
0.0
 10
2.9008200000000004
 20
-1.1994400000000001
 30
0.0
 10
2.71794
 20
-1.1994400000000001
 30
0.0
 10
2.71794
 20
-1.1994400000000001
 30
0.0
 10
2.71794
 20
-1.1994400000000001
 30
0.0
 10
2.6569800000000003
 20
-0.9352800000000001
 30
0.0
 10
2.7230200000000004
 20
-0.65588
 30
0.0
 10
2.8170000000000002
 20
-0.4095
 30
0.0
  0
SPLINE
  5
49
100
AcDbEntity
  8
Ebene 1
 62
     7
100
AcDbSpline
210
0.0
220
0.0
230
1.0
 70
     1
 71
     3
 72
    16
 73
    12
 74
     0
 42
0.0000000001
 43
0.0000000001
 40
0.0
 40
0.0
 40
0.0
 40
0.0
 40
0.3333333333333333
 40
0.3333333333333333
 40
0.3333333333333333
 40
0.3333333333333333
 40
0.6666666666666666
 40
0.6666666666666666
 40
0.6666666666666666
 40
0.6666666666666666
 40
1.0
 40
1.0
 40
1.0
 40
1.0
 10
3.0456000000000003
 20
-0.4247400000000001
 30
0.0
 10
3.1497400000000004
 20
-0.6203200000000001
 30
0.0
 10
3.1802200000000003
 20
-0.8667
 30
0.0
 10
3.1827600000000005
 20
-1.1105400000000001
 30
0.0
 10
3.1827600000000005
 20
-1.1105400000000001
 30
0.0
 10
3.1827600000000005
 20
-1.1105400000000001
 30
0.0
 10
3.0633800000000004
 20
-1.16388
 30
0.0
 10
3.0633800000000004
 20
-1.16388
 30
0.0
 10
3.0633800000000004
 20
-1.16388
 30
0.0
 10
2.9440000000000004
 20
-0.9530600000000001
 30
0.0
 10
3.0125800000000003
 20
-0.65588
 30
0.0
 10
3.0456000000000003
 20
-0.4247400000000001
 30
0.0
  0
SPLINE
  5
4A
100
AcDbEntity
  8
Ebene 1
 62
     7
100
AcDbSpline
210
0.0
220
0.0
230
1.0
 70
     1
 71
     3
 72
    20
 73
    16
 74
     0
 42
0.0000000001
 43
0.0000000001
 40
0.0
 40
0.0
 40
0.0
 40
0.0
 40
0.25
 40
0.25
 40
0.25
 40
0.25
 40
0.5
 40
0.5
 40
0.5
 40
0.5
 40
0.75
 40
0.75
 40
0.75
 40
0.75
 40
1.0
 40
1.0
 40
1.0
 40
1.0
 10
3.2742000000000004
 20
-0.5847600000000001
 30
0.0
 10
3.3885000000000001
 20
-0.7066800000000001
 30
0.0
 10
3.3554800000000005
 20
-0.8997200000000001
 30
0.0
 10
3.3935800000000005
 20
-1.0572000000000001
 30
0.0
 10
3.3935800000000005
 20
-1.0572000000000001
 30
0.0
 10
3.3935800000000005
 20
-1.0572000000000001
 30
0.0
 10
3.2970600000000001
 20
-1.1105400000000001
 30
0.0
 10
3.2970600000000001
 20
-1.1105400000000001
 30
0.0
 10
3.2970600000000001
 20
-1.1105400000000001
 30
0.0
 10
3.2005400000000002
 20
-1.0064000000000002
 30
0.0
 10
3.2513400000000003
 20
-0.8489200000000001
 30
0.0
 10
3.2030800000000004
 20
-0.7244600000000001
 30
0.0
 10
3.2030800000000004
 20
-0.7244600000000001
 30
0.0
 10
3.2411800000000004
 20
-0.6889000000000001
 30
0.0
 10
3.2792800000000004
 20
-0.65588
 30
0.0
 10
3.2742000000000004
 20
-0.5847600000000001
 30
0.0
  0
SPLINE
  5
4B
100
AcDbEntity
  8
Ebene 1
 62
     7
100
AcDbSpline
210
0.0
220
0.0
230
1.0
 70
     1
 71
     3
 72
    16
 73
    12
 74
     0
 42
0.0000000001
 43
0.0000000001
 40
0.0
 40
0.0
 40
0.0
 40
0.0
 40
0.3333333333333333
 40
0.3333333333333333
 40
0.3333333333333333
 40
0.3333333333333333
 40
0.6666666666666666
 40
0.6666666666666666
 40
0.6666666666666666
 40
0.6666666666666666
 40
1.0
 40
1.0
 40
1.0
 40
1.0
 10
2.4664800000000002
 20
-0.6025400000000001
 30
0.0
 10
2.5985600000000004
 20
-0.76002
 30
0.0
 10
2.5630000000000002
 20
-0.9886200000000001
 30
0.0
 10
2.5858600000000003
 20
-1.1816600000000002
 30
0.0
 10
2.5858600000000003
 20
-1.1816600000000002
 30
0.0
 10
2.5223600000000004
 20
-1.2324600000000001
 30
0.0
 10
2.4233000000000002
 20
-1.2172200000000002
 30
0.0
 10
2.3496400000000004
 20
-1.1994400000000001
 30
0.0
 10
2.3496400000000004
 20
-1.1994400000000001
 30
0.0
 10
2.2963
 20
-1.0064000000000002
 30
0.0
 10
2.3725000000000001
 20
-0.7778000000000001
 30
0.0
 10
2.4664800000000002
 20
-0.6025400000000001
 30
0.0
  0
SPLINE
  5
4C
100
AcDbEntity
  8
Ebene 1
 62
     7
100
AcDbSpline
210
0.0
220
0.0
230
1.0
 70
     1
 71
     3
 72
    16
 73
    12
 74
     0
 42
0.0000000001
 43
0.0000000001
 40
0.0
 40
0.0
 40
0.0
 40
0.0
 40
0.3333333333333333
 40
0.3333333333333333
 40
0.3333333333333333
 40
0.3333333333333333
 40
0.6666666666666666
 40
0.6666666666666666
 40
0.6666666666666666
 40
0.6666666666666666
 40
1.0
 40
1.0
 40
1.0
 40
1.0
 10
3.4494600000000002
 20
-0.6025400000000001
 30
0.0
 10
3.4494600000000002
 20
-0.6025400000000001
 30
0.0
 10
3.4977200000000002
 20
-1.0241800000000001
 30
0.0
 10
3.4977200000000002
 20
-1.0241800000000001
 30
0.0
 10
3.4977200000000002
 20
-1.0241800000000001
 30
0.0
 10
3.4977200000000002
 20
-1.0241800000000001
 30
0.0
 10
3.4545400000000002
 20
-1.0241800000000001
 30
0.0
 10
3.4545400000000002
 20
-1.0241800000000001
 30
0.0
 10
3.4545400000000002
 20
-1.0241800000000001
 30
0.0
 10
3.4062800000000002
 20
-0.8819400000000001
 30
0.0
 10
3.4240600000000003
 20
-0.74224
 30
0.0
 10
3.4494600000000002
 20
-0.6025400000000001
 30
0.0
  0
SPLINE
  5
4D
100
AcDbEntity
  8
Ebene 1
 62
     7
100
AcDbSpline
210
0.0
220
0.0
230
1.0
 70
     1
 71
     3
 72
    12
 73
     8
 74
     0
 42
0.0000000001
 43
0.0000000001
 40
0.0
 40
0.0
 40
0.0
 40
0.0
 40
0.5
 40
0.5
 40
0.5
 40
0.5
 40
1.0
 40
1.0
 40
1.0
 40
1.0
 10
2.1159600000000003
 20
-0.6203200000000001
 30
0.0
 10
2.2277200000000001
 20
-0.7244600000000001
 30
0.0
 10
2.2658200000000002
 20
-1.0064000000000002
 30
0.0
 10
2.1820000000000004
 20
-1.1461000000000001
 30
0.0
 10
2.1820000000000004
 20
-1.1461000000000001
 30
0.0
 10
1.8772000000000002
 20
-1.0927600000000002
 30
0.0
 10
2.0397600000000002
 20
-0.7955800000000001
 30
0.0
 10
2.1159600000000003
 20
-0.6203200000000001
 30
0.0
  0
SPLINE
  5
4E
100
AcDbEntity
  8
Ebene 1
 62
     7
100
AcDbSpline
210
0.0
220
0.0
230
1.0
 70
     1
 71
     3
 72
    12
 73
     8
 74
     0
 42
0.0000000001
 43
0.0000000001
 40
0.0
 40
0.0
 40
0.0
 40
0.0
 40
0.5
 40
0.5
 40
0.5
 40
0.5
 40
1.0
 40
1.0
 40
1.0
 40
1.0
 10
1.7451200000000002
 20
-0.9886200000000001
 30
0.0
 10
2.0753200000000001
 20
-1.0064000000000002
 30
0.0
 10
1.8137000000000001
 20
-1.4280400000000002
 30
0.0
 10
1.7171800000000002
 20
-1.5677400000000001
 30
0.0
 10
1.7171800000000002
 20
-1.5677400000000001
 30
0.0
 10
1.6282800000000002
 20
-1.3924800000000002
 30
0.0
 10
1.69432
 20
-1.16388
 30
0.0
 10
1.7451200000000002
 20
-0.9886200000000001
 30
0.0
  0
SPLINE
  5
4F
100
AcDbEntity
  8
Ebene 1
 62
     7
100
AcDbSpline
210
0.0
220
0.0
230
1.0
 70
     1
 71
     3
 72
    16
 73
    12
 74
     0
 42
0.0000000001
 43
0.0000000001
 40
0.0
 40
0.0
 40
0.0
 40
0.0
 40
0.3333333333333333
 40
0.3333333333333333
 40
0.3333333333333333
 40
0.3333333333333333
 40
0.6666666666666666
 40
0.6666666666666666
 40
0.6666666666666666
 40
0.6666666666666666
 40
1.0
 40
1.0
 40
1.0
 40
1.0
 10
1.9915000000000003
 20
-1.1461000000000001
 30
0.0
 10
1.9915000000000003
 20
-1.1461000000000001
 30
0.0
 10
2.21502
 20
-1.1994400000000001
 30
0.0
 10
2.21502
 20
-1.1994400000000001
 30
0.0
 10
2.21502
 20
-1.1994400000000001
 30
0.0
 10
2.1997800000000001
 20
-1.3747
 30
0.0
 10
2.12866
 20
-1.5321800000000001
 30
0.0
 10
2.00928
 20
-1.6566400000000001
 30
0.0
 10
2.00928
 20
-1.6566400000000001
 30
0.0
 10
1.8949800000000001
 20
-1.5499600000000002
 30
0.0
 10
1.9661000000000002
 20
-1.3035800000000002
 30
0.0
 10
1.9915000000000003
 20
-1.1461000000000001
 30
0.0
  0
SPLINE
  5
50
100
AcDbEntity
  8
Ebene 1
 62
     7
100
AcDbSpline
210
0.0
220
0.0
230
1.0
 70
     1
 71
     3
 72
    16
 73
    12
 74
     0
 42
0.0000000001
 43
0.0000000001
 40
0.0
 40
0.0
 40
0.0
 40
0.0
 40
0.3333333333333333
 40
0.3333333333333333
 40
0.3333333333333333
 40
0.3333333333333333
 40
0.6666666666666666
 40
0.6666666666666666
 40
0.6666666666666666
 40
0.6666666666666666
 40
1.0
 40
1.0
 40
1.0
 40
1.0
 10
3.3605600000000004
 20
-1.1994400000000001
 30
0.0
 10
3.3605600000000004
 20
-1.1994400000000001
 30
0.0
 10
3.3935800000000005
 20
-1.1994400000000001
 30
0.0
 10
3.3935800000000005
 20
-1.1994400000000001
 30
0.0
 10
3.3935800000000005
 20
-1.1994400000000001
 30
0.0
 10
3.3910400000000003
 20
-1.3569200000000001
 30
0.0
 10
3.3707200000000004
 20
-1.5144000000000002
 30
0.0
 10
3.2970600000000001
 20
-1.6388600000000002
 30
0.0
 10
3.2970600000000001
 20
-1.6388600000000002
 30
0.0
 10
3.2742000000000004
 20
-1.49916
 30
0.0
 10
3.2183200000000003
 20
-1.2858000000000001
 30
0.0
 10
3.3605600000000004
 20
-1.1994400000000001
 30
0.0
  0
SPLINE
  5
51
100
AcDbEntity
  8
Ebene 1
 62
     7
100
AcDbSpline
210
0.0
220
0.0
230
1.0
 70
     1
 71
     3
 72
    16
 73
    12
 74
     0
 42
0.0000000001
 43
0.0000000001
 40
0.0
 40
0.0
 40
0.0
 40
0.0
 40
0.3333333333333333
 40
0.3333333333333333
 40
0.3333333333333333
 40
0.3333333333333333
 40
0.6666666666666666
 40
0.6666666666666666
 40
0.6666666666666666
 40
0.6666666666666666
 40
1.0
 40
1.0
 40
1.0
 40
1.0
 10
2.29122
 20
-1.25024
 30
0.0
 10
2.29122
 20
-1.25024
 30
0.0
 10
2.5858600000000003
 20
-1.2680200000000001
 30
0.0
 10
2.5858600000000003
 20
-1.2680200000000001
 30
0.0
 10
2.5858600000000003
 20
-1.2680200000000001
 30
0.0
 10
2.5579200000000002
 20
-1.4458200000000001
 30
0.0
 10
2.4436200000000001
 20
-1.6210800000000001
 30
0.0
 10
2.3598000000000003
 20
-1.7607800000000002
 30
0.0
 10
2.3598000000000003
 20
-1.7607800000000002
 30
0.0
 10
2.2759800000000001
 20
-1.6210800000000001
 30
0.0
 10
2.2455000000000003
 20
-1.4280400000000002
 30
0.0
 10
2.29122
 20
-1.25024
 30
0.0
  0
SPLINE
  5
52
100
AcDbEntity
  8
Ebene 1
 62
     7
100
AcDbSpline
210
0.0
220
0.0
230
1.0
 70
     1
 71
     3
 72
    16
 73
    12
 74
     0
 42
0.0000000001
 43
0.0000000001
 40
0.0
 40
0.0
 40
0.0
 40
0.0
 40
0.3333333333333333
 40
0.3333333333333333
 40
0.3333333333333333
 40
0.3333333333333333
 40
0.6666666666666666
 40
0.6666666666666666
 40
0.6666666666666666
 40
0.6666666666666666
 40
1.0
 40
1.0
 40
1.0
 40
1.0
 10
3.0989400000000002
 20
-1.2680200000000001
 30
0.0
 10
3.1268800000000003
 20
-1.2680200000000001
 30
0.0
 10
3.1624400000000001
 20
-1.2680200000000001
 30
0.0
 10
3.1827600000000005
 20
-1.2858000000000001
 30
0.0
 10
3.1827600000000005
 20
-1.2858000000000001
 30
0.0
 10
3.1548200000000004
 20
-1.4102600000000001
 30
0.0
 10
3.1091000000000002
 20
-1.5499600000000002
 30
0.0
 10
3.0405200000000003
 20
-1.67188
 30
0.0
 10
3.0405200000000003
 20
-1.67188
 30
0.0
 10
2.9643200000000003
 20
-1.5677400000000001
 30
0.0
 10
2.9465400000000002
 20
-1.3213600000000001
 30
0.0
 10
3.0989400000000002
 20
-1.2680200000000001
 30
0.0
  0
SPLINE
  5
53
100
AcDbEntity
  8
Ebene 1
 62
     7
100
AcDbSpline
210
0.0
220
0.0
230
1.0
 70
     1
 71
     3
 72
    16
 73
    12
 74
     0
 42
0.0000000001
 43
0.0000000001
 40
0.0
 40
0.0
 40
0.0
 40
0.0
 40
0.3333333333333333
 40
0.3333333333333333
 40
0.3333333333333333
 40
0.3333333333333333
 40
0.6666666666666666
 40
0.6666666666666666
 40
0.6666666666666666
 40
0.6666666666666666
 40
1.0
 40
1.0
 40
1.0
 40
1.0
 10
2.6773000000000002
 20
-1.3035800000000002
 30
0.0
 10
2.6773000000000002
 20
-1.3035800000000002
 30
0.0
 10
2.9008200000000004
 20
-1.3391400000000002
 30
0.0
 10
2.9008200000000004
 20
-1.3391400000000002
 30
0.0
 10
2.9008200000000004
 20
-1.3391400000000002
 30
0.0
 10
2.8830400000000003
 20
-1.49916
 30
0.0
 10
2.8068400000000002
 20
-1.6566400000000001
 30
0.0
 10
2.7281000000000004
 20
-1.7785600000000001
 30
0.0
 10
2.7281000000000004
 20
-1.7785600000000001
 30
0.0
 10
2.6569800000000003
 20
-1.6566400000000001
 30
0.0
 10
2.6392000000000002
 20
-1.4636
 30
0.0
 10
2.6773000000000002
 20
-1.3035800000000002
 30
0.0
  0
SPLINE
  5
54
100
AcDbEntity
  8
Ebene 1
 62
     7
100
AcDbSpline
210
0.0
220
0.0
230
1.0
 70
     1
 71
     3
 72
    16
 73
    12
 74
     0
 42
0.0000000001
 43
0.0000000001
 40
0.0
 40
0.0
 40
0.0
 40
0.0
 40
0.3333333333333333
 40
0.3333333333333333
 40
0.3333333333333333
 40
0.3333333333333333
 40
0.6666666666666666
 40
0.6666666666666666
 40
0.6666666666666666
 40
0.6666666666666666
 40
1.0
 40
1.0
 40
1.0
 40
1.0
 10
-0.11161
 20
-1.4458200000000001
 30
0.0
 10
0.5005200000000001
 20
-2.5329400000000004
 30
0.0
 10
0.42686
 20
-4.0417000000000005
 30
0.0
 10
0.1881
 20
-5.2558200000000008
 30
0.0
 10
0.1881
 20
-5.2558200000000008
 30
0.0
 10
0.1373
 20
-4.00868
 30
0.0
 10
0.2135
 20
-2.7437600000000004
 30
0.0
 10
-0.17765
 20
-1.6033000000000002
 30
0.0
 10
-0.17765
 20
-1.6033000000000002
 30
0.0
 10
-0.17765
 20
-1.6033000000000002
 30
0.0
 10
-0.11161
 20
-1.4458200000000001
 30
0.0
 10
-0.11161
 20
-1.4458200000000001
 30
0.0
  0
SPLINE
  5
55
100
AcDbEntity
  8
Ebene 1
 62
     7
100
AcDbSpline
210
0.0
220
0.0
230
1.0
 70
     1
 71
     3
 72
    28
 73
    24
 74
     0
 42
0.0000000001
 43
0.0000000001
 40
0.0
 40
0.0
 40
0.0
 40
0.0
 40
0.1666666666666667
 40
0.1666666666666667
 40
0.1666666666666667
 40
0.1666666666666667
 40
0.3333333333333333
 40
0.3333333333333333
 40
0.3333333333333333
 40
0.3333333333333333
 40
0.5
 40
0.5
 40
0.5
 40
0.5
 40
0.6666666666666666
 40
0.6666666666666666
 40
0.6666666666666666
 40
0.6666666666666666
 40
0.8333333333333333
 40
0.8333333333333333
 40
0.8333333333333333
 40
0.8333333333333333
 40
1.0
 40
1.0
 40
1.0
 40
1.0
 10
-0.39355
 20
-1.4636
 30
0.0
 10
-0.39355
 20
-1.4636
 30
0.0
 10
-0.28687
 20
-1.7074400000000001
 30
0.0
 10
-0.28687
 20
-1.7074400000000001
 30
0.0
 10
-0.28687
 20
-1.7074400000000001
 30
0.0
 10
-0.29195
 20
-2.1290800000000001
 30
0.0
 10
-0.5180100000000001
 20
-2.4618200000000003
 30
0.0
 10
-0.69581
 20
-2.8326600000000002
 30
0.0
 10
-0.69581
 20
-2.8326600000000002
 30
0.0
 10
-0.69581
 20
-2.8326600000000002
 30
0.0
 10
-0.73899
 20
-2.7971000000000004
 30
0.0
 10
-0.73899
 20
-2.7971000000000004
 30
0.0
 10
-0.73899
 20
-2.7971000000000004
 30
0.0
 10
-0.7542300000000001
 20
-2.9901400000000002
 30
0.0
 10
-0.95235
 20
-3.1654000000000004
 30
0.0
 10
-1.08951
 20
-3.2517600000000004
 30
0.0
 10
-1.08951
 20
-3.2517600000000004
 30
0.0
 10
-1.08951
 20
-3.2517600000000004
 30
0.0
 10
-1.0564900000000002
 20
-3.0257000000000001
 30
0.0
 10
-1.0564900000000002
 20
-3.0257000000000001
 30
0.0
 10
-1.0564900000000002
 20
-3.0257000000000001
 30
0.0
 10
-0.6018300000000001
 20
-2.6548600000000002
 30
0.0
 10
-0.47737
 20
-2.02494
 30
0.0
 10
-0.39355
 20
-1.4636
 30
0.0
  0
SPLINE
  5
56
100
AcDbEntity
  8
Ebene 1
 62
     7
100
AcDbSpline
210
0.0
220
0.0
230
1.0
 70
     1
 71
     3
 72
    16
 73
    12
 74
     0
 42
0.0000000001
 43
0.0000000001
 40
0.0
 40
0.0
 40
0.0
 40
0.0
 40
0.3333333333333333
 40
0.3333333333333333
 40
0.3333333333333333
 40
0.3333333333333333
 40
0.6666666666666666
 40
0.6666666666666666
 40
0.6666666666666666
 40
0.6666666666666666
 40
1.0
 40
1.0
 40
1.0
 40
1.0
 10
-0.26909
 20
-2.39324
 30
0.0
 10
-0.24877
 20
-2.39324
 30
0.0
 10
-0.23353
 20
-2.39324
 30
0.0
 10
-0.22083
 20
-2.4110200000000002
 30
0.0
 10
-0.22083
 20
-2.4110200000000002
 30
0.0
 10
-0.20559
 20
-2.60406
 30
0.0
 10
-0.22591
 20
-2.7971000000000004
 30
0.0
 10
-0.23861
 20
-2.9901400000000002
 30
0.0
 10
-0.23861
 20
-2.9901400000000002
 30
0.0
 10
-0.33767
 20
-2.8326600000000002
 30
0.0
 10
-0.27417
 20
-2.5685000000000002
 30
0.0
 10
-0.26909
 20
-2.39324
 30
0.0
  0
SPLINE
  5
57
100
AcDbEntity
  8
Ebene 1
100
AcDbSpline
210
0.0
220
0.0
230
1.0
 70
     1
 71
     3
 72
    20
 73
    16
 74
     0
 42
0.0000000001
 43
0.0000000001
 40
0.0
 40
0.0
 40
0.0
 40
0.0
 40
0.25
 40
0.25
 40
0.25
 40
0.25
 40
0.5
 40
0.5
 40
0.5
 40
0.5
 40
0.75
 40
0.75
 40
0.75
 40
0.75
 40
1.0
 40
1.0
 40
1.0
 40
1.0
 10
2.2378800000000001
 20
-2.4465800000000004
 30
0.0
 10
2.46394
 20
-2.4796
 30
0.0
 10
2.7509600000000001
 20
-2.3754600000000003
 30
0.0
 10
2.9414600000000002
 20
-2.4973800000000002
 30
0.0
 10
2.9414600000000002
 20
-2.4973800000000002
 30
0.0
 10
2.9414600000000002
 20
-2.4973800000000002
 30
0.0
 10
2.9008200000000004
 20
-2.5685000000000002
 30
0.0
 10
2.9008200000000004
 20
-2.5685000000000002
 30
0.0
 10
2.9008200000000004
 20
-2.5685000000000002
 30
0.0
 10
2.6900000000000004
 20
-2.5507200000000001
 30
0.0
 10
2.4893400000000003
 20
-2.5329400000000004
 30
0.0
 10
2.2785200000000003
 20
-2.5507200000000001
 30
0.0
 10
2.2785200000000003
 20
-2.5507200000000001
 30
0.0
 10
2.2785200000000003
 20
-2.5507200000000001
 30
0.0
 10
2.2378800000000001
 20
-2.4465800000000004
 30
0.0
 10
2.2378800000000001
 20
-2.4465800000000004
 30
0.0
  0
SPLINE
  5
58
100
AcDbEntity
  8
Ebene 1
 62
     7
100
AcDbSpline
210
0.0
220
0.0
230
1.0
 70
     1
 71
     3
 72
    16
 73
    12
 74
     0
 42
0.0000000001
 43
0.0000000001
 40
0.0
 40
0.0
 40
0.0
 40
0.0
 40
0.3333333333333333
 40
0.3333333333333333
 40
0.3333333333333333
 40
0.3333333333333333
 40
0.6666666666666666
 40
0.6666666666666666
 40
0.6666666666666666
 40
0.6666666666666666
 40
1.0
 40
1.0
 40
1.0
 40
1.0
 10
3.1497400000000004
 20
-2.7793200000000002
 30
0.0
 10
3.1497400000000004
 20
-2.7793200000000002
 30
0.0
 10
3.1827600000000005
 20
-2.7793200000000002
 30
0.0
 10
3.1827600000000005
 20
-2.7793200000000002
 30
0.0
 10
3.1827600000000005
 20
-2.7793200000000002
 30
0.0
 10
3.1599000000000004
 20
-2.9368000000000003
 30
0.0
 10
3.1675200000000001
 20
-3.11206
 30
0.0
 10
3.1040200000000002
 20
-3.2517600000000004
 30
0.0
 10
3.1040200000000002
 20
-3.2517600000000004
 30
0.0
 10
3.0913200000000001
 20
-3.0942800000000004
 30
0.0
 10
3.1116400000000004
 20
-2.9368000000000003
 30
0.0
 10
3.1497400000000004
 20
-2.7793200000000002
 30
0.0
  0
SPLINE
  5
59
100
AcDbEntity
  8
Ebene 1
 62
     7
100
AcDbSpline
210
0.0
220
0.0
230
1.0
 70
     1
 71
     3
 72
    12
 73
     8
 74
     0
 42
0.0000000001
 43
0.0000000001
 40
0.0
 40
0.0
 40
0.0
 40
0.0
 40
0.5
 40
0.5
 40
0.5
 40
0.5
 40
1.0
 40
1.0
 40
1.0
 40
1.0
 10
-1.07935
 20
-2.7971000000000004
 30
0.0
 10
-0.99299
 20
-2.81488
 30
0.0
 10
-1.0285500000000001
 20
-2.9368000000000003
 30
0.0
 10
-1.07935
 20
-2.9723600000000001
 30
0.0
 10
-1.07935
 20
-2.9723600000000001
 30
0.0
 10
-1.07935
 20
-2.9723600000000001
 30
0.0
 10
-1.07935
 20
-2.7971000000000004
 30
0.0
 10
-1.07935
 20
-2.7971000000000004
 30
0.0
  0
SPLINE
  5
5A
100
AcDbEntity
  8
Ebene 1
 62
     7
100
AcDbSpline
210
0.0
220
0.0
230
1.0
 70
     1
 71
     3
 72
    12
 73
     8
 74
     0
 42
0.0000000001
 43
0.0000000001
 40
0.0
 40
0.0
 40
0.0
 40
0.0
 40
0.5
 40
0.5
 40
0.5
 40
0.5
 40
1.0
 40
1.0
 40
1.0
 40
1.0
 10
1.2015600000000002
 20
-2.8326600000000002
 30
0.0
 10
1.4936600000000002
 20
-3.1654000000000004
 30
0.0
 10
1.1660000000000001
 20
-3.6581600000000001
 30
0.0
 10
0.9780400000000001
 20
-3.9731200000000002
 30
0.0
 10
0.9780400000000001
 20
-3.9731200000000002
 30
0.0
 10
1.1355200000000001
 20
-3.6226000000000003
 30
0.0
 10
1.1152000000000002
 20
-3.2009600000000002
 30
0.0
 10
1.2015600000000002
 20
-2.8326600000000002
 30
0.0
  0
SPLINE
  5
5B
100
AcDbEntity
  8
Ebene 1
 62
     7
100
AcDbSpline
210
0.0
220
0.0
230
1.0
 70
     1
 71
     3
 72
    12
 73
     8
 74
     0
 42
0.0000000001
 43
0.0000000001
 40
0.0
 40
0.0
 40
0.0
 40
0.0
 40
0.5
 40
0.5
 40
0.5
 40
0.5
 40
1.0
 40
1.0
 40
1.0
 40
1.0
 10
-1.46289
 20
-3.5159200000000004
 30
0.0
 10
-1.38161
 20
-3.5514800000000002
 30
0.0
 10
-1.4908300000000001
 20
-3.7267400000000004
 30
0.0
 10
-1.5644900000000002
 20
-3.7445200000000005
 30
0.0
 10
-1.5644900000000002
 20
-3.7445200000000005
 30
0.0
 10
-1.5644900000000002
 20
-3.7445200000000005
 30
0.0
 10
-1.46289
 20
-3.5159200000000004
 30
0.0
 10
-1.46289
 20
-3.5159200000000004
 30
0.0
  0
SPLINE
  5
5C
100
AcDbEntity
  8
Ebene 1
 62
     7
100
AcDbSpline
210
0.0
220
0.0
230
1.0
 70
     1
 71
     3
 72
    16
 73
    12
 74
     0
 42
0.0000000001
 43
0.0000000001
 40
0.0
 40
0.0
 40
0.0
 40
0.0
 40
0.3333333333333333
 40
0.3333333333333333
 40
0.3333333333333333
 40
0.3333333333333333
 40
0.6666666666666666
 40
0.6666666666666666
 40
0.6666666666666666
 40
0.6666666666666666
 40
1.0
 40
1.0
 40
1.0
 40
1.0
 10
-0.6907300000000001
 20
-3.7978600000000005
 30
0.0
 10
-0.6907300000000001
 20
-3.7978600000000005
 30
0.0
 10
-0.66025
 20
-3.7978600000000005
 30
0.0
 10
-0.66025
 20
-3.7978600000000005
 30
0.0
 10
-0.66025
 20
-3.7978600000000005
 30
0.0
 10
-0.6246900000000001
 20
-3.9909000000000003
 30
0.0
 10
-0.6069100000000001
 20
-4.2017200000000008
 30
0.0
 10
-0.6246900000000001
 20
-4.3947600000000007
 30
0.0
 10
-0.6246900000000001
 20
-4.3947600000000007
 30
0.0
 10
-0.6246900000000001
 20
-4.3947600000000007
 30
0.0
 10
-0.6907300000000001
 20
-3.7978600000000005
 30
0.0
 10
-0.6907300000000001
 20
-3.7978600000000005
 30
0.0
  0
ENDSEC
  0
SECTION
  2
OBJECTS
  0
DICTIONARY
  5
19
100
AcDbDictionary
280
     0
281
     1
  3
ACAD_GROUP
350
1A
  3
ACAD_MLINESTYLE
350
1B
  3
ACAD_LAYOUT
350
1E
  3
ACAD_PLOTSETTINGS
350
22
  3
ACAD_PLOTSTYLENAME
350
1F
  3
ACAD_WIPEOUT_VARS
350
23
  0
DICTIONARY
  5
1A
102
{ACAD_REACTORS
330
19
102
}
100
AcDbDictionary
280
     0
281
     1
  0
DICTIONARY
  5
1B
102
{ACAD_REACTORS
330
19
102
}
100
AcDbDictionary
280
     0
281
     1
  3
Standard
350
1C
  0
MLINESTYLE
  5
1C
102
{ACAD_REACTORS
330
1B
102
}
100
AcDbMlineStyle
  2
Standard
 70
     0
  3

 62
     0
 51
90.0
 52
90.0
 71
     2
 49
0.5
 62
   256
  6
BYLAYER
 49
-0.5
 62
   256
  6
BYLAYER
  0
ACDBDICTIONARYWDFLT
  5
1F
102
{ACAD_REACTORS
330
19
102
}
100
AcDbDictionary
281
     1
  3
Normal
350
1D
100
AcDbDictionaryWithDefault
340
1D
  0
ACDBPLACEHOLDER
  5
1D
102
{ACAD_REACTORS
330
1F
102
}
  0
LAYOUT
  5
20
102
{ACAD_REACTORS
330
1E
102
}
100
AcDbPlotSettings
  1

  2

  4

  6

 40
0.0
 41
0.0
 42
0.0
 43
0.0
 44
0.0
 45
0.0
 46
0.0
 47
0.0
 48
0.0
 49
0.0
140
0.0
141
0.0
142
1.0
143
1.0
 70
  1024
 72
     0
 73
     0
 74
     0
  7

 75
     0
147
1.0
148
0.0
149
0.0
100
AcDbLayout
  1
Model
 70
     0
 71
     0
 10
0.0
 20
0.0
 11
0.0
 21
0.0
 12
0.0
 22
0.0
 32
0.0
 14
0.0
 24
0.0
 34
0.0
 15
0.0
 25
0.0
 35
0.0
146
0.0
 13
0.0
 23
0.0
 33
0.0
 16
0.0
 26
0.0
 36
0.0
 17
0.0
 27
0.0
 37
0.0
 76
     0
330
A
331
0
345
0
346
0
  0
LAYOUT
  5
21
102
{ACAD_REACTORS
330
1E
102
}
100
AcDbPlotSettings
  1

  2

  4

  6

 40
0.0
 41
0.0
 42
0.0
 43
0.0
 44
0.0
 45
0.0
 46
0.0
 47
0.0
 48
0.0
 49
0.0
140
0.0
141
0.0
142
1.0
143
1.0
 70
     0
 72
     0
 73
     0
 74
     0
  7

 75
     0
147
1.0
148
0.0
149
0.0
100
AcDbLayout
  1
Layout1
 70
     0
 71
     0
 10
0.0
 20
0.0
 11
0.0
 21
0.0
 12
0.0
 22
0.0
 32
0.0
 14
0.0
 24
0.0
 34
0.0
 15
0.0
 25
0.0
 35
0.0
146
0.0
 13
0.0
 23
0.0
 33
0.0
 16
0.0
 26
0.0
 36
0.0
 17
0.0
 27
0.0
 37
0.0
 76
     0
330
B
331
0
345
0
346
0
  0
DICTIONARY
  5
1E
102
{ACAD_REACTORS
330
19
102
}
100
AcDbDictionary
280
     0
281
     1
  3
Layout1
350
21
  3
Model
350
20
  0
DICTIONARY
  5
22
102
{ACAD_REACTORS
330
19
102
}
100
AcDbDictionary
280
     0
281
     1
  0
WIPEOUTVARIABLES
  5
23
100
AcDbWipeoutVariables
 70
     1
  0
ENDSEC
  0
EOF
