  0
SECTION
  2
HEADER
  9
$ACADVER
  1
AC1015
  9
$ACADMAINTVER
 70
     6
  9
$DWGCODEPAGE
  3
DOS850
  9
$INSBASE
 10
0.0
 20
0.0
 30
0.0
  9
$EXTMIN
 10
-4.36103
 20
-5.77828
 30
1.000000E+20
  9
$EXTMAX
 10
4.36557
 20
5.77285
 30
-1.000000E+20
  9
$LIMMIN
 10
0.0
 20
0.0
  9
$LIMMAX
 10
0.0
 20
0.0
  9
$ORTHOMODE
 70
     0
  9
$REGENMODE
 70
     1
  9
$FILLMODE
 70
     1
  9
$QTEXTMODE
 70
     0
  9
$MIRRTEXT
 70
     1
  9
$LTSCALE
 40
1.0
  9
$ATTMODE
 70
     1
  9
$TEXTSIZE
 40
0.2
  9
$TRACEWID
 40
0.05
  9
$TEXTSTYLE
  7
Standard
  9
$CLAYER
  8
0
  9
$CELTYPE
  6
Continuous
  9
$CECOLOR
 62
   256
  9
$CELTSCALE
 40
1.0
  9
$DISPSILH
 70
     0
  9
$DIMSCALE
 40
1.0
  9
$DIMASZ
 40
0.18
  9
$DIMEXO
 40
0.0625
  9
$DIMDLI
 40
0.38
  9
$DIMRND
 40
0.0
  9
$DIMDLE
 40
0.0
  9
$DIMEXE
 40
0.18
  9
$DIMTP
 40
0.0
  9
$DIMTM
 40
0.0
  9
$DIMTXT
 40
0.18
  9
$DIMCEN
 40
0.09
  9
$DIMTSZ
 40
0.0
  9
$DIMTOL
 70
     0
  9
$DIMLIM
 70
     0
  9
$DIMTIH
 70
     1
  9
$DIMTOH
 70
     1
  9
$DIMSE1
 70
     0
  9
$DIMSE2
 70
     0
  9
$DIMTAD
 70
     0
  9
$DIMZIN
 70
     0
  9
$DIMBLK
  1

  9
$DIMASO
 70
     1
  9
$DIMSHO
 70
     1
  9
$DIMPOST
  1

  9
$DIMAPOST
  1

  9
$DIMALT
 70
     0
  9
$DIMALTD
 70
     2
  9
$DIMALTF
 40
25.4
  9
$DIMLFAC
 40
1.0
  9
$DIMTOFL
 70
     0
  9
$DIMTVP
 40
0.0
  9
$DIMTIX
 70
     0
  9
$DIMSOXD
 70
     0
  9
$DIMSAH
 70
     0
  9
$DIMBLK1
  1

  9
$DIMBLK2
  1

  9
$DIMSTYLE
  2
Standard
  9
$DIMCLRD
 70
     0
  9
$DIMCLRE
 70
     0
  9
$DIMCLRT
 70
     0
  9
$DIMTFAC
 40
1.0
  9
$DIMGAP
 40
0.09
  9
$DIMJUST
 70
     0
  9
$DIMSD1
 70
     0
  9
$DIMSD2
 70
     0
  9
$DIMTOLJ
 70
     1
  9
$DIMTZIN
 70
     0
  9
$DIMALTZ
 70
     0
  9
$DIMALTTZ
 70
     0
  9
$DIMUPT
 70
     0
  9
$DIMDEC
 70
     4
  9
$DIMTDEC
 70
     4
  9
$DIMALTU
 70
     2
  9
$DIMALTTD
 70
     2
  9
$DIMTXSTY
  7
Standard
  9
$DIMAUNIT
 70
     0
  9
$DIMADEC
 70
     0
  9
$DIMALTRND
 40
0.0
  9
$DIMAZIN
 70
     0
  9
$DIMDSEP
 70
     0
  9
$DIMATFIT
 70
     3
  9
$DIMFRAC
 70
     0
  9
$DIMLDRBLK
  1

  9
$DIMLUNIT
 70
     2
  9
$DIMLWD
 70
     0
  9
$DIMLWE
 70
     0
  9
$DIMTMOVE
 70
     0
  9
$LUNITS
 70
     2
  9
$LUPREC
 70
     4
  9
$SKETCHINC
 40
0.1
  9
$FILLETRAD
 40
0.0
  9
$AUNITS
 70
     0
  9
$AUPREC
 70
     0
  9
$MENU
  1
acad
  9
$ELEVATION
 40
0.0
  9
$PELEVATION
 40
0.0
  9
$THICKNESS
 40
0.0
  9
$LIMCHECK
 70
     0
  9
$CHAMFERA
 40
0.0
  9
$CHAMFERB
 40
0.0
  9
$CHAMFERC
 40
0.0
  9
$CHAMFERD
 40
0.0
  9
$SKPOLY
 70
     0
  9
$TDCREATE
 40
0.000000000
  9
$TDUCREATE
 40
0.000000000
  9
$TDUPDATE
 40
0.000000000
  9
$TDUUPDATE
 40
0.000000000
  9
$TDINDWG
 40
0.0000000000
  9
$TDUSRTIMER
 40
0.0000000000
  9
$USRTIMER
 70
     1
  9
$ANGBASE
 50
0.0
  9
$ANGDIR
 70
     0
  9
$PDMODE
 70
     0
  9
$PDSIZE
 40
0.0
  9
$PLINEWID
 40
0.0
  9
$SPLFRAME
 70
     0
  9
$SPLINETYPE
 70
     6
  9
$SPLINESEGS
 70
     8
  9
$HANDSEED
  5
51
  9
$SURFTAB1
 70
     6
  9
$SURFTAB2
 70
     6
  9
$SURFTYPE
 70
     6
  9
$SURFU
 70
     6
  9
$SURFV
 70
     6
  9
$UCSBASE
  2

  9
$UCSNAME
  2

  9
$UCSORG
 10
0.0
 20
0.0
 30
0.0
  9
$UCSXDIR
 10
1.0
 20
0.0
 30
0.0
  9
$UCSYDIR
 10
0.0
 20
1.0
 30
0.0
  9
$UCSORTHOREF
  2

  9
$UCSORTHOVIEW
 70
     0
  9
$UCSORGTOP
 10
0.0
 20
0.0
 30
0.0
  9
$UCSORGBOTTOM
 10
0.0
 20
0.0
 30
0.0
  9
$UCSORGLEFT
 10
0.0
 20
0.0
 30
0.0
  9
$UCSORGRIGHT
 10
0.0
 20
0.0
 30
0.0
  9
$UCSORGFRONT
 10
0.0
 20
0.0
 30
0.0
  9
$UCSORGBACK
 10
0.0
 20
0.0
 30
0.0
  9
$PUCSBASE
  2

  9
$PUCSNAME
  2

  9
$PUCSORG
 10
0.0
 20
0.0
 30
0.0
  9
$PUCSXDIR
 10
1.0
 20
0.0
 30
0.0
  9
$PUCSYDIR
 10
0.0
 20
1.0
 30
0.0
  9
$PUCSORTHOREF
  2

  9
$PUCSORTHOVIEW
 70
     0
  9
$PUCSORGTOP
 10
0.0
 20
0.0
 30
0.0
  9
$PUCSORGBOTTOM
 10
0.0
 20
0.0
 30
0.0
  9
$PUCSORGLEFT
 10
0.0
 20
0.0
 30
0.0
  9
$PUCSORGRIGHT
 10
0.0
 20
0.0
 30
0.0
  9
$PUCSORGFRONT
 10
0.0
 20
0.0
 30
0.0
  9
$PUCSORGBACK
 10
0.0
 20
0.0
 30
0.0
  9
$USERI1
 70
     0
  9
$USERI2
 70
     0
  9
$USERI3
 70
     0
  9
$USERI4
 70
     0
  9
$USERI5
 70
     0
  9
$USERR1
 40
0.0
  9
$USERR2
 40
0.0
  9
$USERR3
 40
0.0
  9
$USERR4
 40
0.0
  9
$USERR5
 40
0.0
  9
$WORLDVIEW
 70
     1
  9
$SHADEDGE
 70
     3
  9
$SHADEDIF
 70
    70
  9
$TILEMODE
 70
     1
  9
$MAXACTVP
 70
    16
  9
$PINSBASE
 10
0.0
 20
0.0
 30
0.0
  9
$PLIMCHECK
 70
     0
  9
$PEXTMIN
 10
1.000000E+20
 20
1.000000E+20
 30
1.000000E+20
  9
$PEXTMAX
 10
-1.000000E+20
 20
-1.000000E+20
 30
-1.000000E+20
  9
$PLIMMIN
 10
0.0
 20
0.0
  9
$PLIMMAX
 10
12.0
 20
9.0
  9
$UNITMODE
 70
     0
  9
$VISRETAIN
 70
     0
  9
$PLINEGEN
 70
     1
  9
$PSLTSCALE
 70
     0
  9
$TREEDEPTH
 70
  3020
  9
$CMLSTYLE
  2
Standard
  9
$CMLJUST
 70
     0
  9
$CMLSCALE
 40
1.0
  9
$PROXYGRAPHICS
 70
     0
  9
$MEASUREMENT
 70
     0
  9
$CELWEIGHT
370
     0
  9
$ENDCAPS
280
     0
  9
$JOINSTYLE
280
     0
  9
$LWDISPLAY
290
     0
  9
$INSUNITS
 70
     5
  9
$HYPERLINKBASE
  1

  9
$XEDIT
290
     1
  9
$CEPSNTYPE
380
     0
  9
$PSTYLEMODE
290
     1
  9
$FINGERPRINTGUID
  2

  9
$VERSIONGUID
  2

  9
$EXTNAMES
290
     1
  9
$PSVPSCALE
 40
0.0
  0
ENDSEC
  0
SECTION
  2
CLASSES
  0
CLASS
  1
LWPOLYLINE
  2
AcDbPolyline
  3
AutoCAD 2000
 90
    32768
280
     0
281
     1
  0
CLASS
  1
IMAGE
  2
AcDbRasterImage
  3
ISM
 90
    32895
280
     0
281
     1
  0
CLASS
  1
OLE2FRAME
  2
AcDbOle2Frame
  3
AutoCAD 2000
 90
    32768
280
     0
281
     1
  0
CLASS
  1
HATCH
  2
AcDbHatch
  3
AutoCAD 2000
 90
    32768
280
     0
281
     1
  0
CLASS
  1
DICTIONARYVAR
  2
AcDbDictionaryVar
  3
AutoCAD 2000
 90
    32768
280
     0
281
     0
  0
CLASS
  1
RASTERVARIABLES
  2
AcDbRasterVariables
  3
ISM
 90
    32768
280
     0
281
     0
  0
CLASS
  1
IMAGEDEF
  2
AcDbRasterImageDef
  3
ISM
 90
    32768
280
     0
281
     0
  0
CLASS
  1
IMAGEDEF_REACTOR
  2
AcDbRasterImageDefReactor
  3
ISM
 90
    32769
280
     0
281
     0
  0
CLASS
  1
IDBUFFER
  2
AcDbIdBuffer
  3
AutoCAD 2000
 90
    32768
280
     0
281
     0
  0
CLASS
  1
SPATIAL_FILTER
  2
AcDbSpatialFilter
  3
AutoCAD 2000
 90
    32768
280
     0
281
     0
  0
CLASS
  1
XRECORD
  2
AcDbXrecord
  3
AutoCAD 2000
 90
    32768
280
     0
281
     0
  0
CLASS
  1
SORTENTSTABLE
  2
AcDbSortentsTable
  3
AutoCAD 2000
 90
    32768
280
     0
281
     0
  0
CLASS
  1
LAYER_INDEX
  2
AcDbLayerIndex
  3
AutoCAD 2000
 90
    32768
280
     0
281
     0
  0
CLASS
  1
SPATIAL_INDEX
  2
AcDbSpatialIndex
  3
AutoCAD 2000
 90
    32768
280
     0
281
     0
  0
CLASS
  1
OBJECT_PTR
  2
CAseDLPNTableRecord
  3
"ASE-LPNTableRecord"
 90
    32769
280
     0
281
     0
  0
CLASS
  1
LAYOUT
  2
AcDbLayout
  3
AutoCAD 2000
 90
        0
280
     0
281
     0
  0
CLASS
  1
PLOTSETTINGS
  2
AcDbPlotSettings
  3
AutoCAD 2000
 90
    32768
280
     0
281
     0
  0
CLASS
  1
ACDBDICTIONARYWDFLT
  2
AcDbDictionaryWithDefault
  3
AutoCAD 2000
 90
        0
280
     0
281
     0
  0
CLASS
  1
ACDBPLACEHOLDER
  2
AcDbPlaceHolder
  3
AutoCAD 2000
 90
        0
280
     0
281
     0
  0
CLASS
  1
VBA_PROJECT
  2
AcDbVbaProject
  3
acadvba
 90
    32768
280
     0
281
     0
  0
CLASS
  1
WIPEOUT
  2
AcDbWipeout
  3
WipeOut|AutoCAD Express Tool|expresstools@autodesk.com
 90
    32895
280
     0
281
     1
  0
CLASS
  1
WIPEOUTVARIABLES
  2
AcDbWipeoutVariables
  3
WipeOut|AutoCAD Express Tool|expresstools@autodesk.com
 90
        0
280
     0
281
     0
  0
CLASS
  1
RTEXT
  2
RText
  3
RText|AutoCAD Express Tool|expresstools@autodesk.com
 90
    32768
280
     0
281
     1
  0
CLASS
  1
ARCALIGNEDTEXT
  2
AcDbArcAlignedText
  3
ATEXT|AutoCAD Express Tool|expresstools@autodesk.com
 90
    32768
280
     0
281
     1
  0
ENDSEC
  0
SECTION
  2
TABLES
  0
TABLE
  2
VPORT
  5
7
100
AcDbSymbolTable
 70
     1
  0
VPORT
  5
15
100
AcDbSymbolTableRecord
100
AcDbViewportTableRecord
  2
*ACTIVE
 70
     0
 10
0.0
 20
0.0
 11
1.0
 21
1.0
 12
6.591288
 22
4.579184
 13
0.0
 23
0.0
 14
1.0
 24
1.0
 15
0.0
 25
0.0
 16
0.0
 26
0.0
 36
1.0
 17
0.0
 27
0.0
 37
0.0
 40
9.158369
 41
0.688564
 42
50.0
 43
0.0
 44
0.0
 50
0.0
 51
0.0
 71
     0
 72
   100
 73
     1
 74
     1
 75
     0
 76
     0
 77
     0
 78
     0
281
     0
 65
     0
110
0.0
120
0.0
130
0.0
111
1.0
121
0.0
131
0.0
112
0.0
122
1.0
132
0.0
345
0
346
0
 79
     0
146
0.0
  0
ENDTAB
  0
TABLE
  2
LTYPE
  5
4
100
AcDbSymbolTable
 70
     3
  0
LTYPE
  5
11
100
AcDbSymbolTableRecord
100
AcDbLinetypeTableRecord
  2
ByBlock
 70
    64
  3

 72
    65
 73
     0
 40
0.0
  0
LTYPE
  5
12
100
AcDbSymbolTableRecord
100
AcDbLinetypeTableRecord
  2
ByLayer
 70
    64
  3

 72
    65
 73
     0
 40
0.0
  0
LTYPE
  5
13
100
AcDbSymbolTableRecord
100
AcDbLinetypeTableRecord
  2
Continuous
 70
    64
  3
Solid line
 72
    65
 73
     0
 40
0.0
  0
ENDTAB
  0
TABLE
  2
LAYER
  5
2
100
AcDbSymbolTable
 70
     2
  0
LAYER
  5
14
100
AcDbSymbolTableRecord
100
AcDbLayerTableRecord
  2
0
 70
     0
 62
     7
  6
Continuous
290
     1
370
    -3
390
1D
  0
LAYER
  5
24
100
AcDbSymbolTableRecord
100
AcDbLayerTableRecord
  2
Ebene 1
 70
     0
 62
     7
  6
Continuous
290
     1
370
    -3
390
1F
  0
ENDTAB
  0
TABLE
  2
STYLE
  5
3
100
AcDbSymbolTable
 70
     1
  0
STYLE
  5
17
100
AcDbSymbolTableRecord
100
AcDbTextStyleTableRecord
  2
Standard
 70
     0
 40
0.0
 41
1.0
 50
0.0
 71
     0
 42
0.0
  3
txt
  4

  0
ENDTAB
  0
TABLE
  2
VIEW
  5
5
100
AcDbSymbolTable
 70
     0
  0
ENDTAB
  0
TABLE
  2
UCS
  5
6
100
AcDbSymbolTable
 70
     0
  0
ENDTAB
  0
TABLE
  2
APPID
  5
8
100
AcDbSymbolTable
 70
     1
  0
APPID
  5
16
100
AcDbSymbolTableRecord
100
AcDbRegAppTableRecord
  2
ACAD
 70
     0
  0
ENDTAB
  0
TABLE
  2
DIMSTYLE
  5
9
100
AcDbSymbolTable
 70
     1
100
AcDbDimStyleTable
 71
     0
  0
DIMSTYLE
105
18
100
AcDbSymbolTableRecord
100
AcDbDimStyleTableRecord
  2
Standard
 70
     0
  3

  4

 40
1.0
 41
0.18
 42
0.0625
 43
0.38
 44
0.18
 45
0.0
 46
0.0
 47
0.0
 48
0.0
 71
     0
 72
     0
 73
     1
 74
     1
 75
     0
 76
     0
 77
     0
 78
     0
 79
     0
140
0.18
141
0.09
142
0.0
143
25.4
144
1.0
145
0.0
146
1.0
147
0.09
148
0.0
170
     0
171
     2
172
     0
173
     0
174
     0
175
     0
176
     0
177
     0
178
     0
179
     0
271
     4
272
     4
273
     2
274
     2
275
     0
276
     0
277
     2
278
    46
279
     0
280
     0
281
     0
282
     0
283
     1
284
     0
285
     0
286
     0
288
     0
340
17
341
0
342
0
343
0
344
0
371
    -2
372
    -2
  0
ENDTAB
  0
TABLE
  2
BLOCK_RECORD
  5
1
100
AcDbSymbolTable
 70
     0
  0
BLOCK_RECORD
  5
A
100
AcDbSymbolTableRecord
100
AcDbBlockTableRecord
  2
*MODEL_SPACE
340
20
  0
BLOCK_RECORD
  5
B
100
AcDbSymbolTableRecord
100
AcDbBlockTableRecord
  2
*PAPER_SPACE
340
21
  0
ENDTAB
  0
ENDSEC
  0
SECTION
  2
BLOCKS
  0
BLOCK
  5
D
100
AcDbEntity
  8
0
100
AcDbBlockBegin
  2
*MODEL_SPACE
 70
     0
 10
0.0
 20
0.0
 30
0.0
  3
*MODEL_SPACE
  1

  0
ENDBLK
  5
E
100
AcDbEntity
  8
0
100
AcDbBlockEnd
  0
BLOCK
  5
F
100
AcDbEntity
 67
     1
  8
0
100
AcDbBlockBegin
  2
*PAPER_SPACE
 70
     0
 10
0.0
 20
0.0
 30
0.0
  3
*PAPER_SPACE
  1

  0
ENDBLK
  5
10
100
AcDbEntity
 67
     1
  8
0
100
AcDbBlockEnd
  0
ENDSEC
  0
SECTION
  2
ENTITIES
  0
SPLINE
  5
25
100
AcDbEntity
  8
Ebene 1
100
AcDbSpline
210
0.0
220
0.0
230
1.0
 70
     1
 71
     3
 72
   152
 73
   148
 74
     0
 42
0.0000000001
 43
0.0000000001
 40
0.0
 40
0.0
 40
0.0
 40
0.0
 40
0.027027027027027
 40
0.027027027027027
 40
0.027027027027027
 40
0.027027027027027
 40
0.0540540540540541
 40
0.0540540540540541
 40
0.0540540540540541
 40
0.0540540540540541
 40
0.0810810810810811
 40
0.0810810810810811
 40
0.0810810810810811
 40
0.0810810810810811
 40
0.1081081081081081
 40
0.1081081081081081
 40
0.1081081081081081
 40
0.1081081081081081
 40
0.1351351351351351
 40
0.1351351351351351
 40
0.1351351351351351
 40
0.1351351351351351
 40
0.1621621621621622
 40
0.1621621621621622
 40
0.1621621621621622
 40
0.1621621621621622
 40
0.1891891891891892
 40
0.1891891891891892
 40
0.1891891891891892
 40
0.1891891891891892
 40
0.2162162162162162
 40
0.2162162162162162
 40
0.2162162162162162
 40
0.2162162162162162
 40
0.2432432432432433
 40
0.2432432432432433
 40
0.2432432432432433
 40
0.2432432432432433
 40
0.2702702702702703
 40
0.2702702702702703
 40
0.2702702702702703
 40
0.2702702702702703
 40
0.2972972972972973
 40
0.2972972972972973
 40
0.2972972972972973
 40
0.2972972972972973
 40
0.3243243243243243
 40
0.3243243243243243
 40
0.3243243243243243
 40
0.3243243243243243
 40
0.3513513513513514
 40
0.3513513513513514
 40
0.3513513513513514
 40
0.3513513513513514
 40
0.3783783783783784
 40
0.3783783783783784
 40
0.3783783783783784
 40
0.3783783783783784
 40
0.4054054054054054
 40
0.4054054054054054
 40
0.4054054054054054
 40
0.4054054054054054
 40
0.4324324324324325
 40
0.4324324324324325
 40
0.4324324324324325
 40
0.4324324324324325
 40
0.4594594594594595
 40
0.4594594594594595
 40
0.4594594594594595
 40
0.4594594594594595
 40
0.4864864864864865
 40
0.4864864864864865
 40
0.4864864864864865
 40
0.4864864864864865
 40
0.5135135135135136
 40
0.5135135135135136
 40
0.5135135135135136
 40
0.5135135135135136
 40
0.5405405405405406
 40
0.5405405405405406
 40
0.5405405405405406
 40
0.5405405405405406
 40
0.5675675675675675
 40
0.5675675675675675
 40
0.5675675675675675
 40
0.5675675675675675
 40
0.5945945945945945
 40
0.5945945945945945
 40
0.5945945945945945
 40
0.5945945945945945
 40
0.6216216216216215
 40
0.6216216216216215
 40
0.6216216216216215
 40
0.6216216216216215
 40
0.6486486486486485
 40
0.6486486486486485
 40
0.6486486486486485
 40
0.6486486486486485
 40
0.6756756756756754
 40
0.6756756756756754
 40
0.6756756756756754
 40
0.6756756756756754
 40
0.7027027027027024
 40
0.7027027027027024
 40
0.7027027027027024
 40
0.7027027027027024
 40
0.7297297297297294
 40
0.7297297297297294
 40
0.7297297297297294
 40
0.7297297297297294
 40
0.7567567567567564
 40
0.7567567567567564
 40
0.7567567567567564
 40
0.7567567567567564
 40
0.7837837837837833
 40
0.7837837837837833
 40
0.7837837837837833
 40
0.7837837837837833
 40
0.8108108108108103
 40
0.8108108108108103
 40
0.8108108108108103
 40
0.8108108108108103
 40
0.8378378378378373
 40
0.8378378378378373
 40
0.8378378378378373
 40
0.8378378378378373
 40
0.8648648648648643
 40
0.8648648648648643
 40
0.8648648648648643
 40
0.8648648648648643
 40
0.8918918918918912
 40
0.8918918918918912
 40
0.8918918918918912
 40
0.8918918918918912
 40
0.9189189189189182
 40
0.9189189189189182
 40
0.9189189189189182
 40
0.9189189189189182
 40
0.9459459459459452
 40
0.9459459459459452
 40
0.9459459459459452
 40
0.9459459459459452
 40
0.9729729729729721
 40
0.9729729729729721
 40
0.9729729729729721
 40
0.9729729729729721
 40
1.0
 40
1.0
 40
1.0
 40
1.0
 10
0.0992
 20
5.77285
 30
0.0
 10
0.19064
 20
5.2369100000000008
 30
0.0
 10
0.1754
 20
4.59429
 30
0.0
 10
0.3887600000000001
 20
4.07613
 30
0.0
 10
0.3887600000000001
 20
4.07613
 30
0.0
 10
0.3887600000000001
 20
4.07613
 30
0.0
 10
1.2142600000000001
 20
3.9694500000000001
 30
0.0
 10
1.2142600000000001
 20
3.9694500000000001
 30
0.0
 10
1.2142600000000001
 20
3.9694500000000001
 30
0.0
 10
1.2599800000000001
 20
4.4571300000000003
 30
0.0
 10
1.32094
 20
5.0235500000000002
 30
0.0
 10
1.6587600000000002
 20
5.3740700000000006
 30
0.0
 10
1.6587600000000002
 20
5.3740700000000006
 30
0.0
 10
1.6587600000000002
 20
5.3740700000000006
 30
0.0
 10
1.6105
 20
4.5790500000000005
 30
0.0
 10
1.6105
 20
4.5790500000000005
 30
0.0
 10
1.6105
 20
4.5790500000000005
 30
0.0
 10
1.6257400000000002
 20
4.3199700000000005
 30
0.0
 10
1.5343000000000002
 20
3.8780100000000002
 30
0.0
 10
1.8111600000000001
 20
3.7687900000000005
 30
0.0
 10
1.8111600000000001
 20
3.7687900000000005
 30
0.0
 10
2.4360000000000004
 20
3.3268300000000002
 30
0.0
 10
2.2836000000000003
 20
4.3199700000000005
 30
0.0
 10
2.7585800000000003
 20
4.5028500000000005
 30
0.0
 10
2.7585800000000003
 20
4.5028500000000005
 30
0.0
 10
2.7585800000000003
 20
4.5028500000000005
 30
0.0
 10
2.6671400000000003
 20
4.0608900000000006
 30
0.0
 10
2.6671400000000003
 20
4.0608900000000006
 30
0.0
 10
2.6671400000000003
 20
4.0608900000000006
 30
0.0
 10
2.63666
 20
3.8475300000000003
 30
0.0
 10
2.6214200000000001
 20
3.6036900000000003
 30
0.0
 10
2.6823800000000002
 20
3.3877900000000003
 30
0.0
 10
2.6823800000000002
 20
3.3877900000000003
 30
0.0
 10
2.8805000000000001
 20
3.2658700000000001
 30
0.0
 10
3.0633800000000004
 20
3.1439500000000002
 30
0.0
 10
3.2462600000000004
 20
3.0067900000000001
 30
0.0
 10
3.2462600000000004
 20
3.0067900000000001
 30
0.0
 10
3.3986600000000005
 20
3.1591900000000002
 30
0.0
 10
3.4621600000000003
 20
3.4487500000000004
 30
0.0
 10
3.6907600000000005
 20
3.5401900000000004
 30
0.0
 10
3.6907600000000005
 20
3.5401900000000004
 30
0.0
 10
3.6450400000000003
 20
3.2963500000000003
 30
0.0
 10
3.5358200000000002
 20
3.0372700000000004
 30
0.0
 10
3.5510600000000001
 20
2.76295
 30
0.0
 10
3.5510600000000001
 20
2.76295
 30
0.0
 10
3.7212400000000003
 20
2.54705
 30
0.0
 10
3.8431600000000001
 20
2.12033
 30
0.0
 10
4.1327199999999999
 20
2.3946500000000004
 30
0.0
 10
4.1327199999999999
 20
2.3946500000000004
 30
0.0
 10
4.1479600000000003
 20
2.2727300000000001
 30
0.0
 10
4.0260400000000001
 20
2.1812900000000002
 30
0.0
 10
4.0260400000000001
 20
2.0593700000000004
 30
0.0
 10
4.0260400000000001
 20
2.0593700000000004
 30
0.0
 10
4.85154
 20
0.46933
 30
0.0
 10
4.0108000000000006
 20
-1.37724
 30
0.0
 10
3.2310200000000004
 20
-2.7996400000000001
 30
0.0
 10
3.2310200000000004
 20
-2.7996400000000001
 30
0.0
 10
2.7281000000000004
 20
-3.2568400000000004
 30
0.0
 10
2.16168
 20
-2.5075400000000001
 30
0.0
 10
1.6740000000000002
 20
-2.8301200000000004
 30
0.0
 10
1.6740000000000002
 20
-2.8301200000000004
 30
0.0
 10
1.3819000000000001
 20
-3.2416000000000005
 30
0.0
 10
1.48858
 20
-3.7623000000000002
 30
0.0
 10
1.3666600000000002
 20
-4.2195
 30
0.0
 10
1.3666600000000002
 20
-4.2195
 30
0.0
 10
0.5183000000000001
 20
-4.4989000000000008
 30
0.0
 10
-0.27925
 20
-5.4336200000000003
 30
0.0
 10
-1.12507
 20
-5.7257200000000008
 30
0.0
 10
-1.12507
 20
-5.7257200000000008
 30
0.0
 10
-1.4806700000000002
 20
-5.8501800000000008
 30
0.0
 10
-1.5848100000000001
 20
-5.7282600000000006
 30
0.0
 10
-2.2071100000000001
 20
-5.6241200000000005
 30
0.0
 10
-2.2071100000000001
 20
-5.6241200000000005
 30
0.0
 10
-2.40523
 20
-5.6241200000000005
 30
0.0
 10
-2.5957300000000001
 20
-5.6571400000000001
 30
0.0
 10
-2.7811500000000002
 20
-5.5961800000000004
 30
0.0
 10
-2.7811500000000002
 20
-5.5961800000000004
 30
0.0
 10
-2.9132300000000004
 20
-5.5479200000000004
 30
0.0
 10
-3.0021300000000002
 20
-5.4412400000000005
 30
0.0
 10
-3.0554700000000001
 20
-5.3193200000000003
 30
0.0
 10
-3.0554700000000001
 20
-5.3193200000000003
 30
0.0
 10
-3.0173700000000001
 20
-4.5674800000000007
 30
0.0
 10
-3.5329900000000003
 20
-4.2322000000000006
 30
0.0
 10
-3.4085300000000003
 20
-3.5311600000000003
 30
0.0
 10
-3.4085300000000003
 20
-3.5311600000000003
 30
0.0
 10
-3.3678900000000005
 20
-3.3076400000000001
 30
0.0
 10
-3.2891500000000002
 20
-2.9266400000000004
 30
0.0
 10
-3.2586700000000004
 20
-2.5329400000000004
 30
0.0
 10
-3.2586700000000004
 20
-2.5329400000000004
 30
0.0
 10
-3.3145500000000001
 20
-2.3348200000000001
 30
0.0
 10
-3.4288500000000002
 20
-2.3703800000000004
 30
0.0
 10
-3.5507700000000004
 20
-2.2332200000000002
 30
0.0
 10
-3.5507700000000004
 20
-2.2332200000000002
 30
0.0
 10
-3.2942300000000002
 20
-1.5677400000000001
 30
0.0
 10
-3.5380700000000003
 20
-0.5111
 30
0.0
 10
-3.6091900000000003
 20
-0.05136
 30
0.0
 10
-3.6091900000000003
 20
-0.05136
 30
0.0
 10
-3.6498300000000001
 20
0.22041
 30
0.0
 10
-3.5329900000000003
 20
0.35503
 30
0.0
 10
-3.3526500000000001
 20
0.5912500000000001
 30
0.0
 10
-3.3526500000000001
 20
0.5912500000000001
 30
0.0
 10
-3.3526500000000001
 20
0.5912500000000001
 30
0.0
 10
-3.2764500000000001
 20
1.0357500000000002
 30
0.0
 10
-3.2764500000000001
 20
1.0357500000000002
 30
0.0
 10
-3.2764500000000001
 20
1.0357500000000002
 30
0.0
 10
-3.7920700000000003
 20
1.8002900000000002
 30
0.0
 10
-4.2746700000000004
 20
2.6080100000000002
 30
0.0
 10
-4.3610300000000004
 20
3.5401900000000004
 30
0.0
 10
-4.3610300000000004
 20
3.5401900000000004
 30
0.0
 10
-4.0460700000000003
 20
2.9763100000000002
 30
0.0
 10
-3.6015700000000002
 20
2.2422500000000003
 30
0.0
 10
-3.1062700000000003
 20
1.7063100000000002
 30
0.0
 10
-3.1062700000000003
 20
1.7063100000000002
 30
0.0
 10
-2.9970500000000002
 20
1.9984100000000002
 30
0.0
 10
-2.8624300000000003
 20
2.30321
 30
0.0
 10
-2.6363700000000003
 20
2.5318100000000001
 30
0.0
 10
-2.6363700000000003
 20
2.5318100000000001
 30
0.0
 10
-2.9691100000000001
 20
3.2201500000000003
 30
0.0
 10
-3.2383500000000001
 20
3.9846900000000005
 30
0.0
 10
-3.2104100000000004
 20
4.7644700000000002
 30
0.0
 10
-3.2104100000000004
 20
4.7644700000000002
 30
0.0
 10
-2.9310100000000001
 20
4.1980500000000003
 30
0.0
 10
-2.7100300000000002
 20
3.5097100000000001
 30
0.0
 10
-2.3595100000000002
 20
2.9458300000000004
 30
0.0
 10
-2.3595100000000002
 20
2.9458300000000004
 30
0.0
 10
-2.11313
 20
3.1591900000000002
 30
0.0
 10
-1.8362700000000001
 20
3.3268300000000002
 30
0.0
 10
-1.5670300000000001
 20
3.4944700000000002
 30
0.0
 10
-1.5670300000000001
 20
3.4944700000000002
 30
0.0
 10
-1.5670300000000001
 20
3.4944700000000002
 30
0.0
 10
-1.7321300000000002
 20
4.4723700000000006
 30
0.0
 10
-1.7321300000000002
 20
4.4723700000000006
 30
0.0
 10
-1.7321300000000002
 20
4.4723700000000006
 30
0.0
 10
-1.7346700000000002
 20
4.8406700000000003
 30
0.0
 10
-1.8083300000000002
 20
5.3283500000000004
 30
0.0
 10
-1.67117
 20
5.6356900000000003
 30
0.0
 10
-1.67117
 20
5.6356900000000003
 30
0.0
 10
-1.5543300000000002
 20
4.9625900000000005
 30
0.0
 10
-1.3917700000000002
 20
4.2894900000000007
 30
0.0
 10
-1.1377700000000002
 20
3.6468700000000003
 30
0.0
 10
-1.1377700000000002
 20
3.6468700000000003
 30
0.0
 10
-0.78471
 20
3.8170500000000005
 30
0.0
 10
-0.43419
 20
3.9389700000000003
 30
0.0
 10
-0.08113
 20
4.0456500000000002
 30
0.0
 10
-0.08113
 20
4.0456500000000002
 30
0.0
 10
-0.12685
 20
4.6247700000000007
 30
0.0
 10
-0.12685
 20
5.2521500000000003
 30
0.0
 10
0.0992
 20
5.77285
 30
0.0
  0
SPLINE
  5
26
100
AcDbEntity
  8
Ebene 1
100
AcDbSpline
210
0.0
220
0.0
230
1.0
 70
     1
 71
     3
 72
    20
 73
    16
 74
     0
 42
0.0000000001
 43
0.0000000001
 40
0.0
 40
0.0
 40
0.0
 40
0.0
 40
0.25
 40
0.25
 40
0.25
 40
0.25
 40
0.5
 40
0.5
 40
0.5
 40
0.5
 40
0.75
 40
0.75
 40
0.75
 40
0.75
 40
1.0
 40
1.0
 40
1.0
 40
1.0
 10
1.0771000000000002
 20
-2.6447000000000003
 30
0.0
 10
1.0771000000000002
 20
-2.6447000000000003
 30
0.0
 10
1.0313800000000002
 20
-2.6751800000000001
 30
0.0
 10
1.0313800000000002
 20
-2.6751800000000001
 30
0.0
 10
1.0313800000000002
 20
-2.6751800000000001
 30
0.0
 10
0.8485
 20
-2.6294600000000004
 30
0.0
 10
0.8485
 20
-2.9063200000000005
 30
0.0
 10
0.8637400000000001
 20
-3.0282400000000003
 30
0.0
 10
0.8637400000000001
 20
-3.0282400000000003
 30
0.0
 10
1.0009000000000001
 20
-2.9672800000000001
 30
0.0
 10
1.0771000000000002
 20
-2.7818600000000004
 30
0.0
 10
1.1228200000000002
 20
-2.6447000000000003
 30
0.0
 10
1.1228200000000002
 20
-2.6447000000000003
 30
0.0
 10
1.1228200000000002
 20
-2.6447000000000003
 30
0.0
 10
1.0771000000000002
 20
-2.6447000000000003
 30
0.0
 10
1.0771000000000002
 20
-2.6447000000000003
 30
0.0
  0
SPLINE
  5
27
100
AcDbEntity
  8
Ebene 1
100
AcDbSpline
210
0.0
220
0.0
230
1.0
 70
     1
 71
     3
 72
    24
 73
    20
 74
     0
 42
0.0000000001
 43
0.0000000001
 40
0.0
 40
0.0
 40
0.0
 40
0.0
 40
0.2
 40
0.2
 40
0.2
 40
0.2
 40
0.4
 40
0.4
 40
0.4
 40
0.4
 40
0.6000000000000001
 40
0.6000000000000001
 40
0.6000000000000001
 40
0.6000000000000001
 40
0.8
 40
0.8
 40
0.8
 40
0.8
 40
1.0
 40
1.0
 40
1.0
 40
1.0
 10
-0.67803
 20
-2.6142200000000004
 30
0.0
 10
-0.72375
 20
-2.6599400000000002
 30
0.0
 10
-0.7542300000000001
 20
-2.7209000000000003
 30
0.0
 10
-0.73899
 20
-2.7996400000000001
 30
0.0
 10
-0.73899
 20
-2.7996400000000001
 30
0.0
 10
-0.6627900000000001
 20
-2.9672800000000001
 30
0.0
 10
-0.6475500000000001
 20
-3.1501600000000001
 30
0.0
 10
-0.6018300000000001
 20
-3.3178000000000001
 30
0.0
 10
-0.6018300000000001
 20
-3.3178000000000001
 30
0.0
 10
-0.7085100000000001
 20
-3.5159200000000004
 30
0.0
 10
-0.6932700000000001
 20
-3.8359600000000005
 30
0.0
 10
-0.4494300000000001
 20
-3.9299400000000002
 30
0.0
 10
-0.4494300000000001
 20
-3.9299400000000002
 30
0.0
 10
0.12968
 20
-3.8689800000000005
 30
0.0
 10
0.28208
 20
-3.2416000000000005
 30
0.0
 10
0.31256
 20
-2.7513800000000002
 30
0.0
 10
0.31256
 20
-2.7513800000000002
 30
0.0
 10
-0.03541
 20
-2.81488
 30
0.0
 10
-0.37323
 20
-2.7996400000000001
 30
0.0
 10
-0.67803
 20
-2.6142200000000004
 30
0.0
  0
SPLINE
  5
28
100
AcDbEntity
  8
Ebene 1
 62
     7
100
AcDbSpline
210
0.0
220
0.0
230
1.0
 70
     1
 71
     3
 72
    20
 73
    16
 74
     0
 42
0.0000000001
 43
0.0000000001
 40
0.0
 40
0.0
 40
0.0
 40
0.0
 40
0.25
 40
0.25
 40
0.25
 40
0.25
 40
0.5
 40
0.5
 40
0.5
 40
0.5
 40
0.75
 40
0.75
 40
0.75
 40
0.75
 40
1.0
 40
1.0
 40
1.0
 40
1.0
 10
0.05348
 20
5.2826300000000002
 30
0.0
 10
0.0992
 20
4.9321100000000007
 30
0.0
 10
0.14492
 20
4.5180899999999999
 30
0.0
 10
0.16016
 20
4.1675700000000004
 30
0.0
 10
0.16016
 20
4.1675700000000004
 30
0.0
 10
0.12968
 20
4.1218500000000002
 30
0.0
 10
0.08396
 20
4.07613
 30
0.0
 10
0.03824
 20
4.0608900000000006
 30
0.0
 10
0.03824
 20
4.0608900000000006
 30
0.0
 10
0.03824
 20
4.0608900000000006
 30
0.0
 10
-0.03541
 20
4.0913700000000004
 30
0.0
 10
-0.03541
 20
4.0913700000000004
 30
0.0
 10
-0.03541
 20
4.0913700000000004
 30
0.0
 10
-0.06589
 20
4.4876100000000001
 30
0.0
 10
-0.05065
 20
4.9168700000000003
 30
0.0
 10
0.05348
 20
5.2826300000000002
 30
0.0
  0
SPLINE
  5
29
100
AcDbEntity
  8
Ebene 1
 62
     7
100
AcDbSpline
210
0.0
220
0.0
230
1.0
 70
     1
 71
     3
 72
    20
 73
    16
 74
     0
 42
0.0000000001
 43
0.0000000001
 40
0.0
 40
0.0
 40
0.0
 40
0.0
 40
0.25
 40
0.25
 40
0.25
 40
0.25
 40
0.5
 40
0.5
 40
0.5
 40
0.5
 40
0.75
 40
0.75
 40
0.75
 40
0.75
 40
1.0
 40
1.0
 40
1.0
 40
1.0
 10
1.4454
 20
4.8254300000000008
 30
0.0
 10
1.4454
 20
4.8254300000000008
 30
0.0
 10
1.4733400000000001
 20
4.8254300000000008
 30
0.0
 10
1.4733400000000001
 20
4.8254300000000008
 30
0.0
 10
1.4733400000000001
 20
4.8254300000000008
 30
0.0
 10
1.5038200000000002
 20
4.5511100000000004
 30
0.0
 10
1.5038200000000002
 20
4.2437700000000005
 30
0.0
 10
1.4606400000000002
 20
3.9694500000000001
 30
0.0
 10
1.4606400000000002
 20
3.9694500000000001
 30
0.0
 10
1.3819000000000001
 20
3.9542100000000002
 30
0.0
 10
1.32094
 20
3.9694500000000001
 30
0.0
 10
1.2599800000000001
 20
4.0151700000000003
 30
0.0
 10
1.2599800000000001
 20
4.0151700000000003
 30
0.0
 10
1.2447400000000002
 20
4.3047300000000002
 30
0.0
 10
1.3819000000000001
 20
4.5663500000000008
 30
0.0
 10
1.4454
 20
4.8254300000000008
 30
0.0
  0
SPLINE
  5
2A
100
AcDbEntity
  8
Ebene 1
 62
     7
100
AcDbSpline
210
0.0
220
0.0
230
1.0
 70
     1
 71
     3
 72
    20
 73
    16
 74
     0
 42
0.0000000001
 43
0.0000000001
 40
0.0
 40
0.0
 40
0.0
 40
0.0
 40
0.25
 40
0.25
 40
0.25
 40
0.25
 40
0.5
 40
0.5
 40
0.5
 40
0.5
 40
0.75
 40
0.75
 40
0.75
 40
0.75
 40
1.0
 40
1.0
 40
1.0
 40
1.0
 10
-1.6102100000000001
 20
4.6882700000000002
 30
0.0
 10
-1.6102100000000001
 20
4.6882700000000002
 30
0.0
 10
-1.21143
 20
3.4792300000000003
 30
0.0
 10
-1.21143
 20
3.4792300000000003
 30
0.0
 10
-1.21143
 20
3.4792300000000003
 30
0.0
 10
-1.21143
 20
3.4030300000000002
 30
0.0
 10
-1.2165100000000002
 20
3.3877900000000003
 30
0.0
 10
-1.2342900000000001
 20
3.3268300000000002
 30
0.0
 10
-1.2342900000000001
 20
3.3268300000000002
 30
0.0
 10
-1.2774700000000001
 20
3.3115900000000003
 30
0.0
 10
-1.33081
 20
3.2963500000000003
 30
0.0
 10
-1.38161
 20
3.3115900000000003
 30
0.0
 10
-1.38161
 20
3.3115900000000003
 30
0.0
 10
-1.5619500000000002
 20
3.7535500000000002
 30
0.0
 10
-1.6406900000000002
 20
4.1980500000000003
 30
0.0
 10
-1.6102100000000001
 20
4.6882700000000002
 30
0.0
  0
SPLINE
  5
2B
100
AcDbEntity
  8
Ebene 1
 62
     7
100
AcDbSpline
210
0.0
220
0.0
230
1.0
 70
     1
 71
     3
 72
    20
 73
    16
 74
     0
 42
0.0000000001
 43
0.0000000001
 40
0.0
 40
0.0
 40
0.0
 40
0.0
 40
0.25
 40
0.25
 40
0.25
 40
0.25
 40
0.5
 40
0.5
 40
0.5
 40
0.5
 40
0.75
 40
0.75
 40
0.75
 40
0.75
 40
1.0
 40
1.0
 40
1.0
 40
1.0
 10
2.5147400000000002
 20
4.1218500000000002
 30
0.0
 10
2.5299800000000001
 20
4.1218500000000002
 30
0.0
 10
2.54522
 20
4.1218500000000002
 30
0.0
 10
2.54522
 20
4.1066100000000008
 30
0.0
 10
2.54522
 20
4.1066100000000008
 30
0.0
 10
2.4817200000000001
 20
3.9542100000000002
 30
0.0
 10
2.5604600000000004
 20
3.7408500000000005
 30
0.0
 10
2.4233000000000002
 20
3.6163900000000004
 30
0.0
 10
2.4233000000000002
 20
3.6163900000000004
 30
0.0
 10
2.4233000000000002
 20
3.6163900000000004
 30
0.0
 10
2.3140800000000001
 20
3.6621100000000002
 30
0.0
 10
2.3140800000000001
 20
3.6621100000000002
 30
0.0
 10
2.3140800000000001
 20
3.6621100000000002
 30
0.0
 10
2.3140800000000001
 20
3.6621100000000002
 30
0.0
 10
2.5147400000000002
 20
4.1218500000000002
 30
0.0
 10
2.5147400000000002
 20
4.1218500000000002
 30
0.0
  0
SPLINE
  5
2C
100
AcDbEntity
  8
Ebene 1
 62
     7
100
AcDbSpline
210
0.0
220
0.0
230
1.0
 70
     1
 71
     3
 72
   248
 73
   244
 74
     0
 42
0.0000000001
 43
0.0000000001
 40
0.0
 40
0.0
 40
0.0
 40
0.0
 40
0.0163934426229508
 40
0.0163934426229508
 40
0.0163934426229508
 40
0.0163934426229508
 40
0.0327868852459016
 40
0.0327868852459016
 40
0.0327868852459016
 40
0.0327868852459016
 40
0.0491803278688525
 40
0.0491803278688525
 40
0.0491803278688525
 40
0.0491803278688525
 40
0.0655737704918033
 40
0.0655737704918033
 40
0.0655737704918033
 40
0.0655737704918033
 40
0.0819672131147541
 40
0.0819672131147541
 40
0.0819672131147541
 40
0.0819672131147541
 40
0.0983606557377049
 40
0.0983606557377049
 40
0.0983606557377049
 40
0.0983606557377049
 40
0.1147540983606558
 40
0.1147540983606558
 40
0.1147540983606558
 40
0.1147540983606558
 40
0.1311475409836066
 40
0.1311475409836066
 40
0.1311475409836066
 40
0.1311475409836066
 40
0.1475409836065574
 40
0.1475409836065574
 40
0.1475409836065574
 40
0.1475409836065574
 40
0.1639344262295082
 40
0.1639344262295082
 40
0.1639344262295082
 40
0.1639344262295082
 40
0.180327868852459
 40
0.180327868852459
 40
0.180327868852459
 40
0.180327868852459
 40
0.1967213114754098
 40
0.1967213114754098
 40
0.1967213114754098
 40
0.1967213114754098
 40
0.2131147540983606
 40
0.2131147540983606
 40
0.2131147540983606
 40
0.2131147540983606
 40
0.2295081967213114
 40
0.2295081967213114
 40
0.2295081967213114
 40
0.2295081967213114
 40
0.2459016393442622
 40
0.2459016393442622
 40
0.2459016393442622
 40
0.2459016393442622
 40
0.2622950819672131
 40
0.2622950819672131
 40
0.2622950819672131
 40
0.2622950819672131
 40
0.2786885245901639
 40
0.2786885245901639
 40
0.2786885245901639
 40
0.2786885245901639
 40
0.2950819672131148
 40
0.2950819672131148
 40
0.2950819672131148
 40
0.2950819672131148
 40
0.3114754098360656
 40
0.3114754098360656
 40
0.3114754098360656
 40
0.3114754098360656
 40
0.3278688524590164
 40
0.3278688524590164
 40
0.3278688524590164
 40
0.3278688524590164
 40
0.3442622950819673
 40
0.3442622950819673
 40
0.3442622950819673
 40
0.3442622950819673
 40
0.3606557377049181
 40
0.3606557377049181
 40
0.3606557377049181
 40
0.3606557377049181
 40
0.3770491803278689
 40
0.3770491803278689
 40
0.3770491803278689
 40
0.3770491803278689
 40
0.3934426229508198
 40
0.3934426229508198
 40
0.3934426229508198
 40
0.3934426229508198
 40
0.4098360655737706
 40
0.4098360655737706
 40
0.4098360655737706
 40
0.4098360655737706
 40
0.4262295081967215
 40
0.4262295081967215
 40
0.4262295081967215
 40
0.4262295081967215
 40
0.4426229508196723
 40
0.4426229508196723
 40
0.4426229508196723
 40
0.4426229508196723
 40
0.4590163934426231
 40
0.4590163934426231
 40
0.4590163934426231
 40
0.4590163934426231
 40
0.475409836065574
 40
0.475409836065574
 40
0.475409836065574
 40
0.475409836065574
 40
0.4918032786885248
 40
0.4918032786885248
 40
0.4918032786885248
 40
0.4918032786885248
 40
0.5081967213114756
 40
0.5081967213114756
 40
0.5081967213114756
 40
0.5081967213114756
 40
0.5245901639344265
 40
0.5245901639344265
 40
0.5245901639344265
 40
0.5245901639344265
 40
0.5409836065573773
 40
0.5409836065573773
 40
0.5409836065573773
 40
0.5409836065573773
 40
0.5573770491803282
 40
0.5573770491803282
 40
0.5573770491803282
 40
0.5573770491803282
 40
0.573770491803279
 40
0.573770491803279
 40
0.573770491803279
 40
0.573770491803279
 40
0.5901639344262298
 40
0.5901639344262298
 40
0.5901639344262298
 40
0.5901639344262298
 40
0.6065573770491807
 40
0.6065573770491807
 40
0.6065573770491807
 40
0.6065573770491807
 40
0.6229508196721315
 40
0.6229508196721315
 40
0.6229508196721315
 40
0.6229508196721315
 40
0.6393442622950823
 40
0.6393442622950823
 40
0.6393442622950823
 40
0.6393442622950823
 40
0.6557377049180332
 40
0.6557377049180332
 40
0.6557377049180332
 40
0.6557377049180332
 40
0.672131147540984
 40
0.672131147540984
 40
0.672131147540984
 40
0.672131147540984
 40
0.6885245901639349
 40
0.6885245901639349
 40
0.6885245901639349
 40
0.6885245901639349
 40
0.7049180327868857
 40
0.7049180327868857
 40
0.7049180327868857
 40
0.7049180327868857
 40
0.7213114754098365
 40
0.7213114754098365
 40
0.7213114754098365
 40
0.7213114754098365
 40
0.7377049180327874
 40
0.7377049180327874
 40
0.7377049180327874
 40
0.7377049180327874
 40
0.7540983606557382
 40
0.7540983606557382
 40
0.7540983606557382
 40
0.7540983606557382
 40
0.7704918032786891
 40
0.7704918032786891
 40
0.7704918032786891
 40
0.7704918032786891
 40
0.7868852459016399
 40
0.7868852459016399
 40
0.7868852459016399
 40
0.7868852459016399
 40
0.8032786885245907
 40
0.8032786885245907
 40
0.8032786885245907
 40
0.8032786885245907
 40
0.8196721311475416
 40
0.8196721311475416
 40
0.8196721311475416
 40
0.8196721311475416
 40
0.8360655737704924
 40
0.8360655737704924
 40
0.8360655737704924
 40
0.8360655737704924
 40
0.8524590163934432
 40
0.8524590163934432
 40
0.8524590163934432
 40
0.8524590163934432
 40
0.8688524590163941
 40
0.8688524590163941
 40
0.8688524590163941
 40
0.8688524590163941
 40
0.8852459016393449
 40
0.8852459016393449
 40
0.8852459016393449
 40
0.8852459016393449
 40
0.9016393442622958
 40
0.9016393442622958
 40
0.9016393442622958
 40
0.9016393442622958
 40
0.9180327868852466
 40
0.9180327868852466
 40
0.9180327868852466
 40
0.9180327868852466
 40
0.9344262295081974
 40
0.9344262295081974
 40
0.9344262295081974
 40
0.9344262295081974
 40
0.9508196721311483
 40
0.9508196721311483
 40
0.9508196721311483
 40
0.9508196721311483
 40
0.9672131147540991
 40
0.9672131147540991
 40
0.9672131147540991
 40
0.9672131147540991
 40
0.9836065573770499
 40
0.9836065573770499
 40
0.9836065573770499
 40
0.9836065573770499
 40
1.0
 40
1.0
 40
1.0
 40
1.0
 10
-1.8845300000000003
 20
-2.9368000000000003
 30
0.0
 10
-1.8845300000000003
 20
-2.9368000000000003
 30
0.0
 10
-1.8261100000000001
 20
-2.6751800000000001
 30
0.0
 10
-1.8261100000000001
 20
-2.6751800000000001
 30
0.0
 10
-1.8261100000000001
 20
-2.6751800000000001
 30
0.0
 10
-1.8261100000000001
 20
-2.6751800000000001
 30
0.0
 10
-1.9912100000000001
 20
-3.0434800000000002
 30
0.0
 10
-1.9912100000000001
 20
-3.0434800000000002
 30
0.0
 10
-1.9912100000000001
 20
-3.0434800000000002
 30
0.0
 10
-2.1207500000000001
 20
-2.7361400000000002
 30
0.0
 10
-2.27061
 20
-3.1196800000000002
 30
0.0
 10
-2.2833100000000002
 20
-3.2720800000000003
 30
0.0
 10
-2.2833100000000002
 20
-3.2720800000000003
 30
0.0
 10
-2.31379
 20
-3.1806400000000004
 30
0.0
 10
-2.3442700000000003
 20
-3.0434800000000002
 30
0.0
 10
-2.43825
 20
-2.9672800000000001
 30
0.0
 10
-2.43825
 20
-2.9672800000000001
 30
0.0
 10
-2.6033500000000003
 20
-3.0282400000000003
 30
0.0
 10
-2.5754100000000002
 20
-3.2263600000000001
 30
0.0
 10
-2.6211300000000004
 20
-3.3635200000000003
 30
0.0
 10
-2.6211300000000004
 20
-3.3635200000000003
 30
0.0
 10
-2.7074900000000004
 20
-3.2720800000000003
 30
0.0
 10
-2.6846300000000003
 20
-3.1196800000000002
 30
0.0
 10
-2.7608300000000003
 20
-3.0282400000000003
 30
0.0
 10
-2.7608300000000003
 20
-3.0282400000000003
 30
0.0
 10
-2.9487900000000002
 20
-3.0892000000000004
 30
0.0
 10
-2.9614900000000004
 20
-3.1654000000000004
 30
0.0
 10
-3.0732500000000003
 20
-2.9672800000000001
 30
0.0
 10
-3.0732500000000003
 20
-2.9672800000000001
 30
0.0
 10
-3.0732500000000003
 20
-2.9672800000000001
 30
0.0
 10
-3.2713700000000001
 20
-3.1501600000000001
 30
0.0
 10
-3.2713700000000001
 20
-3.1501600000000001
 30
0.0
 10
-3.2713700000000001
 20
-3.1501600000000001
 30
0.0
 10
-3.1697700000000002
 20
-2.7996400000000001
 30
0.0
 10
-3.1900900000000001
 20
-2.4923000000000002
 30
0.0
 10
-3.1951700000000001
 20
-2.1417800000000002
 30
0.0
 10
-3.1951700000000001
 20
-2.1417800000000002
 30
0.0
 10
-3.1951700000000001
 20
-2.1417800000000002
 30
0.0
 10
-3.1062700000000003
 20
-2.2484600000000001
 30
0.0
 10
-3.1062700000000003
 20
-2.2484600000000001
 30
0.0
 10
-3.1062700000000003
 20
-2.2484600000000001
 30
0.0
 10
-3.0808700000000004
 20
-2.2637
 30
0.0
 10
-3.0376900000000004
 20
-2.27894
 30
0.0
 10
-3.0122900000000001
 20
-2.2484600000000001
 30
0.0
 10
-3.0122900000000001
 20
-2.2484600000000001
 30
0.0
 10
-2.8929100000000001
 20
-2.2941800000000003
 30
0.0
 10
-3.0148300000000003
 20
-2.5685000000000002
 30
0.0
 10
-2.9106900000000002
 20
-2.5837400000000001
 30
0.0
 10
-2.9106900000000002
 20
-2.5837400000000001
 30
0.0
 10
-2.8751300000000004
 20
-2.4313400000000001
 30
0.0
 10
-2.9538700000000002
 20
-2.27894
 30
0.0
 10
-2.9183100000000004
 20
-2.1570200000000002
 30
0.0
 10
-2.9183100000000004
 20
-2.1570200000000002
 30
0.0
 10
-2.7659100000000003
 20
-2.2484600000000001
 30
0.0
 10
-2.4738100000000003
 20
-2.3094200000000003
 30
0.0
 10
-2.40523
 20
-2.0655800000000002
 30
0.0
 10
-2.40523
 20
-2.0655800000000002
 30
0.0
 10
-2.4636500000000003
 20
-1.6668000000000001
 30
0.0
 10
-2.8294100000000002
 20
-1.3924800000000002
 30
0.0
 10
-2.9995900000000004
 20
-1.04196
 30
0.0
 10
-2.9995900000000004
 20
-1.04196
 30
0.0
 10
-3.0986500000000001
 20
-1.0572000000000001
 30
0.0
 10
-3.1037300000000001
 20
-1.1791200000000002
 30
0.0
 10
-3.1646900000000002
 20
-1.2400800000000001
 30
0.0
 10
-3.1646900000000002
 20
-1.2400800000000001
 30
0.0
 10
-3.1723100000000004
 20
-0.9200400000000001
 30
0.0
 10
-2.73543
 20
-0.7955800000000001
 30
0.0
 10
-2.7278100000000003
 20
-0.4907800000000001
 30
0.0
 10
-2.7278100000000003
 20
-0.4907800000000001
 30
0.0
 10
-3.0884900000000002
 20
-0.7498600000000001
 30
0.0
 10
-3.1672300000000004
 20
-0.17074
 30
0.0
 10
-3.4390100000000001
 20
-0.06406
 30
0.0
 10
-3.4390100000000001
 20
-0.06406
 30
0.0
 10
-3.3526500000000001
 20
-0.2317
 30
0.0
 10
-3.2866100000000005
 20
-0.3841000000000001
 30
0.0
 10
-3.3831300000000004
 20
-0.55174
 30
0.0
 10
-3.3831300000000004
 20
-0.55174
 30
0.0
 10
-3.4186900000000002
 20
-0.8717800000000001
 30
0.0
 10
-3.1951700000000001
 20
-1.2705600000000001
 30
0.0
 10
-3.3932900000000004
 20
-1.5753600000000001
 30
0.0
 10
-3.3932900000000004
 20
-1.5753600000000001
 30
0.0
 10
-3.4034500000000003
 20
-1.3010400000000002
 30
0.0
 10
-3.4288500000000002
 20
-1.04196
 30
0.0
 10
-3.4136100000000003
 20
-0.78288
 30
0.0
 10
-3.4136100000000003
 20
-0.78288
 30
0.0
 10
-3.4110700000000005
 20
-0.4907800000000001
 30
0.0
 10
-3.3932900000000004
 20
-0.2698
 30
0.0
 10
-3.5304500000000001
 20
-0.02596
 30
0.0
 10
-3.5304500000000001
 20
-0.02596
 30
0.0
 10
-3.4948900000000003
 20
0.21279
 30
0.0
 10
-3.3704300000000003
 20
0.3270900000000001
 30
0.0
 10
-3.2078700000000002
 20
0.30423
 30
0.0
 10
-3.2078700000000002
 20
0.30423
 30
0.0
 10
-3.1545300000000003
 20
0.29661
 30
0.0
 10
-3.0681700000000003
 20
0.18485
 30
0.0
 10
-3.0199100000000003
 20
0.24073
 30
0.0
 10
-3.0199100000000003
 20
0.24073
 30
0.0
 10
-3.1773900000000004
 20
0.42361
 30
0.0
 10
-3.2434300000000005
 20
0.68269
 30
0.0
 10
-3.1697700000000002
 20
0.91129
 30
0.0
 10
-3.1697700000000002
 20
0.91129
 30
0.0
 10
-2.9589500000000002
 20
0.78937
 30
0.0
 10
-2.9792700000000001
 20
0.4540900000000001
 30
0.0
 10
-2.69733
 20
0.46933
 30
0.0
 10
-2.69733
 20
0.46933
 30
0.0
 10
-2.6236700000000002
 20
0.17977
 30
0.0
 10
-2.6693900000000004
 20
-0.0793
 30
0.0
 10
-2.5881100000000004
 20
-0.36886
 30
0.0
 10
-2.5881100000000004
 20
-0.36886
 30
0.0
 10
-2.4763500000000001
 20
-0.4907800000000001
 30
0.0
 10
-2.3366500000000001
 20
-0.6279400000000001
 30
0.0
 10
-2.1791700000000001
 20
-0.67366
 30
0.0
 10
-2.1791700000000001
 20
-0.67366
 30
0.0
 10
-2.2731500000000002
 20
-0.5212600000000001
 30
0.0
 10
-2.4636500000000003
 20
-0.44506
 30
0.0
 10
-2.4966700000000004
 20
-0.24694
 30
0.0
 10
-2.4966700000000004
 20
-0.24694
 30
0.0
 10
-2.6566900000000002
 20
-0.10724
 30
0.0
 10
-2.3747500000000001
 20
0.40837
 30
0.0
 10
-2.6033500000000003
 20
0.14929
 30
0.0
 10
-2.6033500000000003
 20
0.14929
 30
0.0
 10
-2.6211300000000004
 20
0.42361
 30
0.0
 10
-2.4509500000000002
 20
0.62173
 30
0.0
 10
-2.31379
 20
0.8376300000000001
 30
0.0
 10
-2.31379
 20
0.8376300000000001
 30
0.0
 10
-2.5500100000000003
 20
1.3100700000000001
 30
0.0
 10
-2.2782300000000002
 20
1.8002900000000002
 30
0.0
 10
-1.8718300000000001
 20
2.0593700000000004
 30
0.0
 10
-1.8718300000000001
 20
2.0593700000000004
 30
0.0
 10
-1.84135
 20
2.2879700000000001
 30
0.0
 10
-1.9353300000000002
 20
2.5165700000000002
 30
0.0
 10
-1.79817
 20
2.6842100000000002
 30
0.0
 10
-1.79817
 20
2.6842100000000002
 30
0.0
 10
-1.92517
 20
2.6410300000000002
 30
0.0
 10
-2.01153
 20
2.2422500000000003
 30
0.0
 10
-2.1258300000000001
 20
2.5165700000000002
 30
0.0
 10
-2.1258300000000001
 20
2.5165700000000002
 30
0.0
 10
-2.1258300000000001
 20
2.5165700000000002
 30
0.0
 10
-2.30871
 20
2.8543900000000004
 30
0.0
 10
-2.30871
 20
2.8543900000000004
 30
0.0
 10
-2.30871
 20
2.8543900000000004
 30
0.0
 10
-2.18425
 20
3.0220300000000004
 30
0.0
 10
-1.9835900000000002
 20
3.1591900000000002
 30
0.0
 10
-1.8032500000000002
 20
3.2811100000000004
 30
0.0
 10
-1.8032500000000002
 20
3.2811100000000004
 30
0.0
 10
-1.3892300000000002
 20
3.6036900000000003
 30
0.0
 10
-1.5263900000000001
 20
2.71469
 30
0.0
 10
-1.0133100000000002
 20
3.1591900000000002
 30
0.0
 10
-1.0133100000000002
 20
3.1591900000000002
 30
0.0
 10
-0.84567
 20
3.2658700000000001
 30
0.0
 10
-0.9371100000000001
 20
3.4487500000000004
 30
0.0
 10
-1.0742700000000001
 20
3.5097100000000001
 30
0.0
 10
-1.0742700000000001
 20
3.5097100000000001
 30
0.0
 10
0.66054
 20
4.6730300000000007
 30
0.0
 10
3.5561400000000001
 20
3.4055700000000004
 30
0.0
 10
4.2114600000000006
 20
1.3557900000000001
 30
0.0
 10
4.2114600000000006
 20
1.3557900000000001
 30
0.0
 10
4.3613200000000001
 20
0.10357
 30
0.0
 10
4.1327199999999999
 20
-1.5144000000000002
 30
0.0
 10
3.0481400000000001
 20
-2.2941800000000003
 30
0.0
 10
3.0481400000000001
 20
-2.2941800000000003
 30
0.0
 10
3.2767400000000002
 20
-2.52278
 30
0.0
 10
2.9567000000000001
 20
-2.7666200000000001
 30
0.0
 10
2.7433400000000003
 20
-2.8453600000000003
 30
0.0
 10
2.7433400000000003
 20
-2.8453600000000003
 30
0.0
 10
2.54522
 20
-2.9063200000000005
 30
0.0
 10
2.3750400000000003
 20
-2.7209000000000003
 30
0.0
 10
2.1921600000000003
 20
-2.6751800000000001
 30
0.0
 10
2.1921600000000003
 20
-2.6751800000000001
 30
0.0
 10
2.2988400000000002
 20
-2.4008600000000002
 30
0.0
 10
2.9109800000000003
 20
-2.6142200000000004
 30
0.0
 10
2.3902800000000002
 20
-2.3856200000000003
 30
0.0
 10
2.3902800000000002
 20
-2.3856200000000003
 30
0.0
 10
2.1159600000000003
 20
-2.3703800000000004
 30
0.0
 10
1.8264000000000002
 20
-2.3246600000000002
 30
0.0
 10
1.6409800000000001
 20
-2.1113
 30
0.0
 10
1.6409800000000001
 20
-2.1113
 30
0.0
 10
1.56732
 20
-2.01986
 30
0.0
 10
1.4454
 20
-2.0046200000000001
 30
0.0
 10
1.3361800000000001
 20
-1.9893800000000001
 30
0.0
 10
1.3361800000000001
 20
-1.9893800000000001
 30
0.0
 10
1.4123800000000002
 20
-1.8369800000000001
 30
0.0
 10
1.5825600000000002
 20
-1.8039600000000002
 30
0.0
 10
1.7044800000000002
 20
-1.7277600000000002
 30
0.0
 10
1.7044800000000002
 20
-1.7277600000000002
 30
0.0
 10
1.7044800000000002
 20
-1.7277600000000002
 30
0.0
 10
1.6740000000000002
 20
-1.5144000000000002
 30
0.0
 10
1.6740000000000002
 20
-1.5144000000000002
 30
0.0
 10
1.6740000000000002
 20
-1.5144000000000002
 30
0.0
 10
1.06186
 20
-1.1334000000000002
 30
0.0
 10
1.4454
 20
-0.26218
 30
0.0
 10
1.8568800000000001
 20
0.14929
 30
0.0
 10
1.8568800000000001
 20
0.14929
 30
0.0
 10
1.8568800000000001
 20
0.14929
 30
0.0
 10
1.8568800000000001
 20
0.37789
 30
0.0
 10
1.8568800000000001
 20
0.37789
 30
0.0
 10
1.8568800000000001
 20
0.37789
 30
0.0
 10
1.4454
 20
0.7284100000000001
 30
0.0
 10
2.0702400000000001
 20
1.0027300000000001
 30
0.0
 10
2.2836000000000003
 20
1.2491100000000002
 30
0.0
 10
2.2836000000000003
 20
1.2491100000000002
 30
0.0
 10
2.3140800000000001
 20
1.2643500000000001
 30
0.0
 10
2.3750400000000003
 20
1.3100700000000001
 30
0.0
 10
2.3293200000000001
 20
1.3405500000000001
 30
0.0
 10
2.3293200000000001
 20
1.3405500000000001
 30
0.0
 10
1.9788000000000001
 20
1.06623
 30
0.0
 10
1.2295
 20
0.7741300000000001
 30
0.0
 10
1.6892400000000001
 20
0.27121
 30
0.0
 10
1.6892400000000001
 20
0.27121
 30
0.0
 10
1.2447400000000002
 20
-0.2317
 30
0.0
 10
1.1228200000000002
 20
-1.1334000000000002
 30
0.0
 10
1.6105
 20
-1.6363200000000002
 30
0.0
 10
1.6105
 20
-1.6363200000000002
 30
0.0
 10
1.27522
 20
-1.7277600000000002
 30
0.0
 10
1.10758
 20
-2.1113
 30
0.0
 10
0.8027800000000001
 20
-2.2484600000000001
 30
0.0
 10
0.8027800000000001
 20
-2.2484600000000001
 30
0.0
 10
0.1754
 20
-2.01986
 30
0.0
 10
-0.38847
 20
-2.4465800000000004
 30
0.0
 10
-0.9980700000000001
 20
-2.5075400000000001
 30
0.0
 10
-0.9980700000000001
 20
-2.5075400000000001
 30
0.0
 10
-1.1961900000000001
 20
-2.4465800000000004
 30
0.0
 10
-1.2876300000000001
 20
-2.2332200000000002
 30
0.0
 10
-1.4730500000000002
 20
-2.1417800000000002
 30
0.0
 10
-1.4730500000000002
 20
-2.1417800000000002
 30
0.0
 10
-1.8896100000000002
 20
-1.8954000000000002
 30
0.0
 10
-2.30871
 20
-2.7082000000000002
 30
0.0
 10
-1.6864100000000002
 20
-2.2484600000000001
 30
0.0
 10
-1.6864100000000002
 20
-2.2484600000000001
 30
0.0
 10
-1.6864100000000002
 20
-2.2484600000000001
 30
0.0
 10
-1.7499100000000001
 20
-2.4008600000000002
 30
0.0
 10
-1.7499100000000001
 20
-2.4008600000000002
 30
0.0
 10
-1.7499100000000001
 20
-2.4008600000000002
 30
0.0
 10
-1.8616700000000002
 20
-2.7996400000000001
 30
0.0
 10
-1.50607
 20
-2.1265400000000003
 30
0.0
 10
-1.4425700000000001
 20
-2.3856200000000003
 30
0.0
 10
-1.4425700000000001
 20
-2.3856200000000003
 30
0.0
 10
-1.6203700000000001
 20
-2.52278
 30
0.0
 10
-1.5695700000000001
 20
-3.1501600000000001
 30
0.0
 10
-1.8083300000000002
 20
-2.85806
 30
0.0
 10
-1.8083300000000002
 20
-2.85806
 30
0.0
 10
-1.8083300000000002
 20
-2.85806
 30
0.0
 10
-1.8845300000000003
 20
-2.9368000000000003
 30
0.0
 10
-1.8845300000000003
 20
-2.9368000000000003
 30
0.0
  0
SPLINE
  5
2D
100
AcDbEntity
  8
Ebene 1
 62
     7
100
AcDbSpline
210
0.0
220
0.0
230
1.0
 70
     1
 71
     3
 72
    16
 73
    12
 74
     0
 42
0.0000000001
 43
0.0000000001
 40
0.0
 40
0.0
 40
0.0
 40
0.0
 40
0.3333333333333333
 40
0.3333333333333333
 40
0.3333333333333333
 40
0.3333333333333333
 40
0.6666666666666666
 40
0.6666666666666666
 40
0.6666666666666666
 40
0.6666666666666666
 40
1.0
 40
1.0
 40
1.0
 40
1.0
 10
-3.0148300000000003
 20
3.9694500000000001
 30
0.0
 10
-2.7201900000000001
 20
3.4030300000000002
 30
0.0
 10
-2.3595100000000002
 20
2.80613
 30
0.0
 10
-2.1588500000000002
 20
2.1812900000000002
 30
0.0
 10
-2.1588500000000002
 20
2.1812900000000002
 30
0.0
 10
-2.1740900000000001
 20
2.13557
 30
0.0
 10
-2.2020300000000002
 20
2.1050900000000001
 30
0.0
 10
-2.2401300000000002
 20
2.0898500000000002
 30
0.0
 10
-2.2401300000000002
 20
2.0898500000000002
 30
0.0
 10
-2.6820900000000001
 20
2.6080100000000002
 30
0.0
 10
-2.9386300000000003
 20
3.2963500000000003
 30
0.0
 10
-3.0148300000000003
 20
3.9694500000000001
 30
0.0
  0
SPLINE
  5
2E
100
AcDbEntity
  8
Ebene 1
 62
     7
100
AcDbSpline
210
0.0
220
0.0
230
1.0
 70
     1
 71
     3
 72
    20
 73
    16
 74
     0
 42
0.0000000001
 43
0.0000000001
 40
0.0
 40
0.0
 40
0.0
 40
0.0
 40
0.25
 40
0.25
 40
0.25
 40
0.25
 40
0.5
 40
0.5
 40
0.5
 40
0.5
 40
0.75
 40
0.75
 40
0.75
 40
0.75
 40
1.0
 40
1.0
 40
1.0
 40
1.0
 10
-1.0920500000000002
 20
3.3522300000000005
 30
0.0
 10
-0.9701300000000001
 20
3.2709500000000005
 30
0.0
 10
-1.0615700000000001
 20
3.1541100000000002
 30
0.0
 10
-1.1834900000000002
 20
3.1210900000000001
 30
0.0
 10
-1.1834900000000002
 20
3.1210900000000001
 30
0.0
 10
-1.29017
 20
3.0931500000000001
 30
0.0
 10
-1.4273300000000002
 20
3.1363300000000001
 30
0.0
 10
-1.3562100000000001
 20
3.2531700000000003
 30
0.0
 10
-1.3562100000000001
 20
3.2531700000000003
 30
0.0
 10
-1.33081
 20
3.2226900000000001
 30
0.0
 10
-1.3003300000000002
 20
3.2531700000000003
 30
0.0
 10
-1.2698500000000001
 20
3.2531700000000003
 30
0.0
 10
-1.2698500000000001
 20
3.2531700000000003
 30
0.0
 10
-1.20889
 20
3.2684100000000003
 30
0.0
 10
-1.1377700000000002
 20
3.3065100000000003
 30
0.0
 10
-1.0920500000000002
 20
3.3522300000000005
 30
0.0
  0
SPLINE
  5
2F
100
AcDbEntity
  8
Ebene 1
 62
     7
100
AcDbSpline
210
0.0
220
0.0
230
1.0
 70
     1
 71
     3
 72
    12
 73
     8
 74
     0
 42
0.0000000001
 43
0.0000000001
 40
0.0
 40
0.0
 40
0.0
 40
0.0
 40
0.5
 40
0.5
 40
0.5
 40
0.5
 40
1.0
 40
1.0
 40
1.0
 40
1.0
 10
3.4291400000000003
 20
3.1439500000000002
 30
0.0
 10
3.4774000000000003
 20
3.09823
 30
0.0
 10
3.4443800000000002
 20
2.9458300000000004
 30
0.0
 10
3.3859600000000003
 20
2.9280500000000003
 30
0.0
 10
3.3859600000000003
 20
2.9280500000000003
 30
0.0
 10
3.30722
 20
2.9915500000000002
 30
0.0
 10
3.4443800000000002
 20
3.0677500000000002
 30
0.0
 10
3.4291400000000003
 20
3.1439500000000002
 30
0.0
  0
SPLINE
  5
30
100
AcDbEntity
  8
Ebene 1
 62
     7
100
AcDbSpline
210
0.0
220
0.0
230
1.0
 70
     1
 71
     3
 72
    20
 73
    16
 74
     0
 42
0.0000000001
 43
0.0000000001
 40
0.0
 40
0.0
 40
0.0
 40
0.0
 40
0.25
 40
0.25
 40
0.25
 40
0.25
 40
0.5
 40
0.5
 40
0.5
 40
0.5
 40
0.75
 40
0.75
 40
0.75
 40
0.75
 40
1.0
 40
1.0
 40
1.0
 40
1.0
 10
-4.01051
 20
2.5775300000000003
 30
0.0
 10
-3.6168100000000001
 20
2.0136500000000002
 30
0.0
 10
-3.1113500000000003
 20
1.4929500000000002
 30
0.0
 10
-2.6668500000000002
 20
0.9747900000000001
 30
0.0
 10
-2.6668500000000002
 20
0.9747900000000001
 30
0.0
 10
-2.6592300000000004
 20
0.8960500000000001
 30
0.0
 10
-2.65415
 20
0.8046100000000001
 30
0.0
 10
-2.69733
 20
0.74365
 30
0.0
 10
-2.69733
 20
0.74365
 30
0.0
 10
-2.7430500000000002
 20
0.7284100000000001
 30
0.0
 10
-2.7887700000000004
 20
0.6979300000000001
 30
0.0
 10
-2.8421100000000004
 20
0.7131700000000001
 30
0.0
 10
-2.8421100000000004
 20
0.7131700000000001
 30
0.0
 10
-3.4186900000000002
 20
1.2033900000000002
 30
0.0
 10
-3.7996900000000005
 20
1.8917300000000001
 30
0.0
 10
-4.01051
 20
2.5775300000000003
 30
0.0
  0
SPLINE
  5
31
100
AcDbEntity
  8
Ebene 1
 62
     7
100
AcDbSpline
210
0.0
220
0.0
230
1.0
 70
     1
 71
     3
 72
    24
 73
    20
 74
     0
 42
0.0000000001
 43
0.0000000001
 40
0.0
 40
0.0
 40
0.0
 40
0.0
 40
0.2
 40
0.2
 40
0.2
 40
0.2
 40
0.4
 40
0.4
 40
0.4
 40
0.4
 40
0.6000000000000001
 40
0.6000000000000001
 40
0.6000000000000001
 40
0.6000000000000001
 40
0.8
 40
0.8
 40
0.8
 40
0.8
 40
1.0
 40
1.0
 40
1.0
 40
1.0
 10
-2.6338300000000001
 20
2.4403700000000002
 30
0.0
 10
-2.6338300000000001
 20
2.4403700000000002
 30
0.0
 10
-2.4509500000000002
 20
2.13557
 30
0.0
 10
-2.4509500000000002
 20
2.13557
 30
0.0
 10
-2.4509500000000002
 20
2.13557
 30
0.0
 10
-2.5169900000000003
 20
2.0136500000000002
 30
0.0
 10
-2.4712700000000001
 20
1.8434700000000002
 30
0.0
 10
-2.3290300000000004
 20
1.8002900000000002
 30
0.0
 10
-2.3290300000000004
 20
1.8002900000000002
 30
0.0
 10
-2.3976100000000002
 20
1.56915
 30
0.0
 10
-2.4890500000000002
 20
1.3405500000000001
 30
0.0
 10
-2.57287
 20
1.1271900000000001
 30
0.0
 10
-2.57287
 20
1.1271900000000001
 30
0.0
 10
-2.73543
 20
1.2643500000000001
 30
0.0
 10
-2.8979900000000001
 20
1.4167500000000002
 30
0.0
 10
-3.0148300000000003
 20
1.5996300000000001
 30
0.0
 10
-3.0148300000000003
 20
1.5996300000000001
 30
0.0
 10
-2.9843500000000001
 20
1.9222100000000002
 30
0.0
 10
-2.7862300000000002
 20
2.1812900000000002
 30
0.0
 10
-2.6338300000000001
 20
2.4403700000000002
 30
0.0
  0
SPLINE
  5
32
100
AcDbEntity
  8
Ebene 1
 62
     7
100
AcDbSpline
210
0.0
220
0.0
230
1.0
 70
     1
 71
     3
 72
    24
 73
    20
 74
     0
 42
0.0000000001
 43
0.0000000001
 40
0.0
 40
0.0
 40
0.0
 40
0.0
 40
0.2
 40
0.2
 40
0.2
 40
0.2
 40
0.4
 40
0.4
 40
0.4
 40
0.4
 40
0.6000000000000001
 40
0.6000000000000001
 40
0.6000000000000001
 40
0.6000000000000001
 40
0.8
 40
0.8
 40
0.8
 40
0.8
 40
1.0
 40
1.0
 40
1.0
 40
1.0
 10
-2.0851900000000003
 20
2.1660500000000003
 30
0.0
 10
-2.02169
 20
2.1660500000000003
 30
0.0
 10
-1.9531100000000001
 20
2.13557
 30
0.0
 10
-1.9353300000000002
 20
2.0746100000000003
 30
0.0
 10
-1.9353300000000002
 20
2.0746100000000003
 30
0.0
 10
-1.9886700000000002
 20
2.0136500000000002
 30
0.0
 10
-2.1055100000000002
 20
1.8434700000000002
 30
0.0
 10
-2.1918700000000002
 20
1.9222100000000002
 30
0.0
 10
-2.1918700000000002
 20
1.9222100000000002
 30
0.0
 10
-2.2426700000000004
 20
1.8002900000000002
 30
0.0
 10
-2.4280900000000001
 20
1.8739500000000002
 30
0.0
 10
-2.3696700000000002
 20
2.0136500000000002
 30
0.0
 10
-2.3696700000000002
 20
2.0136500000000002
 30
0.0
 10
-2.3544300000000002
 20
2.0288900000000001
 30
0.0
 10
-2.3239500000000004
 20
2.0288900000000001
 30
0.0
 10
-2.2985500000000001
 20
2.0288900000000001
 30
0.0
 10
-2.2985500000000001
 20
2.0288900000000001
 30
0.0
 10
-2.2020300000000002
 20
2.0136500000000002
 30
0.0
 10
-2.1385300000000003
 20
2.1050900000000001
 30
0.0
 10
-2.0851900000000003
 20
2.1660500000000003
 30
0.0
  0
SPLINE
  5
33
100
AcDbEntity
  8
Ebene 1
100
AcDbSpline
210
0.0
220
0.0
230
1.0
 70
     1
 71
     3
 72
    28
 73
    24
 74
     0
 42
0.0000000001
 43
0.0000000001
 40
0.0
 40
0.0
 40
0.0
 40
0.0
 40
0.1666666666666667
 40
0.1666666666666667
 40
0.1666666666666667
 40
0.1666666666666667
 40
0.3333333333333333
 40
0.3333333333333333
 40
0.3333333333333333
 40
0.3333333333333333
 40
0.5
 40
0.5
 40
0.5
 40
0.5
 40
0.6666666666666666
 40
0.6666666666666666
 40
0.6666666666666666
 40
0.6666666666666666
 40
0.8333333333333333
 40
0.8333333333333333
 40
0.8333333333333333
 40
0.8333333333333333
 40
1.0
 40
1.0
 40
1.0
 40
1.0
 10
2.1921600000000003
 20
1.5843900000000002
 30
0.0
 10
2.25312
 20
1.61487
 30
0.0
 10
2.3140800000000001
 20
1.5386700000000002
 30
0.0
 10
2.2226400000000002
 20
1.5386700000000002
 30
0.0
 10
2.2226400000000002
 20
1.5386700000000002
 30
0.0
 10
1.8721200000000002
 20
1.5081900000000001
 30
0.0
 10
1.6257400000000002
 20
1.2491100000000002
 30
0.0
 10
1.3361800000000001
 20
1.0814700000000002
 30
0.0
 10
1.3361800000000001
 20
1.0814700000000002
 30
0.0
 10
1.2904600000000002
 20
1.0814700000000002
 30
0.0
 10
1.2295
 20
1.06623
 30
0.0
 10
1.1990200000000002
 20
1.11195
 30
0.0
 10
1.1990200000000002
 20
1.11195
 30
0.0
 10
1.1685400000000001
 20
1.2033900000000002
 30
0.0
 10
1.2142600000000001
 20
1.2643500000000001
 30
0.0
 10
1.2447400000000002
 20
1.3405500000000001
 30
0.0
 10
1.2447400000000002
 20
1.3405500000000001
 30
0.0
 10
1.3057000000000001
 20
1.3405500000000001
 30
0.0
 10
1.2599800000000001
 20
1.2491100000000002
 30
0.0
 10
1.32094
 20
1.23387
 30
0.0
 10
1.32094
 20
1.23387
 30
0.0
 10
1.6105
 20
1.3405500000000001
 30
0.0
 10
1.8873600000000001
 20
1.5539100000000001
 30
0.0
 10
2.1921600000000003
 20
1.5843900000000002
 30
0.0
  0
SPLINE
  5
34
100
AcDbEntity
  8
Ebene 1
100
AcDbSpline
210
0.0
220
0.0
230
1.0
 70
     1
 71
     3
 72
    24
 73
    20
 74
     0
 42
0.0000000001
 43
0.0000000001
 40
0.0
 40
0.0
 40
0.0
 40
0.0
 40
0.2
 40
0.2
 40
0.2
 40
0.2
 40
0.4
 40
0.4
 40
0.4
 40
0.4
 40
0.6000000000000001
 40
0.6000000000000001
 40
0.6000000000000001
 40
0.6000000000000001
 40
0.8
 40
0.8
 40
0.8
 40
0.8
 40
1.0
 40
1.0
 40
1.0
 40
1.0
 10
2.9414600000000002
 20
1.5539100000000001
 30
0.0
 10
3.1243400000000001
 20
1.5539100000000001
 30
0.0
 10
3.30722
 20
1.5539100000000001
 30
0.0
 10
3.4621600000000003
 20
1.4777100000000001
 30
0.0
 10
3.4621600000000003
 20
1.4777100000000001
 30
0.0
 10
3.7669600000000001
 20
1.0509900000000001
 30
0.0
 10
3.9346000000000005
 20
0.53029
 30
0.0
 10
3.8888800000000003
 20
0.01213
 30
0.0
 10
3.8888800000000003
 20
0.01213
 30
0.0
 10
3.8736400000000004
 20
0.01213
 30
0.0
 10
3.8431600000000001
 20
0.02737
 30
0.0
 10
3.8431600000000001
 20
0.04007
 30
0.0
 10
3.8431600000000001
 20
0.04007
 30
0.0
 10
3.7974400000000004
 20
0.68269
 30
0.0
 10
3.4139000000000004
 20
1.4167500000000002
 30
0.0
 10
2.7281000000000004
 20
1.5081900000000001
 30
0.0
 10
2.7281000000000004
 20
1.5081900000000001
 30
0.0
 10
2.7738200000000002
 20
1.5843900000000002
 30
0.0
 10
2.8957400000000004
 20
1.5081900000000001
 30
0.0
 10
2.9414600000000002
 20
1.5539100000000001
 30
0.0
  0
SPLINE
  5
35
100
AcDbEntity
  8
Ebene 1
100
AcDbSpline
210
0.0
220
0.0
230
1.0
 70
     1
 71
     3
 72
    24
 73
    20
 74
     0
 42
0.0000000001
 43
0.0000000001
 40
0.0
 40
0.0
 40
0.0
 40
0.0
 40
0.2
 40
0.2
 40
0.2
 40
0.2
 40
0.4
 40
0.4
 40
0.4
 40
0.4
 40
0.6000000000000001
 40
0.6000000000000001
 40
0.6000000000000001
 40
0.6000000000000001
 40
0.8
 40
0.8
 40
0.8
 40
0.8
 40
1.0
 40
1.0
 40
1.0
 40
1.0
 10
-0.08113
 20
1.3862700000000001
 30
0.0
 10
0.28208
 20
1.40151
 30
0.0
 10
0.6199
 20
1.2643500000000001
 30
0.0
 10
0.9856600000000001
 20
1.27959
 30
0.0
 10
0.9856600000000001
 20
1.27959
 30
0.0
 10
0.95518
 20
1.2186300000000001
 30
0.0
 10
0.9094600000000001
 20
1.1576700000000002
 30
0.0
 10
0.8485
 20
1.11195
 30
0.0
 10
0.8485
 20
1.11195
 30
0.0
 10
0.5868800000000001
 20
1.1729100000000001
 30
0.0
 10
0.34304
 20
1.27959
 30
0.0
 10
0.06872
 20
1.2643500000000001
 30
0.0
 10
0.06872
 20
1.2643500000000001
 30
0.0
 10
0.03824
 20
1.3100700000000001
 30
0.0
 10
-0.00493
 20
1.3405500000000001
 30
0.0
 10
-0.06589
 20
1.3253100000000002
 30
0.0
 10
-0.06589
 20
1.3253100000000002
 30
0.0
 10
-0.08113
 20
1.3405500000000001
 30
0.0
 10
-0.11161
 20
1.3557900000000001
 30
0.0
 10
-0.08113
 20
1.3862700000000001
 30
0.0
  0
SPLINE
  5
36
100
AcDbEntity
  8
Ebene 1
100
AcDbSpline
210
0.0
220
0.0
230
1.0
 70
     1
 71
     3
 72
    20
 73
    16
 74
     0
 42
0.0000000001
 43
0.0000000001
 40
0.0
 40
0.0
 40
0.0
 40
0.0
 40
0.25
 40
0.25
 40
0.25
 40
0.25
 40
0.5
 40
0.5
 40
0.5
 40
0.5
 40
0.75
 40
0.75
 40
0.75
 40
0.75
 40
1.0
 40
1.0
 40
1.0
 40
1.0
 10
-0.7542300000000001
 20
1.27959
 30
0.0
 10
-0.7542300000000001
 20
1.27959
 30
0.0
 10
-0.63231
 20
1.2643500000000001
 30
0.0
 10
-0.63231
 20
1.2643500000000001
 30
0.0
 10
-0.63231
 20
1.2643500000000001
 30
0.0
 10
-1.1504700000000001
 20
1.06623
 30
0.0
 10
-1.6610100000000001
 20
0.74365
 30
0.0
 10
-2.1004300000000002
 20
0.36265
 30
0.0
 10
-2.1004300000000002
 20
0.36265
 30
0.0
 10
-2.1791700000000001
 20
0.37789
 30
0.0
 10
-2.2579100000000003
 20
0.28645
 30
0.0
 10
-2.3239500000000004
 20
0.3169300000000001
 30
0.0
 10
-2.3239500000000004
 20
0.3169300000000001
 30
0.0
 10
-1.8210300000000001
 20
0.62173
 30
0.0
 10
-1.33589
 20
1.11195
 30
0.0
 10
-0.7542300000000001
 20
1.27959
 30
0.0
  0
SPLINE
  5
37
100
AcDbEntity
  8
Ebene 1
100
AcDbSpline
210
0.0
220
0.0
230
1.0
 70
     1
 71
     3
 72
    52
 73
    48
 74
     0
 42
0.0000000001
 43
0.0000000001
 40
0.0
 40
0.0
 40
0.0
 40
0.0
 40
0.0833333333333333
 40
0.0833333333333333
 40
0.0833333333333333
 40
0.0833333333333333
 40
0.1666666666666667
 40
0.1666666666666667
 40
0.1666666666666667
 40
0.1666666666666667
 40
0.25
 40
0.25
 40
0.25
 40
0.25
 40
0.3333333333333333
 40
0.3333333333333333
 40
0.3333333333333333
 40
0.3333333333333333
 40
0.4166666666666666
 40
0.4166666666666666
 40
0.4166666666666666
 40
0.4166666666666666
 40
0.4999999999999999
 40
0.4999999999999999
 40
0.4999999999999999
 40
0.4999999999999999
 40
0.5833333333333333
 40
0.5833333333333333
 40
0.5833333333333333
 40
0.5833333333333333
 40
0.6666666666666666
 40
0.6666666666666666
 40
0.6666666666666666
 40
0.6666666666666666
 40
0.75
 40
0.75
 40
0.75
 40
0.75
 40
0.8333333333333334
 40
0.8333333333333334
 40
0.8333333333333334
 40
0.8333333333333334
 40
0.9166666666666667
 40
0.9166666666666667
 40
0.9166666666666667
 40
0.9166666666666667
 40
1.0
 40
1.0
 40
1.0
 40
1.0
 10
-0.38847
 20
0.8655700000000001
 30
0.0
 10
-0.40371
 20
0.74365
 30
0.0
 10
-0.63231
 20
0.5455300000000001
 30
0.0
 10
-0.6475500000000001
 20
0.36265
 30
0.0
 10
-0.6475500000000001
 20
0.36265
 30
0.0
 10
-0.6475500000000001
 20
0.36265
 30
0.0
 10
-0.18781
 20
0.43885
 30
0.0
 10
-0.18781
 20
0.43885
 30
0.0
 10
-0.18781
 20
0.43885
 30
0.0
 10
0.20588
 20
0.4540900000000001
 30
0.0
 10
0.6199
 20
0.43885
 30
0.0
 10
0.9856600000000001
 20
0.56077
 30
0.0
 10
0.9856600000000001
 20
0.56077
 30
0.0
 10
0.8485
 20
0.43885
 30
0.0
 10
0.63514
 20
0.40837
 30
0.0
 10
0.46496
 20
0.36265
 30
0.0
 10
0.46496
 20
0.36265
 30
0.0
 10
0.51068
 20
0.27121
 30
0.0
 10
0.8789800000000001
 20
0.02737
 30
0.0
 10
1.0466200000000001
 20
-0.09454
 30
0.0
 10
1.0466200000000001
 20
-0.09454
 30
0.0
 10
0.9856600000000001
 20
-0.1555
 30
0.0
 10
0.9094600000000001
 20
-0.0158
 30
0.0
 10
0.8485
 20
-0.09454
 30
0.0
 10
0.8485
 20
-0.09454
 30
0.0
 10
0.9399400000000001
 20
-0.47554
 30
0.0
 10
0.8027800000000001
 20
-0.9200400000000001
 30
0.0
 10
0.5259200000000001
 20
-1.1791200000000002
 30
0.0
 10
0.5259200000000001
 20
-1.1791200000000002
 30
0.0
 10
0.5564
 20
-1.2096
 30
0.0
 10
0.7113400000000001
 20
-1.08768
 30
0.0
 10
0.66308
 20
-1.1943600000000001
 30
0.0
 10
0.66308
 20
-1.1943600000000001
 30
0.0
 10
0.19064
 20
-1.33152
 30
0.0
 10
-0.3122700000000001
 20
-1.2553200000000002
 30
0.0
 10
-0.7694700000000001
 20
-1.3924800000000002
 30
0.0
 10
-0.7694700000000001
 20
-1.3924800000000002
 30
0.0
 10
-1.0590300000000001
 20
-1.3162800000000001
 30
0.0
 10
-1.2292100000000001
 20
-1.0267200000000001
 30
0.0
 10
-1.4451100000000001
 20
-0.8108200000000001
 30
0.0
 10
-1.4451100000000001
 20
-0.8108200000000001
 30
0.0
 10
-1.54925
 20
-0.7651000000000001
 30
0.0
 10
-1.71435
 20
-0.8717800000000001
 30
0.0
 10
-1.8032500000000002
 20
-0.7651000000000001
 30
0.0
 10
-1.8032500000000002
 20
-0.7651000000000001
 30
0.0
 10
-1.0133100000000002
 20
-0.65842
 30
0.0
 10
-1.08951
 20
0.4845700000000001
 30
0.0
 10
-0.38847
 20
0.8655700000000001
 30
0.0
  0
SPLINE
  5
38
100
AcDbEntity
  8
Ebene 1
 62
     7
100
AcDbSpline
210
0.0
220
0.0
230
1.0
 70
     1
 71
     3
 72
    12
 73
     8
 74
     0
 42
0.0000000001
 43
0.0000000001
 40
0.0
 40
0.0
 40
0.0
 40
0.0
 40
0.5
 40
0.5
 40
0.5
 40
0.5
 40
1.0
 40
1.0
 40
1.0
 40
1.0
 10
-2.5576300000000001
 20
0.8376300000000001
 30
0.0
 10
-2.3163300000000002
 20
0.6674500000000001
 30
0.0
 10
-2.8319500000000004
 20
0.36265
 30
0.0
 10
-2.90307
 20
0.6522100000000001
 30
0.0
 10
-2.90307
 20
0.6522100000000001
 30
0.0
 10
-2.7633700000000001
 20
0.63697
 30
0.0
 10
-2.6211300000000004
 20
0.6979300000000001
 30
0.0
 10
-2.5576300000000001
 20
0.8376300000000001
 30
0.0
  0
SPLINE
  5
39
100
AcDbEntity
  8
Ebene 1
100
AcDbSpline
210
0.0
220
0.0
230
1.0
 70
     1
 71
     3
 72
    28
 73
    24
 74
     0
 42
0.0000000001
 43
0.0000000001
 40
0.0
 40
0.0
 40
0.0
 40
0.0
 40
0.1666666666666667
 40
0.1666666666666667
 40
0.1666666666666667
 40
0.1666666666666667
 40
0.3333333333333333
 40
0.3333333333333333
 40
0.3333333333333333
 40
0.3333333333333333
 40
0.5
 40
0.5
 40
0.5
 40
0.5
 40
0.6666666666666666
 40
0.6666666666666666
 40
0.6666666666666666
 40
0.6666666666666666
 40
0.8333333333333333
 40
0.8333333333333333
 40
0.8333333333333333
 40
0.8333333333333333
 40
1.0
 40
1.0
 40
1.0
 40
1.0
 10
-0.9980700000000001
 20
0.3474100000000001
 30
0.0
 10
-0.9675900000000001
 20
0.36265
 30
0.0
 10
-0.9371100000000001
 20
0.33217
 30
0.0
 10
-0.95235
 20
0.30169
 30
0.0
 10
-0.95235
 20
0.30169
 30
0.0
 10
-1.1961900000000001
 20
0.01213
 30
0.0
 10
-1.41971
 20
-0.27742
 30
0.0
 10
-1.5975100000000002
 20
-0.6127
 30
0.0
 10
-1.5975100000000002
 20
-0.6127
 30
0.0
 10
-1.8438900000000003
 20
-0.7346200000000001
 30
0.0
 10
-2.10297
 20
-0.5365000000000001
 30
0.0
 10
-2.31379
 20
-0.42982
 30
0.0
 10
-2.31379
 20
-0.42982
 30
0.0
 10
-2.2782300000000002
 20
-0.36886
 30
0.0
 10
-2.2020300000000002
 20
-0.44506
 30
0.0
 10
-2.1436100000000002
 20
-0.42982
 30
0.0
 10
-2.1436100000000002
 20
-0.42982
 30
0.0
 10
-1.58735
 20
-0.7346200000000001
 30
0.0
 10
-1.50353
 20
0.04007
 30
0.0
 10
-1.08951
 20
0.21025
 30
0.0
 10
-1.08951
 20
0.21025
 30
0.0
 10
-1.08951
 20
0.21025
 30
0.0
 10
-0.9980700000000001
 20
0.3474100000000001
 30
0.0
 10
-0.9980700000000001
 20
0.3474100000000001
 30
0.0
  0
SPLINE
  5
3A
100
AcDbEntity
  8
Ebene 1
 62
     7
100
AcDbSpline
210
0.0
220
0.0
230
1.0
 70
     1
 71
     3
 72
    20
 73
    16
 74
     0
 42
0.0000000001
 43
0.0000000001
 40
0.0
 40
0.0
 40
0.0
 40
0.0
 40
0.25
 40
0.25
 40
0.25
 40
0.25
 40
0.5
 40
0.5
 40
0.5
 40
0.5
 40
0.75
 40
0.75
 40
0.75
 40
0.75
 40
1.0
 40
1.0
 40
1.0
 40
1.0
 10
-0.63231
 20
-0.20122
 30
0.0
 10
-0.46213
 20
-0.21646
 30
0.0
 10
-0.28179
 20
-0.2317
 30
0.0
 10
-0.12685
 20
-0.32314
 30
0.0
 10
-0.12685
 20
-0.32314
 30
0.0
 10
-0.12685
 20
-0.32314
 30
0.0
 10
-0.6018300000000001
 20
-0.65842
 30
0.0
 10
-0.6018300000000001
 20
-0.65842
 30
0.0
 10
-0.6018300000000001
 20
-0.65842
 30
0.0
 10
-0.72375
 20
-0.6127
 30
0.0
 10
-0.8609100000000001
 20
-0.55174
 30
0.0
 10
-0.9980700000000001
 20
-0.5365000000000001
 30
0.0
 10
-0.9980700000000001
 20
-0.5365000000000001
 30
0.0
 10
-0.9371100000000001
 20
-0.3841000000000001
 30
0.0
 10
-0.78471
 20
-0.24694
 30
0.0
 10
-0.63231
 20
-0.20122
 30
0.0
  0
SPLINE
  5
3B
100
AcDbEntity
  8
Ebene 1
 62
     7
100
AcDbSpline
210
0.0
220
0.0
230
1.0
 70
     1
 71
     3
 72
    12
 73
     8
 74
     0
 42
0.0000000001
 43
0.0000000001
 40
0.0
 40
0.0
 40
0.0
 40
0.0
 40
0.5
 40
0.5
 40
0.5
 40
0.5
 40
1.0
 40
1.0
 40
1.0
 40
1.0
 10
-3.1850100000000001
 20
-0.65842
 30
0.0
 10
-3.1316700000000002
 20
-0.67366
 30
0.0
 10
-3.0554700000000001
 20
-0.71938
 30
0.0
 10
-3.0656300000000001
 20
-0.78288
 30
0.0
 10
-3.0656300000000001
 20
-0.78288
 30
0.0
 10
-3.1545300000000003
 20
-0.8717800000000001
 30
0.0
 10
-3.2840700000000003
 20
-0.7346200000000001
 30
0.0
 10
-3.1850100000000001
 20
-0.65842
 30
0.0
  0
SPLINE
  5
3C
100
AcDbEntity
  8
Ebene 1
 62
     7
100
AcDbSpline
210
0.0
220
0.0
230
1.0
 70
     1
 71
     3
 72
    12
 73
     8
 74
     0
 42
0.0000000001
 43
0.0000000001
 40
0.0
 40
0.0
 40
0.0
 40
0.0
 40
0.5
 40
0.5
 40
0.5
 40
0.5
 40
1.0
 40
1.0
 40
1.0
 40
1.0
 10
-3.2764500000000001
 20
-1.5296400000000001
 30
0.0
 10
-3.2104100000000004
 20
-1.5753600000000001
 30
0.0
 10
-3.2662900000000001
 20
-1.6820400000000002
 30
0.0
 10
-3.2332700000000001
 20
-1.7455400000000001
 30
0.0
 10
-3.2332700000000001
 20
-1.7455400000000001
 30
0.0
 10
-3.3094700000000001
 20
-1.7277600000000002
 30
0.0
 10
-3.2637500000000004
 20
-1.5906000000000002
 30
0.0
 10
-3.2764500000000001
 20
-1.5296400000000001
 30
0.0
  0
SPLINE
  5
3D
100
AcDbEntity
  8
Ebene 1
 62
     7
100
AcDbSpline
210
0.0
220
0.0
230
1.0
 70
     1
 71
     3
 72
    20
 73
    16
 74
     0
 42
0.0000000001
 43
0.0000000001
 40
0.0
 40
0.0
 40
0.0
 40
0.0
 40
0.25
 40
0.25
 40
0.25
 40
0.25
 40
0.5
 40
0.5
 40
0.5
 40
0.5
 40
0.75
 40
0.75
 40
0.75
 40
0.75
 40
1.0
 40
1.0
 40
1.0
 40
1.0
 10
-3.3983700000000003
 20
-1.5906000000000002
 30
0.0
 10
-3.3983700000000003
 20
-1.5906000000000002
 30
0.0
 10
-3.3247100000000001
 20
-1.6058400000000002
 30
0.0
 10
-3.3247100000000001
 20
-1.6058400000000002
 30
0.0
 10
-3.3247100000000001
 20
-1.6058400000000002
 30
0.0
 10
-3.3348700000000004
 20
-1.6972800000000001
 30
0.0
 10
-3.3120100000000003
 20
-1.7734800000000002
 30
0.0
 10
-3.2485100000000005
 20
-1.8369800000000001
 30
0.0
 10
-3.2485100000000005
 20
-1.8369800000000001
 30
0.0
 10
-3.2866100000000005
 20
-1.9436600000000002
 30
0.0
 10
-3.2408900000000003
 20
-2.1417800000000002
 30
0.0
 10
-3.3983700000000003
 20
-2.1722600000000001
 30
0.0
 10
-3.3983700000000003
 20
-2.1722600000000001
 30
0.0
 10
-3.5025100000000005
 20
-2.0046200000000001
 30
0.0
 10
-3.3602700000000003
 20
-1.7887200000000001
 30
0.0
 10
-3.3983700000000003
 20
-1.5906000000000002
 30
0.0
  0
SPLINE
  5
3E
100
AcDbEntity
  8
Ebene 1
 62
     7
100
AcDbSpline
210
0.0
220
0.0
230
1.0
 70
     1
 71
     3
 72
   136
 73
   132
 74
     0
 42
0.0000000001
 43
0.0000000001
 40
0.0
 40
0.0
 40
0.0
 40
0.0
 40
0.0303030303030303
 40
0.0303030303030303
 40
0.0303030303030303
 40
0.0303030303030303
 40
0.0606060606060606
 40
0.0606060606060606
 40
0.0606060606060606
 40
0.0606060606060606
 40
0.0909090909090909
 40
0.0909090909090909
 40
0.0909090909090909
 40
0.0909090909090909
 40
0.1212121212121212
 40
0.1212121212121212
 40
0.1212121212121212
 40
0.1212121212121212
 40
0.1515151515151515
 40
0.1515151515151515
 40
0.1515151515151515
 40
0.1515151515151515
 40
0.1818181818181818
 40
0.1818181818181818
 40
0.1818181818181818
 40
0.1818181818181818
 40
0.2121212121212121
 40
0.2121212121212121
 40
0.2121212121212121
 40
0.2121212121212121
 40
0.2424242424242424
 40
0.2424242424242424
 40
0.2424242424242424
 40
0.2424242424242424
 40
0.2727272727272727
 40
0.2727272727272727
 40
0.2727272727272727
 40
0.2727272727272727
 40
0.303030303030303
 40
0.303030303030303
 40
0.303030303030303
 40
0.303030303030303
 40
0.3333333333333333
 40
0.3333333333333333
 40
0.3333333333333333
 40
0.3333333333333333
 40
0.3636363636363635
 40
0.3636363636363635
 40
0.3636363636363635
 40
0.3636363636363635
 40
0.3939393939393938
 40
0.3939393939393938
 40
0.3939393939393938
 40
0.3939393939393938
 40
0.4242424242424241
 40
0.4242424242424241
 40
0.4242424242424241
 40
0.4242424242424241
 40
0.4545454545454544
 40
0.4545454545454544
 40
0.4545454545454544
 40
0.4545454545454544
 40
0.4848484848484846
 40
0.4848484848484846
 40
0.4848484848484846
 40
0.4848484848484846
 40
0.5151515151515149
 40
0.5151515151515149
 40
0.5151515151515149
 40
0.5151515151515149
 40
0.5454545454545452
 40
0.5454545454545452
 40
0.5454545454545452
 40
0.5454545454545452
 40
0.5757575757575755
 40
0.5757575757575755
 40
0.5757575757575755
 40
0.5757575757575755
 40
0.6060606060606057
 40
0.6060606060606057
 40
0.6060606060606057
 40
0.6060606060606057
 40
0.636363636363636
 40
0.636363636363636
 40
0.636363636363636
 40
0.636363636363636
 40
0.6666666666666663
 40
0.6666666666666663
 40
0.6666666666666663
 40
0.6666666666666663
 40
0.6969696969696966
 40
0.6969696969696966
 40
0.6969696969696966
 40
0.6969696969696966
 40
0.7272727272727269
 40
0.7272727272727269
 40
0.7272727272727269
 40
0.7272727272727269
 40
0.7575757575757571
 40
0.7575757575757571
 40
0.7575757575757571
 40
0.7575757575757571
 40
0.7878787878787874
 40
0.7878787878787874
 40
0.7878787878787874
 40
0.7878787878787874
 40
0.8181818181818177
 40
0.8181818181818177
 40
0.8181818181818177
 40
0.8181818181818177
 40
0.848484848484848
 40
0.848484848484848
 40
0.848484848484848
 40
0.848484848484848
 40
0.8787878787878782
 40
0.8787878787878782
 40
0.8787878787878782
 40
0.8787878787878782
 40
0.9090909090909085
 40
0.9090909090909085
 40
0.9090909090909085
 40
0.9090909090909085
 40
0.9393939393939388
 40
0.9393939393939388
 40
0.9393939393939388
 40
0.9393939393939388
 40
0.9696969696969691
 40
0.9696969696969691
 40
0.9696969696969691
 40
0.9696969696969691
 40
1.0
 40
1.0
 40
1.0
 40
1.0
 10
1.5190600000000001
 20
-2.1875
 30
0.0
 10
1.5520800000000001
 20
-2.4465800000000004
 30
0.0
 10
1.2599800000000001
 20
-2.8733000000000004
 30
0.0
 10
1.0923400000000001
 20
-3.1654000000000004
 30
0.0
 10
1.0923400000000001
 20
-3.1654000000000004
 30
0.0
 10
1.1990200000000002
 20
-3.1501600000000001
 30
0.0
 10
1.2599800000000001
 20
-3.0434800000000002
 30
0.0
 10
1.3057000000000001
 20
-2.9672800000000001
 30
0.0
 10
1.3057000000000001
 20
-2.9672800000000001
 30
0.0
 10
1.4454
 20
-2.7361400000000002
 30
0.0
 10
1.56732
 20
-2.3856200000000003
 30
0.0
 10
1.9178400000000002
 20
-2.4618200000000003
 30
0.0
 10
1.9178400000000002
 20
-2.4618200000000003
 30
0.0
 10
1.9635600000000002
 20
-2.4923000000000002
 30
0.0
 10
1.9635600000000002
 20
-2.5685000000000002
 30
0.0
 10
1.9178400000000002
 20
-2.5989800000000001
 30
0.0
 10
1.9178400000000002
 20
-2.5989800000000001
 30
0.0
 10
1.2295
 20
-2.8453600000000003
 30
0.0
 10
1.4123800000000002
 20
-3.6556200000000003
 30
0.0
 10
1.1533
 20
-4.1737800000000007
 30
0.0
 10
1.1533
 20
-4.1737800000000007
 30
0.0
 10
0.74182
 20
-4.4963600000000001
 30
0.0
 10
0.22112
 20
-4.6462200000000005
 30
0.0
 10
-0.23353
 20
-4.8773600000000004
 30
0.0
 10
-0.23353
 20
-4.8773600000000004
 30
0.0
 10
-0.3122700000000001
 20
-5.0145200000000001
 30
0.0
 10
-0.06589
 20
-4.86212
 30
0.0
 10
-0.00493
 20
-4.8468800000000005
 30
0.0
 10
-0.00493
 20
-4.8468800000000005
 30
0.0
 10
-0.35545
 20
-5.1974
 30
0.0
 10
-0.8151900000000001
 20
-5.4717200000000004
 30
0.0
 10
-1.2596900000000002
 20
-5.7028600000000003
 30
0.0
 10
-1.2596900000000002
 20
-5.7028600000000003
 30
0.0
 10
-1.7067300000000001
 20
-5.7638200000000008
 30
0.0
 10
-2.0851900000000003
 20
-5.5174400000000006
 30
0.0
 10
-2.4966700000000004
 20
-5.4260000000000002
 30
0.0
 10
-2.4966700000000004
 20
-5.4260000000000002
 30
0.0
 10
-2.4966700000000004
 20
-5.4260000000000002
 30
0.0
 10
-2.6897100000000003
 20
-5.4107600000000007
 30
0.0
 10
-2.6897100000000003
 20
-5.4107600000000007
 30
0.0
 10
-2.6897100000000003
 20
-5.4107600000000007
 30
0.0
 10
-2.3696700000000002
 20
-5.6723800000000004
 30
0.0
 10
-3.0249900000000003
 20
-5.53268
 30
0.0
 10
-3.0122900000000001
 20
-5.2736000000000001
 30
0.0
 10
-3.0122900000000001
 20
-5.2736000000000001
 30
0.0
 10
-3.0122900000000001
 20
-5.2736000000000001
 30
0.0
 10
-3.0554700000000001
 20
-4.5395400000000006
 30
0.0
 10
-3.0554700000000001
 20
-4.5395400000000006
 30
0.0
 10
-3.0554700000000001
 20
-4.5395400000000006
 30
0.0
 10
-2.9792700000000001
 20
-4.5547800000000001
 30
0.0
 10
-2.9538700000000002
 20
-4.6538400000000006
 30
0.0
 10
-2.9513300000000005
 20
-4.7300400000000007
 30
0.0
 10
-2.9513300000000005
 20
-4.7300400000000007
 30
0.0
 10
-2.9716500000000003
 20
-4.77576
 30
0.0
 10
-2.9513300000000005
 20
-4.86212
 30
0.0
 10
-2.9259300000000001
 20
-4.8926000000000007
 30
0.0
 10
-2.9259300000000001
 20
-4.8926000000000007
 30
0.0
 10
-2.8700500000000004
 20
-4.5852600000000008
 30
0.0
 10
-2.9157700000000002
 20
-4.60304
 30
0.0
 10
-2.7125700000000004
 20
-4.40238
 30
0.0
 10
-2.7125700000000004
 20
-4.40238
 30
0.0
 10
-2.7049500000000002
 20
-4.5852600000000008
 30
0.0
 10
-2.6236700000000002
 20
-4.7833800000000002
 30
0.0
 10
-2.52969
 20
-4.8926000000000007
 30
0.0
 10
-2.52969
 20
-4.8926000000000007
 30
0.0
 10
-2.4788900000000003
 20
-4.7554400000000001
 30
0.0
 10
-2.5855700000000001
 20
-4.6182800000000004
 30
0.0
 10
-2.6135100000000002
 20
-4.47858
 30
0.0
 10
-2.6135100000000002
 20
-4.47858
 30
0.0
 10
-2.4153900000000004
 20
-4.4963600000000001
 30
0.0
 10
-2.3874500000000003
 20
-4.2652200000000002
 30
0.0
 10
-2.3391900000000003
 20
-4.1128200000000001
 30
0.0
 10
-2.3391900000000003
 20
-4.1128200000000001
 30
0.0
 10
-2.3239500000000004
 20
-4.1890200000000002
 30
0.0
 10
-2.2731500000000002
 20
-4.3109400000000004
 30
0.0
 10
-2.1639300000000001
 20
-4.2804600000000006
 30
0.0
 10
-2.1639300000000001
 20
-4.2804600000000006
 30
0.0
 10
-2.0318500000000004
 20
-4.0366200000000001
 30
0.0
 10
-2.0318500000000004
 20
-3.6835600000000004
 30
0.0
 10
-1.8642100000000001
 20
-4.0975800000000007
 30
0.0
 10
-1.8642100000000001
 20
-4.0975800000000007
 30
0.0
 10
-1.6406900000000002
 20
-3.8080200000000004
 30
0.0
 10
-1.5746500000000001
 20
-4.1585400000000003
 30
0.0
 10
-1.54417
 20
-4.4176200000000003
 30
0.0
 10
-1.54417
 20
-4.4176200000000003
 30
0.0
 10
-1.4324100000000002
 20
-4.2195
 30
0.0
 10
-1.6254500000000001
 20
-4.0366200000000001
 30
0.0
 10
-1.6203700000000001
 20
-3.8537400000000002
 30
0.0
 10
-1.6203700000000001
 20
-3.8537400000000002
 30
0.0
 10
-1.4959100000000001
 20
-4.0518600000000005
 30
0.0
 10
-1.38161
 20
-3.7927800000000005
 30
0.0
 10
-1.33843
 20
-3.6835600000000004
 30
0.0
 10
-1.33843
 20
-3.6835600000000004
 30
0.0
 10
-1.33843
 20
-3.6835600000000004
 30
0.0
 10
-1.3612900000000001
 20
-4.2195
 30
0.0
 10
-1.3612900000000001
 20
-4.2195
 30
0.0
 10
-1.3612900000000001
 20
-4.2195
 30
0.0
 10
-1.3612900000000001
 20
-4.2195
 30
0.0
 10
-1.2850900000000001
 20
-4.04678
 30
0.0
 10
-1.2850900000000001
 20
-4.04678
 30
0.0
 10
-1.2850900000000001
 20
-4.04678
 30
0.0
 10
-1.2850900000000001
 20
-4.04678
 30
0.0
 10
-1.2444500000000001
 20
-3.6988000000000003
 30
0.0
 10
-1.2444500000000001
 20
-3.6988000000000003
 30
0.0
 10
-1.2444500000000001
 20
-3.6988000000000003
 30
0.0
 10
-1.1961900000000001
 20
-3.8689800000000005
 30
0.0
 10
-1.0285500000000001
 20
-4.0213800000000006
 30
0.0
 10
-0.9675900000000001
 20
-3.7623000000000002
 30
0.0
 10
-0.9675900000000001
 20
-3.7623000000000002
 30
0.0
 10
-0.9675900000000001
 20
-3.9299400000000002
 30
0.0
 10
-0.7999500000000001
 20
-3.8207200000000001
 30
0.0
 10
-0.72375
 20
-3.7470600000000003
 30
0.0
 10
-0.72375
 20
-3.7470600000000003
 30
0.0
 10
-0.4799100000000001
 20
-4.3109400000000004
 30
0.0
 10
0.35828
 20
-3.7292800000000002
 30
0.0
 10
0.34304
 20
-3.2568400000000004
 30
0.0
 10
0.34304
 20
-3.2568400000000004
 30
0.0
 10
0.49798
 20
-3.3787600000000002
 30
0.0
 10
0.3887600000000001
 20
-3.6835600000000004
 30
0.0
 10
0.4192400000000001
 20
-3.8207200000000001
 30
0.0
 10
0.4192400000000001
 20
-3.8207200000000001
 30
0.0
 10
0.6478400000000001
 20
-3.3330400000000004
 30
0.0
 10
0.34304
 20
-2.7666200000000001
 30
0.0
 10
0.43448
 20
-2.3094200000000003
 30
0.0
 10
0.43448
 20
-2.3094200000000003
 30
0.0
 10
1.1380600000000001
 20
-2.1265400000000003
 30
0.0
 10
0.6478400000000001
 20
-2.8301200000000004
 30
0.0
 10
0.8027800000000001
 20
-3.1501600000000001
 30
0.0
 10
0.8027800000000001
 20
-3.1501600000000001
 30
0.0
 10
1.2447400000000002
 20
-3.0587200000000001
 30
0.0
 10
1.1533
 20
-2.4161000000000001
 30
0.0
 10
1.5190600000000001
 20
-2.1875
 30
0.0
  0
SPLINE
  5
3F
100
AcDbEntity
  8
Ebene 1
 62
     7
100
AcDbSpline
210
0.0
220
0.0
230
1.0
 70
     1
 71
     3
 72
    20
 73
    16
 74
     0
 42
0.0000000001
 43
0.0000000001
 40
0.0
 40
0.0
 40
0.0
 40
0.0
 40
0.25
 40
0.25
 40
0.25
 40
0.25
 40
0.5
 40
0.5
 40
0.5
 40
0.5
 40
0.75
 40
0.75
 40
0.75
 40
0.75
 40
1.0
 40
1.0
 40
1.0
 40
1.0
 10
-1.3511300000000002
 20
-2.4923000000000002
 30
0.0
 10
-1.2876300000000001
 20
-2.52278
 30
0.0
 10
-1.2292100000000001
 20
-2.5380200000000004
 30
0.0
 10
-1.1961900000000001
 20
-2.5989800000000001
 30
0.0
 10
-1.1961900000000001
 20
-2.5989800000000001
 30
0.0
 10
-1.1961900000000001
 20
-2.5989800000000001
 30
0.0
 10
-1.3028700000000002
 20
-2.8885400000000003
 30
0.0
 10
-1.3028700000000002
 20
-2.8885400000000003
 30
0.0
 10
-1.3028700000000002
 20
-2.8885400000000003
 30
0.0
 10
-1.33589
 20
-2.6751800000000001
 30
0.0
 10
-1.5238500000000001
 20
-2.7818600000000004
 30
0.0
 10
-1.5746500000000001
 20
-2.9063200000000005
 30
0.0
 10
-1.5746500000000001
 20
-2.9063200000000005
 30
0.0
 10
-1.5162300000000002
 20
-2.7666200000000001
 30
0.0
 10
-1.4527300000000001
 20
-2.5989800000000001
 30
0.0
 10
-1.3511300000000002
 20
-2.4923000000000002
 30
0.0
  0
SPLINE
  5
40
100
AcDbEntity
  8
Ebene 1
 62
     7
100
AcDbSpline
210
0.0
220
0.0
230
1.0
 70
     1
 71
     3
 72
    16
 73
    12
 74
     0
 42
0.0000000001
 43
0.0000000001
 40
0.0
 40
0.0
 40
0.0
 40
0.0
 40
0.3333333333333333
 40
0.3333333333333333
 40
0.3333333333333333
 40
0.3333333333333333
 40
0.6666666666666666
 40
0.6666666666666666
 40
0.6666666666666666
 40
0.6666666666666666
 40
1.0
 40
1.0
 40
1.0
 40
1.0
 10
-1.4425700000000001
 20
-2.81488
 30
0.0
 10
-1.3028700000000002
 20
-2.9215600000000004
 30
0.0
 10
-1.3612900000000001
 20
-3.1654000000000004
 30
0.0
 10
-1.2749300000000001
 20
-3.3178000000000001
 30
0.0
 10
-1.2749300000000001
 20
-3.3178000000000001
 30
0.0
 10
-1.2749300000000001
 20
-3.3178000000000001
 30
0.0
 10
-1.54417
 20
-3.3940000000000001
 30
0.0
 10
-1.54417
 20
-3.3940000000000001
 30
0.0
 10
-1.54417
 20
-3.3940000000000001
 30
0.0
 10
-1.6610100000000001
 20
-3.2111200000000002
 30
0.0
 10
-1.54925
 20
-2.9825200000000001
 30
0.0
 10
-1.4425700000000001
 20
-2.81488
 30
0.0
  0
SPLINE
  5
41
100
AcDbEntity
  8
Ebene 1
 62
     7
100
AcDbSpline
210
0.0
220
0.0
230
1.0
 70
     1
 71
     3
 72
    16
 73
    12
 74
     0
 42
0.0000000001
 43
0.0000000001
 40
0.0
 40
0.0
 40
0.0
 40
0.0
 40
0.3333333333333333
 40
0.3333333333333333
 40
0.3333333333333333
 40
0.3333333333333333
 40
0.6666666666666666
 40
0.6666666666666666
 40
0.6666666666666666
 40
0.6666666666666666
 40
1.0
 40
1.0
 40
1.0
 40
1.0
 10
-0.8609100000000001
 20
-2.81488
 30
0.0
 10
-0.8609100000000001
 20
-2.81488
 30
0.0
 10
-0.8151900000000001
 20
-2.8453600000000003
 30
0.0
 10
-0.8151900000000001
 20
-2.8453600000000003
 30
0.0
 10
-0.8151900000000001
 20
-2.8453600000000003
 30
0.0
 10
-0.8151900000000001
 20
-2.9672800000000001
 30
0.0
 10
-0.6627900000000001
 20
-3.1044400000000003
 30
0.0
 10
-0.73899
 20
-3.2111200000000002
 30
0.0
 10
-0.73899
 20
-3.2111200000000002
 30
0.0
 10
-0.9675900000000001
 20
-3.3025600000000002
 30
0.0
 10
-0.9828300000000001
 20
-2.9063200000000005
 30
0.0
 10
-0.8609100000000001
 20
-2.81488
 30
0.0
  0
SPLINE
  5
42
100
AcDbEntity
  8
Ebene 1
 62
     7
100
AcDbSpline
210
0.0
220
0.0
230
1.0
 70
     1
 71
     3
 72
    16
 73
    12
 74
     0
 42
0.0000000001
 43
0.0000000001
 40
0.0
 40
0.0
 40
0.0
 40
0.0
 40
0.3333333333333333
 40
0.3333333333333333
 40
0.3333333333333333
 40
0.3333333333333333
 40
0.6666666666666666
 40
0.6666666666666666
 40
0.6666666666666666
 40
0.6666666666666666
 40
1.0
 40
1.0
 40
1.0
 40
1.0
 10
-1.1377700000000002
 20
-2.8301200000000004
 30
0.0
 10
-1.0133100000000002
 20
-2.9063200000000005
 30
0.0
 10
-0.9980700000000001
 20
-3.1044400000000003
 30
0.0
 10
-0.9675900000000001
 20
-3.2416000000000005
 30
0.0
 10
-0.9675900000000001
 20
-3.2416000000000005
 30
0.0
 10
-0.9675900000000001
 20
-3.2416000000000005
 30
0.0
 10
-1.1504700000000001
 20
-3.3178000000000001
 30
0.0
 10
-1.1504700000000001
 20
-3.3178000000000001
 30
0.0
 10
-1.1504700000000001
 20
-3.3178000000000001
 30
0.0
 10
-1.2596900000000002
 20
-3.1958800000000003
 30
0.0
 10
-1.21143
 20
-2.9672800000000001
 30
0.0
 10
-1.1377700000000002
 20
-2.8301200000000004
 30
0.0
  0
SPLINE
  5
43
100
AcDbEntity
  8
Ebene 1
 62
     7
100
AcDbSpline
210
0.0
220
0.0
230
1.0
 70
     1
 71
     3
 72
    16
 73
    12
 74
     0
 42
0.0000000001
 43
0.0000000001
 40
0.0
 40
0.0
 40
0.0
 40
0.0
 40
0.3333333333333333
 40
0.3333333333333333
 40
0.3333333333333333
 40
0.3333333333333333
 40
0.6666666666666666
 40
0.6666666666666666
 40
0.6666666666666666
 40
0.6666666666666666
 40
1.0
 40
1.0
 40
1.0
 40
1.0
 10
-1.8235700000000001
 20
-2.9825200000000001
 30
0.0
 10
-1.6965700000000001
 20
-3.0892000000000004
 30
0.0
 10
-1.67371
 20
-3.3025600000000002
 30
0.0
 10
-1.6889500000000002
 20
-3.4702000000000002
 30
0.0
 10
-1.6889500000000002
 20
-3.4702000000000002
 30
0.0
 10
-1.7372100000000001
 20
-3.5006800000000005
 30
0.0
 10
-1.8057900000000002
 20
-3.5006800000000005
 30
0.0
 10
-1.8642100000000001
 20
-3.5006800000000005
 30
0.0
 10
-1.8642100000000001
 20
-3.5006800000000005
 30
0.0
 10
-1.9277100000000003
 20
-3.3178000000000001
 30
0.0
 10
-1.8692900000000001
 20
-3.1501600000000001
 30
0.0
 10
-1.8235700000000001
 20
-2.9825200000000001
 30
0.0
  0
SPLINE
  5
44
100
AcDbEntity
  8
Ebene 1
 62
     7
100
AcDbSpline
210
0.0
220
0.0
230
1.0
 70
     1
 71
     3
 72
    20
 73
    16
 74
     0
 42
0.0000000001
 43
0.0000000001
 40
0.0
 40
0.0
 40
0.0
 40
0.0
 40
0.25
 40
0.25
 40
0.25
 40
0.25
 40
0.5
 40
0.5
 40
0.5
 40
0.5
 40
0.75
 40
0.75
 40
0.75
 40
0.75
 40
1.0
 40
1.0
 40
1.0
 40
1.0
 10
-2.1004300000000002
 20
-3.0130000000000003
 30
0.0
 10
-1.9988300000000001
 20
-3.1654000000000004
 30
0.0
 10
-1.9912100000000001
 20
-3.3635200000000003
 30
0.0
 10
-1.9480300000000002
 20
-3.5464000000000002
 30
0.0
 10
-1.9480300000000002
 20
-3.5464000000000002
 30
0.0
 10
-1.9912100000000001
 20
-3.6073600000000003
 30
0.0
 10
-2.0851900000000003
 20
-3.6226000000000003
 30
0.0
 10
-2.1588500000000002
 20
-3.6378400000000002
 30
0.0
 10
-2.1588500000000002
 20
-3.6378400000000002
 30
0.0
 10
-2.1588500000000002
 20
-3.6378400000000002
 30
0.0
 10
-2.2172700000000001
 20
-3.6073600000000003
 30
0.0
 10
-2.2172700000000001
 20
-3.6073600000000003
 30
0.0
 10
-2.2172700000000001
 20
-3.6073600000000003
 30
0.0
 10
-2.2579100000000003
 20
-3.3940000000000001
 30
0.0
 10
-2.2147300000000003
 20
-3.1806400000000004
 30
0.0
 10
-2.1004300000000002
 20
-3.0130000000000003
 30
0.0
  0
SPLINE
  5
45
100
AcDbEntity
  8
Ebene 1
 62
     7
100
AcDbSpline
210
0.0
220
0.0
230
1.0
 70
     1
 71
     3
 72
    20
 73
    16
 74
     0
 42
0.0000000001
 43
0.0000000001
 40
0.0
 40
0.0
 40
0.0
 40
0.0
 40
0.25
 40
0.25
 40
0.25
 40
0.25
 40
0.5
 40
0.5
 40
0.5
 40
0.5
 40
0.75
 40
0.75
 40
0.75
 40
0.75
 40
1.0
 40
1.0
 40
1.0
 40
1.0
 10
-3.1392900000000004
 20
-3.0739600000000005
 30
0.0
 10
-2.9970500000000002
 20
-3.2873200000000002
 30
0.0
 10
-3.2129500000000002
 20
-3.5464000000000002
 30
0.0
 10
-3.1392900000000004
 20
-3.7775400000000001
 30
0.0
 10
-3.1392900000000004
 20
-3.7775400000000001
 30
0.0
 10
-3.1418300000000001
 20
-3.7927800000000005
 30
0.0
 10
-3.1545300000000003
 20
-3.8080200000000004
 30
0.0
 10
-3.1697700000000002
 20
-3.8080200000000004
 30
0.0
 10
-3.1697700000000002
 20
-3.8080200000000004
 30
0.0
 10
-3.1697700000000002
 20
-3.8080200000000004
 30
0.0
 10
-3.3170900000000003
 20
-3.7470600000000003
 30
0.0
 10
-3.3170900000000003
 20
-3.7470600000000003
 30
0.0
 10
-3.3170900000000003
 20
-3.7470600000000003
 30
0.0
 10
-3.3501100000000004
 20
-3.5159200000000004
 30
0.0
 10
-3.2612100000000002
 20
-3.2720800000000003
 30
0.0
 10
-3.1392900000000004
 20
-3.0739600000000005
 30
0.0
  0
SPLINE
  5
46
100
AcDbEntity
  8
Ebene 1
 62
     7
100
AcDbSpline
210
0.0
220
0.0
230
1.0
 70
     1
 71
     3
 72
    16
 73
    12
 74
     0
 42
0.0000000001
 43
0.0000000001
 40
0.0
 40
0.0
 40
0.0
 40
0.0
 40
0.3333333333333333
 40
0.3333333333333333
 40
0.3333333333333333
 40
0.3333333333333333
 40
0.6666666666666666
 40
0.6666666666666666
 40
0.6666666666666666
 40
0.6666666666666666
 40
1.0
 40
1.0
 40
1.0
 40
1.0
 10
-2.8471900000000003
 20
-3.1349200000000002
 30
0.0
 10
-2.6770100000000001
 20
-3.2263600000000001
 30
0.0
 10
-2.6820900000000001
 20
-3.5006800000000005
 30
0.0
 10
-2.6668500000000002
 20
-3.6988000000000003
 30
0.0
 10
-2.6668500000000002
 20
-3.6988000000000003
 30
0.0
 10
-2.7659100000000003
 20
-3.7623000000000002
 30
0.0
 10
-2.8979900000000001
 20
-3.8080200000000004
 30
0.0
 10
-3.0122900000000001
 20
-3.7623000000000002
 30
0.0
 10
-3.0122900000000001
 20
-3.7623000000000002
 30
0.0
 10
-3.0478500000000004
 20
-3.5464000000000002
 30
0.0
 10
-2.9843500000000001
 20
-3.3025600000000002
 30
0.0
 10
-2.8471900000000003
 20
-3.1349200000000002
 30
0.0
  0
SPLINE
  5
47
100
AcDbEntity
  8
Ebene 1
 62
     7
100
AcDbSpline
210
0.0
220
0.0
230
1.0
 70
     1
 71
     3
 72
    16
 73
    12
 74
     0
 42
0.0000000001
 43
0.0000000001
 40
0.0
 40
0.0
 40
0.0
 40
0.0
 40
0.3333333333333333
 40
0.3333333333333333
 40
0.3333333333333333
 40
0.3333333333333333
 40
0.6666666666666666
 40
0.6666666666666666
 40
0.6666666666666666
 40
0.6666666666666666
 40
1.0
 40
1.0
 40
1.0
 40
1.0
 10
-2.48143
 20
-3.1349200000000002
 30
0.0
 10
-2.35189
 20
-3.2416000000000005
 30
0.0
 10
-2.3214100000000002
 20
-3.4702000000000002
 30
0.0
 10
-2.3010900000000003
 20
-3.6378400000000002
 30
0.0
 10
-2.3010900000000003
 20
-3.6378400000000002
 30
0.0
 10
-2.3696700000000002
 20
-3.6835600000000004
 30
0.0
 10
-2.4509500000000002
 20
-3.7292800000000002
 30
0.0
 10
-2.5373100000000002
 20
-3.7140400000000002
 30
0.0
 10
-2.5373100000000002
 20
-3.7140400000000002
 30
0.0
 10
-2.5957300000000001
 20
-3.5159200000000004
 30
0.0
 10
-2.5017500000000004
 20
-3.3178000000000001
 30
0.0
 10
-2.48143
 20
-3.1349200000000002
 30
0.0
  0
SPLINE
  5
48
100
AcDbEntity
  8
Ebene 1
 62
     7
100
AcDbSpline
210
0.0
220
0.0
230
1.0
 70
     1
 71
     3
 72
    16
 73
    12
 74
     0
 42
0.0000000001
 43
0.0000000001
 40
0.0
 40
0.0
 40
0.0
 40
0.0
 40
0.3333333333333333
 40
0.3333333333333333
 40
0.3333333333333333
 40
0.3333333333333333
 40
0.6666666666666666
 40
0.6666666666666666
 40
0.6666666666666666
 40
0.6666666666666666
 40
1.0
 40
1.0
 40
1.0
 40
1.0
 10
-0.8304300000000001
 20
-3.2720800000000003
 30
0.0
 10
-0.7694700000000001
 20
-3.2568400000000004
 30
0.0
 10
-0.72375
 20
-3.2873200000000002
 30
0.0
 10
-0.67803
 20
-3.3330400000000004
 30
0.0
 10
-0.67803
 20
-3.3330400000000004
 30
0.0
 10
-0.7694700000000001
 20
-3.4702000000000002
 30
0.0
 10
-0.6932700000000001
 20
-3.6708600000000002
 30
0.0
 10
-0.84567
 20
-3.7623000000000002
 30
0.0
 10
-0.84567
 20
-3.7623000000000002
 30
0.0
 10
-0.9371100000000001
 20
-3.6226000000000003
 30
0.0
 10
-0.8609100000000001
 20
-3.4092400000000005
 30
0.0
 10
-0.8304300000000001
 20
-3.2720800000000003
 30
0.0
  0
SPLINE
  5
49
100
AcDbEntity
  8
Ebene 1
 62
     7
100
AcDbSpline
210
0.0
220
0.0
230
1.0
 70
     1
 71
     3
 72
    20
 73
    16
 74
     0
 42
0.0000000001
 43
0.0000000001
 40
0.0
 40
0.0
 40
0.0
 40
0.0
 40
0.25
 40
0.25
 40
0.25
 40
0.25
 40
0.5
 40
0.5
 40
0.5
 40
0.5
 40
0.75
 40
0.75
 40
0.75
 40
0.75
 40
1.0
 40
1.0
 40
1.0
 40
1.0
 10
-0.95235
 20
-3.3025600000000002
 30
0.0
 10
-0.95235
 20
-3.3025600000000002
 30
0.0
 10
-0.9218700000000001
 20
-3.3025600000000002
 30
0.0
 10
-0.9218700000000001
 20
-3.3025600000000002
 30
0.0
 10
-0.9218700000000001
 20
-3.3025600000000002
 30
0.0
 10
-0.9371100000000001
 20
-3.4854400000000001
 30
0.0
 10
-0.95235
 20
-3.7140400000000002
 30
0.0
 10
-1.08951
 20
-3.8359600000000005
 30
0.0
 10
-1.08951
 20
-3.8359600000000005
 30
0.0
 10
-1.1809500000000002
 20
-3.6988000000000003
 30
0.0
 10
-1.1504700000000001
 20
-3.5311600000000003
 30
0.0
 10
-1.16571
 20
-3.3787600000000002
 30
0.0
 10
-1.16571
 20
-3.3787600000000002
 30
0.0
 10
-1.16571
 20
-3.3787600000000002
 30
0.0
 10
-0.95235
 20
-3.3025600000000002
 30
0.0
 10
-0.95235
 20
-3.3025600000000002
 30
0.0
  0
SPLINE
  5
4A
100
AcDbEntity
  8
Ebene 1
 62
     7
100
AcDbSpline
210
0.0
220
0.0
230
1.0
 70
     1
 71
     3
 72
    16
 73
    12
 74
     0
 42
0.0000000001
 43
0.0000000001
 40
0.0
 40
0.0
 40
0.0
 40
0.0
 40
0.3333333333333333
 40
0.3333333333333333
 40
0.3333333333333333
 40
0.3333333333333333
 40
0.6666666666666666
 40
0.6666666666666666
 40
0.6666666666666666
 40
0.6666666666666666
 40
1.0
 40
1.0
 40
1.0
 40
1.0
 10
-1.33589
 20
-3.4092400000000005
 30
0.0
 10
-1.3435100000000002
 20
-3.5464000000000002
 30
0.0
 10
-1.4146300000000001
 20
-3.7623000000000002
 30
0.0
 10
-1.5187700000000002
 20
-3.8842200000000005
 30
0.0
 10
-1.5187700000000002
 20
-3.8842200000000005
 30
0.0
 10
-1.6203700000000001
 20
-3.7927800000000005
 30
0.0
 10
-1.5670300000000001
 20
-3.6226000000000003
 30
0.0
 10
-1.58989
 20
-3.5006800000000005
 30
0.0
 10
-1.58989
 20
-3.5006800000000005
 30
0.0
 10
-1.58989
 20
-3.5006800000000005
 30
0.0
 10
-1.33589
 20
-3.4092400000000005
 30
0.0
 10
-1.33589
 20
-3.4092400000000005
 30
0.0
  0
SPLINE
  5
4B
100
AcDbEntity
  8
Ebene 1
 62
     7
100
AcDbSpline
210
0.0
220
0.0
230
1.0
 70
     1
 71
     3
 72
    16
 73
    12
 74
     0
 42
0.0000000001
 43
0.0000000001
 40
0.0
 40
0.0
 40
0.0
 40
0.0
 40
0.3333333333333333
 40
0.3333333333333333
 40
0.3333333333333333
 40
0.3333333333333333
 40
0.6666666666666666
 40
0.6666666666666666
 40
0.6666666666666666
 40
0.6666666666666666
 40
1.0
 40
1.0
 40
1.0
 40
1.0
 10
-1.7321300000000002
 20
-3.5616400000000001
 30
0.0
 10
-1.7321300000000002
 20
-3.5616400000000001
 30
0.0
 10
-1.67371
 20
-3.5616400000000001
 30
0.0
 10
-1.67371
 20
-3.5616400000000001
 30
0.0
 10
-1.67371
 20
-3.5616400000000001
 30
0.0
 10
-1.71435
 20
-3.6988000000000003
 30
0.0
 10
-1.7422900000000001
 20
-3.9147000000000003
 30
0.0
 10
-1.8845300000000003
 20
-3.9756600000000004
 30
0.0
 10
-1.8845300000000003
 20
-3.9756600000000004
 30
0.0
 10
-1.9581900000000001
 20
-3.8207200000000001
 30
0.0
 10
-1.9531100000000001
 20
-3.5616400000000001
 30
0.0
 10
-1.7321300000000002
 20
-3.5616400000000001
 30
0.0
  0
SPLINE
  5
4C
100
AcDbEntity
  8
Ebene 1
 62
     7
100
AcDbSpline
210
0.0
220
0.0
230
1.0
 70
     1
 71
     3
 72
    20
 73
    16
 74
     0
 42
0.0000000001
 43
0.0000000001
 40
0.0
 40
0.0
 40
0.0
 40
0.0
 40
0.25
 40
0.25
 40
0.25
 40
0.25
 40
0.5
 40
0.5
 40
0.5
 40
0.5
 40
0.75
 40
0.75
 40
0.75
 40
0.75
 40
1.0
 40
1.0
 40
1.0
 40
1.0
 10
-2.0369300000000004
 20
-3.6708600000000002
 30
0.0
 10
-2.0369300000000004
 20
-3.6708600000000002
 30
0.0
 10
-1.9937500000000001
 20
-3.6708600000000002
 30
0.0
 10
-1.9937500000000001
 20
-3.6708600000000002
 30
0.0
 10
-1.9937500000000001
 20
-3.6708600000000002
 30
0.0
 10
-2.0521700000000003
 20
-3.8359600000000005
 30
0.0
 10
-2.1334500000000003
 20
-4.0213800000000006
 30
0.0
 10
-2.23759
 20
-4.1737800000000007
 30
0.0
 10
-2.23759
 20
-4.1737800000000007
 30
0.0
 10
-2.3391900000000003
 20
-4.0670999999999999
 30
0.0
 10
-2.2553700000000001
 20
-3.8842200000000005
 30
0.0
 10
-2.2477500000000004
 20
-3.7470600000000003
 30
0.0
 10
-2.2477500000000004
 20
-3.7470600000000003
 30
0.0
 10
-2.2477500000000004
 20
-3.7470600000000003
 30
0.0
 10
-2.0369300000000004
 20
-3.6708600000000002
 30
0.0
 10
-2.0369300000000004
 20
-3.6708600000000002
 30
0.0
  0
SPLINE
  5
4D
100
AcDbEntity
  8
Ebene 1
 62
     7
100
AcDbSpline
210
0.0
220
0.0
230
1.0
 70
     1
 71
     3
 72
    24
 73
    20
 74
     0
 42
0.0000000001
 43
0.0000000001
 40
0.0
 40
0.0
 40
0.0
 40
0.0
 40
0.2
 40
0.2
 40
0.2
 40
0.2
 40
0.4
 40
0.4
 40
0.4
 40
0.4
 40
0.6000000000000001
 40
0.6000000000000001
 40
0.6000000000000001
 40
0.6000000000000001
 40
0.8
 40
0.8
 40
0.8
 40
0.8
 40
1.0
 40
1.0
 40
1.0
 40
1.0
 10
-2.3442700000000003
 20
-3.7470600000000003
 30
0.0
 10
-2.31379
 20
-3.7470600000000003
 30
0.0
 10
-2.30871
 20
-3.7775400000000001
 30
0.0
 10
-2.31379
 20
-3.8080200000000004
 30
0.0
 10
-2.31379
 20
-3.8080200000000004
 30
0.0
 10
-2.4077700000000002
 20
-3.9909000000000003
 30
0.0
 10
-2.39507
 20
-4.2499800000000008
 30
0.0
 10
-2.5423900000000001
 20
-4.3871400000000005
 30
0.0
 10
-2.5423900000000001
 20
-4.3871400000000005
 30
0.0
 10
-2.6820900000000001
 20
-4.2347400000000004
 30
0.0
 10
-2.6287500000000001
 20
-3.9756600000000004
 30
0.0
 10
-2.5525500000000001
 20
-3.7927800000000005
 30
0.0
 10
-2.5525500000000001
 20
-3.7927800000000005
 30
0.0
 10
-2.4992100000000002
 20
-3.7927800000000005
 30
0.0
 10
-2.4484100000000004
 20
-3.7623000000000002
 30
0.0
 10
-2.3899900000000001
 20
-3.7775400000000001
 30
0.0
 10
-2.3899900000000001
 20
-3.7775400000000001
 30
0.0
 10
-2.3899900000000001
 20
-3.7775400000000001
 30
0.0
 10
-2.3442700000000003
 20
-3.7470600000000003
 30
0.0
 10
-2.3442700000000003
 20
-3.7470600000000003
 30
0.0
  0
SPLINE
  5
4E
100
AcDbEntity
  8
Ebene 1
 62
     7
100
AcDbSpline
210
0.0
220
0.0
230
1.0
 70
     1
 71
     3
 72
    16
 73
    12
 74
     0
 42
0.0000000001
 43
0.0000000001
 40
0.0
 40
0.0
 40
0.0
 40
0.0
 40
0.3333333333333333
 40
0.3333333333333333
 40
0.3333333333333333
 40
0.3333333333333333
 40
0.6666666666666666
 40
0.6666666666666666
 40
0.6666666666666666
 40
0.6666666666666666
 40
1.0
 40
1.0
 40
1.0
 40
1.0
 10
-3.3374100000000002
 20
-3.8080200000000004
 30
0.0
 10
-3.2789900000000003
 20
-3.8207200000000001
 30
0.0
 10
-3.2205700000000004
 20
-3.8359600000000005
 30
0.0
 10
-3.1723100000000004
 20
-3.8689800000000005
 30
0.0
 10
-3.1723100000000004
 20
-3.8689800000000005
 30
0.0
 10
-3.1291300000000004
 20
-4.0823400000000003
 30
0.0
 10
-3.0732500000000003
 20
-4.2804600000000006
 30
0.0
 10
-2.98943
 20
-4.47858
 30
0.0
 10
-2.98943
 20
-4.47858
 30
0.0
 10
-3.1342100000000004
 20
-4.2957000000000001
 30
0.0
 10
-3.2231100000000001
 20
-4.0366200000000001
 30
0.0
 10
-3.3374100000000002
 20
-3.8080200000000004
 30
0.0
  0
SPLINE
  5
4F
100
AcDbEntity
  8
Ebene 1
 62
     7
100
AcDbSpline
210
0.0
220
0.0
230
1.0
 70
     1
 71
     3
 72
    20
 73
    16
 74
     0
 42
0.0000000001
 43
0.0000000001
 40
0.0
 40
0.0
 40
0.0
 40
0.0
 40
0.25
 40
0.25
 40
0.25
 40
0.25
 40
0.5
 40
0.5
 40
0.5
 40
0.5
 40
0.75
 40
0.75
 40
0.75
 40
0.75
 40
1.0
 40
1.0
 40
1.0
 40
1.0
 10
-2.81671
 20
-3.8207200000000001
 30
0.0
 10
-2.81671
 20
-3.8207200000000001
 30
0.0
 10
-2.69733
 20
-3.8359600000000005
 30
0.0
 10
-2.69733
 20
-3.8359600000000005
 30
0.0
 10
-2.69733
 20
-3.8359600000000005
 30
0.0
 10
-2.7430500000000002
 20
-4.0518600000000005
 30
0.0
 10
-2.7405100000000004
 20
-4.3109400000000004
 30
0.0
 10
-2.8471900000000003
 20
-4.4963600000000001
 30
0.0
 10
-2.8471900000000003
 20
-4.4963600000000001
 30
0.0
 10
-2.9868900000000003
 20
-4.3261799999999999
 30
0.0
 10
-3.0072100000000002
 20
-4.0823400000000003
 30
0.0
 10
-3.0402300000000002
 20
-3.8689800000000005
 30
0.0
 10
-3.0402300000000002
 20
-3.8689800000000005
 30
0.0
 10
-2.9614900000000004
 20
-3.8689800000000005
 30
0.0
 10
-2.8827500000000001
 20
-3.8537400000000002
 30
0.0
 10
-2.81671
 20
-3.8207200000000001
 30
0.0
  0
SPLINE
  5
50
100
AcDbEntity
  8
Ebene 1
100
AcDbSpline
210
0.0
220
0.0
230
1.0
 70
     1
 71
     3
 72
    44
 73
    40
 74
     0
 42
0.0000000001
 43
0.0000000001
 40
0.0
 40
0.0
 40
0.0
 40
0.0
 40
0.1
 40
0.1
 40
0.1
 40
0.1
 40
0.2
 40
0.2
 40
0.2
 40
0.2
 40
0.3
 40
0.3
 40
0.3
 40
0.3
 40
0.4
 40
0.4
 40
0.4
 40
0.4
 40
0.5
 40
0.5
 40
0.5
 40
0.5
 40
0.6
 40
0.6
 40
0.6
 40
0.6
 40
0.7
 40
0.7
 40
0.7
 40
0.7
 40
0.7999999999999999
 40
0.7999999999999999
 40
0.7999999999999999
 40
0.7999999999999999
 40
0.8999999999999999
 40
0.8999999999999999
 40
0.8999999999999999
 40
0.8999999999999999
 40
1.0
 40
1.0
 40
1.0
 40
1.0
 10
-0.9980700000000001
 20
-4.4633400000000005
 30
0.0
 10
-0.8609100000000001
 20
-4.4633400000000005
 30
0.0
 10
-0.7085100000000001
 20
-4.4481000000000002
 30
0.0
 10
-0.6018300000000001
 20
-4.5547800000000001
 30
0.0
 10
-0.6018300000000001
 20
-4.5547800000000001
 30
0.0
 10
-0.57135
 20
-4.5700200000000004
 30
0.0
 10
-0.5408700000000001
 20
-4.60304
 30
0.0
 10
-0.5408700000000001
 20
-4.6462200000000005
 30
0.0
 10
-0.5408700000000001
 20
-4.6462200000000005
 30
0.0
 10
-0.5408700000000001
 20
-4.6462200000000005
 30
0.0
 10
-0.5408700000000001
 20
-4.7706800000000005
 30
0.0
 10
-0.5408700000000001
 20
-4.7706800000000005
 30
0.0
 10
-0.5408700000000001
 20
-4.7706800000000005
 30
0.0
 10
-0.55611
 20
-4.7833800000000002
 30
0.0
 10
-0.5865900000000001
 20
-4.7986200000000006
 30
0.0
 10
-0.5865900000000001
 20
-4.7706800000000005
 30
0.0
 10
-0.5865900000000001
 20
-4.7706800000000005
 30
0.0
 10
-0.57135
 20
-4.4633400000000005
 30
0.0
 10
-1.0590300000000001
 20
-4.5700200000000004
 30
0.0
 10
-1.1961900000000001
 20
-4.7402000000000006
 30
0.0
 10
-1.1961900000000001
 20
-4.7402000000000006
 30
0.0
 10
-1.4273300000000002
 20
-4.9840400000000002
 30
0.0
 10
-1.1809500000000002
 20
-5.5022000000000002
 30
0.0
 10
-0.84567
 20
-5.2278800000000007
 30
0.0
 10
-0.84567
 20
-5.2278800000000007
 30
0.0
 10
-0.84567
 20
-5.2278800000000007
 30
0.0
 10
-0.5408700000000001
 20
-5.1212000000000009
 30
0.0
 10
-0.5408700000000001
 20
-5.1212000000000009
 30
0.0
 10
-0.5408700000000001
 20
-5.1212000000000009
 30
0.0
 10
-0.5865900000000001
 20
-5.1821600000000005
 30
0.0
 10
-0.6627900000000001
 20
-5.2278800000000007
 30
0.0
 10
-0.72375
 20
-5.2736000000000001
 30
0.0
 10
-0.72375
 20
-5.2736000000000001
 30
0.0
 10
-0.95235
 20
-5.5022000000000002
 30
0.0
 10
-1.3943100000000002
 20
-5.6571400000000001
 30
0.0
 10
-1.5289300000000001
 20
-5.2583600000000006
 30
0.0
 10
-1.5289300000000001
 20
-5.2583600000000006
 30
0.0
 10
-1.6584700000000001
 20
-4.8773600000000004
 30
0.0
 10
-1.3892300000000002
 20
-4.4633400000000005
 30
0.0
 10
-0.9980700000000001
 20
-4.4633400000000005
 30
0.0
  0
ENDSEC
  0
SECTION
  2
OBJECTS
  0
DICTIONARY
  5
19
100
AcDbDictionary
280
     0
281
     1
  3
ACAD_GROUP
350
1A
  3
ACAD_MLINESTYLE
350
1B
  3
ACAD_LAYOUT
350
1E
  3
ACAD_PLOTSETTINGS
350
22
  3
ACAD_PLOTSTYLENAME
350
1F
  3
ACAD_WIPEOUT_VARS
350
23
  0
DICTIONARY
  5
1A
102
{ACAD_REACTORS
330
19
102
}
100
AcDbDictionary
280
     0
281
     1
  0
DICTIONARY
  5
1B
102
{ACAD_REACTORS
330
19
102
}
100
AcDbDictionary
280
     0
281
     1
  3
Standard
350
1C
  0
MLINESTYLE
  5
1C
102
{ACAD_REACTORS
330
1B
102
}
100
AcDbMlineStyle
  2
Standard
 70
     0
  3

 62
     0
 51
90.0
 52
90.0
 71
     2
 49
0.5
 62
   256
  6
BYLAYER
 49
-0.5
 62
   256
  6
BYLAYER
  0
ACDBDICTIONARYWDFLT
  5
1F
102
{ACAD_REACTORS
330
19
102
}
100
AcDbDictionary
281
     1
  3
Normal
350
1D
100
AcDbDictionaryWithDefault
340
1D
  0
ACDBPLACEHOLDER
  5
1D
102
{ACAD_REACTORS
330
1F
102
}
  0
LAYOUT
  5
20
102
{ACAD_REACTORS
330
1E
102
}
100
AcDbPlotSettings
  1

  2

  4

  6

 40
0.0
 41
0.0
 42
0.0
 43
0.0
 44
0.0
 45
0.0
 46
0.0
 47
0.0
 48
0.0
 49
0.0
140
0.0
141
0.0
142
1.0
143
1.0
 70
  1024
 72
     0
 73
     0
 74
     0
  7

 75
     0
147
1.0
148
0.0
149
0.0
100
AcDbLayout
  1
Model
 70
     0
 71
     0
 10
0.0
 20
0.0
 11
0.0
 21
0.0
 12
0.0
 22
0.0
 32
0.0
 14
0.0
 24
0.0
 34
0.0
 15
0.0
 25
0.0
 35
0.0
146
0.0
 13
0.0
 23
0.0
 33
0.0
 16
0.0
 26
0.0
 36
0.0
 17
0.0
 27
0.0
 37
0.0
 76
     0
330
A
331
0
345
0
346
0
  0
LAYOUT
  5
21
102
{ACAD_REACTORS
330
1E
102
}
100
AcDbPlotSettings
  1

  2

  4

  6

 40
0.0
 41
0.0
 42
0.0
 43
0.0
 44
0.0
 45
0.0
 46
0.0
 47
0.0
 48
0.0
 49
0.0
140
0.0
141
0.0
142
1.0
143
1.0
 70
     0
 72
     0
 73
     0
 74
     0
  7

 75
     0
147
1.0
148
0.0
149
0.0
100
AcDbLayout
  1
Layout1
 70
     0
 71
     0
 10
0.0
 20
0.0
 11
0.0
 21
0.0
 12
0.0
 22
0.0
 32
0.0
 14
0.0
 24
0.0
 34
0.0
 15
0.0
 25
0.0
 35
0.0
146
0.0
 13
0.0
 23
0.0
 33
0.0
 16
0.0
 26
0.0
 36
0.0
 17
0.0
 27
0.0
 37
0.0
 76
     0
330
B
331
0
345
0
346
0
  0
DICTIONARY
  5
1E
102
{ACAD_REACTORS
330
19
102
}
100
AcDbDictionary
280
     0
281
     1
  3
Layout1
350
21
  3
Model
350
20
  0
DICTIONARY
  5
22
102
{ACAD_REACTORS
330
19
102
}
100
AcDbDictionary
280
     0
281
     1
  0
WIPEOUTVARIABLES
  5
23
100
AcDbWipeoutVariables
 70
     1
  0
ENDSEC
  0
EOF
