  0
SECTION
  2
HEADER
  9
$ACADVER
  1
AC1015
  9
$ACADMAINTVER
 70
     6
  9
$DWGCODEPAGE
  3
DOS850
  9
$INSBASE
 10
0.0
 20
0.0
 30
0.0
  9
$EXTMIN
 10
-3.74635
 20
-6.6706
 30
1.000000E+20
  9
$EXTMAX
 10
3.7533
 20
6.66439
 30
-1.000000E+20
  9
$LIMMIN
 10
0.0
 20
0.0
  9
$LIMMAX
 10
0.0
 20
0.0
  9
$ORTHOMODE
 70
     0
  9
$REGENMODE
 70
     1
  9
$FILLMODE
 70
     1
  9
$QTEXTMODE
 70
     0
  9
$MIRRTEXT
 70
     1
  9
$LTSCALE
 40
1.0
  9
$ATTMODE
 70
     1
  9
$TEXTSIZE
 40
0.2
  9
$TRACEWID
 40
0.05
  9
$TEXTSTYLE
  7
Standard
  9
$CLAYER
  8
0
  9
$CELTYPE
  6
Continuous
  9
$CECOLOR
 62
   256
  9
$CELTSCALE
 40
1.0
  9
$DISPSILH
 70
     0
  9
$DIMSCALE
 40
1.0
  9
$DIMASZ
 40
0.18
  9
$DIMEXO
 40
0.0625
  9
$DIMDLI
 40
0.38
  9
$DIMRND
 40
0.0
  9
$DIMDLE
 40
0.0
  9
$DIMEXE
 40
0.18
  9
$DIMTP
 40
0.0
  9
$DIMTM
 40
0.0
  9
$DIMTXT
 40
0.18
  9
$DIMCEN
 40
0.09
  9
$DIMTSZ
 40
0.0
  9
$DIMTOL
 70
     0
  9
$DIMLIM
 70
     0
  9
$DIMTIH
 70
     1
  9
$DIMTOH
 70
     1
  9
$DIMSE1
 70
     0
  9
$DIMSE2
 70
     0
  9
$DIMTAD
 70
     0
  9
$DIMZIN
 70
     0
  9
$DIMBLK
  1

  9
$DIMASO
 70
     1
  9
$DIMSHO
 70
     1
  9
$DIMPOST
  1

  9
$DIMAPOST
  1

  9
$DIMALT
 70
     0
  9
$DIMALTD
 70
     2
  9
$DIMALTF
 40
25.4
  9
$DIMLFAC
 40
1.0
  9
$DIMTOFL
 70
     0
  9
$DIMTVP
 40
0.0
  9
$DIMTIX
 70
     0
  9
$DIMSOXD
 70
     0
  9
$DIMSAH
 70
     0
  9
$DIMBLK1
  1

  9
$DIMBLK2
  1

  9
$DIMSTYLE
  2
Standard
  9
$DIMCLRD
 70
     0
  9
$DIMCLRE
 70
     0
  9
$DIMCLRT
 70
     0
  9
$DIMTFAC
 40
1.0
  9
$DIMGAP
 40
0.09
  9
$DIMJUST
 70
     0
  9
$DIMSD1
 70
     0
  9
$DIMSD2
 70
     0
  9
$DIMTOLJ
 70
     1
  9
$DIMTZIN
 70
     0
  9
$DIMALTZ
 70
     0
  9
$DIMALTTZ
 70
     0
  9
$DIMUPT
 70
     0
  9
$DIMDEC
 70
     4
  9
$DIMTDEC
 70
     4
  9
$DIMALTU
 70
     2
  9
$DIMALTTD
 70
     2
  9
$DIMTXSTY
  7
Standard
  9
$DIMAUNIT
 70
     0
  9
$DIMADEC
 70
     0
  9
$DIMALTRND
 40
0.0
  9
$DIMAZIN
 70
     0
  9
$DIMDSEP
 70
     0
  9
$DIMATFIT
 70
     3
  9
$DIMFRAC
 70
     0
  9
$DIMLDRBLK
  1

  9
$DIMLUNIT
 70
     2
  9
$DIMLWD
 70
     0
  9
$DIMLWE
 70
     0
  9
$DIMTMOVE
 70
     0
  9
$LUNITS
 70
     2
  9
$LUPREC
 70
     4
  9
$SKETCHINC
 40
0.1
  9
$FILLETRAD
 40
0.0
  9
$AUNITS
 70
     0
  9
$AUPREC
 70
     0
  9
$MENU
  1
acad
  9
$ELEVATION
 40
0.0
  9
$PELEVATION
 40
0.0
  9
$THICKNESS
 40
0.0
  9
$LIMCHECK
 70
     0
  9
$CHAMFERA
 40
0.0
  9
$CHAMFERB
 40
0.0
  9
$CHAMFERC
 40
0.0
  9
$CHAMFERD
 40
0.0
  9
$SKPOLY
 70
     0
  9
$TDCREATE
 40
0.000000000
  9
$TDUCREATE
 40
0.000000000
  9
$TDUPDATE
 40
0.000000000
  9
$TDUUPDATE
 40
0.000000000
  9
$TDINDWG
 40
0.0000000000
  9
$TDUSRTIMER
 40
0.0000000000
  9
$USRTIMER
 70
     1
  9
$ANGBASE
 50
0.0
  9
$ANGDIR
 70
     0
  9
$PDMODE
 70
     0
  9
$PDSIZE
 40
0.0
  9
$PLINEWID
 40
0.0
  9
$SPLFRAME
 70
     0
  9
$SPLINETYPE
 70
     6
  9
$SPLINESEGS
 70
     8
  9
$HANDSEED
  5
5A
  9
$SURFTAB1
 70
     6
  9
$SURFTAB2
 70
     6
  9
$SURFTYPE
 70
     6
  9
$SURFU
 70
     6
  9
$SURFV
 70
     6
  9
$UCSBASE
  2

  9
$UCSNAME
  2

  9
$UCSORG
 10
0.0
 20
0.0
 30
0.0
  9
$UCSXDIR
 10
1.0
 20
0.0
 30
0.0
  9
$UCSYDIR
 10
0.0
 20
1.0
 30
0.0
  9
$UCSORTHOREF
  2

  9
$UCSORTHOVIEW
 70
     0
  9
$UCSORGTOP
 10
0.0
 20
0.0
 30
0.0
  9
$UCSORGBOTTOM
 10
0.0
 20
0.0
 30
0.0
  9
$UCSORGLEFT
 10
0.0
 20
0.0
 30
0.0
  9
$UCSORGRIGHT
 10
0.0
 20
0.0
 30
0.0
  9
$UCSORGFRONT
 10
0.0
 20
0.0
 30
0.0
  9
$UCSORGBACK
 10
0.0
 20
0.0
 30
0.0
  9
$PUCSBASE
  2

  9
$PUCSNAME
  2

  9
$PUCSORG
 10
0.0
 20
0.0
 30
0.0
  9
$PUCSXDIR
 10
1.0
 20
0.0
 30
0.0
  9
$PUCSYDIR
 10
0.0
 20
1.0
 30
0.0
  9
$PUCSORTHOREF
  2

  9
$PUCSORTHOVIEW
 70
     0
  9
$PUCSORGTOP
 10
0.0
 20
0.0
 30
0.0
  9
$PUCSORGBOTTOM
 10
0.0
 20
0.0
 30
0.0
  9
$PUCSORGLEFT
 10
0.0
 20
0.0
 30
0.0
  9
$PUCSORGRIGHT
 10
0.0
 20
0.0
 30
0.0
  9
$PUCSORGFRONT
 10
0.0
 20
0.0
 30
0.0
  9
$PUCSORGBACK
 10
0.0
 20
0.0
 30
0.0
  9
$USERI1
 70
     0
  9
$USERI2
 70
     0
  9
$USERI3
 70
     0
  9
$USERI4
 70
     0
  9
$USERI5
 70
     0
  9
$USERR1
 40
0.0
  9
$USERR2
 40
0.0
  9
$USERR3
 40
0.0
  9
$USERR4
 40
0.0
  9
$USERR5
 40
0.0
  9
$WORLDVIEW
 70
     1
  9
$SHADEDGE
 70
     3
  9
$SHADEDIF
 70
    70
  9
$TILEMODE
 70
     1
  9
$MAXACTVP
 70
    16
  9
$PINSBASE
 10
0.0
 20
0.0
 30
0.0
  9
$PLIMCHECK
 70
     0
  9
$PEXTMIN
 10
1.000000E+20
 20
1.000000E+20
 30
1.000000E+20
  9
$PEXTMAX
 10
-1.000000E+20
 20
-1.000000E+20
 30
-1.000000E+20
  9
$PLIMMIN
 10
0.0
 20
0.0
  9
$PLIMMAX
 10
12.0
 20
9.0
  9
$UNITMODE
 70
     0
  9
$VISRETAIN
 70
     0
  9
$PLINEGEN
 70
     1
  9
$PSLTSCALE
 70
     0
  9
$TREEDEPTH
 70
  3020
  9
$CMLSTYLE
  2
Standard
  9
$CMLJUST
 70
     0
  9
$CMLSCALE
 40
1.0
  9
$PROXYGRAPHICS
 70
     0
  9
$MEASUREMENT
 70
     0
  9
$CELWEIGHT
370
     0
  9
$ENDCAPS
280
     0
  9
$JOINSTYLE
280
     0
  9
$LWDISPLAY
290
     0
  9
$INSUNITS
 70
     5
  9
$HYPERLINKBASE
  1

  9
$XEDIT
290
     1
  9
$CEPSNTYPE
380
     0
  9
$PSTYLEMODE
290
     1
  9
$FINGERPRINTGUID
  2

  9
$VERSIONGUID
  2

  9
$EXTNAMES
290
     1
  9
$PSVPSCALE
 40
0.0
  0
ENDSEC
  0
SECTION
  2
CLASSES
  0
CLASS
  1
LWPOLYLINE
  2
AcDbPolyline
  3
AutoCAD 2000
 90
    32768
280
     0
281
     1
  0
CLASS
  1
IMAGE
  2
AcDbRasterImage
  3
ISM
 90
    32895
280
     0
281
     1
  0
CLASS
  1
OLE2FRAME
  2
AcDbOle2Frame
  3
AutoCAD 2000
 90
    32768
280
     0
281
     1
  0
CLASS
  1
HATCH
  2
AcDbHatch
  3
AutoCAD 2000
 90
    32768
280
     0
281
     1
  0
CLASS
  1
DICTIONARYVAR
  2
AcDbDictionaryVar
  3
AutoCAD 2000
 90
    32768
280
     0
281
     0
  0
CLASS
  1
RASTERVARIABLES
  2
AcDbRasterVariables
  3
ISM
 90
    32768
280
     0
281
     0
  0
CLASS
  1
IMAGEDEF
  2
AcDbRasterImageDef
  3
ISM
 90
    32768
280
     0
281
     0
  0
CLASS
  1
IMAGEDEF_REACTOR
  2
AcDbRasterImageDefReactor
  3
ISM
 90
    32769
280
     0
281
     0
  0
CLASS
  1
IDBUFFER
  2
AcDbIdBuffer
  3
AutoCAD 2000
 90
    32768
280
     0
281
     0
  0
CLASS
  1
SPATIAL_FILTER
  2
AcDbSpatialFilter
  3
AutoCAD 2000
 90
    32768
280
     0
281
     0
  0
CLASS
  1
XRECORD
  2
AcDbXrecord
  3
AutoCAD 2000
 90
    32768
280
     0
281
     0
  0
CLASS
  1
SORTENTSTABLE
  2
AcDbSortentsTable
  3
AutoCAD 2000
 90
    32768
280
     0
281
     0
  0
CLASS
  1
LAYER_INDEX
  2
AcDbLayerIndex
  3
AutoCAD 2000
 90
    32768
280
     0
281
     0
  0
CLASS
  1
SPATIAL_INDEX
  2
AcDbSpatialIndex
  3
AutoCAD 2000
 90
    32768
280
     0
281
     0
  0
CLASS
  1
OBJECT_PTR
  2
CAseDLPNTableRecord
  3
"ASE-LPNTableRecord"
 90
    32769
280
     0
281
     0
  0
CLASS
  1
LAYOUT
  2
AcDbLayout
  3
AutoCAD 2000
 90
        0
280
     0
281
     0
  0
CLASS
  1
PLOTSETTINGS
  2
AcDbPlotSettings
  3
AutoCAD 2000
 90
    32768
280
     0
281
     0
  0
CLASS
  1
ACDBDICTIONARYWDFLT
  2
AcDbDictionaryWithDefault
  3
AutoCAD 2000
 90
        0
280
     0
281
     0
  0
CLASS
  1
ACDBPLACEHOLDER
  2
AcDbPlaceHolder
  3
AutoCAD 2000
 90
        0
280
     0
281
     0
  0
CLASS
  1
VBA_PROJECT
  2
AcDbVbaProject
  3
acadvba
 90
    32768
280
     0
281
     0
  0
CLASS
  1
WIPEOUT
  2
AcDbWipeout
  3
WipeOut|AutoCAD Express Tool|expresstools@autodesk.com
 90
    32895
280
     0
281
     1
  0
CLASS
  1
WIPEOUTVARIABLES
  2
AcDbWipeoutVariables
  3
WipeOut|AutoCAD Express Tool|expresstools@autodesk.com
 90
        0
280
     0
281
     0
  0
CLASS
  1
RTEXT
  2
RText
  3
RText|AutoCAD Express Tool|expresstools@autodesk.com
 90
    32768
280
     0
281
     1
  0
CLASS
  1
ARCALIGNEDTEXT
  2
AcDbArcAlignedText
  3
ATEXT|AutoCAD Express Tool|expresstools@autodesk.com
 90
    32768
280
     0
281
     1
  0
ENDSEC
  0
SECTION
  2
TABLES
  0
TABLE
  2
VPORT
  5
7
100
AcDbSymbolTable
 70
     1
  0
VPORT
  5
15
100
AcDbSymbolTableRecord
100
AcDbViewportTableRecord
  2
*ACTIVE
 70
     0
 10
0.0
 20
0.0
 11
1.0
 21
1.0
 12
6.591288
 22
4.579184
 13
0.0
 23
0.0
 14
1.0
 24
1.0
 15
0.0
 25
0.0
 16
0.0
 26
0.0
 36
1.0
 17
0.0
 27
0.0
 37
0.0
 40
9.158369
 41
0.688564
 42
50.0
 43
0.0
 44
0.0
 50
0.0
 51
0.0
 71
     0
 72
   100
 73
     1
 74
     1
 75
     0
 76
     0
 77
     0
 78
     0
281
     0
 65
     0
110
0.0
120
0.0
130
0.0
111
1.0
121
0.0
131
0.0
112
0.0
122
1.0
132
0.0
345
0
346
0
 79
     0
146
0.0
  0
ENDTAB
  0
TABLE
  2
LTYPE
  5
4
100
AcDbSymbolTable
 70
     3
  0
LTYPE
  5
11
100
AcDbSymbolTableRecord
100
AcDbLinetypeTableRecord
  2
ByBlock
 70
    64
  3

 72
    65
 73
     0
 40
0.0
  0
LTYPE
  5
12
100
AcDbSymbolTableRecord
100
AcDbLinetypeTableRecord
  2
ByLayer
 70
    64
  3

 72
    65
 73
     0
 40
0.0
  0
LTYPE
  5
13
100
AcDbSymbolTableRecord
100
AcDbLinetypeTableRecord
  2
Continuous
 70
    64
  3
Solid line
 72
    65
 73
     0
 40
0.0
  0
ENDTAB
  0
TABLE
  2
LAYER
  5
2
100
AcDbSymbolTable
 70
     2
  0
LAYER
  5
14
100
AcDbSymbolTableRecord
100
AcDbLayerTableRecord
  2
0
 70
     0
 62
     7
  6
Continuous
290
     1
370
    -3
390
1D
  0
LAYER
  5
24
100
AcDbSymbolTableRecord
100
AcDbLayerTableRecord
  2
Ebene 1
 70
     0
 62
     7
  6
Continuous
290
     1
370
    -3
390
1F
  0
ENDTAB
  0
TABLE
  2
STYLE
  5
3
100
AcDbSymbolTable
 70
     1
  0
STYLE
  5
17
100
AcDbSymbolTableRecord
100
AcDbTextStyleTableRecord
  2
Standard
 70
     0
 40
0.0
 41
1.0
 50
0.0
 71
     0
 42
0.0
  3
txt
  4

  0
ENDTAB
  0
TABLE
  2
VIEW
  5
5
100
AcDbSymbolTable
 70
     0
  0
ENDTAB
  0
TABLE
  2
UCS
  5
6
100
AcDbSymbolTable
 70
     0
  0
ENDTAB
  0
TABLE
  2
APPID
  5
8
100
AcDbSymbolTable
 70
     1
  0
APPID
  5
16
100
AcDbSymbolTableRecord
100
AcDbRegAppTableRecord
  2
ACAD
 70
     0
  0
ENDTAB
  0
TABLE
  2
DIMSTYLE
  5
9
100
AcDbSymbolTable
 70
     1
100
AcDbDimStyleTable
 71
     0
  0
DIMSTYLE
105
18
100
AcDbSymbolTableRecord
100
AcDbDimStyleTableRecord
  2
Standard
 70
     0
  3

  4

 40
1.0
 41
0.18
 42
0.0625
 43
0.38
 44
0.18
 45
0.0
 46
0.0
 47
0.0
 48
0.0
 71
     0
 72
     0
 73
     1
 74
     1
 75
     0
 76
     0
 77
     0
 78
     0
 79
     0
140
0.18
141
0.09
142
0.0
143
25.4
144
1.0
145
0.0
146
1.0
147
0.09
148
0.0
170
     0
171
     2
172
     0
173
     0
174
     0
175
     0
176
     0
177
     0
178
     0
179
     0
271
     4
272
     4
273
     2
274
     2
275
     0
276
     0
277
     2
278
    46
279
     0
280
     0
281
     0
282
     0
283
     1
284
     0
285
     0
286
     0
288
     0
340
17
341
0
342
0
343
0
344
0
371
    -2
372
    -2
  0
ENDTAB
  0
TABLE
  2
BLOCK_RECORD
  5
1
100
AcDbSymbolTable
 70
     0
  0
BLOCK_RECORD
  5
A
100
AcDbSymbolTableRecord
100
AcDbBlockTableRecord
  2
*MODEL_SPACE
340
20
  0
BLOCK_RECORD
  5
B
100
AcDbSymbolTableRecord
100
AcDbBlockTableRecord
  2
*PAPER_SPACE
340
21
  0
ENDTAB
  0
ENDSEC
  0
SECTION
  2
BLOCKS
  0
BLOCK
  5
D
100
AcDbEntity
  8
0
100
AcDbBlockBegin
  2
*MODEL_SPACE
 70
     0
 10
0.0
 20
0.0
 30
0.0
  3
*MODEL_SPACE
  1

  0
ENDBLK
  5
E
100
AcDbEntity
  8
0
100
AcDbBlockEnd
  0
BLOCK
  5
F
100
AcDbEntity
 67
     1
  8
0
100
AcDbBlockBegin
  2
*PAPER_SPACE
 70
     0
 10
0.0
 20
0.0
 30
0.0
  3
*PAPER_SPACE
  1

  0
ENDBLK
  5
10
100
AcDbEntity
 67
     1
  8
0
100
AcDbBlockEnd
  0
ENDSEC
  0
SECTION
  2
ENTITIES
  0
SPLINE
  5
25
100
AcDbEntity
  8
Ebene 1
100
AcDbSpline
210
0.0
220
0.0
230
1.0
 70
     1
 71
     3
 72
   348
 73
   344
 74
     0
 42
0.0000000001
 43
0.0000000001
 40
0.0
 40
0.0
 40
0.0
 40
0.0
 40
0.0116279069767442
 40
0.0116279069767442
 40
0.0116279069767442
 40
0.0116279069767442
 40
0.0232558139534884
 40
0.0232558139534884
 40
0.0232558139534884
 40
0.0232558139534884
 40
0.0348837209302326
 40
0.0348837209302326
 40
0.0348837209302326
 40
0.0348837209302326
 40
0.0465116279069767
 40
0.0465116279069767
 40
0.0465116279069767
 40
0.0465116279069767
 40
0.0581395348837209
 40
0.0581395348837209
 40
0.0581395348837209
 40
0.0581395348837209
 40
0.0697674418604651
 40
0.0697674418604651
 40
0.0697674418604651
 40
0.0697674418604651
 40
0.0813953488372093
 40
0.0813953488372093
 40
0.0813953488372093
 40
0.0813953488372093
 40
0.0930232558139535
 40
0.0930232558139535
 40
0.0930232558139535
 40
0.0930232558139535
 40
0.1046511627906977
 40
0.1046511627906977
 40
0.1046511627906977
 40
0.1046511627906977
 40
0.1162790697674418
 40
0.1162790697674418
 40
0.1162790697674418
 40
0.1162790697674418
 40
0.127906976744186
 40
0.127906976744186
 40
0.127906976744186
 40
0.127906976744186
 40
0.1395348837209302
 40
0.1395348837209302
 40
0.1395348837209302
 40
0.1395348837209302
 40
0.1511627906976744
 40
0.1511627906976744
 40
0.1511627906976744
 40
0.1511627906976744
 40
0.1627906976744186
 40
0.1627906976744186
 40
0.1627906976744186
 40
0.1627906976744186
 40
0.1744186046511627
 40
0.1744186046511627
 40
0.1744186046511627
 40
0.1744186046511627
 40
0.1860465116279069
 40
0.1860465116279069
 40
0.1860465116279069
 40
0.1860465116279069
 40
0.1976744186046511
 40
0.1976744186046511
 40
0.1976744186046511
 40
0.1976744186046511
 40
0.2093023255813953
 40
0.2093023255813953
 40
0.2093023255813953
 40
0.2093023255813953
 40
0.2209302325581395
 40
0.2209302325581395
 40
0.2209302325581395
 40
0.2209302325581395
 40
0.2325581395348836
 40
0.2325581395348836
 40
0.2325581395348836
 40
0.2325581395348836
 40
0.2441860465116278
 40
0.2441860465116278
 40
0.2441860465116278
 40
0.2441860465116278
 40
0.255813953488372
 40
0.255813953488372
 40
0.255813953488372
 40
0.255813953488372
 40
0.2674418604651162
 40
0.2674418604651162
 40
0.2674418604651162
 40
0.2674418604651162
 40
0.2790697674418604
 40
0.2790697674418604
 40
0.2790697674418604
 40
0.2790697674418604
 40
0.2906976744186046
 40
0.2906976744186046
 40
0.2906976744186046
 40
0.2906976744186046
 40
0.3023255813953488
 40
0.3023255813953488
 40
0.3023255813953488
 40
0.3023255813953488
 40
0.313953488372093
 40
0.313953488372093
 40
0.313953488372093
 40
0.313953488372093
 40
0.3255813953488372
 40
0.3255813953488372
 40
0.3255813953488372
 40
0.3255813953488372
 40
0.3372093023255814
 40
0.3372093023255814
 40
0.3372093023255814
 40
0.3372093023255814
 40
0.3488372093023257
 40
0.3488372093023257
 40
0.3488372093023257
 40
0.3488372093023257
 40
0.3604651162790699
 40
0.3604651162790699
 40
0.3604651162790699
 40
0.3604651162790699
 40
0.3720930232558141
 40
0.3720930232558141
 40
0.3720930232558141
 40
0.3720930232558141
 40
0.3837209302325583
 40
0.3837209302325583
 40
0.3837209302325583
 40
0.3837209302325583
 40
0.3953488372093025
 40
0.3953488372093025
 40
0.3953488372093025
 40
0.3953488372093025
 40
0.4069767441860467
 40
0.4069767441860467
 40
0.4069767441860467
 40
0.4069767441860467
 40
0.4186046511627909
 40
0.4186046511627909
 40
0.4186046511627909
 40
0.4186046511627909
 40
0.4302325581395351
 40
0.4302325581395351
 40
0.4302325581395351
 40
0.4302325581395351
 40
0.4418604651162793
 40
0.4418604651162793
 40
0.4418604651162793
 40
0.4418604651162793
 40
0.4534883720930235
 40
0.4534883720930235
 40
0.4534883720930235
 40
0.4534883720930235
 40
0.4651162790697677
 40
0.4651162790697677
 40
0.4651162790697677
 40
0.4651162790697677
 40
0.4767441860465119
 40
0.4767441860465119
 40
0.4767441860465119
 40
0.4767441860465119
 40
0.4883720930232561
 40
0.4883720930232561
 40
0.4883720930232561
 40
0.4883720930232561
 40
0.5000000000000003
 40
0.5000000000000003
 40
0.5000000000000003
 40
0.5000000000000003
 40
0.5116279069767445
 40
0.5116279069767445
 40
0.5116279069767445
 40
0.5116279069767445
 40
0.5232558139534888
 40
0.5232558139534888
 40
0.5232558139534888
 40
0.5232558139534888
 40
0.534883720930233
 40
0.534883720930233
 40
0.534883720930233
 40
0.534883720930233
 40
0.5465116279069772
 40
0.5465116279069772
 40
0.5465116279069772
 40
0.5465116279069772
 40
0.5581395348837214
 40
0.5581395348837214
 40
0.5581395348837214
 40
0.5581395348837214
 40
0.5697674418604656
 40
0.5697674418604656
 40
0.5697674418604656
 40
0.5697674418604656
 40
0.5813953488372098
 40
0.5813953488372098
 40
0.5813953488372098
 40
0.5813953488372098
 40
0.593023255813954
 40
0.593023255813954
 40
0.593023255813954
 40
0.593023255813954
 40
0.6046511627906982
 40
0.6046511627906982
 40
0.6046511627906982
 40
0.6046511627906982
 40
0.6162790697674424
 40
0.6162790697674424
 40
0.6162790697674424
 40
0.6162790697674424
 40
0.6279069767441866
 40
0.6279069767441866
 40
0.6279069767441866
 40
0.6279069767441866
 40
0.6395348837209308
 40
0.6395348837209308
 40
0.6395348837209308
 40
0.6395348837209308
 40
0.651162790697675
 40
0.651162790697675
 40
0.651162790697675
 40
0.651162790697675
 40
0.6627906976744192
 40
0.6627906976744192
 40
0.6627906976744192
 40
0.6627906976744192
 40
0.6744186046511634
 40
0.6744186046511634
 40
0.6744186046511634
 40
0.6744186046511634
 40
0.6860465116279076
 40
0.6860465116279076
 40
0.6860465116279076
 40
0.6860465116279076
 40
0.6976744186046519
 40
0.6976744186046519
 40
0.6976744186046519
 40
0.6976744186046519
 40
0.7093023255813961
 40
0.7093023255813961
 40
0.7093023255813961
 40
0.7093023255813961
 40
0.7209302325581403
 40
0.7209302325581403
 40
0.7209302325581403
 40
0.7209302325581403
 40
0.7325581395348845
 40
0.7325581395348845
 40
0.7325581395348845
 40
0.7325581395348845
 40
0.7441860465116287
 40
0.7441860465116287
 40
0.7441860465116287
 40
0.7441860465116287
 40
0.7558139534883729
 40
0.7558139534883729
 40
0.7558139534883729
 40
0.7558139534883729
 40
0.7674418604651171
 40
0.7674418604651171
 40
0.7674418604651171
 40
0.7674418604651171
 40
0.7790697674418613
 40
0.7790697674418613
 40
0.7790697674418613
 40
0.7790697674418613
 40
0.7906976744186055
 40
0.7906976744186055
 40
0.7906976744186055
 40
0.7906976744186055
 40
0.8023255813953497
 40
0.8023255813953497
 40
0.8023255813953497
 40
0.8023255813953497
 40
0.8139534883720939
 40
0.8139534883720939
 40
0.8139534883720939
 40
0.8139534883720939
 40
0.8255813953488381
 40
0.8255813953488381
 40
0.8255813953488381
 40
0.8255813953488381
 40
0.8372093023255823
 40
0.8372093023255823
 40
0.8372093023255823
 40
0.8372093023255823
 40
0.8488372093023265
 40
0.8488372093023265
 40
0.8488372093023265
 40
0.8488372093023265
 40
0.8604651162790707
 40
0.8604651162790707
 40
0.8604651162790707
 40
0.8604651162790707
 40
0.872093023255815
 40
0.872093023255815
 40
0.872093023255815
 40
0.872093023255815
 40
0.8837209302325592
 40
0.8837209302325592
 40
0.8837209302325592
 40
0.8837209302325592
 40
0.8953488372093034
 40
0.8953488372093034
 40
0.8953488372093034
 40
0.8953488372093034
 40
0.9069767441860476
 40
0.9069767441860476
 40
0.9069767441860476
 40
0.9069767441860476
 40
0.9186046511627918
 40
0.9186046511627918
 40
0.9186046511627918
 40
0.9186046511627918
 40
0.930232558139536
 40
0.930232558139536
 40
0.930232558139536
 40
0.930232558139536
 40
0.9418604651162802
 40
0.9418604651162802
 40
0.9418604651162802
 40
0.9418604651162802
 40
0.9534883720930244
 40
0.9534883720930244
 40
0.9534883720930244
 40
0.9534883720930244
 40
0.9651162790697686
 40
0.9651162790697686
 40
0.9651162790697686
 40
0.9651162790697686
 40
0.9767441860465128
 40
0.9767441860465128
 40
0.9767441860465128
 40
0.9767441860465128
 40
0.988372093023257
 40
0.988372093023257
 40
0.988372093023257
 40
0.988372093023257
 40
1.0
 40
1.0
 40
1.0
 40
1.0
 10
-0.6424700000000001
 20
6.6643900000000009
 30
0.0
 10
-0.11161
 20
5.9481100000000007
 30
0.0
 10
-0.63485
 20
4.8889300000000002
 30
0.0
 10
-0.45705
 20
4.0558100000000001
 30
0.0
 10
-0.45705
 20
4.0558100000000001
 30
0.0
 10
-0.16749
 20
3.7129100000000004
 30
0.0
 10
0.07126
 20
4.34537
 30
0.0
 10
-0.05827
 20
4.5892100000000005
 30
0.0
 10
-0.05827
 20
4.5892100000000005
 30
0.0
 10
0.00522
 20
5.09213
 30
0.0
 10
-0.11415
 20
5.3308900000000001
 30
0.0
 10
0.14238
 20
5.5747300000000006
 30
0.0
 10
0.14238
 20
5.5747300000000006
 30
0.0
 10
0.35828
 20
4.6019100000000002
 30
0.0
 10
-0.07859
 20
3.3700100000000002
 30
0.0
 10
0.19826
 20
2.42259
 30
0.0
 10
0.19826
 20
2.42259
 30
0.0
 10
0.39384
 20
2.4098900000000003
 30
0.0
 10
0.42686
 20
2.6664300000000001
 30
0.0
 10
0.41162
 20
2.8239100000000001
 30
0.0
 10
0.41162
 20
2.8239100000000001
 30
0.0
 10
0.3684400000000001
 20
3.2963500000000003
 30
0.0
 10
0.23128
 20
3.9135700000000004
 30
0.0
 10
0.5564
 20
4.28695
 30
0.0
 10
0.5564
 20
4.28695
 30
0.0
 10
0.277
 20
3.6138500000000002
 30
0.0
 10
0.8027800000000001
 20
3.0245700000000002
 30
0.0
 10
0.7138800000000001
 20
2.3387700000000002
 30
0.0
 10
0.7138800000000001
 20
2.3387700000000002
 30
0.0
 10
0.78754
 20
1.8510900000000001
 30
0.0
 10
0.9678800000000001
 20
1.8587100000000001
 30
0.0
 10
1.0390000000000001
 20
2.0746100000000003
 30
0.0
 10
1.0390000000000001
 20
2.0746100000000003
 30
0.0
 10
1.11012
 20
2.2879700000000001
 30
0.0
 10
0.9653400000000001
 20
2.6435700000000004
 30
0.0
 10
1.0720200000000002
 20
2.8823300000000001
 30
0.0
 10
1.0720200000000002
 20
2.8823300000000001
 30
0.0
 10
1.4352400000000001
 20
2.2371700000000003
 30
0.0
 10
1.0720200000000002
 20
1.3913500000000001
 30
0.0
 10
1.3463400000000001
 20
0.8198500000000001
 30
0.0
 10
1.3463400000000001
 20
0.8198500000000001
 30
0.0
 10
1.4784200000000001
 20
0.8630300000000001
 30
0.0
 10
1.5317600000000002
 20
0.93669
 30
0.0
 10
1.5317600000000002
 20
1.06369
 30
0.0
 10
1.5317600000000002
 20
1.06369
 30
0.0
 10
1.5139800000000001
 20
1.2643500000000001
 30
0.0
 10
1.4784200000000001
 20
1.44215
 30
0.0
 10
1.6308200000000002
 20
1.8079100000000001
 30
0.0
 10
1.6308200000000002
 20
1.8079100000000001
 30
0.0
 10
1.8035400000000001
 20
0.9900300000000001
 30
0.0
 10
1.6333600000000001
 20
-0.02342
 30
0.0
 10
1.7756000000000001
 20
-0.7549400000000001
 30
0.0
 10
1.7756000000000001
 20
-0.7549400000000001
 30
0.0
 10
2.00928
 20
-0.7117600000000001
 30
0.0
 10
1.7756000000000001
 20
-0.05898
 30
0.0
 10
2.0118200000000002
 20
0.10357
 30
0.0
 10
2.0118200000000002
 20
0.10357
 30
0.0
 10
2.12358
 20
-0.69906
 30
0.0
 10
2.1362800000000002
 20
-1.12578
 30
0.0
 10
1.7476600000000002
 20
-1.5702800000000001
 30
0.0
 10
1.7476600000000002
 20
-1.5702800000000001
 30
0.0
 10
1.7019400000000002
 20
-1.9868400000000002
 30
0.0
 10
2.0270600000000001
 20
-1.7049000000000001
 30
0.0
 10
1.8975200000000001
 20
-1.4763000000000002
 30
0.0
 10
1.8975200000000001
 20
-1.4763000000000002
 30
0.0
 10
1.9330800000000001
 20
-1.4051800000000001
 30
0.0
 10
1.9711800000000002
 20
-1.29596
 30
0.0
 10
2.0575400000000004
 20
-1.2680200000000001
 30
0.0
 10
2.0575400000000004
 20
-1.2680200000000001
 30
0.0
 10
2.3140800000000001
 20
-1.9411200000000002
 30
0.0
 10
1.4936600000000002
 20
-2.3449800000000001
 30
0.0
 10
1.6206600000000002
 20
-2.9901400000000002
 30
0.0
 10
1.6206600000000002
 20
-2.9901400000000002
 30
0.0
 10
1.7832200000000002
 20
-2.9901400000000002
 30
0.0
 10
1.7832200000000002
 20
-2.7590000000000003
 30
0.0
 10
1.8035400000000001
 20
-2.6320000000000001
 30
0.0
 10
1.8035400000000001
 20
-2.6320000000000001
 30
0.0
 10
2.0702400000000001
 20
-1.9995400000000001
 30
0.0
 10
1.7425800000000002
 20
-3.3609800000000001
 30
0.0
 10
2.1947000000000001
 20
-2.8885400000000003
 30
0.0
 10
2.1947000000000001
 20
-2.8885400000000003
 30
0.0
 10
2.2683600000000004
 20
-2.8021800000000003
 30
0.0
 10
2.29122
 20
-2.7031200000000002
 30
0.0
 10
2.2759800000000001
 20
-2.5888200000000001
 30
0.0
 10
2.2759800000000001
 20
-2.5888200000000001
 30
0.0
 10
2.2074000000000003
 20
-2.3881600000000001
 30
0.0
 10
2.2302600000000004
 20
-2.1570200000000002
 30
0.0
 10
2.24804
 20
-1.9436600000000002
 30
0.0
 10
2.24804
 20
-1.9436600000000002
 30
0.0
 10
2.67476
 20
0.06039
 30
0.0
 10
2.16168
 20
-4.3211000000000004
 30
0.0
 10
2.7916000000000003
 20
-2.5888200000000001
 30
0.0
 10
2.7916000000000003
 20
-2.5888200000000001
 30
0.0
 10
2.7916000000000003
 20
-2.5888200000000001
 30
0.0
 10
2.6646000000000001
 20
-2.0859000000000001
 30
0.0
 10
2.6646000000000001
 20
-2.0859000000000001
 30
0.0
 10
2.6646000000000001
 20
-2.0859000000000001
 30
0.0
 10
2.5630000000000002
 20
-1.5550400000000002
 30
0.0
 10
2.4487000000000001
 20
-0.8413000000000001
 30
0.0
 10
2.71794
 20
-0.38156
 30
0.0
 10
2.71794
 20
-0.38156
 30
0.0
 10
2.71794
 20
-0.38156
 30
0.0
 10
2.7408000000000001
 20
-1.3747
 30
0.0
 10
2.7408000000000001
 20
-1.3747
 30
0.0
 10
2.7408000000000001
 20
-1.3747
 30
0.0
 10
2.7408000000000001
 20
-1.3747
 30
0.0
 10
3.0049600000000001
 20
-2.3449800000000001
 30
0.0
 10
3.0049600000000001
 20
-2.3449800000000001
 30
0.0
 10
3.0049600000000001
 20
-2.3449800000000001
 30
0.0
 10
3.3478600000000003
 20
-1.3137400000000001
 30
0.0
 10
3.1700600000000003
 20
-2.7894800000000002
 30
0.0
 10
3.1218000000000004
 20
-3.1882600000000001
 30
0.0
 10
3.1218000000000004
 20
-3.1882600000000001
 30
0.0
 10
3.30722
 20
-3.1044400000000003
 30
0.0
 10
3.1980000000000004
 20
-2.6726400000000003
 30
0.0
 10
3.4520000000000004
 20
-2.6726400000000003
 30
0.0
 10
3.4520000000000004
 20
-2.6726400000000003
 30
0.0
 10
3.2564200000000003
 20
-3.1882600000000001
 30
0.0
 10
3.4037400000000004
 20
-3.7623000000000002
 30
0.0
 10
3.2970600000000001
 20
-4.2931600000000003
 30
0.0
 10
3.2970600000000001
 20
-4.2931600000000003
 30
0.0
 10
3.7415600000000002
 20
-4.1153599999999999
 30
0.0
 10
3.7847400000000002
 20
-4.1712400000000001
 30
0.0
 10
3.7390200000000005
 20
-4.4633400000000005
 30
0.0
 10
3.7390200000000005
 20
-4.4633400000000005
 30
0.0
 10
3.7237800000000001
 20
-4.5497000000000005
 30
0.0
 10
3.7136200000000001
 20
-4.6055800000000007
 30
0.0
 10
3.6628200000000004
 20
-4.7224200000000005
 30
0.0
 10
3.6628200000000004
 20
-4.7224200000000005
 30
0.0
 10
3.2361000000000004
 20
-5.4437800000000003
 30
0.0
 10
2.3801200000000002
 20
-5.4666400000000008
 30
0.0
 10
1.8518000000000001
 20
-6.0940200000000004
 30
0.0
 10
1.8518000000000001
 20
-6.0940200000000004
 30
0.0
 10
1.8441800000000002
 20
-5.7943000000000007
 30
0.0
 10
2.7331800000000004
 20
-5.2659800000000008
 30
0.0
 10
2.4055200000000001
 20
-5.2380400000000007
 30
0.0
 10
2.4055200000000001
 20
-5.2380400000000007
 30
0.0
 10
1.9076800000000003
 20
-4.7783000000000007
 30
0.0
 10
1.7883000000000002
 20
-5.6927000000000003
 30
0.0
 10
1.5368400000000002
 20
-5.9644800000000009
 30
0.0
 10
1.5368400000000002
 20
-5.9644800000000009
 30
0.0
 10
1.4657200000000001
 20
-5.6012600000000008
 30
0.0
 10
2.1820000000000004
 20
-4.6944800000000004
 30
0.0
 10
1.39968
 20
-4.9942000000000002
 30
0.0
 10
1.39968
 20
-4.9942000000000002
 30
0.0
 10
1.31332
 20
-5.4869600000000007
 30
0.0
 10
1.06948
 20
-5.8628800000000005
 30
0.0
 10
1.2168000000000001
 20
-5.1237400000000006
 30
0.0
 10
1.2168000000000001
 20
-5.1237400000000006
 30
0.0
 10
1.02122
 20
-4.7071800000000001
 30
0.0
 10
1.0339200000000002
 20
-5.5047400000000009
 30
0.0
 10
1.05932
 20
-5.7257200000000008
 30
0.0
 10
1.05932
 20
-5.7257200000000008
 30
0.0
 10
1.1380600000000001
 20
-6.0102000000000002
 30
0.0
 10
1.4327000000000001
 20
-6.9271400000000005
 30
0.0
 10
1.0847200000000001
 20
-6.2438800000000008
 30
0.0
 10
1.0847200000000001
 20
-6.2438800000000008
 30
0.0
 10
0.9196200000000001
 20
-5.7663600000000006
 30
0.0
 10
0.33288
 20
-5.3193200000000003
 30
0.0
 10
0.64276
 20
-4.7275
 30
0.0
 10
0.64276
 20
-4.7275
 30
0.0
 10
1.2980800000000001
 20
-4.44048
 30
0.0
 10
1.40222
 20
-3.4473400000000001
 30
0.0
 10
0.7926200000000001
 20
-3.0180800000000003
 30
0.0
 10
0.7926200000000001
 20
-3.0180800000000003
 30
0.0
 10
0.6859400000000001
 20
-3.0892000000000004
 30
0.0
 10
0.74436
 20
-3.2466800000000005
 30
0.0
 10
0.7291200000000001
 20
-3.3609800000000001
 30
0.0
 10
0.7291200000000001
 20
-3.3609800000000001
 30
0.0
 10
0.83072
 20
-3.6759400000000002
 30
0.0
 10
0.74436
 20
-4.8087800000000005
 30
0.0
 10
0.57164
 20
-4.4938200000000004
 30
0.0
 10
0.57164
 20
-4.4938200000000004
 30
0.0
 10
0.531
 20
-4.2779199999999999
 30
0.0
 10
0.48528
 20
-4.7783000000000007
 30
0.0
 10
0.4294000000000001
 20
-4.5497000000000005
 30
0.0
 10
0.4294000000000001
 20
-4.5497000000000005
 30
0.0
 10
0.4167
 20
-4.5370000000000008
 30
0.0
 10
0.4167
 20
-4.4938200000000004
 30
0.0
 10
0.3913
 20
-4.5065200000000001
 30
0.0
 10
0.3913
 20
-4.5065200000000001
 30
0.0
 10
0.15508
 20
-4.9434000000000005
 30
0.0
 10
-0.32751
 20
-4.9535600000000004
 30
0.0
 10
-0.5815100000000001
 20
-4.39222
 30
0.0
 10
-0.5815100000000001
 20
-4.39222
 30
0.0
 10
-0.6450100000000001
 20
-4.4938200000000004
 30
0.0
 10
-0.53579
 20
-4.6335200000000007
 30
0.0
 10
-0.52563
 20
-4.7275
 30
0.0
 10
-0.52563
 20
-4.7275
 30
0.0
 10
-0.45197
 20
-5.3752000000000004
 30
0.0
 10
-0.7694700000000001
 20
-6.0305200000000001
 30
0.0
 10
-1.0590300000000001
 20
-6.6706000000000003
 30
0.0
 10
-1.0590300000000001
 20
-6.6706000000000003
 30
0.0
 10
-1.08951
 20
-6.2438800000000008
 30
0.0
 10
-0.8380500000000001
 20
-5.8171600000000003
 30
0.0
 10
-0.9142500000000001
 20
-5.3802800000000008
 30
0.0
 10
-0.9142500000000001
 20
-5.3802800000000008
 30
0.0
 10
-0.9218700000000001
 20
-5.1085000000000003
 30
0.0
 10
-1.33589
 20
-5.0805600000000002
 30
0.0
 10
-1.1326900000000002
 20
-5.3955200000000003
 30
0.0
 10
-1.1326900000000002
 20
-5.3955200000000003
 30
0.0
 10
-1.2266700000000001
 20
-5.3777400000000002
 30
0.0
 10
-1.2673100000000002
 20
-5.3040800000000008
 30
0.0
 10
-1.29525
 20
-5.2431200000000002
 30
0.0
 10
-1.29525
 20
-5.2431200000000002
 30
0.0
 10
-1.3587500000000001
 20
-5.1059600000000005
 30
0.0
 10
-1.5136900000000002
 20
-5.1948600000000003
 30
0.0
 10
-1.6991100000000001
 20
-5.1948600000000003
 30
0.0
 10
-1.6991100000000001
 20
-5.1948600000000003
 30
0.0
 10
-2.3239500000000004
 20
-5.0958000000000006
 30
0.0
 10
-0.9904500000000001
 20
-6.2489600000000003
 30
0.0
 10
-1.6330700000000002
 20
-5.7993800000000002
 30
0.0
 10
-1.6330700000000002
 20
-5.7993800000000002
 30
0.0
 10
-1.6330700000000002
 20
-5.7993800000000002
 30
0.0
 10
-1.8286500000000001
 20
-5.6063400000000003
 30
0.0
 10
-1.8286500000000001
 20
-5.6063400000000003
 30
0.0
 10
-1.8286500000000001
 20
-5.6063400000000003
 30
0.0
 10
-2.1486900000000002
 20
-5.1516800000000007
 30
0.0
 10
-2.6643100000000004
 20
-5.4615600000000004
 30
0.0
 10
-2.0724900000000002
 20
-5.7790600000000003
 30
0.0
 10
-2.0724900000000002
 20
-5.7790600000000003
 30
0.0
 10
-1.9200900000000001
 20
-5.9111400000000005
 30
0.0
 10
-1.7422900000000001
 20
-6.0584600000000002
 30
0.0
 10
-1.6330700000000002
 20
-6.2083200000000005
 30
0.0
 10
-1.6330700000000002
 20
-6.2083200000000005
 30
0.0
 10
-2.19441
 20
-5.8349400000000005
 30
0.0
 10
-3.0046700000000004
 20
-5.6901600000000006
 30
0.0
 10
-3.3856700000000002
 20
-5.1720000000000006
 30
0.0
 10
-3.3856700000000002
 20
-5.1720000000000006
 30
0.0
 10
-3.5710900000000003
 20
-4.9180000000000001
 30
0.0
 10
-3.6523700000000003
 20
-4.4963600000000001
 30
0.0
 10
-3.5507700000000004
 20
-4.0645600000000002
 30
0.0
 10
-3.5507700000000004
 20
-4.0645600000000002
 30
0.0
 10
-3.5507700000000004
 20
-4.0645600000000002
 30
0.0
 10
-3.7463500000000005
 20
-3.7343600000000001
 30
0.0
 10
-3.7463500000000005
 20
-3.7343600000000001
 30
0.0
 10
-3.7463500000000005
 20
-3.7343600000000001
 30
0.0
 10
-3.5939500000000004
 20
-3.7191200000000002
 30
0.0
 10
-3.3170900000000003
 20
-3.9782000000000002
 30
0.0
 10
-3.3653500000000003
 20
-3.6327600000000002
 30
0.0
 10
-3.3653500000000003
 20
-3.6327600000000002
 30
0.0
 10
-3.5152100000000002
 20
-3.2746200000000001
 30
0.0
 10
-3.8022300000000002
 20
-2.9317200000000003
 30
0.0
 10
-3.6955500000000003
 20
-2.5024600000000001
 30
0.0
 10
-3.6955500000000003
 20
-2.5024600000000001
 30
0.0
 10
-3.6142700000000003
 20
-2.0859000000000001
 30
0.0
 10
-3.4618700000000002
 20
-1.6845800000000002
 30
0.0
 10
-3.5558500000000004
 20
-1.2426200000000001
 30
0.0
 10
-3.5558500000000004
 20
-1.2426200000000001
 30
0.0
 10
-3.5660100000000003
 20
-1.0546600000000002
 30
0.0
 10
-3.8987500000000002
 20
-0.38156
 30
0.0
 10
-3.5964900000000002
 20
-0.7981200000000001
 30
0.0
 10
-3.5964900000000002
 20
-0.7981200000000001
 30
0.0
 10
-2.8929100000000001
 20
-1.4559800000000001
 30
0.0
 10
-3.6168100000000001
 20
-2.5177
 30
0.0
 10
-3.2104100000000004
 20
-3.1323800000000004
 30
0.0
 10
-3.2104100000000004
 20
-3.1323800000000004
 30
0.0
 10
-3.0554700000000001
 20
-3.0028400000000004
 30
0.0
 10
-3.3958300000000001
 20
-2.6726400000000003
 30
0.0
 10
-3.1951700000000001
 20
-2.6878800000000003
 30
0.0
 10
-3.1951700000000001
 20
-2.6878800000000003
 30
0.0
 10
-2.5500100000000003
 20
-3.8766000000000003
 30
0.0
 10
-3.0351500000000002
 20
-2.5583400000000003
 30
0.0
 10
-2.5804900000000002
 20
-2.01478
 30
0.0
 10
-2.5804900000000002
 20
-2.01478
 30
0.0
 10
-2.3366500000000001
 20
-1.7709400000000002
 30
0.0
 10
-2.2604500000000001
 20
-1.9131800000000001
 30
0.0
 10
-2.5068300000000003
 20
-2.1163800000000004
 30
0.0
 10
-2.5068300000000003
 20
-2.1163800000000004
 30
0.0
 10
-2.5068300000000003
 20
-2.1163800000000004
 30
0.0
 10
-2.5804900000000002
 20
-2.2433800000000002
 30
0.0
 10
-2.5804900000000002
 20
-2.2433800000000002
 30
0.0
 10
-2.5804900000000002
 20
-2.2433800000000002
 30
0.0
 10
-2.6566900000000002
 20
-2.3018000000000001
 30
0.0
 10
-2.6820900000000001
 20
-2.5888200000000001
 30
0.0
 10
-2.5576300000000001
 20
-2.4288000000000003
 30
0.0
 10
-2.5576300000000001
 20
-2.4288000000000003
 30
0.0
 10
-2.5220700000000003
 20
-2.23068
 30
0.0
 10
-2.4179300000000001
 20
-2.2865600000000001
 30
0.0
 10
-2.4611100000000001
 20
-2.4719800000000003
 30
0.0
 10
-2.4611100000000001
 20
-2.4719800000000003
 30
0.0
 10
-2.8319500000000004
 20
-2.9749000000000003
 30
0.0
 10
-2.3747500000000001
 20
-3.0612600000000003
 30
0.0
 10
-2.1486900000000002
 20
-3.3889200000000002
 30
0.0
 10
-2.1486900000000002
 20
-3.3889200000000002
 30
0.0
 10
-1.9454900000000002
 20
-3.2035000000000005
 30
0.0
 10
-2.1105900000000002
 20
-2.8301200000000004
 30
0.0
 10
-1.8642100000000001
 20
-2.7031200000000002
 30
0.0
 10
-1.8642100000000001
 20
-2.7031200000000002
 30
0.0
 10
-1.9124700000000001
 20
-2.9037800000000002
 30
0.0
 10
-1.9937500000000001
 20
-3.4041600000000001
 30
0.0
 10
-1.7346700000000002
 20
-3.3889200000000002
 30
0.0
 10
-1.7346700000000002
 20
-3.3889200000000002
 30
0.0
 10
-1.2165100000000002
 20
-2.6878800000000003
 30
0.0
 10
-2.4636500000000003
 20
-2.2154400000000001
 30
0.0
 10
-1.8311900000000001
 20
-1.6287
 30
0.0
 10
-1.8311900000000001
 20
-1.6287
 30
0.0
 10
-1.8235700000000001
 20
-1.6845800000000002
 30
0.0
 10
-1.92517
 20
-1.8293600000000001
 30
0.0
 10
-1.7753100000000002
 20
-1.8293600000000001
 30
0.0
 10
-1.7753100000000002
 20
-1.8293600000000001
 30
0.0
 10
-1.6965700000000001
 20
-1.7988800000000003
 30
0.0
 10
-1.7067300000000001
 20
-1.7150600000000003
 30
0.0
 10
-1.7219700000000002
 20
-1.6414000000000002
 30
0.0
 10
-1.7219700000000002
 20
-1.6414000000000002
 30
0.0
 10
-2.5017500000000004
 20
-1.2426200000000001
 30
0.0
 10
-2.31887
 20
-0.4247400000000001
 30
0.0
 10
-2.36205
 20
0.26105
 30
0.0
 10
-2.36205
 20
0.26105
 30
0.0
 10
-2.05471
 20
0.04515
 30
0.0
 10
-2.1690100000000001
 20
-1.1537200000000001
 30
0.0
 10
-1.7854700000000001
 20
-0.7676400000000001
 30
0.0
 10
-1.7854700000000001
 20
-0.7676400000000001
 30
0.0
 10
-1.7473700000000001
 20
-0.7320800000000001
 30
0.0
 10
-1.7321300000000002
 20
-0.6635000000000001
 30
0.0
 10
-1.7321300000000002
 20
-0.56698
 30
0.0
 10
-1.7321300000000002
 20
-0.56698
 30
0.0
 10
-2.14107
 20
0.23057
 30
0.0
 10
-2.06487
 20
1.2922900000000002
 30
0.0
 10
-1.9073900000000001
 20
2.1508100000000003
 30
0.0
 10
-1.9073900000000001
 20
2.1508100000000003
 30
0.0
 10
-1.9073900000000001
 20
2.1508100000000003
 30
0.0
 10
-1.6889500000000002
 20
0.6903100000000001
 30
0.0
 10
-1.6889500000000002
 20
0.6903100000000001
 30
0.0
 10
-1.6889500000000002
 20
0.6903100000000001
 30
0.0
 10
-1.3409700000000002
 20
1.3786500000000002
 30
0.0
 10
-1.6686300000000001
 20
2.4530700000000003
 30
0.0
 10
-1.5746500000000001
 20
3.2557100000000001
 30
0.0
 10
-1.5746500000000001
 20
3.2557100000000001
 30
0.0
 10
-1.2571500000000002
 20
2.68167
 30
0.0
 10
-1.5187700000000002
 20
2.2524100000000002
 30
0.0
 10
-1.1885700000000001
 20
1.9222100000000002
 30
0.0
 10
-1.1885700000000001
 20
1.9222100000000002
 30
0.0
 10
-0.6424700000000001
 20
2.3387700000000002
 30
0.0
 10
-1.3562100000000001
 20
3.3268300000000002
 30
0.0
 10
-1.1784100000000002
 20
3.9440500000000003
 30
0.0
 10
-1.1784100000000002
 20
3.9440500000000003
 30
0.0
 10
-0.95235
 20
3.1769700000000003
 30
0.0
 10
-0.91171
 20
3.2252300000000003
 30
0.0
 10
-0.7466100000000001
 20
3.0829900000000001
 30
0.0
 10
-0.7466100000000001
 20
3.0829900000000001
 30
0.0
 10
-1.00569
 20
4.2564700000000002
 30
0.0
 10
-0.55357
 20
5.47567
 30
0.0
 10
-0.6424700000000001
 20
6.6643900000000009
 30
0.0
  0
SPLINE
  5
26
100
AcDbEntity
  8
Ebene 1
 62
     7
100
AcDbSpline
210
0.0
220
0.0
230
1.0
 70
     1
 71
     3
 72
   120
 73
   116
 74
     0
 42
0.0000000001
 43
0.0000000001
 40
0.0
 40
0.0
 40
0.0
 40
0.0
 40
0.0344827586206897
 40
0.0344827586206897
 40
0.0344827586206897
 40
0.0344827586206897
 40
0.0689655172413793
 40
0.0689655172413793
 40
0.0689655172413793
 40
0.0689655172413793
 40
0.103448275862069
 40
0.103448275862069
 40
0.103448275862069
 40
0.103448275862069
 40
0.1379310344827586
 40
0.1379310344827586
 40
0.1379310344827586
 40
0.1379310344827586
 40
0.1724137931034483
 40
0.1724137931034483
 40
0.1724137931034483
 40
0.1724137931034483
 40
0.206896551724138
 40
0.206896551724138
 40
0.206896551724138
 40
0.206896551724138
 40
0.2413793103448276
 40
0.2413793103448276
 40
0.2413793103448276
 40
0.2413793103448276
 40
0.2758620689655173
 40
0.2758620689655173
 40
0.2758620689655173
 40
0.2758620689655173
 40
0.310344827586207
 40
0.310344827586207
 40
0.310344827586207
 40
0.310344827586207
 40
0.3448275862068966
 40
0.3448275862068966
 40
0.3448275862068966
 40
0.3448275862068966
 40
0.3793103448275863
 40
0.3793103448275863
 40
0.3793103448275863
 40
0.3793103448275863
 40
0.413793103448276
 40
0.413793103448276
 40
0.413793103448276
 40
0.413793103448276
 40
0.4482758620689656
 40
0.4482758620689656
 40
0.4482758620689656
 40
0.4482758620689656
 40
0.4827586206896553
 40
0.4827586206896553
 40
0.4827586206896553
 40
0.4827586206896553
 40
0.517241379310345
 40
0.517241379310345
 40
0.517241379310345
 40
0.517241379310345
 40
0.5517241379310346
 40
0.5517241379310346
 40
0.5517241379310346
 40
0.5517241379310346
 40
0.5862068965517242
 40
0.5862068965517242
 40
0.5862068965517242
 40
0.5862068965517242
 40
0.6206896551724138
 40
0.6206896551724138
 40
0.6206896551724138
 40
0.6206896551724138
 40
0.6551724137931034
 40
0.6551724137931034
 40
0.6551724137931034
 40
0.6551724137931034
 40
0.689655172413793
 40
0.689655172413793
 40
0.689655172413793
 40
0.689655172413793
 40
0.7241379310344827
 40
0.7241379310344827
 40
0.7241379310344827
 40
0.7241379310344827
 40
0.7586206896551723
 40
0.7586206896551723
 40
0.7586206896551723
 40
0.7586206896551723
 40
0.7931034482758619
 40
0.7931034482758619
 40
0.7931034482758619
 40
0.7931034482758619
 40
0.8275862068965515
 40
0.8275862068965515
 40
0.8275862068965515
 40
0.8275862068965515
 40
0.8620689655172411
 40
0.8620689655172411
 40
0.8620689655172411
 40
0.8620689655172411
 40
0.8965517241379307
 40
0.8965517241379307
 40
0.8965517241379307
 40
0.8965517241379307
 40
0.9310344827586203
 40
0.9310344827586203
 40
0.9310344827586203
 40
0.9310344827586203
 40
0.9655172413793099
 40
0.9655172413793099
 40
0.9655172413793099
 40
0.9655172413793099
 40
1.0
 40
1.0
 40
1.0
 40
1.0
 10
-1.1860300000000001
 20
-0.6660400000000001
 30
0.0
 10
-1.20381
 20
-0.7270000000000001
 30
0.0
 10
-1.2215900000000002
 20
-0.8108200000000001
 30
0.0
 10
-1.2342900000000001
 20
-0.8667
 30
0.0
 10
-1.2342900000000001
 20
-0.8667
 30
0.0
 10
-1.2419100000000001
 20
-0.9530600000000001
 30
0.0
 10
-1.24953
 20
-1.0826
 30
0.0
 10
-1.3409700000000002
 20
-1.0978400000000001
 30
0.0
 10
-1.3409700000000002
 20
-1.0978400000000001
 30
0.0
 10
-1.2165100000000002
 20
-0.7346200000000001
 30
0.0
 10
-1.3003300000000002
 20
-0.3206000000000001
 30
0.0
 10
-1.3460500000000002
 20
0.06039
 30
0.0
 10
-1.3460500000000002
 20
0.06039
 30
0.0
 10
-1.3536700000000002
 20
0.13151
 30
0.0
 10
-1.3917700000000002
 20
0.39567
 30
0.0
 10
-1.3257300000000001
 20
0.26105
 30
0.0
 10
-1.3257300000000001
 20
0.26105
 30
0.0
 10
-1.3257300000000001
 20
0.26105
 30
0.0
 10
-1.2622300000000002
 20
0.07309
 30
0.0
 10
-1.2622300000000002
 20
0.07309
 30
0.0
 10
-1.2622300000000002
 20
0.07309
 30
0.0
 10
-1.2292100000000001
 20
-0.07676
 30
0.0
 10
-1.13015
 20
-0.04374
 30
0.0
 10
-1.08951
 20
0.01721
 30
0.0
 10
-1.08951
 20
0.01721
 30
0.0
 10
-0.9675900000000001
 20
0.35503
 30
0.0
 10
-0.74407
 20
0.7284100000000001
 30
0.0
 10
-0.8507500000000001
 20
1.10687
 30
0.0
 10
-0.8507500000000001
 20
1.10687
 30
0.0
 10
-0.86599
 20
1.1627500000000002
 30
0.0
 10
-1.00061
 20
1.3938900000000001
 30
0.0
 10
-0.91171
 20
1.32023
 30
0.0
 10
-0.91171
 20
1.32023
 30
0.0
 10
-0.8151900000000001
 20
1.1627500000000002
 30
0.0
 10
-0.56881
 20
0.9062100000000001
 30
0.0
 10
-0.45705
 20
1.2211700000000001
 30
0.0
 10
-0.45705
 20
1.2211700000000001
 30
0.0
 10
-0.46467
 20
1.5488300000000002
 30
0.0
 10
-0.55357
 20
1.8637900000000001
 30
0.0
 10
-0.4392700000000001
 20
2.1812900000000002
 30
0.0
 10
-0.4392700000000001
 20
2.1812900000000002
 30
0.0
 10
-0.49515
 20
1.9374500000000001
 30
0.0
 10
-0.29195
 20
1.2643500000000001
 30
0.0
 10
-0.10145
 20
1.7926700000000002
 30
0.0
 10
-0.10145
 20
1.7926700000000002
 30
0.0
 10
0.03062
 20
1.5793100000000002
 30
0.0
 10
-0.17765
 20
1.3354700000000002
 30
0.0
 10
-0.06589
 20
1.10433
 30
0.0
 10
-0.06589
 20
1.10433
 30
0.0
 10
0.23636
 20
0.84779
 30
0.0
 10
0.31002
 20
1.3786500000000002
 30
0.0
 10
0.26938
 20
1.5793100000000002
 30
0.0
 10
0.26938
 20
1.5793100000000002
 30
0.0
 10
0.42432
 20
1.2922900000000002
 30
0.0
 10
0.28208
 20
0.97733
 30
0.0
 10
0.31764
 20
0.6776100000000001
 30
0.0
 10
0.31764
 20
0.6776100000000001
 30
0.0
 10
0.39638
 20
0.4312300000000001
 30
0.0
 10
0.67832
 20
0.53283
 30
0.0
 10
0.6707000000000001
 20
0.7614300000000001
 30
0.0
 10
0.6707000000000001
 20
0.7614300000000001
 30
0.0
 10
0.8408800000000001
 20
0.5048900000000001
 30
0.0
 10
0.74436
 20
0.18739
 30
0.0
 10
0.78754
 20
-0.09454
 30
0.0
 10
0.78754
 20
-0.09454
 30
0.0
 10
0.8027800000000001
 20
-0.16566
 30
0.0
 10
0.85104
 20
-0.21138
 30
0.0
 10
0.8866000000000001
 20
-0.26726
 30
0.0
 10
0.8866000000000001
 20
-0.26726
 30
0.0
 10
0.9882000000000001
 20
-0.2825
 30
0.0
 10
1.0466200000000001
 20
-0.1809
 30
0.0
 10
1.0847200000000001
 20
-0.10978
 30
0.0
 10
1.0847200000000001
 20
-0.10978
 30
0.0
 10
1.2295
 20
-0.38156
 30
0.0
 10
1.2472800000000002
 20
-0.7981200000000001
 30
0.0
 10
1.0339200000000002
 20
-1.0267200000000001
 30
0.0
 10
1.0339200000000002
 20
-1.0267200000000001
 30
0.0
 10
1.0339200000000002
 20
-0.9251200000000001
 30
0.0
 10
1.0110600000000001
 20
-0.8413000000000001
 30
0.0
 10
0.9882000000000001
 20
-0.7549400000000001
 30
0.0
 10
0.9882000000000001
 20
-0.7549400000000001
 30
0.0
 10
0.9755
 20
-0.7117600000000001
 30
0.0
 10
0.9628000000000001
 20
-0.5238
 30
0.0
 10
0.8866000000000001
 20
-0.5974600000000001
 30
0.0
 10
0.8866000000000001
 20
-0.5974600000000001
 30
0.0
 10
0.89168
 20
-0.9124200000000001
 30
0.0
 10
1.0542400000000001
 20
-1.2832600000000001
 30
0.0
 10
0.8205600000000001
 20
-1.5118600000000002
 30
0.0
 10
0.8205600000000001
 20
-1.5118600000000002
 30
0.0
 10
0.8027800000000001
 20
-1.4712200000000002
 30
0.0
 10
0.8789800000000001
 20
-1.4128000000000001
 30
0.0
 10
0.83072
 20
-1.3696200000000001
 30
0.0
 10
0.83072
 20
-1.3696200000000001
 30
0.0
 10
0.83072
 20
-1.3696200000000001
 30
0.0
 10
0.7469
 20
-1.4280400000000002
 30
0.0
 10
0.7469
 20
-1.4280400000000002
 30
0.0
 10
0.7469
 20
-1.4280400000000002
 30
0.0
 10
0.6529200000000001
 20
-1.6414000000000002
 30
0.0
 10
0.4522600000000001
 20
-1.9004800000000002
 30
0.0
 10
0.19826
 20
-1.9004800000000002
 30
0.0
 10
0.19826
 20
-1.9004800000000002
 30
0.0
 10
0.06872
 20
-1.8141200000000002
 30
0.0
 10
-0.13701
 20
-1.8141200000000002
 30
0.0
 10
-0.15479
 20
-1.6414000000000002
 30
0.0
 10
-0.15479
 20
-1.6414000000000002
 30
0.0
 10
-0.46467
 20
-2.2154400000000001
 30
0.0
 10
-1.0209300000000001
 20
-1.6287
 30
0.0
 10
-1.3130300000000001
 20
-1.49916
 30
0.0
 10
-1.3130300000000001
 20
-1.49916
 30
0.0
 10
-1.25461
 20
-1.2756400000000001
 30
0.0
 10
-1.16571
 20
-1.00132
 30
0.0
 10
-1.1403100000000002
 20
-0.7270000000000001
 30
0.0
 10
-1.1403100000000002
 20
-0.7270000000000001
 30
0.0
 10
-1.12253
 20
-0.55174
 30
0.0
 10
-1.1098300000000001
 20
-0.43236
 30
0.0
 10
-1.1860300000000001
 20
-0.6660400000000001
 30
0.0
  0
SPLINE
  5
27
100
AcDbEntity
  8
Ebene 1
100
AcDbSpline
210
0.0
220
0.0
230
1.0
 70
     1
 71
     3
 72
    28
 73
    24
 74
     0
 42
0.0000000001
 43
0.0000000001
 40
0.0
 40
0.0
 40
0.0
 40
0.0
 40
0.1666666666666667
 40
0.1666666666666667
 40
0.1666666666666667
 40
0.1666666666666667
 40
0.3333333333333333
 40
0.3333333333333333
 40
0.3333333333333333
 40
0.3333333333333333
 40
0.5
 40
0.5
 40
0.5
 40
0.5
 40
0.6666666666666666
 40
0.6666666666666666
 40
0.6666666666666666
 40
0.6666666666666666
 40
0.8333333333333333
 40
0.8333333333333333
 40
0.8333333333333333
 40
0.8333333333333333
 40
1.0
 40
1.0
 40
1.0
 40
1.0
 10
-0.8736100000000001
 20
-0.82606
 30
0.0
 10
-0.8532900000000001
 20
-0.82606
 30
0.0
 10
-0.8304300000000001
 20
-0.82606
 30
0.0
 10
-0.8177300000000001
 20
-0.8413000000000001
 30
0.0
 10
-0.8177300000000001
 20
-0.8413000000000001
 30
0.0
 10
-0.73899
 20
-1.0546600000000002
 30
0.0
 10
-0.44689
 20
-0.9962400000000001
 30
0.0
 10
-0.30973
 20
-1.16896
 30
0.0
 10
-0.30973
 20
-1.16896
 30
0.0
 10
-0.30973
 20
-1.16896
 30
0.0
 10
-0.24369
 20
-1.16896
 30
0.0
 10
-0.24369
 20
-1.16896
 30
0.0
 10
-0.24369
 20
-1.16896
 30
0.0
 10
-0.24369
 20
-1.16896
 30
0.0
 10
-0.20305
 20
-1.4559800000000001
 30
0.0
 10
-0.20305
 20
-1.4559800000000001
 30
0.0
 10
-0.20305
 20
-1.4559800000000001
 30
0.0
 10
-0.29957
 20
-1.3848600000000002
 30
0.0
 10
-0.42403
 20
-1.3137400000000001
 30
0.0
 10
-0.48753
 20
-1.1842000000000001
 30
0.0
 10
-0.48753
 20
-1.1842000000000001
 30
0.0
 10
-0.65263
 20
-1.12578
 30
0.0
 10
-0.8380500000000001
 20
-1.0267200000000001
 30
0.0
 10
-0.8736100000000001
 20
-0.82606
 30
0.0
  0
SPLINE
  5
28
100
AcDbEntity
  8
Ebene 1
100
AcDbSpline
210
0.0
220
0.0
230
1.0
 70
     1
 71
     3
 72
    24
 73
    20
 74
     0
 42
0.0000000001
 43
0.0000000001
 40
0.0
 40
0.0
 40
0.0
 40
0.0
 40
0.2
 40
0.2
 40
0.2
 40
0.2
 40
0.4
 40
0.4
 40
0.4
 40
0.4
 40
0.6000000000000001
 40
0.6000000000000001
 40
0.6000000000000001
 40
0.6000000000000001
 40
0.8
 40
0.8
 40
0.8
 40
0.8
 40
1.0
 40
1.0
 40
1.0
 40
1.0
 10
0.5564
 20
-0.8971800000000001
 30
0.0
 10
0.5818000000000001
 20
-0.8971800000000001
 30
0.0
 10
0.6072000000000001
 20
-0.9124200000000001
 30
0.0
 10
0.59958
 20
-0.9403600000000001
 30
0.0
 10
0.59958
 20
-0.9403600000000001
 30
0.0
 10
0.4167
 20
-1.0978400000000001
 30
0.0
 10
0.1881
 20
-1.21214
 30
0.0
 10
-0.03795
 20
-1.2832600000000001
 30
0.0
 10
-0.03795
 20
-1.2832600000000001
 30
0.0
 10
-0.06843
 20
-1.3264400000000001
 30
0.0
 10
-0.07605
 20
-1.4280400000000002
 30
0.0
 10
-0.13701
 20
-1.4280400000000002
 30
0.0
 10
-0.13701
 20
-1.4280400000000002
 30
0.0
 10
-0.20305
 20
-1.3264400000000001
 30
0.0
 10
-0.09637
 20
-1.21214
 30
0.0
 10
-0.05065
 20
-1.12578
 30
0.0
 10
-0.05065
 20
-1.12578
 30
0.0
 10
0.15508
 20
-1.12578
 30
0.0
 10
0.38622
 20
-1.0267200000000001
 30
0.0
 10
0.5564
 20
-0.8971800000000001
 30
0.0
  0
SPLINE
  5
29
100
AcDbEntity
  8
Ebene 1
 62
     7
100
AcDbSpline
210
0.0
220
0.0
230
1.0
 70
     1
 71
     3
 72
   156
 73
   152
 74
     0
 42
0.0000000001
 43
0.0000000001
 40
0.0
 40
0.0
 40
0.0
 40
0.0
 40
0.0263157894736842
 40
0.0263157894736842
 40
0.0263157894736842
 40
0.0263157894736842
 40
0.0526315789473684
 40
0.0526315789473684
 40
0.0526315789473684
 40
0.0526315789473684
 40
0.0789473684210526
 40
0.0789473684210526
 40
0.0789473684210526
 40
0.0789473684210526
 40
0.1052631578947368
 40
0.1052631578947368
 40
0.1052631578947368
 40
0.1052631578947368
 40
0.1315789473684211
 40
0.1315789473684211
 40
0.1315789473684211
 40
0.1315789473684211
 40
0.1578947368421053
 40
0.1578947368421053
 40
0.1578947368421053
 40
0.1578947368421053
 40
0.1842105263157895
 40
0.1842105263157895
 40
0.1842105263157895
 40
0.1842105263157895
 40
0.2105263157894737
 40
0.2105263157894737
 40
0.2105263157894737
 40
0.2105263157894737
 40
0.2368421052631579
 40
0.2368421052631579
 40
0.2368421052631579
 40
0.2368421052631579
 40
0.2631578947368421
 40
0.2631578947368421
 40
0.2631578947368421
 40
0.2631578947368421
 40
0.2894736842105263
 40
0.2894736842105263
 40
0.2894736842105263
 40
0.2894736842105263
 40
0.3157894736842105
 40
0.3157894736842105
 40
0.3157894736842105
 40
0.3157894736842105
 40
0.3421052631578947
 40
0.3421052631578947
 40
0.3421052631578947
 40
0.3421052631578947
 40
0.3684210526315789
 40
0.3684210526315789
 40
0.3684210526315789
 40
0.3684210526315789
 40
0.3947368421052631
 40
0.3947368421052631
 40
0.3947368421052631
 40
0.3947368421052631
 40
0.4210526315789472
 40
0.4210526315789472
 40
0.4210526315789472
 40
0.4210526315789472
 40
0.4473684210526314
 40
0.4473684210526314
 40
0.4473684210526314
 40
0.4473684210526314
 40
0.4736842105263156
 40
0.4736842105263156
 40
0.4736842105263156
 40
0.4736842105263156
 40
0.4999999999999998
 40
0.4999999999999998
 40
0.4999999999999998
 40
0.4999999999999998
 40
0.526315789473684
 40
0.526315789473684
 40
0.526315789473684
 40
0.526315789473684
 40
0.5526315789473681
 40
0.5526315789473681
 40
0.5526315789473681
 40
0.5526315789473681
 40
0.5789473684210523
 40
0.5789473684210523
 40
0.5789473684210523
 40
0.5789473684210523
 40
0.6052631578947365
 40
0.6052631578947365
 40
0.6052631578947365
 40
0.6052631578947365
 40
0.6315789473684207
 40
0.6315789473684207
 40
0.6315789473684207
 40
0.6315789473684207
 40
0.6578947368421049
 40
0.6578947368421049
 40
0.6578947368421049
 40
0.6578947368421049
 40
0.6842105263157891
 40
0.6842105263157891
 40
0.6842105263157891
 40
0.6842105263157891
 40
0.7105263157894732
 40
0.7105263157894732
 40
0.7105263157894732
 40
0.7105263157894732
 40
0.7368421052631574
 40
0.7368421052631574
 40
0.7368421052631574
 40
0.7368421052631574
 40
0.7631578947368416
 40
0.7631578947368416
 40
0.7631578947368416
 40
0.7631578947368416
 40
0.7894736842105258
 40
0.7894736842105258
 40
0.7894736842105258
 40
0.7894736842105258
 40
0.81578947368421
 40
0.81578947368421
 40
0.81578947368421
 40
0.81578947368421
 40
0.8421052631578941
 40
0.8421052631578941
 40
0.8421052631578941
 40
0.8421052631578941
 40
0.8684210526315783
 40
0.8684210526315783
 40
0.8684210526315783
 40
0.8684210526315783
 40
0.8947368421052625
 40
0.8947368421052625
 40
0.8947368421052625
 40
0.8947368421052625
 40
0.9210526315789467
 40
0.9210526315789467
 40
0.9210526315789467
 40
0.9210526315789467
 40
0.9473684210526309
 40
0.9473684210526309
 40
0.9473684210526309
 40
0.9473684210526309
 40
0.973684210526315
 40
0.973684210526315
 40
0.973684210526315
 40
0.973684210526315
 40
1.0
 40
1.0
 40
1.0
 40
1.0
 10
1.1583800000000002
 20
-1.4407400000000001
 30
0.0
 10
1.2523600000000001
 20
-1.7430000000000001
 30
0.0
 10
1.5978000000000001
 20
-1.9131800000000001
 30
0.0
 10
1.7019400000000002
 20
-2.2154400000000001
 30
0.0
 10
1.7019400000000002
 20
-2.2154400000000001
 30
0.0
 10
1.6232000000000002
 20
-2.5024600000000001
 30
0.0
 10
1.2574400000000001
 20
-2.5456400000000001
 30
0.0
 10
1.0771000000000002
 20
-2.7590000000000003
 30
0.0
 10
1.0771000000000002
 20
-2.7590000000000003
 30
0.0
 10
1.5038200000000002
 20
-2.6167600000000002
 30
0.0
 10
0.9628000000000001
 20
-3.2466800000000005
 30
0.0
 10
0.7596000000000001
 20
-2.8606000000000003
 30
0.0
 10
0.7596000000000001
 20
-2.8606000000000003
 30
0.0
 10
0.70372
 20
-2.8606000000000003
 30
0.0
 10
0.6478400000000001
 20
-2.8606000000000003
 30
0.0
 10
0.6199
 20
-2.9037800000000002
 30
0.0
 10
0.6199
 20
-2.9037800000000002
 30
0.0
 10
0.4395600000000001
 20
-3.2187400000000004
 30
0.0
 10
0.48782
 20
-3.6022800000000004
 30
0.0
 10
0.48782
 20
-3.9731200000000002
 30
0.0
 10
0.48782
 20
-3.9731200000000002
 30
0.0
 10
0.48782
 20
-3.9731200000000002
 30
0.0
 10
0.43702
 20
-3.8816800000000002
 30
0.0
 10
0.43702
 20
-3.8816800000000002
 30
0.0
 10
0.43702
 20
-3.8816800000000002
 30
0.0
 10
0.35828
 20
-4.1102800000000004
 30
0.0
 10
0.3405
 20
-4.0061400000000003
 30
0.0
 10
0.3278
 20
-3.8207200000000001
 30
0.0
 10
0.3278
 20
-3.8207200000000001
 30
0.0
 10
0.23636
 20
-3.9274000000000004
 30
0.0
 10
0.29224
 20
-4.0645600000000002
 30
0.0
 10
0.21858
 20
-4.0163000000000002
 30
0.0
 10
0.21858
 20
-4.0163000000000002
 30
0.0
 10
0.2897
 20
-4.1737800000000007
 30
0.0
 10
0.3887600000000001
 20
-4.4074600000000004
 30
0.0
 10
0.2897
 20
-4.56494
 30
0.0
 10
0.2897
 20
-4.56494
 30
0.0
 10
0.2897
 20
-4.56494
 30
0.0
 10
0.13984
 20
-3.9502600000000001
 30
0.0
 10
0.13984
 20
-3.9502600000000001
 30
0.0
 10
0.13984
 20
-3.9502600000000001
 30
0.0
 10
0.04586
 20
-3.7623000000000002
 30
0.0
 10
0.1881
 20
-4.3642799999999999
 30
0.0
 10
0.04586
 20
-4.1052
 30
0.0
 10
0.04586
 20
-4.1052
 30
0.0
 10
-0.00747
 20
-4.3490400000000005
 30
0.0
 10
-0.02779
 20
-4.1483800000000004
 30
0.0
 10
-0.02779
 20
-4.0061400000000003
 30
0.0
 10
-0.02779
 20
-4.0061400000000003
 30
0.0
 10
-0.02271
 20
-4.0061400000000003
 30
0.0
 10
-0.04557
 20
-3.9350200000000002
 30
0.0
 10
-0.07097
 20
-4.0798000000000005
 30
0.0
 10
-0.07097
 20
-4.0798000000000005
 30
0.0
 10
-0.09129
 20
-4.1814
 30
0.0
 10
-0.17003
 20
-4.2855400000000001
 30
0.0
 10
-0.14971
 20
-3.9807400000000004
 30
0.0
 10
-0.14971
 20
-3.9807400000000004
 30
0.0
 10
-0.14209
 20
-3.9096200000000003
 30
0.0
 10
-0.19289
 20
-3.7038800000000003
 30
0.0
 10
-0.20305
 20
-3.9070800000000001
 30
0.0
 10
-0.20305
 20
-3.9070800000000001
 30
0.0
 10
-0.21321
 20
-4.2779199999999999
 30
0.0
 10
-0.36307
 20
-4.1026600000000002
 30
0.0
 10
-0.33005
 20
-3.9832800000000002
 30
0.0
 10
-0.33005
 20
-3.9832800000000002
 30
0.0
 10
-0.30973
 20
-3.9096200000000003
 30
0.0
 10
-0.36307
 20
-3.8435800000000002
 30
0.0
 10
-0.3859300000000001
 20
-3.9070800000000001
 30
0.0
 10
-0.3859300000000001
 20
-3.9070800000000001
 30
0.0
 10
-0.37831
 20
-3.9629600000000003
 30
0.0
 10
-0.39355
 20
-4.0061400000000003
 30
0.0
 10
-0.40371
 20
-4.0645600000000002
 30
0.0
 10
-0.40371
 20
-4.0645600000000002
 30
0.0
 10
-0.5789700000000001
 20
-3.7902400000000003
 30
0.0
 10
-0.42149
 20
-3.2746200000000001
 30
0.0
 10
-0.58913
 20
-2.94442
 30
0.0
 10
-0.58913
 20
-2.94442
 30
0.0
 10
-0.74153
 20
-2.8733000000000004
 30
0.0
 10
-0.9040900000000001
 20
-3.0892000000000004
 30
0.0
 10
-1.0590300000000001
 20
-3.1171400000000005
 30
0.0
 10
-1.0590300000000001
 20
-3.1171400000000005
 30
0.0
 10
-1.2241300000000002
 20
-3.0028400000000004
 30
0.0
 10
-1.5289300000000001
 20
-2.5456400000000001
 30
0.0
 10
-1.20381
 20
-2.7158200000000003
 30
0.0
 10
-1.20381
 20
-2.7158200000000003
 30
0.0
 10
-1.37907
 20
-2.4872200000000002
 30
0.0
 10
-1.7219700000000002
 20
-2.5304000000000002
 30
0.0
 10
-1.8565900000000002
 20
-2.3018000000000001
 30
0.0
 10
-1.8565900000000002
 20
-2.3018000000000001
 30
0.0
 10
-1.8870700000000002
 20
-2.06812
 30
0.0
 10
-1.7295900000000002
 20
-1.8928600000000002
 30
0.0
 10
-1.5543300000000002
 20
-1.7658600000000002
 30
0.0
 10
-1.5543300000000002
 20
-1.7658600000000002
 30
0.0
 10
-1.5136900000000002
 20
-1.7353800000000001
 30
0.0
 10
-1.4501900000000001
 20
-1.6414000000000002
 30
0.0
 10
-1.4120900000000001
 20
-1.6998200000000001
 30
0.0
 10
-1.4120900000000001
 20
-1.6998200000000001
 30
0.0
 10
-1.6330700000000002
 20
-1.8573000000000002
 30
0.0
 10
-0.8990100000000001
 20
-2.0427200000000001
 30
0.0
 10
-1.1987300000000001
 20
-2.3576800000000002
 30
0.0
 10
-1.1987300000000001
 20
-2.3576800000000002
 30
0.0
 10
-1.1987300000000001
 20
-2.3576800000000002
 30
0.0
 10
-0.88885
 20
-2.2586200000000001
 30
0.0
 10
-0.88885
 20
-2.2586200000000001
 30
0.0
 10
-0.88885
 20
-2.2586200000000001
 30
0.0
 10
-0.9244100000000001
 20
-2.3881600000000001
 30
0.0
 10
-1.0514100000000002
 20
-2.5024600000000001
 30
0.0
 10
-1.0260100000000001
 20
-2.6447000000000003
 30
0.0
 10
-1.0260100000000001
 20
-2.6447000000000003
 30
0.0
 10
-1.0260100000000001
 20
-2.6447000000000003
 30
0.0
 10
-0.92949
 20
-2.4872200000000002
 30
0.0
 10
-0.92949
 20
-2.4872200000000002
 30
0.0
 10
-0.92949
 20
-2.4872200000000002
 30
0.0
 10
-0.82535
 20
-2.2865600000000001
 30
0.0
 10
-0.53579
 20
-2.27386
 30
0.0
 10
-0.47229
 20
-2.05796
 30
0.0
 10
-0.47229
 20
-2.05796
 30
0.0
 10
-0.30973
 20
-2.2154400000000001
 30
0.0
 10
-0.55357
 20
-2.4872200000000002
 30
0.0
 10
-0.48753
 20
-2.6320000000000001
 30
0.0
 10
-0.48753
 20
-2.6320000000000001
 30
0.0
 10
-0.27417
 20
-2.2865600000000001
 30
0.0
 10
-0.23099
 20
-2.0274800000000002
 30
0.0
 10
-0.08367
 20
-1.8725400000000001
 30
0.0
 10
-0.08367
 20
-1.8725400000000001
 30
0.0
 10
0.0865
 20
-1.9004800000000002
 30
0.0
 10
0.27446
 20
-1.9563600000000001
 30
0.0
 10
0.20334
 20
-2.14432
 30
0.0
 10
0.20334
 20
-2.14432
 30
0.0
 10
0.42178
 20
-2.2154400000000001
 30
0.0
 10
0.6681600000000001
 20
-2.3297400000000001
 30
0.0
 10
0.8002400000000001
 20
-2.5177
 30
0.0
 10
0.8002400000000001
 20
-2.5177
 30
0.0
 10
0.7900800000000001
 20
-2.3195800000000002
 30
0.0
 10
0.7367400000000001
 20
-2.2027400000000004
 30
0.0
 10
0.8993000000000001
 20
-2.2535400000000001
 30
0.0
 10
0.8993000000000001
 20
-2.2535400000000001
 30
0.0
 10
0.93486
 20
-2.2662400000000003
 30
0.0
 10
1.0136000000000001
 20
-2.3246600000000002
 30
0.0
 10
1.0567800000000001
 20
-2.2865600000000001
 30
0.0
 10
1.0567800000000001
 20
-2.2865600000000001
 30
0.0
 10
1.01614
 20
-2.2611600000000003
 30
0.0
 10
0.9856600000000001
 20
-2.23576
 30
0.0
 10
0.9653400000000001
 20
-2.2129000000000003
 30
0.0
 10
0.9653400000000001
 20
-2.2129000000000003
 30
0.0
 10
0.7596000000000001
 20
-1.9843000000000002
 30
0.0
 10
1.3412600000000001
 20
-1.8319000000000001
 30
0.0
 10
1.1152000000000002
 20
-1.58552
 30
0.0
 10
1.1152000000000002
 20
-1.58552
 30
0.0
 10
1.1152000000000002
 20
-1.58552
 30
0.0
 10
1.1583800000000002
 20
-1.4407400000000001
 30
0.0
 10
1.1583800000000002
 20
-1.4407400000000001
 30
0.0
  0
SPLINE
  5
2A
100
AcDbEntity
  8
Ebene 1
 62
     7
100
AcDbSpline
210
0.0
220
0.0
230
1.0
 70
     1
 71
     3
 72
    24
 73
    20
 74
     0
 42
0.0000000001
 43
0.0000000001
 40
0.0
 40
0.0
 40
0.0
 40
0.0
 40
0.2
 40
0.2
 40
0.2
 40
0.2
 40
0.4
 40
0.4
 40
0.4
 40
0.4
 40
0.6000000000000001
 40
0.6000000000000001
 40
0.6000000000000001
 40
0.6000000000000001
 40
0.8
 40
0.8
 40
0.8
 40
0.8
 40
1.0
 40
1.0
 40
1.0
 40
1.0
 10
0.7723000000000001
 20
-1.6566400000000001
 30
0.0
 10
0.85104
 20
-1.67188
 30
0.0
 10
0.9602600000000001
 20
-1.6414000000000002
 30
0.0
 10
1.01614
 20
-1.7150600000000003
 30
0.0
 10
1.01614
 20
-1.7150600000000003
 30
0.0
 10
0.912
 20
-1.9284200000000002
 30
0.0
 10
0.7113400000000001
 20
-2.10114
 30
0.0
 10
0.48528
 20
-2.1722600000000001
 30
0.0
 10
0.48528
 20
-2.1722600000000001
 30
0.0
 10
0.42178
 20
-2.1290800000000001
 30
0.0
 10
0.3405
 20
-2.0859000000000001
 30
0.0
 10
0.33288
 20
-1.9995400000000001
 30
0.0
 10
0.33288
 20
-1.9995400000000001
 30
0.0
 10
0.33288
 20
-1.9995400000000001
 30
0.0
 10
0.45734
 20
-1.9284200000000002
 30
0.0
 10
0.45734
 20
-1.9284200000000002
 30
0.0
 10
0.45734
 20
-1.9284200000000002
 30
0.0
 10
0.5945
 20
-1.8852400000000002
 30
0.0
 10
0.6478400000000001
 20
-1.7150600000000003
 30
0.0
 10
0.7723000000000001
 20
-1.6566400000000001
 30
0.0
  0
SPLINE
  5
2B
100
AcDbEntity
  8
Ebene 1
 62
     7
100
AcDbSpline
210
0.0
220
0.0
230
1.0
 70
     1
 71
     3
 72
    16
 73
    12
 74
     0
 42
0.0000000001
 43
0.0000000001
 40
0.0
 40
0.0
 40
0.0
 40
0.0
 40
0.3333333333333333
 40
0.3333333333333333
 40
0.3333333333333333
 40
0.3333333333333333
 40
0.6666666666666666
 40
0.6666666666666666
 40
0.6666666666666666
 40
0.6666666666666666
 40
1.0
 40
1.0
 40
1.0
 40
1.0
 10
-1.2165100000000002
 20
-1.6845800000000002
 30
0.0
 10
-1.0107700000000002
 20
-1.7709400000000002
 30
0.0
 10
-0.7923300000000001
 20
-1.8725400000000001
 30
0.0
 10
-0.65771
 20
-2.05796
 30
0.0
 10
-0.65771
 20
-2.05796
 30
0.0
 10
-0.7110500000000001
 20
-2.1722600000000001
 30
0.0
 10
-0.8710700000000001
 20
-2.2002000000000002
 30
0.0
 10
-0.9828300000000001
 20
-2.1722600000000001
 30
0.0
 10
-0.9828300000000001
 20
-2.1722600000000001
 30
0.0
 10
-1.0742700000000001
 20
-2.01478
 30
0.0
 10
-1.3155700000000001
 20
-1.8852400000000002
 30
0.0
 10
-1.2165100000000002
 20
-1.6845800000000002
 30
0.0
  0
SPLINE
  5
2C
100
AcDbEntity
  8
Ebene 1
100
AcDbSpline
210
0.0
220
0.0
230
1.0
 70
     1
 71
     3
 72
    36
 73
    32
 74
     0
 42
0.0000000001
 43
0.0000000001
 40
0.0
 40
0.0
 40
0.0
 40
0.0
 40
0.125
 40
0.125
 40
0.125
 40
0.125
 40
0.25
 40
0.25
 40
0.25
 40
0.25
 40
0.375
 40
0.375
 40
0.375
 40
0.375
 40
0.5
 40
0.5
 40
0.5
 40
0.5
 40
0.625
 40
0.625
 40
0.625
 40
0.625
 40
0.75
 40
0.75
 40
0.75
 40
0.75
 40
0.875
 40
0.875
 40
0.875
 40
0.875
 40
1.0
 40
1.0
 40
1.0
 40
1.0
 10
-0.12685
 20
-2.3449800000000001
 30
0.0
 10
-0.12685
 20
-2.3449800000000001
 30
0.0
 10
-0.07351
 20
-2.3449800000000001
 30
0.0
 10
-0.07351
 20
-2.3449800000000001
 30
0.0
 10
-0.07351
 20
-2.3449800000000001
 30
0.0
 10
0.05094
 20
-2.6726400000000003
 30
0.0
 10
0.23636
 20
-2.9901400000000002
 30
0.0
 10
0.18302
 20
-3.3457400000000002
 30
0.0
 10
0.18302
 20
-3.3457400000000002
 30
0.0
 10
0.14238
 20
-3.3609800000000001
 30
0.0
 10
0.10174
 20
-3.3889200000000002
 30
0.0
 10
0.05602
 20
-3.3889200000000002
 30
0.0
 10
0.05602
 20
-3.3889200000000002
 30
0.0
 10
0.05602
 20
-3.3889200000000002
 30
0.0
 10
-0.07859
 20
-3.2466800000000005
 30
0.0
 10
-0.07859
 20
-3.2466800000000005
 30
0.0
 10
-0.07859
 20
-3.2466800000000005
 30
0.0
 10
-0.06843
 20
-3.4194000000000004
 30
0.0
 10
-0.06335
 20
-3.6327600000000002
 30
0.0
 10
-0.07351
 20
-3.7902400000000003
 30
0.0
 10
-0.07351
 20
-3.7902400000000003
 30
0.0
 10
-0.12685
 20
-3.7343600000000001
 30
0.0
 10
-0.09891
 20
-3.4905200000000001
 30
0.0
 10
-0.20813
 20
-3.5337000000000005
 30
0.0
 10
-0.20813
 20
-3.5337000000000005
 30
0.0
 10
-0.20305
 20
-3.4194000000000004
 30
0.0
 10
-0.25639
 20
-3.3178000000000001
 30
0.0
 10
-0.3427500000000001
 20
-3.3889200000000002
 30
0.0
 10
-0.3427500000000001
 20
-3.3889200000000002
 30
0.0
 10
-0.35037
 20
-3.0180800000000003
 30
0.0
 10
-0.34529
 20
-2.6447000000000003
 30
0.0
 10
-0.12685
 20
-2.3449800000000001
 30
0.0
  0
SPLINE
  5
2D
100
AcDbEntity
  8
Ebene 1
 62
     7
100
AcDbSpline
210
0.0
220
0.0
230
1.0
 70
     1
 71
     3
 72
    20
 73
    16
 74
     0
 42
0.0000000001
 43
0.0000000001
 40
0.0
 40
0.0
 40
0.0
 40
0.0
 40
0.25
 40
0.25
 40
0.25
 40
0.25
 40
0.5
 40
0.5
 40
0.5
 40
0.5
 40
0.75
 40
0.75
 40
0.75
 40
0.75
 40
1.0
 40
1.0
 40
1.0
 40
1.0
 10
-0.14209
 20
-2.5304000000000002
 30
0.0
 10
0.06364
 20
-2.6726400000000003
 30
0.0
 10
0.0484
 20
-3.0028400000000004
 30
0.0
 10
0.08142
 20
-3.2466800000000005
 30
0.0
 10
0.08142
 20
-3.2466800000000005
 30
0.0
 10
-0.00747
 20
-3.2187400000000004
 30
0.0
 10
0.00014
 20
-3.0612600000000003
 30
0.0
 10
-0.08367
 20
-3.0180800000000003
 30
0.0
 10
-0.08367
 20
-3.0180800000000003
 30
0.0
 10
-0.17003
 20
-3.0460200000000004
 30
0.0
 10
-0.15225
 20
-3.1882600000000001
 30
0.0
 10
-0.23861
 20
-3.2314400000000001
 30
0.0
 10
-0.23861
 20
-3.2314400000000001
 30
0.0
 10
-0.31989
 20
-3.0028400000000004
 30
0.0
 10
-0.21575
 20
-2.7463000000000002
 30
0.0
 10
-0.14209
 20
-2.5304000000000002
 30
0.0
  0
SPLINE
  5
2E
100
AcDbEntity
  8
Ebene 1
 62
     7
100
AcDbSpline
210
0.0
220
0.0
230
1.0
 70
     1
 71
     3
 72
    64
 73
    60
 74
     0
 42
0.0000000001
 43
0.0000000001
 40
0.0
 40
0.0
 40
0.0
 40
0.0
 40
0.0666666666666667
 40
0.0666666666666667
 40
0.0666666666666667
 40
0.0666666666666667
 40
0.1333333333333333
 40
0.1333333333333333
 40
0.1333333333333333
 40
0.1333333333333333
 40
0.2
 40
0.2
 40
0.2
 40
0.2
 40
0.2666666666666667
 40
0.2666666666666667
 40
0.2666666666666667
 40
0.2666666666666667
 40
0.3333333333333333
 40
0.3333333333333333
 40
0.3333333333333333
 40
0.3333333333333333
 40
0.4
 40
0.4
 40
0.4
 40
0.4
 40
0.4666666666666666
 40
0.4666666666666666
 40
0.4666666666666666
 40
0.4666666666666666
 40
0.5333333333333333
 40
0.5333333333333333
 40
0.5333333333333333
 40
0.5333333333333333
 40
0.6
 40
0.6
 40
0.6
 40
0.6
 40
0.6666666666666666
 40
0.6666666666666666
 40
0.6666666666666666
 40
0.6666666666666666
 40
0.7333333333333333
 40
0.7333333333333333
 40
0.7333333333333333
 40
0.7333333333333333
 40
0.7999999999999999
 40
0.7999999999999999
 40
0.7999999999999999
 40
0.7999999999999999
 40
0.8666666666666666
 40
0.8666666666666666
 40
0.8666666666666666
 40
0.8666666666666666
 40
0.9333333333333332
 40
0.9333333333333332
 40
0.9333333333333332
 40
0.9333333333333332
 40
1.0
 40
1.0
 40
1.0
 40
1.0
 10
2.04738
 20
-3.0612600000000003
 30
0.0
 10
2.1921600000000003
 20
-3.2746200000000001
 30
0.0
 10
2.12866
 20
-3.6632400000000005
 30
0.0
 10
2.2582
 20
-3.9197800000000003
 30
0.0
 10
2.2582
 20
-3.9197800000000003
 30
0.0
 10
2.2582
 20
-3.9197800000000003
 30
0.0
 10
2.0651600000000001
 20
-4.1788600000000002
 30
0.0
 10
2.0651600000000001
 20
-4.1788600000000002
 30
0.0
 10
2.0651600000000001
 20
-4.1788600000000002
 30
0.0
 10
1.9711800000000002
 20
-3.9502600000000001
 30
0.0
 10
2.0880200000000002
 20
-3.6632400000000005
 30
0.0
 10
2.0626200000000003
 20
-3.4346400000000004
 30
0.0
 10
2.0626200000000003
 20
-3.4346400000000004
 30
0.0
 10
1.9711800000000002
 20
-3.4905200000000001
 30
0.0
 10
2.0321400000000001
 20
-3.6632400000000005
 30
0.0
 10
1.9813400000000001
 20
-3.7470600000000003
 30
0.0
 10
1.9813400000000001
 20
-3.7470600000000003
 30
0.0
 10
1.9788000000000001
 20
-3.7902400000000003
 30
0.0
 10
1.9737200000000001
 20
-3.8334200000000003
 30
0.0
 10
1.9483200000000001
 20
-3.8766000000000003
 30
0.0
 10
1.9483200000000001
 20
-3.8766000000000003
 30
0.0
 10
1.8162400000000001
 20
-4.2068000000000003
 30
0.0
 10
1.9940400000000003
 20
-3.6632400000000005
 30
0.0
 10
1.8086200000000001
 20
-3.6759400000000002
 30
0.0
 10
1.8086200000000001
 20
-3.6759400000000002
 30
0.0
 10
1.8010000000000002
 20
-3.7038800000000003
 30
0.0
 10
1.8187800000000001
 20
-3.7191200000000002
 30
0.0
 10
1.8289400000000002
 20
-3.7343600000000001
 30
0.0
 10
1.8289400000000002
 20
-3.7343600000000001
 30
0.0
 10
1.9051400000000001
 20
-3.8207200000000001
 30
0.0
 10
1.8162400000000001
 20
-3.9350200000000002
 30
0.0
 10
1.8314800000000002
 20
-4.0340800000000003
 30
0.0
 10
1.8314800000000002
 20
-4.0340800000000003
 30
0.0
 10
1.8010000000000002
 20
-4.1356800000000007
 30
0.0
 10
1.8314800000000002
 20
-4.3084000000000007
 30
0.0
 10
1.7222600000000001
 20
-4.3642799999999999
 30
0.0
 10
1.7222600000000001
 20
-4.3642799999999999
 30
0.0
 10
1.7578200000000002
 20
-4.2195
 30
0.0
 10
1.7527400000000002
 20
-4.0493200000000007
 30
0.0
 10
1.7095600000000002
 20
-3.9197800000000003
 30
0.0
 10
1.7095600000000002
 20
-3.9197800000000003
 30
0.0
 10
1.6232000000000002
 20
-3.7902400000000003
 30
0.0
 10
1.5063600000000001
 20
-3.9782000000000002
 30
0.0
 10
1.4784200000000001
 20
-4.0493200000000007
 30
0.0
 10
1.4784200000000001
 20
-4.0493200000000007
 30
0.0
 10
1.4606400000000002
 20
-3.8766000000000003
 30
0.0
 10
1.5343000000000002
 20
-3.7470600000000003
 30
0.0
 10
1.6587600000000002
 20
-3.6480000000000001
 30
0.0
 10
1.6587600000000002
 20
-3.6480000000000001
 30
0.0
 10
1.6689200000000002
 20
-3.5895800000000002
 30
0.0
 10
1.6155800000000002
 20
-3.6048200000000001
 30
0.0
 10
1.5927200000000001
 20
-3.6200600000000005
 30
0.0
 10
1.5927200000000001
 20
-3.6200600000000005
 30
0.0
 10
1.6257400000000002
 20
-3.4625800000000004
 30
0.0
 10
1.7933800000000002
 20
-3.4194000000000004
 30
0.0
 10
1.8873600000000001
 20
-3.3178000000000001
 30
0.0
 10
1.8873600000000001
 20
-3.3178000000000001
 30
0.0
 10
1.8010000000000002
 20
-3.2466800000000005
 30
0.0
 10
1.9940400000000003
 20
-3.1323800000000004
 30
0.0
 10
2.04738
 20
-3.0612600000000003
 30
0.0
  0
SPLINE
  5
2F
100
AcDbEntity
  8
Ebene 1
 62
     7
100
AcDbSpline
210
0.0
220
0.0
230
1.0
 70
     1
 71
     3
 72
    20
 73
    16
 74
     0
 42
0.0000000001
 43
0.0000000001
 40
0.0
 40
0.0
 40
0.0
 40
0.0
 40
0.25
 40
0.25
 40
0.25
 40
0.25
 40
0.5
 40
0.5
 40
0.5
 40
0.5
 40
0.75
 40
0.75
 40
0.75
 40
0.75
 40
1.0
 40
1.0
 40
1.0
 40
1.0
 10
-0.8151900000000001
 20
-3.0739600000000005
 30
0.0
 10
-0.7491500000000001
 20
-3.0739600000000005
 30
0.0
 10
-0.7796300000000001
 20
-3.1603200000000005
 30
0.0
 10
-0.7720100000000001
 20
-3.2035000000000005
 30
0.0
 10
-0.7720100000000001
 20
-3.2035000000000005
 30
0.0
 10
-0.7745500000000001
 20
-3.4625800000000004
 30
0.0
 10
-0.9421900000000001
 20
-3.7902400000000003
 30
0.0
 10
-0.7720100000000001
 20
-4.0061400000000003
 30
0.0
 10
-0.7720100000000001
 20
-4.0061400000000003
 30
0.0
 10
-0.76439
 20
-4.2626800000000005
 30
0.0
 10
-0.7669300000000001
 20
-4.5217600000000004
 30
0.0
 10
-0.7034300000000001
 20
-4.7656000000000001
 30
0.0
 10
-0.7034300000000001
 20
-4.7656000000000001
 30
0.0
 10
-1.54925
 20
-4.7071800000000001
 30
0.0
 10
-1.2876300000000001
 20
-3.4752800000000001
 30
0.0
 10
-0.8151900000000001
 20
-3.0739600000000005
 30
0.0
  0
SPLINE
  5
30
100
AcDbEntity
  8
Ebene 1
 62
     7
100
AcDbSpline
210
0.0
220
0.0
230
1.0
 70
     1
 71
     3
 72
    12
 73
     8
 74
     0
 42
0.0000000001
 43
0.0000000001
 40
0.0
 40
0.0
 40
0.0
 40
0.0
 40
0.5
 40
0.5
 40
0.5
 40
0.5
 40
1.0
 40
1.0
 40
1.0
 40
1.0
 10
-0.6272300000000001
 20
-3.1755600000000004
 30
0.0
 10
-0.59421
 20
-3.1882600000000001
 30
0.0
 10
-0.57643
 20
-3.2619200000000004
 30
0.0
 10
-0.6094500000000001
 20
-3.2746200000000001
 30
0.0
 10
-0.6094500000000001
 20
-3.2746200000000001
 30
0.0
 10
-0.6094500000000001
 20
-3.2746200000000001
 30
0.0
 10
-0.6272300000000001
 20
-3.1755600000000004
 30
0.0
 10
-0.6272300000000001
 20
-3.1755600000000004
 30
0.0
  0
SPLINE
  5
31
100
AcDbEntity
  8
Ebene 1
 62
     7
100
AcDbSpline
210
0.0
220
0.0
230
1.0
 70
     1
 71
     3
 72
    12
 73
     8
 74
     0
 42
0.0000000001
 43
0.0000000001
 40
0.0
 40
0.0
 40
0.0
 40
0.0
 40
0.5
 40
0.5
 40
0.5
 40
0.5
 40
1.0
 40
1.0
 40
1.0
 40
1.0
 10
-0.74407
 20
-3.2466800000000005
 30
0.0
 10
-0.66025
 20
-3.2746200000000001
 30
0.0
 10
-0.6627900000000001
 20
-3.4041600000000001
 30
0.0
 10
-0.66025
 20
-3.4905200000000001
 30
0.0
 10
-0.66025
 20
-3.4905200000000001
 30
0.0
 10
-0.7059700000000001
 20
-3.4194000000000004
 30
0.0
 10
-0.7339100000000001
 20
-3.3330400000000004
 30
0.0
 10
-0.74407
 20
-3.2466800000000005
 30
0.0
  0
SPLINE
  5
32
100
AcDbEntity
  8
Ebene 1
 62
     7
100
AcDbSpline
210
0.0
220
0.0
230
1.0
 70
     1
 71
     3
 72
    12
 73
     8
 74
     0
 42
0.0000000001
 43
0.0000000001
 40
0.0
 40
0.0
 40
0.0
 40
0.0
 40
0.5
 40
0.5
 40
0.5
 40
0.5
 40
1.0
 40
1.0
 40
1.0
 40
1.0
 10
0.5868800000000001
 20
-3.2898600000000005
 30
0.0
 10
0.6097400000000001
 20
-3.3762200000000004
 30
0.0
 10
0.5868800000000001
 20
-3.5184600000000001
 30
0.0
 10
0.57164
 20
-3.6200600000000005
 30
0.0
 10
0.57164
 20
-3.6200600000000005
 30
0.0
 10
0.50814
 20
-3.5337000000000005
 30
0.0
 10
0.5665600000000001
 20
-3.3889200000000002
 30
0.0
 10
0.5868800000000001
 20
-3.2898600000000005
 30
0.0
  0
SPLINE
  5
33
100
AcDbEntity
  8
Ebene 1
 62
     7
100
AcDbSpline
210
0.0
220
0.0
230
1.0
 70
     1
 71
     3
 72
    68
 73
    64
 74
     0
 42
0.0000000001
 43
0.0000000001
 40
0.0
 40
0.0
 40
0.0
 40
0.0
 40
0.0625
 40
0.0625
 40
0.0625
 40
0.0625
 40
0.125
 40
0.125
 40
0.125
 40
0.125
 40
0.1875
 40
0.1875
 40
0.1875
 40
0.1875
 40
0.25
 40
0.25
 40
0.25
 40
0.25
 40
0.3125
 40
0.3125
 40
0.3125
 40
0.3125
 40
0.375
 40
0.375
 40
0.375
 40
0.375
 40
0.4375
 40
0.4375
 40
0.4375
 40
0.4375
 40
0.5
 40
0.5
 40
0.5
 40
0.5
 40
0.5625
 40
0.5625
 40
0.5625
 40
0.5625
 40
0.625
 40
0.625
 40
0.625
 40
0.625
 40
0.6875
 40
0.6875
 40
0.6875
 40
0.6875
 40
0.75
 40
0.75
 40
0.75
 40
0.75
 40
0.8125
 40
0.8125
 40
0.8125
 40
0.8125
 40
0.875
 40
0.875
 40
0.875
 40
0.875
 40
0.9375
 40
0.9375
 40
0.9375
 40
0.9375
 40
1.0
 40
1.0
 40
1.0
 40
1.0
 10
-1.7753100000000002
 20
-4.1052
 30
0.0
 10
-1.8845300000000003
 20
-3.9782000000000002
 30
0.0
 10
-2.05979
 20
-4.1788600000000002
 30
0.0
 10
-1.9353300000000002
 20
-4.2779199999999999
 30
0.0
 10
-1.9353300000000002
 20
-4.2779199999999999
 30
0.0
 10
-1.9353300000000002
 20
-4.2779199999999999
 30
0.0
 10
-1.9175500000000001
 20
-4.3211000000000004
 30
0.0
 10
-1.9175500000000001
 20
-4.3211000000000004
 30
0.0
 10
-1.9175500000000001
 20
-4.3211000000000004
 30
0.0
 10
-2.0572500000000002
 20
-4.2626800000000005
 30
0.0
 10
-2.1486900000000002
 20
-4.1052
 30
0.0
 10
-2.19441
 20
-3.9629600000000003
 30
0.0
 10
-2.19441
 20
-3.9629600000000003
 30
0.0
 10
-2.2045700000000004
 20
-3.9502600000000001
 30
0.0
 10
-2.22743
 20
-3.9502600000000001
 30
0.0
 10
-2.2426700000000004
 20
-3.9502600000000001
 30
0.0
 10
-2.2426700000000004
 20
-3.9502600000000001
 30
0.0
 10
-2.22235
 20
-4.1052
 30
0.0
 10
-2.3366500000000001
 20
-3.8766000000000003
 30
0.0
 10
-2.40015
 20
-3.8486600000000002
 30
0.0
 10
-2.40015
 20
-3.8486600000000002
 30
0.0
 10
-2.40015
 20
-3.8486600000000002
 30
0.0
 10
-2.4941300000000002
 20
-3.6048200000000001
 30
0.0
 10
-2.4941300000000002
 20
-3.6048200000000001
 30
0.0
 10
-2.4941300000000002
 20
-3.6048200000000001
 30
0.0
 10
-2.7252700000000001
 20
-3.8613600000000003
 30
0.0
 10
-2.1486900000000002
 20
-4.2626800000000005
 30
0.0
 10
-2.44333
 20
-4.4506399999999999
 30
0.0
 10
-2.44333
 20
-4.4506399999999999
 30
0.0
 10
-2.44333
 20
-4.4506399999999999
 30
0.0
 10
-2.4077700000000002
 20
-4.3363400000000007
 30
0.0
 10
-2.4077700000000002
 20
-4.3363400000000007
 30
0.0
 10
-2.4077700000000002
 20
-4.3363400000000007
 30
0.0
 10
-2.4255500000000003
 20
-4.2499800000000008
 30
0.0
 10
-2.6516100000000002
 20
-4.4227000000000007
 30
0.0
 10
-2.7481300000000002
 20
-4.2779199999999999
 30
0.0
 10
-2.7481300000000002
 20
-4.2779199999999999
 30
0.0
 10
-2.8090900000000003
 20
-4.2347400000000004
 30
0.0
 10
-2.9056100000000002
 20
-4.19156
 30
0.0
 10
-2.9310100000000001
 20
-4.1204400000000003
 30
0.0
 10
-2.9310100000000001
 20
-4.1204400000000003
 30
0.0
 10
-2.8446500000000001
 20
-4.1483800000000004
 30
0.0
 10
-2.7557500000000004
 20
-4.1788600000000002
 30
0.0
 10
-2.6643100000000004
 20
-4.19156
 30
0.0
 10
-2.6643100000000004
 20
-4.19156
 30
0.0
 10
-2.6643100000000004
 20
-4.19156
 30
0.0
 10
-2.5220700000000003
 20
-4.1483800000000004
 30
0.0
 10
-2.5220700000000003
 20
-4.1483800000000004
 30
0.0
 10
-2.5220700000000003
 20
-4.1483800000000004
 30
0.0
 10
-2.5347700000000004
 20
-3.8918400000000002
 30
0.0
 10
-2.7074900000000004
 20
-3.6200600000000005
 30
0.0
 10
-2.4484100000000004
 20
-3.4473400000000001
 30
0.0
 10
-2.4484100000000004
 20
-3.4473400000000001
 30
0.0
 10
-2.4306300000000003
 20
-3.3609800000000001
 30
0.0
 10
-2.5881100000000004
 20
-3.4625800000000004
 30
0.0
 10
-2.5449300000000004
 20
-3.3889200000000002
 30
0.0
 10
-2.5449300000000004
 20
-3.3889200000000002
 30
0.0
 10
-2.5220700000000003
 20
-3.3889200000000002
 30
0.0
 10
-2.5068300000000003
 20
-3.3762200000000004
 30
0.0
 10
-2.5017500000000004
 20
-3.3457400000000002
 30
0.0
 10
-2.5017500000000004
 20
-3.3457400000000002
 30
0.0
 10
-2.22743
 20
-3.5184600000000001
 30
0.0
 10
-1.9099300000000001
 20
-3.7902400000000003
 30
0.0
 10
-1.7753100000000002
 20
-4.1052
 30
0.0
  0
SPLINE
  5
34
100
AcDbEntity
  8
Ebene 1
 62
     7
100
AcDbSpline
210
0.0
220
0.0
230
1.0
 70
     1
 71
     3
 72
    40
 73
    36
 74
     0
 42
0.0000000001
 43
0.0000000001
 40
0.0
 40
0.0
 40
0.0
 40
0.0
 40
0.1111111111111111
 40
0.1111111111111111
 40
0.1111111111111111
 40
0.1111111111111111
 40
0.2222222222222222
 40
0.2222222222222222
 40
0.2222222222222222
 40
0.2222222222222222
 40
0.3333333333333333
 40
0.3333333333333333
 40
0.3333333333333333
 40
0.3333333333333333
 40
0.4444444444444444
 40
0.4444444444444444
 40
0.4444444444444444
 40
0.4444444444444444
 40
0.5555555555555556
 40
0.5555555555555556
 40
0.5555555555555556
 40
0.5555555555555556
 40
0.6666666666666667
 40
0.6666666666666667
 40
0.6666666666666667
 40
0.6666666666666667
 40
0.7777777777777779
 40
0.7777777777777779
 40
0.7777777777777779
 40
0.7777777777777779
 40
0.8888888888888891
 40
0.8888888888888891
 40
0.8888888888888891
 40
0.8888888888888891
 40
1.0
 40
1.0
 40
1.0
 40
1.0
 10
2.7789000000000001
 20
-3.3609800000000001
 30
0.0
 10
2.9592400000000003
 20
-3.6911800000000001
 30
0.0
 10
2.79922
 20
-4.0493200000000007
 30
0.0
 10
2.5960200000000002
 20
-4.3211000000000004
 30
0.0
 10
2.5960200000000002
 20
-4.3211000000000004
 30
0.0
 10
2.5960200000000002
 20
-4.3211000000000004
 30
0.0
 10
2.6188800000000003
 20
-4.1052
 30
0.0
 10
2.6188800000000003
 20
-4.1052
 30
0.0
 10
2.6188800000000003
 20
-4.1052
 30
0.0
 10
2.6265000000000001
 20
-4.0645600000000002
 30
0.0
 10
2.5426800000000003
 20
-3.9909000000000003
 30
0.0
 10
2.5782400000000001
 20
-4.0772600000000008
 30
0.0
 10
2.5782400000000001
 20
-4.0772600000000008
 30
0.0
 10
2.54522
 20
-4.2779199999999999
 30
0.0
 10
2.5731600000000001
 20
-4.5217600000000004
 30
0.0
 10
2.3801200000000002
 20
-4.6513
 30
0.0
 10
2.3801200000000002
 20
-4.6513
 30
0.0
 10
2.3623400000000001
 20
-4.4938200000000004
 30
0.0
 10
2.4918800000000001
 20
-4.3084000000000007
 30
0.0
 10
2.4029800000000003
 20
-4.1356800000000007
 30
0.0
 10
2.4029800000000003
 20
-4.1356800000000007
 30
0.0
 10
2.2582
 20
-4.0213800000000006
 30
0.0
 10
2.2175600000000002
 20
-4.3211000000000004
 30
0.0
 10
2.1362800000000002
 20
-4.3642799999999999
 30
0.0
 10
2.1362800000000002
 20
-4.3642799999999999
 30
0.0
 10
2.1159600000000003
 20
-4.1052
 30
0.0
 10
2.2963
 20
-3.8918400000000002
 30
0.0
 10
2.5172800000000004
 20
-3.7902400000000003
 30
0.0
 10
2.5172800000000004
 20
-3.7902400000000003
 30
0.0
 10
2.5249000000000001
 20
-3.6911800000000001
 30
0.0
 10
2.4233000000000002
 20
-3.8207200000000001
 30
0.0
 10
2.3801200000000002
 20
-3.8054800000000002
 30
0.0
 10
2.3801200000000002
 20
-3.8054800000000002
 30
0.0
 10
2.3801200000000002
 20
-3.8054800000000002
 30
0.0
 10
2.7789000000000001
 20
-3.3609800000000001
 30
0.0
 10
2.7789000000000001
 20
-3.3609800000000001
 30
0.0
  0
SPLINE
  5
35
100
AcDbEntity
  8
Ebene 1
 62
     7
100
AcDbSpline
210
0.0
220
0.0
230
1.0
 70
     1
 71
     3
 72
    12
 73
     8
 74
     0
 42
0.0000000001
 43
0.0000000001
 40
0.0
 40
0.0
 40
0.0
 40
0.0
 40
0.5
 40
0.5
 40
0.5
 40
0.5
 40
1.0
 40
1.0
 40
1.0
 40
1.0
 10
0.64276
 20
-3.3762200000000004
 30
0.0
 10
0.6656200000000001
 20
-3.3889200000000002
 30
0.0
 10
0.6707000000000001
 20
-3.4752800000000001
 30
0.0
 10
0.6326000000000001
 20
-3.4905200000000001
 30
0.0
 10
0.6326000000000001
 20
-3.4905200000000001
 30
0.0
 10
0.6275200000000001
 20
-3.4473400000000001
 30
0.0
 10
0.6224400000000001
 20
-3.4041600000000001
 30
0.0
 10
0.64276
 20
-3.3762200000000004
 30
0.0
  0
SPLINE
  5
36
100
AcDbEntity
  8
Ebene 1
 62
     7
100
AcDbSpline
210
0.0
220
0.0
230
1.0
 70
     1
 71
     3
 72
    16
 73
    12
 74
     0
 42
0.0000000001
 43
0.0000000001
 40
0.0
 40
0.0
 40
0.0
 40
0.0
 40
0.3333333333333333
 40
0.3333333333333333
 40
0.3333333333333333
 40
0.3333333333333333
 40
0.6666666666666666
 40
0.6666666666666666
 40
0.6666666666666666
 40
0.6666666666666666
 40
1.0
 40
1.0
 40
1.0
 40
1.0
 10
-0.57135
 20
-3.4194000000000004
 30
0.0
 10
-0.51293
 20
-3.5057600000000004
 30
0.0
 10
-0.52817
 20
-3.6759400000000002
 30
0.0
 10
-0.53071
 20
-3.7775400000000001
 30
0.0
 10
-0.53071
 20
-3.7775400000000001
 30
0.0
 10
-0.5434100000000001
 20
-3.7191200000000002
 30
0.0
 10
-0.56881
 20
-3.6632400000000005
 30
0.0
 10
-0.61453
 20
-3.6327600000000002
 30
0.0
 10
-0.61453
 20
-3.6327600000000002
 30
0.0
 10
-0.5840500000000001
 20
-3.5616400000000001
 30
0.0
 10
-0.5637300000000001
 20
-3.4905200000000001
 30
0.0
 10
-0.57135
 20
-3.4194000000000004
 30
0.0
  0
SPLINE
  5
37
100
AcDbEntity
  8
Ebene 1
 62
     7
100
AcDbSpline
210
0.0
220
0.0
230
1.0
 70
     1
 71
     3
 72
    12
 73
     8
 74
     0
 42
0.0000000001
 43
0.0000000001
 40
0.0
 40
0.0
 40
0.0
 40
0.0
 40
0.5
 40
0.5
 40
0.5
 40
0.5
 40
1.0
 40
1.0
 40
1.0
 40
1.0
 10
-2.5500100000000003
 20
-3.4625800000000004
 30
0.0
 10
-2.5169900000000003
 20
-3.4752800000000001
 30
0.0
 10
-2.56779
 20
-3.5337000000000005
 30
0.0
 10
-2.5881100000000004
 20
-3.5337000000000005
 30
0.0
 10
-2.5881100000000004
 20
-3.5337000000000005
 30
0.0
 10
-2.5982700000000003
 20
-3.5057600000000004
 30
0.0
 10
-2.56271
 20
-3.4752800000000001
 30
0.0
 10
-2.5500100000000003
 20
-3.4625800000000004
 30
0.0
  0
SPLINE
  5
38
100
AcDbEntity
  8
Ebene 1
 62
     7
100
AcDbSpline
210
0.0
220
0.0
230
1.0
 70
     1
 71
     3
 72
    12
 73
     8
 74
     0
 42
0.0000000001
 43
0.0000000001
 40
0.0
 40
0.0
 40
0.0
 40
0.0
 40
0.5
 40
0.5
 40
0.5
 40
0.5
 40
1.0
 40
1.0
 40
1.0
 40
1.0
 10
0.6707000000000001
 20
-3.5489400000000004
 30
0.0
 10
0.7392800000000001
 20
-3.6327600000000002
 30
0.0
 10
0.7494400000000001
 20
-3.7623000000000002
 30
0.0
 10
0.7265800000000001
 20
-3.8766000000000003
 30
0.0
 10
0.7265800000000001
 20
-3.8766000000000003
 30
0.0
 10
0.6453000000000001
 20
-3.8054800000000002
 30
0.0
 10
0.64022
 20
-3.6480000000000001
 30
0.0
 10
0.6707000000000001
 20
-3.5489400000000004
 30
0.0
  0
SPLINE
  5
39
100
AcDbEntity
  8
Ebene 1
 62
     7
100
AcDbSpline
210
0.0
220
0.0
230
1.0
 70
     1
 71
     3
 72
    12
 73
     8
 74
     0
 42
0.0000000001
 43
0.0000000001
 40
0.0
 40
0.0
 40
0.0
 40
0.0
 40
0.5
 40
0.5
 40
0.5
 40
0.5
 40
1.0
 40
1.0
 40
1.0
 40
1.0
 10
-0.61453
 20
-3.7775400000000001
 30
0.0
 10
-0.55357
 20
-3.9350200000000002
 30
0.0
 10
-0.5789700000000001
 20
-4.19156
 30
0.0
 10
-0.6678700000000001
 20
-4.3363400000000007
 30
0.0
 10
-0.6678700000000001
 20
-4.3363400000000007
 30
0.0
 10
-0.6932700000000001
 20
-4.1356800000000007
 30
0.0
 10
-0.6932700000000001
 20
-3.9502600000000001
 30
0.0
 10
-0.61453
 20
-3.7775400000000001
 30
0.0
  0
SPLINE
  5
3A
100
AcDbEntity
  8
Ebene 1
 62
     7
100
AcDbSpline
210
0.0
220
0.0
230
1.0
 70
     1
 71
     3
 72
    16
 73
    12
 74
     0
 42
0.0000000001
 43
0.0000000001
 40
0.0
 40
0.0
 40
0.0
 40
0.0
 40
0.3333333333333333
 40
0.3333333333333333
 40
0.3333333333333333
 40
0.3333333333333333
 40
0.6666666666666666
 40
0.6666666666666666
 40
0.6666666666666666
 40
0.6666666666666666
 40
1.0
 40
1.0
 40
1.0
 40
1.0
 10
0.5564
 20
-3.7775400000000001
 30
0.0
 10
0.67832
 20
-3.9629600000000003
 30
0.0
 10
0.65546
 20
-4.2068000000000003
 30
0.0
 10
0.6275200000000001
 20
-4.4354000000000005
 30
0.0
 10
0.6275200000000001
 20
-4.4354000000000005
 30
0.0
 10
0.5818000000000001
 20
-4.3363400000000007
 30
0.0
 10
0.5233800000000001
 20
-4.19156
 30
0.0
 10
0.5868800000000001
 20
-4.0925000000000002
 30
0.0
 10
0.5868800000000001
 20
-4.0925000000000002
 30
0.0
 10
0.5691000000000001
 20
-3.9909000000000003
 30
0.0
 10
0.52846
 20
-3.8766000000000003
 30
0.0
 10
0.5564
 20
-3.7775400000000001
 30
0.0
  0
SPLINE
  5
3B
100
AcDbEntity
  8
Ebene 1
100
AcDbSpline
210
0.0
220
0.0
230
1.0
 70
     1
 71
     3
 72
    12
 73
     8
 74
     0
 42
0.0000000001
 43
0.0000000001
 40
0.0
 40
0.0
 40
0.0
 40
0.0
 40
0.5
 40
0.5
 40
0.5
 40
0.5
 40
1.0
 40
1.0
 40
1.0
 40
1.0
 10
-2.1055100000000002
 20
-3.7902400000000003
 30
0.0
 10
-1.9302500000000002
 20
-3.7775400000000001
 30
0.0
 10
-2.1867900000000002
 20
-3.9197800000000003
 30
0.0
 10
-2.1486900000000002
 20
-3.8207200000000001
 30
0.0
 10
-2.1486900000000002
 20
-3.8207200000000001
 30
0.0
 10
-2.1486900000000002
 20
-3.8207200000000001
 30
0.0
 10
-2.1055100000000002
 20
-3.7902400000000003
 30
0.0
 10
-2.1055100000000002
 20
-3.7902400000000003
 30
0.0
  0
SPLINE
  5
3C
100
AcDbEntity
  8
Ebene 1
 62
     7
100
AcDbSpline
210
0.0
220
0.0
230
1.0
 70
     1
 71
     3
 72
    20
 73
    16
 74
     0
 42
0.0000000001
 43
0.0000000001
 40
0.0
 40
0.0
 40
0.0
 40
0.0
 40
0.25
 40
0.25
 40
0.25
 40
0.25
 40
0.5
 40
0.5
 40
0.5
 40
0.5
 40
0.75
 40
0.75
 40
0.75
 40
0.75
 40
1.0
 40
1.0
 40
1.0
 40
1.0
 10
2.8500200000000002
 20
-3.9629600000000003
 30
0.0
 10
2.8500200000000002
 20
-3.9629600000000003
 30
0.0
 10
2.8347800000000003
 20
-4.3795200000000003
 30
0.0
 10
2.8347800000000003
 20
-4.3795200000000003
 30
0.0
 10
2.8347800000000003
 20
-4.3795200000000003
 30
0.0
 10
2.8805000000000001
 20
-4.5217600000000004
 30
0.0
 10
2.9897200000000002
 20
-4.6360600000000005
 30
0.0
 10
3.1345000000000001
 20
-4.6513
 30
0.0
 10
3.1345000000000001
 20
-4.6513
 30
0.0
 10
3.0303600000000004
 20
-4.7224200000000005
 30
0.0
 10
2.8881200000000002
 20
-4.6640000000000006
 30
0.0
 10
2.7687400000000002
 20
-4.7224200000000005
 30
0.0
 10
2.7687400000000002
 20
-4.7224200000000005
 30
0.0
 10
2.5350600000000001
 20
-4.4938200000000004
 30
0.0
 10
2.7966800000000003
 20
-4.2068000000000003
 30
0.0
 10
2.8500200000000002
 20
-3.9629600000000003
 30
0.0
  0
SPLINE
  5
3D
100
AcDbEntity
  8
Ebene 1
 62
     7
100
AcDbSpline
210
0.0
220
0.0
230
1.0
 70
     1
 71
     3
 72
    36
 73
    32
 74
     0
 42
0.0000000001
 43
0.0000000001
 40
0.0
 40
0.0
 40
0.0
 40
0.0
 40
0.125
 40
0.125
 40
0.125
 40
0.125
 40
0.25
 40
0.25
 40
0.25
 40
0.25
 40
0.375
 40
0.375
 40
0.375
 40
0.375
 40
0.5
 40
0.5
 40
0.5
 40
0.5
 40
0.625
 40
0.625
 40
0.625
 40
0.625
 40
0.75
 40
0.75
 40
0.75
 40
0.75
 40
0.875
 40
0.875
 40
0.875
 40
0.875
 40
1.0
 40
1.0
 40
1.0
 40
1.0
 10
1.5876400000000002
 20
-3.9782000000000002
 30
0.0
 10
1.5876400000000002
 20
-3.9782000000000002
 30
0.0
 10
1.4606400000000002
 20
-4.4938200000000004
 30
0.0
 10
1.4606400000000002
 20
-4.4938200000000004
 30
0.0
 10
1.4606400000000002
 20
-4.4938200000000004
 30
0.0
 10
1.4225400000000001
 20
-4.6081200000000004
 30
0.0
 10
1.4784200000000001
 20
-4.5928800000000001
 30
0.0
 10
1.5038200000000002
 20
-4.4938200000000004
 30
0.0
 10
1.5038200000000002
 20
-4.4938200000000004
 30
0.0
 10
1.5038200000000002
 20
-4.4938200000000004
 30
0.0
 10
1.6181200000000002
 20
-4.2068000000000003
 30
0.0
 10
1.6181200000000002
 20
-4.2068000000000003
 30
0.0
 10
1.6181200000000002
 20
-4.2068000000000003
 30
0.0
 10
1.6155800000000002
 20
-4.1636200000000008
 30
0.0
 10
1.65368
 20
-4.1052
 30
0.0
 10
1.6867000000000001
 20
-4.0772600000000008
 30
0.0
 10
1.6867000000000001
 20
-4.0772600000000008
 30
0.0
 10
1.6714600000000002
 20
-4.4658800000000003
 30
0.0
 10
1.3412600000000001
 20
-4.8087800000000005
 30
0.0
 10
1.27776
 20
-5.1948600000000003
 30
0.0
 10
1.27776
 20
-5.1948600000000003
 30
0.0
 10
1.2498200000000002
 20
-5.0805600000000002
 30
0.0
 10
1.2904600000000002
 20
-4.93832
 30
0.0
 10
1.31332
 20
-4.82402
 30
0.0
 10
1.31332
 20
-4.82402
 30
0.0
 10
1.31332
 20
-4.82402
 30
0.0
 10
1.40222
 20
-4.5065200000000001
 30
0.0
 10
1.40222
 20
-4.5065200000000001
 30
0.0
 10
1.40222
 20
-4.5065200000000001
 30
0.0
 10
1.4555600000000002
 20
-4.3363400000000007
 30
0.0
 10
1.5038200000000002
 20
-4.1483800000000004
 30
0.0
 10
1.5876400000000002
 20
-3.9782000000000002
 30
0.0
  0
SPLINE
  5
3E
100
AcDbEntity
  8
Ebene 1
 62
     7
100
AcDbSpline
210
0.0
220
0.0
230
1.0
 70
     1
 71
     3
 72
    16
 73
    12
 74
     0
 42
0.0000000001
 43
0.0000000001
 40
0.0
 40
0.0
 40
0.0
 40
0.0
 40
0.3333333333333333
 40
0.3333333333333333
 40
0.3333333333333333
 40
0.3333333333333333
 40
0.6666666666666666
 40
0.6666666666666666
 40
0.6666666666666666
 40
0.6666666666666666
 40
1.0
 40
1.0
 40
1.0
 40
1.0
 10
0.4294000000000001
 20
-4.0061400000000003
 30
0.0
 10
0.4294000000000001
 20
-4.0061400000000003
 30
0.0
 10
0.4548
 20
-4.0061400000000003
 30
0.0
 10
0.4548
 20
-4.0061400000000003
 30
0.0
 10
0.4548
 20
-4.0061400000000003
 30
0.0
 10
0.4827400000000001
 20
-4.1356800000000007
 30
0.0
 10
0.5665600000000001
 20
-4.3084000000000007
 30
0.0
 10
0.4725800000000001
 20
-4.4227000000000007
 30
0.0
 10
0.4725800000000001
 20
-4.4227000000000007
 30
0.0
 10
0.40146
 20
-4.2931600000000003
 30
0.0
 10
0.3887600000000001
 20
-4.1483800000000004
 30
0.0
 10
0.4294000000000001
 20
-4.0061400000000003
 30
0.0
  0
SPLINE
  5
3F
100
AcDbEntity
  8
Ebene 1
 62
     7
100
AcDbSpline
210
0.0
220
0.0
230
1.0
 70
     1
 71
     3
 72
    40
 73
    36
 74
     0
 42
0.0000000001
 43
0.0000000001
 40
0.0
 40
0.0
 40
0.0
 40
0.0
 40
0.1111111111111111
 40
0.1111111111111111
 40
0.1111111111111111
 40
0.1111111111111111
 40
0.2222222222222222
 40
0.2222222222222222
 40
0.2222222222222222
 40
0.2222222222222222
 40
0.3333333333333333
 40
0.3333333333333333
 40
0.3333333333333333
 40
0.3333333333333333
 40
0.4444444444444444
 40
0.4444444444444444
 40
0.4444444444444444
 40
0.4444444444444444
 40
0.5555555555555556
 40
0.5555555555555556
 40
0.5555555555555556
 40
0.5555555555555556
 40
0.6666666666666667
 40
0.6666666666666667
 40
0.6666666666666667
 40
0.6666666666666667
 40
0.7777777777777779
 40
0.7777777777777779
 40
0.7777777777777779
 40
0.7777777777777779
 40
0.8888888888888891
 40
0.8888888888888891
 40
0.8888888888888891
 40
0.8888888888888891
 40
1.0
 40
1.0
 40
1.0
 40
1.0
 10
-2.9208500000000002
 20
-4.6792400000000001
 30
0.0
 10
-3.0376900000000004
 20
-4.6208200000000001
 30
0.0
 10
-3.0986500000000001
 20
-4.4938200000000004
 30
0.0
 10
-3.1672300000000004
 20
-4.39222
 30
0.0
 10
-3.1672300000000004
 20
-4.39222
 30
0.0
 10
-3.2307300000000003
 20
-4.3363400000000007
 30
0.0
 10
-3.3018500000000004
 20
-4.2779199999999999
 30
0.0
 10
-3.3221700000000003
 20
-4.19156
 30
0.0
 10
-3.3221700000000003
 20
-4.19156
 30
0.0
 10
-3.3145500000000001
 20
-4.1052
 30
0.0
 10
-3.2434300000000005
 20
-4.0772600000000008
 30
0.0
 10
-3.1799300000000001
 20
-4.0493200000000007
 30
0.0
 10
-3.1799300000000001
 20
-4.0493200000000007
 30
0.0
 10
-3.1367500000000001
 20
-4.0340800000000003
 30
0.0
 10
-3.1062700000000003
 20
-4.0645600000000002
 30
0.0
 10
-3.0656300000000001
 20
-4.0772600000000008
 30
0.0
 10
-3.0656300000000001
 20
-4.0772600000000008
 30
0.0
 10
-2.8268700000000004
 20
-4.3642799999999999
 30
0.0
 10
-2.3874500000000003
 20
-4.5065200000000001
 30
0.0
 10
-2.23759
 20
-4.8519600000000001
 30
0.0
 10
-2.23759
 20
-4.8519600000000001
 30
0.0
 10
-2.3214100000000002
 20
-4.8087800000000005
 30
0.0
 10
-2.3747500000000001
 20
-4.6640000000000006
 30
0.0
 10
-2.4915900000000004
 20
-4.6640000000000006
 30
0.0
 10
-2.4915900000000004
 20
-4.6640000000000006
 30
0.0
 10
-2.6846300000000003
 20
-4.7656000000000001
 30
0.0
 10
-2.4839700000000002
 20
-4.9510200000000006
 30
0.0
 10
-2.4230100000000001
 20
-5.0653200000000007
 30
0.0
 10
-2.4230100000000001
 20
-5.0653200000000007
 30
0.0
 10
-2.6389100000000001
 20
-5.0094400000000006
 30
0.0
 10
-2.7532100000000002
 20
-4.7935400000000001
 30
0.0
 10
-2.8954500000000003
 20
-4.6360600000000005
 30
0.0
 10
-2.8954500000000003
 20
-4.6360600000000005
 30
0.0
 10
-2.9132300000000004
 20
-4.6360600000000005
 30
0.0
 10
-2.9259300000000001
 20
-4.6640000000000006
 30
0.0
 10
-2.9208500000000002
 20
-4.6792400000000001
 30
0.0
  0
SPLINE
  5
40
100
AcDbEntity
  8
Ebene 1
 62
     7
100
AcDbSpline
210
0.0
220
0.0
230
1.0
 70
     1
 71
     3
 72
    12
 73
     8
 74
     0
 42
0.0000000001
 43
0.0000000001
 40
0.0
 40
0.0
 40
0.0
 40
0.0
 40
0.5
 40
0.5
 40
0.5
 40
0.5
 40
1.0
 40
1.0
 40
1.0
 40
1.0
 10
-2.36205
 20
-4.0772600000000008
 30
0.0
 10
-2.2680700000000003
 20
-4.1356800000000007
 30
0.0
 10
-2.1817100000000003
 20
-4.2347400000000004
 30
0.0
 10
-2.1359900000000001
 20
-4.3490400000000005
 30
0.0
 10
-2.1359900000000001
 20
-4.3490400000000005
 30
0.0
 10
-2.27061
 20
-4.3795200000000003
 30
0.0
 10
-2.3315700000000001
 20
-4.1788600000000002
 30
0.0
 10
-2.36205
 20
-4.0772600000000008
 30
0.0
  0
SPLINE
  5
41
100
AcDbEntity
  8
Ebene 1
 62
     7
100
AcDbSpline
210
0.0
220
0.0
230
1.0
 70
     1
 71
     3
 72
    12
 73
     8
 74
     0
 42
0.0000000001
 43
0.0000000001
 40
0.0
 40
0.0
 40
0.0
 40
0.0
 40
0.5
 40
0.5
 40
0.5
 40
0.5
 40
1.0
 40
1.0
 40
1.0
 40
1.0
 10
-0.47229
 20
-4.0772600000000008
 30
0.0
 10
-0.41387
 20
-4.1788600000000002
 30
0.0
 10
-0.4367300000000001
 20
-4.3490400000000005
 30
0.0
 10
-0.5002300000000001
 20
-4.4354000000000005
 30
0.0
 10
-0.5002300000000001
 20
-4.4354000000000005
 30
0.0
 10
-0.5383300000000001
 20
-4.3211000000000004
 30
0.0
 10
-0.4900700000000001
 20
-4.19156
 30
0.0
 10
-0.47229
 20
-4.0772600000000008
 30
0.0
  0
SPLINE
  5
42
100
AcDbEntity
  8
Ebene 1
100
AcDbSpline
210
0.0
220
0.0
230
1.0
 70
     1
 71
     3
 72
    20
 73
    16
 74
     0
 42
0.0000000001
 43
0.0000000001
 40
0.0
 40
0.0
 40
0.0
 40
0.0
 40
0.25
 40
0.25
 40
0.25
 40
0.25
 40
0.5
 40
0.5
 40
0.5
 40
0.5
 40
0.75
 40
0.75
 40
0.75
 40
0.75
 40
1.0
 40
1.0
 40
1.0
 40
1.0
 10
-3.1646900000000002
 20
-4.1204400000000003
 30
0.0
 10
-3.1215100000000002
 20
-4.1204400000000003
 30
0.0
 10
-3.0732500000000003
 20
-4.1204400000000003
 30
0.0
 10
-3.0376900000000004
 20
-4.1483800000000004
 30
0.0
 10
-3.0376900000000004
 20
-4.1483800000000004
 30
0.0
 10
-3.0554700000000001
 20
-4.2068000000000003
 30
0.0
 10
-3.1113500000000003
 20
-4.1483800000000004
 30
0.0
 10
-3.1469100000000001
 20
-4.1636200000000008
 30
0.0
 10
-3.1469100000000001
 20
-4.1636200000000008
 30
0.0
 10
-3.1824700000000004
 20
-4.2195
 30
0.0
 10
-3.2383500000000001
 20
-4.3642799999999999
 30
0.0
 10
-3.2307300000000003
 20
-4.2068000000000003
 30
0.0
 10
-3.2307300000000003
 20
-4.2068000000000003
 30
0.0
 10
-3.2256500000000004
 20
-4.1636200000000008
 30
0.0
 10
-3.1951700000000001
 20
-4.1356800000000007
 30
0.0
 10
-3.1646900000000002
 20
-4.1204400000000003
 30
0.0
  0
SPLINE
  5
43
100
AcDbEntity
  8
Ebene 1
 62
     7
100
AcDbSpline
210
0.0
220
0.0
230
1.0
 70
     1
 71
     3
 72
    16
 73
    12
 74
     0
 42
0.0000000001
 43
0.0000000001
 40
0.0
 40
0.0
 40
0.0
 40
0.0
 40
0.3333333333333333
 40
0.3333333333333333
 40
0.3333333333333333
 40
0.3333333333333333
 40
0.6666666666666666
 40
0.6666666666666666
 40
0.6666666666666666
 40
0.6666666666666666
 40
1.0
 40
1.0
 40
1.0
 40
1.0
 10
-0.32751
 20
-4.1636200000000008
 30
0.0
 10
-0.32751
 20
-4.1636200000000008
 30
0.0
 10
-0.3021100000000001
 20
-4.1636200000000008
 30
0.0
 10
-0.3021100000000001
 20
-4.1636200000000008
 30
0.0
 10
-0.3021100000000001
 20
-4.1636200000000008
 30
0.0
 10
-0.27925
 20
-4.3211000000000004
 30
0.0
 10
-0.23861
 20
-4.4938200000000004
 30
0.0
 10
-0.35291
 20
-4.6081200000000004
 30
0.0
 10
-0.35291
 20
-4.6081200000000004
 30
0.0
 10
-0.40371
 20
-4.4658800000000003
 30
0.0
 10
-0.35545
 20
-4.3084000000000007
 30
0.0
 10
-0.32751
 20
-4.1636200000000008
 30
0.0
  0
SPLINE
  5
44
100
AcDbEntity
  8
Ebene 1
 62
     7
100
AcDbSpline
210
0.0
220
0.0
230
1.0
 70
     1
 71
     3
 72
    20
 73
    16
 74
     0
 42
0.0000000001
 43
0.0000000001
 40
0.0
 40
0.0
 40
0.0
 40
0.0
 40
0.25
 40
0.25
 40
0.25
 40
0.25
 40
0.5
 40
0.5
 40
0.5
 40
0.5
 40
0.75
 40
0.75
 40
0.75
 40
0.75
 40
1.0
 40
1.0
 40
1.0
 40
1.0
 10
-1.3028700000000002
 20
-5.0805600000000002
 30
0.0
 10
-1.4730500000000002
 20
-4.8519600000000001
 30
0.0
 10
-1.6508500000000002
 20
-4.6208200000000001
 30
0.0
 10
-1.8032500000000002
 20
-4.3795200000000003
 30
0.0
 10
-1.8032500000000002
 20
-4.3795200000000003
 30
0.0
 10
-1.6762500000000002
 20
-4.4658800000000003
 30
0.0
 10
-1.7321300000000002
 20
-4.3363400000000007
 30
0.0
 10
-1.7930900000000001
 20
-4.2626800000000005
 30
0.0
 10
-1.7930900000000001
 20
-4.2626800000000005
 30
0.0
 10
-1.7930900000000001
 20
-4.2626800000000005
 30
0.0
 10
-1.84135
 20
-4.1788600000000002
 30
0.0
 10
-1.84135
 20
-4.1788600000000002
 30
0.0
 10
-1.84135
 20
-4.1788600000000002
 30
0.0
 10
-1.5416300000000001
 20
-4.3795200000000003
 30
0.0
 10
-1.46543
 20
-4.7783000000000007
 30
0.0
 10
-1.3028700000000002
 20
-5.0805600000000002
 30
0.0
  0
SPLINE
  5
45
100
AcDbEntity
  8
Ebene 1
 62
     7
100
AcDbSpline
210
0.0
220
0.0
230
1.0
 70
     1
 71
     3
 72
    12
 73
     8
 74
     0
 42
0.0000000001
 43
0.0000000001
 40
0.0
 40
0.0
 40
0.0
 40
0.0
 40
0.5
 40
0.5
 40
0.5
 40
0.5
 40
1.0
 40
1.0
 40
1.0
 40
1.0
 10
0.04078
 20
-4.2068000000000003
 30
0.0
 10
0.0992
 20
-4.3363400000000007
 30
0.0
 10
0.20588
 20
-4.56494
 30
0.0
 10
0.0992
 20
-4.6944800000000004
 30
0.0
 10
0.0992
 20
-4.6944800000000004
 30
0.0
 10
-0.02779
 20
-4.56494
 30
0.0
 10
0.023
 20
-4.3642799999999999
 30
0.0
 10
0.04078
 20
-4.2068000000000003
 30
0.0
  0
SPLINE
  5
46
100
AcDbEntity
  8
Ebene 1
 62
     7
100
AcDbSpline
210
0.0
220
0.0
230
1.0
 70
     1
 71
     3
 72
    12
 73
     8
 74
     0
 42
0.0000000001
 43
0.0000000001
 40
0.0
 40
0.0
 40
0.0
 40
0.0
 40
0.5
 40
0.5
 40
0.5
 40
0.5
 40
1.0
 40
1.0
 40
1.0
 40
1.0
 10
-0.12685
 20
-4.2195
 30
0.0
 10
-0.06335
 20
-4.3795200000000003
 30
0.0
 10
-0.05319
 20
-4.5928800000000001
 30
0.0
 10
-0.15479
 20
-4.7351200000000002
 30
0.0
 10
-0.15479
 20
-4.7351200000000002
 30
0.0
 10
-0.25131
 20
-4.5801800000000004
 30
0.0
 10
-0.13955
 20
-4.39222
 30
0.0
 10
-0.12685
 20
-4.2195
 30
0.0
  0
SPLINE
  5
47
100
AcDbEntity
  8
Ebene 1
 62
     7
100
AcDbSpline
210
0.0
220
0.0
230
1.0
 70
     1
 71
     3
 72
    24
 73
    20
 74
     0
 42
0.0000000001
 43
0.0000000001
 40
0.0
 40
0.0
 40
0.0
 40
0.0
 40
0.2
 40
0.2
 40
0.2
 40
0.2
 40
0.4
 40
0.4
 40
0.4
 40
0.4
 40
0.6000000000000001
 40
0.6000000000000001
 40
0.6000000000000001
 40
0.6000000000000001
 40
0.8
 40
0.8
 40
0.8
 40
0.8
 40
1.0
 40
1.0
 40
1.0
 40
1.0
 10
2.2759800000000001
 20
-4.2931600000000003
 30
0.0
 10
2.2861400000000001
 20
-4.4658800000000003
 30
0.0
 10
2.0600800000000001
 20
-4.6792400000000001
 30
0.0
 10
2.00928
 20
-4.8799000000000001
 30
0.0
 10
2.00928
 20
-4.8799000000000001
 30
0.0
 10
2.1388200000000004
 20
-4.7783000000000007
 30
0.0
 10
2.1743800000000002
 20
-4.5497000000000005
 30
0.0
 10
2.3318600000000003
 20
-4.4938200000000004
 30
0.0
 10
2.3318600000000003
 20
-4.4938200000000004
 30
0.0
 10
2.3318600000000003
 20
-4.4938200000000004
 30
0.0
 10
2.29122
 20
-4.6081200000000004
 30
0.0
 10
2.29122
 20
-4.6081200000000004
 30
0.0
 10
2.29122
 20
-4.6081200000000004
 30
0.0
 10
2.1362800000000002
 20
-4.8519600000000001
 30
0.0
 10
1.9864200000000001
 20
-5.1364400000000003
 30
0.0
 10
1.78068
 20
-5.3396400000000002
 30
0.0
 10
1.78068
 20
-5.3396400000000002
 30
0.0
 10
1.8848200000000002
 20
-4.9662600000000001
 30
0.0
 10
2.0321400000000001
 20
-4.6081200000000004
 30
0.0
 10
2.2759800000000001
 20
-4.2931600000000003
 30
0.0
  0
SPLINE
  5
48
100
AcDbEntity
  8
Ebene 1
100
AcDbSpline
210
0.0
220
0.0
230
1.0
 70
     1
 71
     3
 72
    12
 73
     8
 74
     0
 42
0.0000000001
 43
0.0000000001
 40
0.0
 40
0.0
 40
0.0
 40
0.0
 40
0.5
 40
0.5
 40
0.5
 40
0.5
 40
1.0
 40
1.0
 40
1.0
 40
1.0
 10
-2.7633700000000001
 20
-4.4938200000000004
 30
0.0
 10
-2.69733
 20
-4.5065200000000001
 30
0.0
 10
-2.7735300000000001
 20
-4.5928800000000001
 30
0.0
 10
-2.8065500000000001
 20
-4.6081200000000004
 30
0.0
 10
-2.8065500000000001
 20
-4.6081200000000004
 30
0.0
 10
-2.8471900000000003
 20
-4.5801800000000004
 30
0.0
 10
-2.7811500000000002
 20
-4.5217600000000004
 30
0.0
 10
-2.7633700000000001
 20
-4.4938200000000004
 30
0.0
  0
SPLINE
  5
49
100
AcDbEntity
  8
Ebene 1
 62
     7
100
AcDbSpline
210
0.0
220
0.0
230
1.0
 70
     1
 71
     3
 72
    40
 73
    36
 74
     0
 42
0.0000000001
 43
0.0000000001
 40
0.0
 40
0.0
 40
0.0
 40
0.0
 40
0.1111111111111111
 40
0.1111111111111111
 40
0.1111111111111111
 40
0.1111111111111111
 40
0.2222222222222222
 40
0.2222222222222222
 40
0.2222222222222222
 40
0.2222222222222222
 40
0.3333333333333333
 40
0.3333333333333333
 40
0.3333333333333333
 40
0.3333333333333333
 40
0.4444444444444444
 40
0.4444444444444444
 40
0.4444444444444444
 40
0.4444444444444444
 40
0.5555555555555556
 40
0.5555555555555556
 40
0.5555555555555556
 40
0.5555555555555556
 40
0.6666666666666667
 40
0.6666666666666667
 40
0.6666666666666667
 40
0.6666666666666667
 40
0.7777777777777779
 40
0.7777777777777779
 40
0.7777777777777779
 40
0.7777777777777779
 40
0.8888888888888891
 40
0.8888888888888891
 40
0.8888888888888891
 40
0.8888888888888891
 40
1.0
 40
1.0
 40
1.0
 40
1.0
 10
1.2599800000000001
 20
-4.4938200000000004
 30
0.0
 10
1.2955400000000001
 20
-4.6944800000000004
 30
0.0
 10
0.9628000000000001
 20
-4.6208200000000001
 30
0.0
 10
0.8764400000000001
 20
-4.7503600000000006
 30
0.0
 10
0.8764400000000001
 20
-4.7503600000000006
 30
0.0
 10
0.8764400000000001
 20
-4.7503600000000006
 30
0.0
 10
0.95518
 20
-4.82402
 30
0.0
 10
0.95518
 20
-4.82402
 30
0.0
 10
0.95518
 20
-4.82402
 30
0.0
 10
0.8739000000000001
 20
-5.0221400000000003
 30
0.0
 10
1.0440800000000001
 20
-5.1948600000000003
 30
0.0
 10
0.9983600000000001
 20
-5.4107600000000007
 30
0.0
 10
0.9983600000000001
 20
-5.4107600000000007
 30
0.0
 10
0.9399400000000001
 20
-5.3523400000000008
 30
0.0
 10
1.0009000000000001
 20
-5.2253400000000001
 30
0.0
 10
0.9196200000000001
 20
-5.1796200000000008
 30
0.0
 10
0.9196200000000001
 20
-5.1796200000000008
 30
0.0
 10
0.86882
 20
-5.1085000000000003
 30
0.0
 10
0.78754
 20
-5.1516800000000007
 30
0.0
 10
0.7342000000000001
 20
-5.1796200000000008
 30
0.0
 10
0.7342000000000001
 20
-5.1796200000000008
 30
0.0
 10
0.7342000000000001
 20
-5.1796200000000008
 30
0.0
 10
0.7596000000000001
 20
-5.4539400000000002
 30
0.0
 10
0.7596000000000001
 20
-5.4539400000000002
 30
0.0
 10
0.7596000000000001
 20
-5.4539400000000002
 30
0.0
 10
0.5843400000000001
 20
-5.3091600000000003
 30
0.0
 10
0.74182
 20
-5.0958000000000006
 30
0.0
 10
0.8154800000000001
 20
-4.93832
 30
0.0
 10
0.8154800000000001
 20
-4.93832
 30
0.0
 10
0.8104000000000001
 20
-4.8646600000000007
 30
0.0
 10
0.7545200000000001
 20
-4.9662600000000001
 30
0.0
 10
0.71896
 20
-4.9510200000000006
 30
0.0
 10
0.71896
 20
-4.9510200000000006
 30
0.0
 10
0.70372
 20
-4.5928800000000001
 30
0.0
 10
1.05932
 20
-4.6640000000000006
 30
0.0
 10
1.2599800000000001
 20
-4.4938200000000004
 30
0.0
  0
SPLINE
  5
4A
100
AcDbEntity
  8
Ebene 1
 62
     7
100
AcDbSpline
210
0.0
220
0.0
230
1.0
 70
     1
 71
     3
 72
    40
 73
    36
 74
     0
 42
0.0000000001
 43
0.0000000001
 40
0.0
 40
0.0
 40
0.0
 40
0.0
 40
0.1111111111111111
 40
0.1111111111111111
 40
0.1111111111111111
 40
0.1111111111111111
 40
0.2222222222222222
 40
0.2222222222222222
 40
0.2222222222222222
 40
0.2222222222222222
 40
0.3333333333333333
 40
0.3333333333333333
 40
0.3333333333333333
 40
0.3333333333333333
 40
0.4444444444444444
 40
0.4444444444444444
 40
0.4444444444444444
 40
0.4444444444444444
 40
0.5555555555555556
 40
0.5555555555555556
 40
0.5555555555555556
 40
0.5555555555555556
 40
0.6666666666666667
 40
0.6666666666666667
 40
0.6666666666666667
 40
0.6666666666666667
 40
0.7777777777777779
 40
0.7777777777777779
 40
0.7777777777777779
 40
0.7777777777777779
 40
0.8888888888888891
 40
0.8888888888888891
 40
0.8888888888888891
 40
0.8888888888888891
 40
1.0
 40
1.0
 40
1.0
 40
1.0
 10
3.5078800000000001
 20
-4.5217600000000004
 30
0.0
 10
3.7872800000000004
 20
-4.6208200000000001
 30
0.0
 10
3.4723200000000003
 20
-4.9815000000000005
 30
0.0
 10
3.2843600000000004
 20
-4.9942000000000002
 30
0.0
 10
3.2843600000000004
 20
-4.9942000000000002
 30
0.0
 10
3.2843600000000004
 20
-4.9942000000000002
 30
0.0
 10
3.2564200000000003
 20
-4.9078400000000002
 30
0.0
 10
3.2564200000000003
 20
-4.9078400000000002
 30
0.0
 10
3.2564200000000003
 20
-4.9078400000000002
 30
0.0
 10
3.1243400000000001
 20
-5.0805600000000002
 30
0.0
 10
3.0303600000000004
 20
-5.3802800000000008
 30
0.0
 10
2.7966800000000003
 20
-5.3802800000000008
 30
0.0
 10
2.7966800000000003
 20
-5.3802800000000008
 30
0.0
 10
2.8246200000000004
 20
-5.2659800000000008
 30
0.0
 10
3.1141800000000002
 20
-5.0526200000000001
 30
0.0
 10
2.9211400000000003
 20
-5.0221400000000003
 30
0.0
 10
2.9211400000000003
 20
-5.0221400000000003
 30
0.0
 10
2.9211400000000003
 20
-5.0221400000000003
 30
0.0
 10
2.6823800000000002
 20
-5.1364400000000003
 30
0.0
 10
2.6823800000000002
 20
-5.1364400000000003
 30
0.0
 10
2.6823800000000002
 20
-5.1364400000000003
 30
0.0
 10
2.7585800000000003
 20
-4.93832
 30
0.0
 10
2.97194
 20
-4.8519600000000001
 30
0.0
 10
3.1624400000000001
 20
-4.7935400000000001
 30
0.0
 10
3.1624400000000001
 20
-4.7935400000000001
 30
0.0
 10
3.1776800000000001
 20
-4.7783000000000007
 30
0.0
 10
3.1853000000000002
 20
-4.7656000000000001
 30
0.0
 10
3.1751400000000003
 20
-4.7351200000000002
 30
0.0
 10
3.1751400000000003
 20
-4.7351200000000002
 30
0.0
 10
3.1751400000000003
 20
-4.7351200000000002
 30
0.0
 10
3.1116400000000004
 20
-4.7351200000000002
 30
0.0
 10
3.1116400000000004
 20
-4.7351200000000002
 30
0.0
 10
3.1116400000000004
 20
-4.7351200000000002
 30
0.0
 10
3.2183200000000003
 20
-4.6208200000000001
 30
0.0
 10
3.4291400000000003
 20
-4.6792400000000001
 30
0.0
 10
3.5078800000000001
 20
-4.5217600000000004
 30
0.0
  0
SPLINE
  5
4B
100
AcDbEntity
  8
Ebene 1
100
AcDbSpline
210
0.0
220
0.0
230
1.0
 70
     1
 71
     3
 72
    12
 73
     8
 74
     0
 42
0.0000000001
 43
0.0000000001
 40
0.0
 40
0.0
 40
0.0
 40
0.0
 40
0.5
 40
0.5
 40
0.5
 40
0.5
 40
1.0
 40
1.0
 40
1.0
 40
1.0
 10
1.4174600000000002
 20
-4.6081200000000004
 30
0.0
 10
1.4708000000000001
 20
-4.5928800000000001
 30
0.0
 10
1.44032
 20
-4.6792400000000001
 30
0.0
 10
1.4073000000000002
 20
-4.6792400000000001
 30
0.0
 10
1.4073000000000002
 20
-4.6792400000000001
 30
0.0
 10
1.4073000000000002
 20
-4.6792400000000001
 30
0.0
 10
1.4174600000000002
 20
-4.6081200000000004
 30
0.0
 10
1.4174600000000002
 20
-4.6081200000000004
 30
0.0
  0
SPLINE
  5
4C
100
AcDbEntity
  8
Ebene 1
 62
     7
100
AcDbSpline
210
0.0
220
0.0
230
1.0
 70
     1
 71
     3
 72
    12
 73
     8
 74
     0
 42
0.0000000001
 43
0.0000000001
 40
0.0
 40
0.0
 40
0.0
 40
0.0
 40
0.5
 40
0.5
 40
0.5
 40
0.5
 40
1.0
 40
1.0
 40
1.0
 40
1.0
 10
1.6765400000000001
 20
-4.6208200000000001
 30
0.0
 10
1.8975200000000001
 20
-4.6208200000000001
 30
0.0
 10
1.7476600000000002
 20
-4.9230800000000006
 30
0.0
 10
1.5800200000000002
 20
-4.8519600000000001
 30
0.0
 10
1.5800200000000002
 20
-4.8519600000000001
 30
0.0
 10
1.5800200000000002
 20
-4.8519600000000001
 30
0.0
 10
1.6765400000000001
 20
-4.6208200000000001
 30
0.0
 10
1.6765400000000001
 20
-4.6208200000000001
 30
0.0
  0
SPLINE
  5
4D
100
AcDbEntity
  8
Ebene 1
 62
     7
100
AcDbSpline
210
0.0
220
0.0
230
1.0
 70
     1
 71
     3
 72
    20
 73
    16
 74
     0
 42
0.0000000001
 43
0.0000000001
 40
0.0
 40
0.0
 40
0.0
 40
0.0
 40
0.25
 40
0.25
 40
0.25
 40
0.25
 40
0.5
 40
0.5
 40
0.5
 40
0.5
 40
0.75
 40
0.75
 40
0.75
 40
0.75
 40
1.0
 40
1.0
 40
1.0
 40
1.0
 10
-1.6965700000000001
 20
-5.6495200000000008
 30
0.0
 10
-1.9581900000000001
 20
-5.4768000000000008
 30
0.0
 10
-2.2604500000000001
 20
-4.9942000000000002
 30
0.0
 10
-2.48651
 20
-4.7783000000000007
 30
0.0
 10
-2.48651
 20
-4.7783000000000007
 30
0.0
 10
-2.4966700000000004
 20
-4.7503600000000006
 30
0.0
 10
-2.4890500000000002
 20
-4.7351200000000002
 30
0.0
 10
-2.4738100000000003
 20
-4.7224200000000005
 30
0.0
 10
-2.4738100000000003
 20
-4.7224200000000005
 30
0.0
 10
-2.22235
 20
-4.8951400000000005
 30
0.0
 10
-2.0343900000000001
 20
-5.1948600000000003
 30
0.0
 10
-1.8464300000000002
 20
-5.4387000000000008
 30
0.0
 10
-1.8464300000000002
 20
-5.4387000000000008
 30
0.0
 10
-1.8464300000000002
 20
-5.4387000000000008
 30
0.0
 10
-1.6965700000000001
 20
-5.6495200000000008
 30
0.0
 10
-1.6965700000000001
 20
-5.6495200000000008
 30
0.0
  0
SPLINE
  5
4E
100
AcDbEntity
  8
Ebene 1
 62
     7
100
AcDbSpline
210
0.0
220
0.0
230
1.0
 70
     1
 71
     3
 72
    16
 73
    12
 74
     0
 42
0.0000000001
 43
0.0000000001
 40
0.0
 40
0.0
 40
0.0
 40
0.0
 40
0.3333333333333333
 40
0.3333333333333333
 40
0.3333333333333333
 40
0.3333333333333333
 40
0.6666666666666666
 40
0.6666666666666666
 40
0.6666666666666666
 40
0.6666666666666666
 40
1.0
 40
1.0
 40
1.0
 40
1.0
 10
-1.3892300000000002
 20
-4.7351200000000002
 30
0.0
 10
-1.21397
 20
-4.8799000000000001
 30
0.0
 10
-0.9447300000000001
 20
-4.7071800000000001
 30
0.0
 10
-0.7999500000000001
 20
-4.8799000000000001
 30
0.0
 10
-0.7999500000000001
 20
-4.8799000000000001
 30
0.0
 10
-0.7999500000000001
 20
-4.8799000000000001
 30
0.0
 10
-1.1885700000000001
 20
-4.9510200000000006
 30
0.0
 10
-1.1885700000000001
 20
-4.9510200000000006
 30
0.0
 10
-1.1885700000000001
 20
-4.9510200000000006
 30
0.0
 10
-1.2647700000000002
 20
-4.8951400000000005
 30
0.0
 10
-1.38161
 20
-4.8367200000000006
 30
0.0
 10
-1.3892300000000002
 20
-4.7351200000000002
 30
0.0
  0
SPLINE
  5
4F
100
AcDbEntity
  8
Ebene 1
 62
     7
100
AcDbSpline
210
0.0
220
0.0
230
1.0
 70
     1
 71
     3
 72
    12
 73
     8
 74
     0
 42
0.0000000001
 43
0.0000000001
 40
0.0
 40
0.0
 40
0.0
 40
0.0
 40
0.5
 40
0.5
 40
0.5
 40
0.5
 40
1.0
 40
1.0
 40
1.0
 40
1.0
 10
-2.9208500000000002
 20
-4.7783000000000007
 30
0.0
 10
-2.8700500000000004
 20
-4.7935400000000001
 30
0.0
 10
-2.7557500000000004
 20
-4.82402
 30
0.0
 10
-2.8370300000000004
 20
-4.8799000000000001
 30
0.0
 10
-2.8370300000000004
 20
-4.8799000000000001
 30
0.0
 10
-2.9183100000000004
 20
-4.9078400000000002
 30
0.0
 10
-2.9868900000000003
 20
-4.8519600000000001
 30
0.0
 10
-2.9208500000000002
 20
-4.7783000000000007
 30
0.0
  0
SPLINE
  5
50
100
AcDbEntity
  8
Ebene 1
 62
     7
100
AcDbSpline
210
0.0
220
0.0
230
1.0
 70
     1
 71
     3
 72
    24
 73
    20
 74
     0
 42
0.0000000001
 43
0.0000000001
 40
0.0
 40
0.0
 40
0.0
 40
0.0
 40
0.2
 40
0.2
 40
0.2
 40
0.2
 40
0.4
 40
0.4
 40
0.4
 40
0.4
 40
0.6000000000000001
 40
0.6000000000000001
 40
0.6000000000000001
 40
0.6000000000000001
 40
0.8
 40
0.8
 40
0.8
 40
0.8
 40
1.0
 40
1.0
 40
1.0
 40
1.0
 10
-0.65771
 20
-4.8087800000000005
 30
0.0
 10
-0.4367300000000001
 20
-4.8519600000000001
 30
0.0
 10
-0.67549
 20
-5.0526200000000001
 30
0.0
 10
-0.57389
 20
-5.1516800000000007
 30
0.0
 10
-0.57389
 20
-5.1516800000000007
 30
0.0
 10
-0.8151900000000001
 20
-5.0526200000000001
 30
0.0
 10
-0.7694700000000001
 20
-5.3320200000000009
 30
0.0
 10
-0.8329700000000001
 20
-5.4564800000000009
 30
0.0
 10
-0.8329700000000001
 20
-5.4564800000000009
 30
0.0
 10
-0.86853
 20
-5.24566
 30
0.0
 10
-0.80503
 20
-5.0526200000000001
 30
0.0
 10
-0.65771
 20
-4.9078400000000002
 30
0.0
 10
-0.65771
 20
-4.9078400000000002
 30
0.0
 10
-0.65771
 20
-4.9078400000000002
 30
0.0
 10
-0.72375
 20
-4.8519600000000001
 30
0.0
 10
-0.72375
 20
-4.8519600000000001
 30
0.0
 10
-0.72375
 20
-4.8519600000000001
 30
0.0
 10
-0.70089
 20
-4.8367200000000006
 30
0.0
 10
-0.6678700000000001
 20
-4.8367200000000006
 30
0.0
 10
-0.65771
 20
-4.8087800000000005
 30
0.0
  0
SPLINE
  5
51
100
AcDbEntity
  8
Ebene 1
 62
     7
100
AcDbSpline
210
0.0
220
0.0
230
1.0
 70
     1
 71
     3
 72
    48
 73
    44
 74
     0
 42
0.0000000001
 43
0.0000000001
 40
0.0
 40
0.0
 40
0.0
 40
0.0
 40
0.0909090909090909
 40
0.0909090909090909
 40
0.0909090909090909
 40
0.0909090909090909
 40
0.1818181818181818
 40
0.1818181818181818
 40
0.1818181818181818
 40
0.1818181818181818
 40
0.2727272727272727
 40
0.2727272727272727
 40
0.2727272727272727
 40
0.2727272727272727
 40
0.3636363636363637
 40
0.3636363636363637
 40
0.3636363636363637
 40
0.3636363636363637
 40
0.4545454545454546
 40
0.4545454545454546
 40
0.4545454545454546
 40
0.4545454545454546
 40
0.5454545454545455
 40
0.5454545454545455
 40
0.5454545454545455
 40
0.5454545454545455
 40
0.6363636363636365
 40
0.6363636363636365
 40
0.6363636363636365
 40
0.6363636363636365
 40
0.7272727272727274
 40
0.7272727272727274
 40
0.7272727272727274
 40
0.7272727272727274
 40
0.8181818181818183
 40
0.8181818181818183
 40
0.8181818181818183
 40
0.8181818181818183
 40
0.9090909090909093
 40
0.9090909090909093
 40
0.9090909090909093
 40
0.9090909090909093
 40
1.0
 40
1.0
 40
1.0
 40
1.0
 10
-3.2637500000000004
 20
-4.9078400000000002
 30
0.0
 10
-3.1469100000000001
 20
-4.9815000000000005
 30
0.0
 10
-2.8802100000000004
 20
-4.82402
 30
0.0
 10
-2.90307
 20
-5.0094400000000006
 30
0.0
 10
-2.90307
 20
-5.0094400000000006
 30
0.0
 10
-2.90307
 20
-5.0094400000000006
 30
0.0
 10
-2.77861
 20
-5.0094400000000006
 30
0.0
 10
-2.77861
 20
-5.0094400000000006
 30
0.0
 10
-2.77861
 20
-5.0094400000000006
 30
0.0
 10
-2.8446500000000001
 20
-5.0958000000000006
 30
0.0
 10
-2.9437100000000003
 20
-5.0373800000000006
 30
0.0
 10
-3.0351500000000002
 20
-5.0373800000000006
 30
0.0
 10
-3.0351500000000002
 20
-5.0373800000000006
 30
0.0
 10
-3.0351500000000002
 20
-5.0373800000000006
 30
0.0
 10
-3.0884900000000002
 20
-5.0805600000000002
 30
0.0
 10
-3.0884900000000002
 20
-5.0805600000000002
 30
0.0
 10
-3.0884900000000002
 20
-5.0805600000000002
 30
0.0
 10
-2.9259300000000001
 20
-5.1516800000000007
 30
0.0
 10
-2.6770100000000001
 20
-5.0958000000000006
 30
0.0
 10
-2.5779500000000004
 20
-5.2812200000000002
 30
0.0
 10
-2.5779500000000004
 20
-5.2812200000000002
 30
0.0
 10
-2.7303500000000001
 20
-5.1948600000000003
 30
0.0
 10
-2.9284700000000004
 20
-5.3955200000000003
 30
0.0
 10
-2.7913100000000002
 20
-5.5250600000000007
 30
0.0
 10
-2.7913100000000002
 20
-5.5250600000000007
 30
0.0
 10
-2.9284700000000004
 20
-5.5072800000000006
 30
0.0
 10
-2.9589500000000002
 20
-5.3523400000000008
 30
0.0
 10
-3.0656300000000001
 20
-5.2812200000000002
 30
0.0
 10
-3.0656300000000001
 20
-5.2812200000000002
 30
0.0
 10
-3.1316700000000002
 20
-5.3091600000000003
 30
0.0
 10
-3.0224500000000001
 20
-5.3396400000000002
 30
0.0
 10
-3.0376900000000004
 20
-5.3802800000000008
 30
0.0
 10
-3.0376900000000004
 20
-5.3802800000000008
 30
0.0
 10
-3.2027900000000002
 20
-5.3396400000000002
 30
0.0
 10
-3.3424900000000002
 20
-5.1796200000000008
 30
0.0
 10
-3.2739100000000003
 20
-5.0094400000000006
 30
0.0
 10
-3.2739100000000003
 20
-5.0094400000000006
 30
0.0
 10
-3.2739100000000003
 20
-5.0094400000000006
 30
0.0
 10
-3.1926300000000003
 20
-4.9815000000000005
 30
0.0
 10
-3.1926300000000003
 20
-4.9815000000000005
 30
0.0
 10
-3.1926300000000003
 20
-4.9815000000000005
 30
0.0
 10
-3.2129500000000002
 20
-4.93832
 30
0.0
 10
-3.3348700000000004
 20
-4.9815000000000005
 30
0.0
 10
-3.2637500000000004
 20
-4.9078400000000002
 30
0.0
  0
SPLINE
  5
52
100
AcDbEntity
  8
Ebene 1
 62
     7
100
AcDbSpline
210
0.0
220
0.0
230
1.0
 70
     1
 71
     3
 72
    12
 73
     8
 74
     0
 42
0.0000000001
 43
0.0000000001
 40
0.0
 40
0.0
 40
0.0
 40
0.0
 40
0.5
 40
0.5
 40
0.5
 40
0.5
 40
1.0
 40
1.0
 40
1.0
 40
1.0
 10
-3.3348700000000004
 20
-5.0373800000000006
 30
0.0
 10
-3.3145500000000001
 20
-5.0526200000000001
 30
0.0
 10
-3.3145500000000001
 20
-5.1237400000000006
 30
0.0
 10
-3.3348700000000004
 20
-5.1364400000000003
 30
0.0
 10
-3.3348700000000004
 20
-5.1364400000000003
 30
0.0
 10
-3.3653500000000003
 20
-5.1237400000000006
 30
0.0
 10
-3.3526500000000001
 20
-5.0653200000000007
 30
0.0
 10
-3.3348700000000004
 20
-5.0373800000000006
 30
0.0
  0
SPLINE
  5
53
100
AcDbEntity
  8
Ebene 1
 62
     7
100
AcDbSpline
210
0.0
220
0.0
230
1.0
 70
     1
 71
     3
 72
    20
 73
    16
 74
     0
 42
0.0000000001
 43
0.0000000001
 40
0.0
 40
0.0
 40
0.0
 40
0.0
 40
0.25
 40
0.25
 40
0.25
 40
0.25
 40
0.5
 40
0.5
 40
0.5
 40
0.5
 40
0.75
 40
0.75
 40
0.75
 40
0.75
 40
1.0
 40
1.0
 40
1.0
 40
1.0
 10
-1.7321300000000002
 20
-5.0526200000000001
 30
0.0
 10
-1.7321300000000002
 20
-5.0526200000000001
 30
0.0
 10
-1.5594100000000002
 20
-5.0805600000000002
 30
0.0
 10
-1.5594100000000002
 20
-5.0805600000000002
 30
0.0
 10
-1.5594100000000002
 20
-5.0805600000000002
 30
0.0
 10
-1.5594100000000002
 20
-5.0805600000000002
 30
0.0
 10
-1.4349500000000002
 20
-5.1364400000000003
 30
0.0
 10
-1.4349500000000002
 20
-5.1364400000000003
 30
0.0
 10
-1.4349500000000002
 20
-5.1364400000000003
 30
0.0
 10
-1.54925
 20
-5.1948600000000003
 30
0.0
 10
-1.6660900000000001
 20
-5.0958000000000006
 30
0.0
 10
-1.7702300000000002
 20
-5.1085000000000003
 30
0.0
 10
-1.7702300000000002
 20
-5.1085000000000003
 30
0.0
 10
-1.7702300000000002
 20
-5.1085000000000003
 30
0.0
 10
-1.7321300000000002
 20
-5.0526200000000001
 30
0.0
 10
-1.7321300000000002
 20
-5.0526200000000001
 30
0.0
  0
SPLINE
  5
54
100
AcDbEntity
  8
Ebene 1
 62
     7
100
AcDbSpline
210
0.0
220
0.0
230
1.0
 70
     1
 71
     3
 72
    12
 73
     8
 74
     0
 42
0.0000000001
 43
0.0000000001
 40
0.0
 40
0.0
 40
0.0
 40
0.0
 40
0.5
 40
0.5
 40
0.5
 40
0.5
 40
1.0
 40
1.0
 40
1.0
 40
1.0
 10
-2.3341100000000004
 20
-5.0653200000000007
 30
0.0
 10
-2.3036300000000001
 20
-5.0653200000000007
 30
0.0
 10
-2.2604500000000001
 20
-5.1085000000000003
 30
0.0
 10
-2.26553
 20
-5.1364400000000003
 30
0.0
 10
-2.26553
 20
-5.1364400000000003
 30
0.0
 10
-2.3010900000000003
 20
-5.1237400000000006
 30
0.0
 10
-2.3214100000000002
 20
-5.0958000000000006
 30
0.0
 10
-2.3341100000000004
 20
-5.0653200000000007
 30
0.0
  0
SPLINE
  5
55
100
AcDbEntity
  8
Ebene 1
 62
     7
100
AcDbSpline
210
0.0
220
0.0
230
1.0
 70
     1
 71
     3
 72
    24
 73
    20
 74
     0
 42
0.0000000001
 43
0.0000000001
 40
0.0
 40
0.0
 40
0.0
 40
0.0
 40
0.2
 40
0.2
 40
0.2
 40
0.2
 40
0.4
 40
0.4
 40
0.4
 40
0.4
 40
0.6000000000000001
 40
0.6000000000000001
 40
0.6000000000000001
 40
0.6000000000000001
 40
0.8
 40
0.8
 40
0.8
 40
0.8
 40
1.0
 40
1.0
 40
1.0
 40
1.0
 10
2.1388200000000004
 20
-5.7485800000000005
 30
0.0
 10
2.4360000000000004
 20
-5.4412400000000005
 30
0.0
 10
2.6417400000000004
 20
-5.2253400000000001
 30
0.0
 10
2.9186000000000001
 20
-5.0653200000000007
 30
0.0
 10
2.9186000000000001
 20
-5.0653200000000007
 30
0.0
 10
2.9186000000000001
 20
-5.0653200000000007
 30
0.0
 10
2.7255600000000002
 20
-5.2507400000000004
 30
0.0
 10
2.7255600000000002
 20
-5.2507400000000004
 30
0.0
 10
2.7255600000000002
 20
-5.2507400000000004
 30
0.0
 10
2.7154000000000003
 20
-5.2659800000000008
 30
0.0
 10
2.7001600000000003
 20
-5.2812200000000002
 30
0.0
 10
2.7103200000000003
 20
-5.2964600000000006
 30
0.0
 10
2.7103200000000003
 20
-5.2964600000000006
 30
0.0
 10
2.7103200000000003
 20
-5.2964600000000006
 30
0.0
 10
2.8043
 20
-5.2507400000000004
 30
0.0
 10
2.8043
 20
-5.2507400000000004
 30
0.0
 10
2.8043
 20
-5.2507400000000004
 30
0.0
 10
2.6773000000000002
 20
-5.4590200000000006
 30
0.0
 10
2.3750400000000003
 20
-5.5682400000000003
 30
0.0
 10
2.1388200000000004
 20
-5.7485800000000005
 30
0.0
  0
SPLINE
  5
56
100
AcDbEntity
  8
Ebene 1
 62
     7
100
AcDbSpline
210
0.0
220
0.0
230
1.0
 70
     1
 71
     3
 72
    16
 73
    12
 74
     0
 42
0.0000000001
 43
0.0000000001
 40
0.0
 40
0.0
 40
0.0
 40
0.0
 40
0.3333333333333333
 40
0.3333333333333333
 40
0.3333333333333333
 40
0.3333333333333333
 40
0.6666666666666666
 40
0.6666666666666666
 40
0.6666666666666666
 40
0.6666666666666666
 40
1.0
 40
1.0
 40
1.0
 40
1.0
 10
-0.6424700000000001
 20
-5.1948600000000003
 30
0.0
 10
-0.6424700000000001
 20
-5.1948600000000003
 30
0.0
 10
-0.61707
 20
-5.1948600000000003
 30
0.0
 10
-0.61707
 20
-5.1948600000000003
 30
0.0
 10
-0.61707
 20
-5.1948600000000003
 30
0.0
 10
-0.59421
 20
-5.4234600000000004
 30
0.0
 10
-0.6881900000000001
 20
-5.6368200000000002
 30
0.0
 10
-0.8101100000000001
 20
-5.8070000000000004
 30
0.0
 10
-0.8101100000000001
 20
-5.8070000000000004
 30
0.0
 10
-0.7669300000000001
 20
-5.6038000000000006
 30
0.0
 10
-0.7567700000000001
 20
-5.3802800000000008
 30
0.0
 10
-0.6424700000000001
 20
-5.1948600000000003
 30
0.0
  0
SPLINE
  5
57
100
AcDbEntity
  8
Ebene 1
 62
     7
100
AcDbSpline
210
0.0
220
0.0
230
1.0
 70
     1
 71
     3
 72
    20
 73
    16
 74
     0
 42
0.0000000001
 43
0.0000000001
 40
0.0
 40
0.0
 40
0.0
 40
0.0
 40
0.25
 40
0.25
 40
0.25
 40
0.25
 40
0.5
 40
0.5
 40
0.5
 40
0.5
 40
0.75
 40
0.75
 40
0.75
 40
0.75
 40
1.0
 40
1.0
 40
1.0
 40
1.0
 10
1.05932
 20
-5.9263800000000009
 30
0.0
 10
0.9399400000000001
 20
-5.7155600000000009
 30
0.0
 10
0.8104000000000001
 20
-5.5072800000000006
 30
0.0
 10
0.78754
 20
-5.2507400000000004
 30
0.0
 10
0.78754
 20
-5.2507400000000004
 30
0.0
 10
0.7951600000000001
 20
-5.2380400000000007
 30
0.0
 10
0.8104000000000001
 20
-5.2101000000000006
 30
0.0
 10
0.83072
 20
-5.2101000000000006
 30
0.0
 10
0.83072
 20
-5.2101000000000006
 30
0.0
 10
0.8586600000000001
 20
-5.1948600000000003
 30
0.0
 10
0.8789800000000001
 20
-5.2253400000000001
 30
0.0
 10
0.8993000000000001
 20
-5.2380400000000007
 30
0.0
 10
0.8993000000000001
 20
-5.2380400000000007
 30
0.0
 10
0.8993000000000001
 20
-5.2380400000000007
 30
0.0
 10
1.05932
 20
-5.9263800000000009
 30
0.0
 10
1.05932
 20
-5.9263800000000009
 30
0.0
  0
SPLINE
  5
58
100
AcDbEntity
  8
Ebene 1
 62
     7
100
AcDbSpline
210
0.0
220
0.0
230
1.0
 70
     1
 71
     3
 72
    24
 73
    20
 74
     0
 42
0.0000000001
 43
0.0000000001
 40
0.0
 40
0.0
 40
0.0
 40
0.0
 40
0.2
 40
0.2
 40
0.2
 40
0.2
 40
0.4
 40
0.4
 40
0.4
 40
0.4
 40
0.6000000000000001
 40
0.6000000000000001
 40
0.6000000000000001
 40
0.6000000000000001
 40
0.8
 40
0.8
 40
0.8
 40
0.8
 40
1.0
 40
1.0
 40
1.0
 40
1.0
 10
-2.7049500000000002
 20
-5.2964600000000006
 30
0.0
 10
-2.5373100000000002
 20
-5.3904400000000008
 30
0.0
 10
-2.4636500000000003
 20
-5.5123600000000001
 30
0.0
 10
-2.31887
 20
-5.6495200000000008
 30
0.0
 10
-2.31887
 20
-5.6495200000000008
 30
0.0
 10
-2.2350500000000002
 20
-5.7333400000000001
 30
0.0
 10
-2.0801100000000003
 20
-5.82986
 30
0.0
 10
-1.9937500000000001
 20
-5.9060600000000001
 30
0.0
 10
-1.9937500000000001
 20
-5.9060600000000001
 30
0.0
 10
-2.0343900000000001
 20
-5.9111400000000005
 30
0.0
 10
-2.0750300000000004
 20
-5.8933600000000004
 30
0.0
 10
-2.1156700000000002
 20
-5.8781200000000009
 30
0.0
 10
-2.1156700000000002
 20
-5.8781200000000009
 30
0.0
 10
-2.2883900000000001
 20
-5.6800000000000006
 30
0.0
 10
-2.5373100000000002
 20
-5.5682400000000003
 30
0.0
 10
-2.7151100000000001
 20
-5.3802800000000008
 30
0.0
 10
-2.7151100000000001
 20
-5.3802800000000008
 30
0.0
 10
-2.7252700000000001
 20
-5.3523400000000008
 30
0.0
 10
-2.7227300000000003
 20
-5.3244000000000007
 30
0.0
 10
-2.7049500000000002
 20
-5.2964600000000006
 30
0.0
  0
SPLINE
  5
59
100
AcDbEntity
  8
Ebene 1
 62
     7
100
AcDbSpline
210
0.0
220
0.0
230
1.0
 70
     1
 71
     3
 72
    12
 73
     8
 74
     0
 42
0.0000000001
 43
0.0000000001
 40
0.0
 40
0.0
 40
0.0
 40
0.0
 40
0.5
 40
0.5
 40
0.5
 40
0.5
 40
1.0
 40
1.0
 40
1.0
 40
1.0
 10
-2.6338300000000001
 20
-5.5377600000000005
 30
0.0
 10
-2.5830300000000004
 20
-5.5530000000000008
 30
0.0
 10
-2.5119100000000003
 20
-5.5987200000000001
 30
0.0
 10
-2.4941300000000002
 20
-5.6342800000000004
 30
0.0
 10
-2.4941300000000002
 20
-5.6342800000000004
 30
0.0
 10
-2.5449300000000004
 20
-5.6114200000000007
 30
0.0
 10
-2.60589
 20
-5.5860200000000004
 30
0.0
 10
-2.6338300000000001
 20
-5.5377600000000005
 30
0.0
  0
ENDSEC
  0
SECTION
  2
OBJECTS
  0
DICTIONARY
  5
19
100
AcDbDictionary
280
     0
281
     1
  3
ACAD_GROUP
350
1A
  3
ACAD_MLINESTYLE
350
1B
  3
ACAD_LAYOUT
350
1E
  3
ACAD_PLOTSETTINGS
350
22
  3
ACAD_PLOTSTYLENAME
350
1F
  3
ACAD_WIPEOUT_VARS
350
23
  0
DICTIONARY
  5
1A
102
{ACAD_REACTORS
330
19
102
}
100
AcDbDictionary
280
     0
281
     1
  0
DICTIONARY
  5
1B
102
{ACAD_REACTORS
330
19
102
}
100
AcDbDictionary
280
     0
281
     1
  3
Standard
350
1C
  0
MLINESTYLE
  5
1C
102
{ACAD_REACTORS
330
1B
102
}
100
AcDbMlineStyle
  2
Standard
 70
     0
  3

 62
     0
 51
90.0
 52
90.0
 71
     2
 49
0.5
 62
   256
  6
BYLAYER
 49
-0.5
 62
   256
  6
BYLAYER
  0
ACDBDICTIONARYWDFLT
  5
1F
102
{ACAD_REACTORS
330
19
102
}
100
AcDbDictionary
281
     1
  3
Normal
350
1D
100
AcDbDictionaryWithDefault
340
1D
  0
ACDBPLACEHOLDER
  5
1D
102
{ACAD_REACTORS
330
1F
102
}
  0
LAYOUT
  5
20
102
{ACAD_REACTORS
330
1E
102
}
100
AcDbPlotSettings
  1

  2

  4

  6

 40
0.0
 41
0.0
 42
0.0
 43
0.0
 44
0.0
 45
0.0
 46
0.0
 47
0.0
 48
0.0
 49
0.0
140
0.0
141
0.0
142
1.0
143
1.0
 70
  1024
 72
     0
 73
     0
 74
     0
  7

 75
     0
147
1.0
148
0.0
149
0.0
100
AcDbLayout
  1
Model
 70
     0
 71
     0
 10
0.0
 20
0.0
 11
0.0
 21
0.0
 12
0.0
 22
0.0
 32
0.0
 14
0.0
 24
0.0
 34
0.0
 15
0.0
 25
0.0
 35
0.0
146
0.0
 13
0.0
 23
0.0
 33
0.0
 16
0.0
 26
0.0
 36
0.0
 17
0.0
 27
0.0
 37
0.0
 76
     0
330
A
331
0
345
0
346
0
  0
LAYOUT
  5
21
102
{ACAD_REACTORS
330
1E
102
}
100
AcDbPlotSettings
  1

  2

  4

  6

 40
0.0
 41
0.0
 42
0.0
 43
0.0
 44
0.0
 45
0.0
 46
0.0
 47
0.0
 48
0.0
 49
0.0
140
0.0
141
0.0
142
1.0
143
1.0
 70
     0
 72
     0
 73
     0
 74
     0
  7

 75
     0
147
1.0
148
0.0
149
0.0
100
AcDbLayout
  1
Layout1
 70
     0
 71
     0
 10
0.0
 20
0.0
 11
0.0
 21
0.0
 12
0.0
 22
0.0
 32
0.0
 14
0.0
 24
0.0
 34
0.0
 15
0.0
 25
0.0
 35
0.0
146
0.0
 13
0.0
 23
0.0
 33
0.0
 16
0.0
 26
0.0
 36
0.0
 17
0.0
 27
0.0
 37
0.0
 76
     0
330
B
331
0
345
0
346
0
  0
DICTIONARY
  5
1E
102
{ACAD_REACTORS
330
19
102
}
100
AcDbDictionary
280
     0
281
     1
  3
Layout1
350
21
  3
Model
350
20
  0
DICTIONARY
  5
22
102
{ACAD_REACTORS
330
19
102
}
100
AcDbDictionary
280
     0
281
     1
  0
WIPEOUTVARIABLES
  5
23
100
AcDbWipeoutVariables
 70
     1
  0
ENDSEC
  0
EOF
