  0
SECTION
  2
HEADER
  9
$ACADVER
  1
AC1015
  9
$ACADMAINTVER
 70
     6
  9
$DWGCODEPAGE
  3
DOS850
  9
$INSBASE
 10
0.0
 20
0.0
 30
0.0
  9
$EXTMIN
 10
-3.80604
 20
-5.74604
 30
1.000000E+20
  9
$EXTMAX
 10
3.81014
 20
5.73962
 30
-1.000000E+20
  9
$LIMMIN
 10
0.0
 20
0.0
  9
$LIMMAX
 10
0.0
 20
0.0
  9
$ORTHOMODE
 70
     0
  9
$REGENMODE
 70
     1
  9
$FILLMODE
 70
     1
  9
$QTEXTMODE
 70
     0
  9
$MIRRTEXT
 70
     1
  9
$LTSCALE
 40
1.0
  9
$ATTMODE
 70
     1
  9
$TEXTSIZE
 40
0.2
  9
$TRACEWID
 40
0.05
  9
$TEXTSTYLE
  7
Standard
  9
$CLAYER
  8
0
  9
$CELTYPE
  6
Continuous
  9
$CECOLOR
 62
   256
  9
$CELTSCALE
 40
1.0
  9
$DISPSILH
 70
     0
  9
$DIMSCALE
 40
1.0
  9
$DIMASZ
 40
0.18
  9
$DIMEXO
 40
0.0625
  9
$DIMDLI
 40
0.38
  9
$DIMRND
 40
0.0
  9
$DIMDLE
 40
0.0
  9
$DIMEXE
 40
0.18
  9
$DIMTP
 40
0.0
  9
$DIMTM
 40
0.0
  9
$DIMTXT
 40
0.18
  9
$DIMCEN
 40
0.09
  9
$DIMTSZ
 40
0.0
  9
$DIMTOL
 70
     0
  9
$DIMLIM
 70
     0
  9
$DIMTIH
 70
     1
  9
$DIMTOH
 70
     1
  9
$DIMSE1
 70
     0
  9
$DIMSE2
 70
     0
  9
$DIMTAD
 70
     0
  9
$DIMZIN
 70
     0
  9
$DIMBLK
  1

  9
$DIMASO
 70
     1
  9
$DIMSHO
 70
     1
  9
$DIMPOST
  1

  9
$DIMAPOST
  1

  9
$DIMALT
 70
     0
  9
$DIMALTD
 70
     2
  9
$DIMALTF
 40
25.4
  9
$DIMLFAC
 40
1.0
  9
$DIMTOFL
 70
     0
  9
$DIMTVP
 40
0.0
  9
$DIMTIX
 70
     0
  9
$DIMSOXD
 70
     0
  9
$DIMSAH
 70
     0
  9
$DIMBLK1
  1

  9
$DIMBLK2
  1

  9
$DIMSTYLE
  2
Standard
  9
$DIMCLRD
 70
     0
  9
$DIMCLRE
 70
     0
  9
$DIMCLRT
 70
     0
  9
$DIMTFAC
 40
1.0
  9
$DIMGAP
 40
0.09
  9
$DIMJUST
 70
     0
  9
$DIMSD1
 70
     0
  9
$DIMSD2
 70
     0
  9
$DIMTOLJ
 70
     1
  9
$DIMTZIN
 70
     0
  9
$DIMALTZ
 70
     0
  9
$DIMALTTZ
 70
     0
  9
$DIMUPT
 70
     0
  9
$DIMDEC
 70
     4
  9
$DIMTDEC
 70
     4
  9
$DIMALTU
 70
     2
  9
$DIMALTTD
 70
     2
  9
$DIMTXSTY
  7
Standard
  9
$DIMAUNIT
 70
     0
  9
$DIMADEC
 70
     0
  9
$DIMALTRND
 40
0.0
  9
$DIMAZIN
 70
     0
  9
$DIMDSEP
 70
     0
  9
$DIMATFIT
 70
     3
  9
$DIMFRAC
 70
     0
  9
$DIMLDRBLK
  1

  9
$DIMLUNIT
 70
     2
  9
$DIMLWD
 70
     0
  9
$DIMLWE
 70
     0
  9
$DIMTMOVE
 70
     0
  9
$LUNITS
 70
     2
  9
$LUPREC
 70
     4
  9
$SKETCHINC
 40
0.1
  9
$FILLETRAD
 40
0.0
  9
$AUNITS
 70
     0
  9
$AUPREC
 70
     0
  9
$MENU
  1
acad
  9
$ELEVATION
 40
0.0
  9
$PELEVATION
 40
0.0
  9
$THICKNESS
 40
0.0
  9
$LIMCHECK
 70
     0
  9
$CHAMFERA
 40
0.0
  9
$CHAMFERB
 40
0.0
  9
$CHAMFERC
 40
0.0
  9
$CHAMFERD
 40
0.0
  9
$SKPOLY
 70
     0
  9
$TDCREATE
 40
0.000000000
  9
$TDUCREATE
 40
0.000000000
  9
$TDUPDATE
 40
0.000000000
  9
$TDUUPDATE
 40
0.000000000
  9
$TDINDWG
 40
0.0000000000
  9
$TDUSRTIMER
 40
0.0000000000
  9
$USRTIMER
 70
     1
  9
$ANGBASE
 50
0.0
  9
$ANGDIR
 70
     0
  9
$PDMODE
 70
     0
  9
$PDSIZE
 40
0.0
  9
$PLINEWID
 40
0.0
  9
$SPLFRAME
 70
     0
  9
$SPLINETYPE
 70
     6
  9
$SPLINESEGS
 70
     8
  9
$HANDSEED
  5
57
  9
$SURFTAB1
 70
     6
  9
$SURFTAB2
 70
     6
  9
$SURFTYPE
 70
     6
  9
$SURFU
 70
     6
  9
$SURFV
 70
     6
  9
$UCSBASE
  2

  9
$UCSNAME
  2

  9
$UCSORG
 10
0.0
 20
0.0
 30
0.0
  9
$UCSXDIR
 10
1.0
 20
0.0
 30
0.0
  9
$UCSYDIR
 10
0.0
 20
1.0
 30
0.0
  9
$UCSORTHOREF
  2

  9
$UCSORTHOVIEW
 70
     0
  9
$UCSORGTOP
 10
0.0
 20
0.0
 30
0.0
  9
$UCSORGBOTTOM
 10
0.0
 20
0.0
 30
0.0
  9
$UCSORGLEFT
 10
0.0
 20
0.0
 30
0.0
  9
$UCSORGRIGHT
 10
0.0
 20
0.0
 30
0.0
  9
$UCSORGFRONT
 10
0.0
 20
0.0
 30
0.0
  9
$UCSORGBACK
 10
0.0
 20
0.0
 30
0.0
  9
$PUCSBASE
  2

  9
$PUCSNAME
  2

  9
$PUCSORG
 10
0.0
 20
0.0
 30
0.0
  9
$PUCSXDIR
 10
1.0
 20
0.0
 30
0.0
  9
$PUCSYDIR
 10
0.0
 20
1.0
 30
0.0
  9
$PUCSORTHOREF
  2

  9
$PUCSORTHOVIEW
 70
     0
  9
$PUCSORGTOP
 10
0.0
 20
0.0
 30
0.0
  9
$PUCSORGBOTTOM
 10
0.0
 20
0.0
 30
0.0
  9
$PUCSORGLEFT
 10
0.0
 20
0.0
 30
0.0
  9
$PUCSORGRIGHT
 10
0.0
 20
0.0
 30
0.0
  9
$PUCSORGFRONT
 10
0.0
 20
0.0
 30
0.0
  9
$PUCSORGBACK
 10
0.0
 20
0.0
 30
0.0
  9
$USERI1
 70
     0
  9
$USERI2
 70
     0
  9
$USERI3
 70
     0
  9
$USERI4
 70
     0
  9
$USERI5
 70
     0
  9
$USERR1
 40
0.0
  9
$USERR2
 40
0.0
  9
$USERR3
 40
0.0
  9
$USERR4
 40
0.0
  9
$USERR5
 40
0.0
  9
$WORLDVIEW
 70
     1
  9
$SHADEDGE
 70
     3
  9
$SHADEDIF
 70
    70
  9
$TILEMODE
 70
     1
  9
$MAXACTVP
 70
    16
  9
$PINSBASE
 10
0.0
 20
0.0
 30
0.0
  9
$PLIMCHECK
 70
     0
  9
$PEXTMIN
 10
1.000000E+20
 20
1.000000E+20
 30
1.000000E+20
  9
$PEXTMAX
 10
-1.000000E+20
 20
-1.000000E+20
 30
-1.000000E+20
  9
$PLIMMIN
 10
0.0
 20
0.0
  9
$PLIMMAX
 10
12.0
 20
9.0
  9
$UNITMODE
 70
     0
  9
$VISRETAIN
 70
     0
  9
$PLINEGEN
 70
     1
  9
$PSLTSCALE
 70
     0
  9
$TREEDEPTH
 70
  3020
  9
$CMLSTYLE
  2
Standard
  9
$CMLJUST
 70
     0
  9
$CMLSCALE
 40
1.0
  9
$PROXYGRAPHICS
 70
     0
  9
$MEASUREMENT
 70
     0
  9
$CELWEIGHT
370
     0
  9
$ENDCAPS
280
     0
  9
$JOINSTYLE
280
     0
  9
$LWDISPLAY
290
     0
  9
$INSUNITS
 70
     5
  9
$HYPERLINKBASE
  1

  9
$XEDIT
290
     1
  9
$CEPSNTYPE
380
     0
  9
$PSTYLEMODE
290
     1
  9
$FINGERPRINTGUID
  2

  9
$VERSIONGUID
  2

  9
$EXTNAMES
290
     1
  9
$PSVPSCALE
 40
0.0
  0
ENDSEC
  0
SECTION
  2
CLASSES
  0
CLASS
  1
LWPOLYLINE
  2
AcDbPolyline
  3
AutoCAD 2000
 90
    32768
280
     0
281
     1
  0
CLASS
  1
IMAGE
  2
AcDbRasterImage
  3
ISM
 90
    32895
280
     0
281
     1
  0
CLASS
  1
OLE2FRAME
  2
AcDbOle2Frame
  3
AutoCAD 2000
 90
    32768
280
     0
281
     1
  0
CLASS
  1
HATCH
  2
AcDbHatch
  3
AutoCAD 2000
 90
    32768
280
     0
281
     1
  0
CLASS
  1
DICTIONARYVAR
  2
AcDbDictionaryVar
  3
AutoCAD 2000
 90
    32768
280
     0
281
     0
  0
CLASS
  1
RASTERVARIABLES
  2
AcDbRasterVariables
  3
ISM
 90
    32768
280
     0
281
     0
  0
CLASS
  1
IMAGEDEF
  2
AcDbRasterImageDef
  3
ISM
 90
    32768
280
     0
281
     0
  0
CLASS
  1
IMAGEDEF_REACTOR
  2
AcDbRasterImageDefReactor
  3
ISM
 90
    32769
280
     0
281
     0
  0
CLASS
  1
IDBUFFER
  2
AcDbIdBuffer
  3
AutoCAD 2000
 90
    32768
280
     0
281
     0
  0
CLASS
  1
SPATIAL_FILTER
  2
AcDbSpatialFilter
  3
AutoCAD 2000
 90
    32768
280
     0
281
     0
  0
CLASS
  1
XRECORD
  2
AcDbXrecord
  3
AutoCAD 2000
 90
    32768
280
     0
281
     0
  0
CLASS
  1
SORTENTSTABLE
  2
AcDbSortentsTable
  3
AutoCAD 2000
 90
    32768
280
     0
281
     0
  0
CLASS
  1
LAYER_INDEX
  2
AcDbLayerIndex
  3
AutoCAD 2000
 90
    32768
280
     0
281
     0
  0
CLASS
  1
SPATIAL_INDEX
  2
AcDbSpatialIndex
  3
AutoCAD 2000
 90
    32768
280
     0
281
     0
  0
CLASS
  1
OBJECT_PTR
  2
CAseDLPNTableRecord
  3
"ASE-LPNTableRecord"
 90
    32769
280
     0
281
     0
  0
CLASS
  1
LAYOUT
  2
AcDbLayout
  3
AutoCAD 2000
 90
        0
280
     0
281
     0
  0
CLASS
  1
PLOTSETTINGS
  2
AcDbPlotSettings
  3
AutoCAD 2000
 90
    32768
280
     0
281
     0
  0
CLASS
  1
ACDBDICTIONARYWDFLT
  2
AcDbDictionaryWithDefault
  3
AutoCAD 2000
 90
        0
280
     0
281
     0
  0
CLASS
  1
ACDBPLACEHOLDER
  2
AcDbPlaceHolder
  3
AutoCAD 2000
 90
        0
280
     0
281
     0
  0
CLASS
  1
VBA_PROJECT
  2
AcDbVbaProject
  3
acadvba
 90
    32768
280
     0
281
     0
  0
CLASS
  1
WIPEOUT
  2
AcDbWipeout
  3
WipeOut|AutoCAD Express Tool|expresstools@autodesk.com
 90
    32895
280
     0
281
     1
  0
CLASS
  1
WIPEOUTVARIABLES
  2
AcDbWipeoutVariables
  3
WipeOut|AutoCAD Express Tool|expresstools@autodesk.com
 90
        0
280
     0
281
     0
  0
CLASS
  1
RTEXT
  2
RText
  3
RText|AutoCAD Express Tool|expresstools@autodesk.com
 90
    32768
280
     0
281
     1
  0
CLASS
  1
ARCALIGNEDTEXT
  2
AcDbArcAlignedText
  3
ATEXT|AutoCAD Express Tool|expresstools@autodesk.com
 90
    32768
280
     0
281
     1
  0
ENDSEC
  0
SECTION
  2
TABLES
  0
TABLE
  2
VPORT
  5
7
100
AcDbSymbolTable
 70
     1
  0
VPORT
  5
15
100
AcDbSymbolTableRecord
100
AcDbViewportTableRecord
  2
*ACTIVE
 70
     0
 10
0.0
 20
0.0
 11
1.0
 21
1.0
 12
6.591288
 22
4.579184
 13
0.0
 23
0.0
 14
1.0
 24
1.0
 15
0.0
 25
0.0
 16
0.0
 26
0.0
 36
1.0
 17
0.0
 27
0.0
 37
0.0
 40
9.158369
 41
0.688564
 42
50.0
 43
0.0
 44
0.0
 50
0.0
 51
0.0
 71
     0
 72
   100
 73
     1
 74
     1
 75
     0
 76
     0
 77
     0
 78
     0
281
     0
 65
     0
110
0.0
120
0.0
130
0.0
111
1.0
121
0.0
131
0.0
112
0.0
122
1.0
132
0.0
345
0
346
0
 79
     0
146
0.0
  0
ENDTAB
  0
TABLE
  2
LTYPE
  5
4
100
AcDbSymbolTable
 70
     3
  0
LTYPE
  5
11
100
AcDbSymbolTableRecord
100
AcDbLinetypeTableRecord
  2
ByBlock
 70
    64
  3

 72
    65
 73
     0
 40
0.0
  0
LTYPE
  5
12
100
AcDbSymbolTableRecord
100
AcDbLinetypeTableRecord
  2
ByLayer
 70
    64
  3

 72
    65
 73
     0
 40
0.0
  0
LTYPE
  5
13
100
AcDbSymbolTableRecord
100
AcDbLinetypeTableRecord
  2
Continuous
 70
    64
  3
Solid line
 72
    65
 73
     0
 40
0.0
  0
ENDTAB
  0
TABLE
  2
LAYER
  5
2
100
AcDbSymbolTable
 70
     2
  0
LAYER
  5
14
100
AcDbSymbolTableRecord
100
AcDbLayerTableRecord
  2
0
 70
     0
 62
     7
  6
Continuous
290
     1
370
    -3
390
1D
  0
LAYER
  5
24
100
AcDbSymbolTableRecord
100
AcDbLayerTableRecord
  2
Ebene 1
 70
     0
 62
     7
  6
Continuous
290
     1
370
    -3
390
1F
  0
ENDTAB
  0
TABLE
  2
STYLE
  5
3
100
AcDbSymbolTable
 70
     1
  0
STYLE
  5
17
100
AcDbSymbolTableRecord
100
AcDbTextStyleTableRecord
  2
Standard
 70
     0
 40
0.0
 41
1.0
 50
0.0
 71
     0
 42
0.0
  3
txt
  4

  0
ENDTAB
  0
TABLE
  2
VIEW
  5
5
100
AcDbSymbolTable
 70
     0
  0
ENDTAB
  0
TABLE
  2
UCS
  5
6
100
AcDbSymbolTable
 70
     0
  0
ENDTAB
  0
TABLE
  2
APPID
  5
8
100
AcDbSymbolTable
 70
     1
  0
APPID
  5
16
100
AcDbSymbolTableRecord
100
AcDbRegAppTableRecord
  2
ACAD
 70
     0
  0
ENDTAB
  0
TABLE
  2
DIMSTYLE
  5
9
100
AcDbSymbolTable
 70
     1
100
AcDbDimStyleTable
 71
     0
  0
DIMSTYLE
105
18
100
AcDbSymbolTableRecord
100
AcDbDimStyleTableRecord
  2
Standard
 70
     0
  3

  4

 40
1.0
 41
0.18
 42
0.0625
 43
0.38
 44
0.18
 45
0.0
 46
0.0
 47
0.0
 48
0.0
 71
     0
 72
     0
 73
     1
 74
     1
 75
     0
 76
     0
 77
     0
 78
     0
 79
     0
140
0.18
141
0.09
142
0.0
143
25.4
144
1.0
145
0.0
146
1.0
147
0.09
148
0.0
170
     0
171
     2
172
     0
173
     0
174
     0
175
     0
176
     0
177
     0
178
     0
179
     0
271
     4
272
     4
273
     2
274
     2
275
     0
276
     0
277
     2
278
    46
279
     0
280
     0
281
     0
282
     0
283
     1
284
     0
285
     0
286
     0
288
     0
340
17
341
0
342
0
343
0
344
0
371
    -2
372
    -2
  0
ENDTAB
  0
TABLE
  2
BLOCK_RECORD
  5
1
100
AcDbSymbolTable
 70
     0
  0
BLOCK_RECORD
  5
A
100
AcDbSymbolTableRecord
100
AcDbBlockTableRecord
  2
*MODEL_SPACE
340
20
  0
BLOCK_RECORD
  5
B
100
AcDbSymbolTableRecord
100
AcDbBlockTableRecord
  2
*PAPER_SPACE
340
21
  0
ENDTAB
  0
ENDSEC
  0
SECTION
  2
BLOCKS
  0
BLOCK
  5
D
100
AcDbEntity
  8
0
100
AcDbBlockBegin
  2
*MODEL_SPACE
 70
     0
 10
0.0
 20
0.0
 30
0.0
  3
*MODEL_SPACE
  1

  0
ENDBLK
  5
E
100
AcDbEntity
  8
0
100
AcDbBlockEnd
  0
BLOCK
  5
F
100
AcDbEntity
 67
     1
  8
0
100
AcDbBlockBegin
  2
*PAPER_SPACE
 70
     0
 10
0.0
 20
0.0
 30
0.0
  3
*PAPER_SPACE
  1

  0
ENDBLK
  5
10
100
AcDbEntity
 67
     1
  8
0
100
AcDbBlockEnd
  0
ENDSEC
  0
SECTION
  2
ENTITIES
  0
SPLINE
  5
25
100
AcDbEntity
  8
Ebene 1
100
AcDbSpline
210
0.0
220
0.0
230
1.0
 70
     1
 71
     3
 72
    56
 73
    52
 74
     0
 42
0.0000000001
 43
0.0000000001
 40
0.0
 40
0.0
 40
0.0
 40
0.0
 40
0.0769230769230769
 40
0.0769230769230769
 40
0.0769230769230769
 40
0.0769230769230769
 40
0.1538461538461539
 40
0.1538461538461539
 40
0.1538461538461539
 40
0.1538461538461539
 40
0.2307692307692308
 40
0.2307692307692308
 40
0.2307692307692308
 40
0.2307692307692308
 40
0.3076923076923077
 40
0.3076923076923077
 40
0.3076923076923077
 40
0.3076923076923077
 40
0.3846153846153846
 40
0.3846153846153846
 40
0.3846153846153846
 40
0.3846153846153846
 40
0.4615384615384616
 40
0.4615384615384616
 40
0.4615384615384616
 40
0.4615384615384616
 40
0.5384615384615386
 40
0.5384615384615386
 40
0.5384615384615386
 40
0.5384615384615386
 40
0.6153846153846154
 40
0.6153846153846154
 40
0.6153846153846154
 40
0.6153846153846154
 40
0.6923076923076923
 40
0.6923076923076923
 40
0.6923076923076923
 40
0.6923076923076923
 40
0.7692307692307692
 40
0.7692307692307692
 40
0.7692307692307692
 40
0.7692307692307692
 40
0.846153846153846
 40
0.846153846153846
 40
0.846153846153846
 40
0.846153846153846
 40
0.9230769230769229
 40
0.9230769230769229
 40
0.9230769230769229
 40
0.9230769230769229
 40
1.0
 40
1.0
 40
1.0
 40
1.0
 10
-0.57135
 20
5.7245900000000001
 30
0.0
 10
2.0981800000000002
 20
5.9811300000000003
 30
0.0
 10
3.6196400000000004
 20
3.1185500000000004
 30
0.0
 10
3.8101400000000005
 20
0.8960500000000001
 30
0.0
 10
3.8101400000000005
 20
0.8960500000000001
 30
0.0
 10
3.5205800000000003
 20
0.36519
 30
0.0
 10
3.2361000000000004
 20
-0.18852
 30
0.0
 10
2.75604
 20
-0.54666
 30
0.0
 10
2.75604
 20
-0.54666
 30
0.0
 10
2.6214200000000001
 20
-1.2604000000000002
 30
0.0
 10
2.6188800000000003
 20
-2.0224000000000002
 30
0.0
 10
3.05322
 20
-2.6167600000000002
 30
0.0
 10
3.05322
 20
-2.6167600000000002
 30
0.0
 10
3.05322
 20
-2.6167600000000002
 30
0.0
 10
3.0125800000000003
 20
-2.8885400000000003
 30
0.0
 10
3.0125800000000003
 20
-2.8885400000000003
 30
0.0
 10
3.0125800000000003
 20
-2.8885400000000003
 30
0.0
 10
2.2709000000000001
 20
-3.7292800000000002
 30
0.0
 10
2.3623400000000001
 20
-5.5098200000000004
 30
0.0
 10
0.9475600000000001
 20
-5.4336200000000003
 30
0.0
 10
0.9475600000000001
 20
-5.4336200000000003
 30
0.0
 10
0.9475600000000001
 20
-5.4336200000000003
 30
0.0
 10
0.18302
 20
-5.7460400000000007
 30
0.0
 10
0.18302
 20
-5.7460400000000007
 30
0.0
 10
0.18302
 20
-5.7460400000000007
 30
0.0
 10
-0.24623
 20
-5.7155600000000009
 30
0.0
 10
-0.3122700000000001
 20
-5.1618400000000007
 30
0.0
 10
-0.59421
 20
-4.8976800000000003
 30
0.0
 10
-0.59421
 20
-4.8976800000000003
 30
0.0
 10
-1.5187700000000002
 20
-5.0221400000000003
 30
0.0
 10
-1.7880100000000001
 20
-3.9578800000000003
 30
0.0
 10
-1.42225
 20
-3.2847800000000005
 30
0.0
 10
-1.42225
 20
-3.2847800000000005
 30
0.0
 10
-1.7753100000000002
 20
-3.0104600000000001
 30
0.0
 10
-1.7270500000000002
 20
-2.2408400000000004
 30
0.0
 10
-1.8515100000000002
 20
-1.7506200000000001
 30
0.0
 10
-1.8515100000000002
 20
-1.7506200000000001
 30
0.0
 10
-2.0369300000000004
 20
-1.9157200000000001
 30
0.0
 10
-2.3036300000000001
 20
-1.7658600000000002
 30
0.0
 10
-2.5093700000000001
 20
-1.7074400000000001
 30
0.0
 10
-2.5093700000000001
 20
-1.7074400000000001
 30
0.0
 10
-2.6998700000000002
 20
-1.5271000000000001
 30
0.0
 10
-2.5982700000000003
 20
-1.2375400000000001
 30
0.0
 10
-2.7405100000000004
 20
-1.0318000000000001
 30
0.0
 10
-2.7405100000000004
 20
-1.0318000000000001
 30
0.0
 10
-3.1240500000000004
 20
-0.6762
 30
0.0
 10
-3.2129500000000002
 20
-0.28504
 30
0.0
 10
-3.2942300000000002
 20
0.20771
 30
0.0
 10
-3.2942300000000002
 20
0.20771
 30
0.0
 10
-4.7217100000000007
 20
2.3946500000000004
 30
0.0
 10
-2.9538700000000002
 20
5.2699300000000004
 30
0.0
 10
-0.57135
 20
5.7245900000000001
 30
0.0
  0
SPLINE
  5
26
100
AcDbEntity
  8
Ebene 1
100
AcDbSpline
210
0.0
220
0.0
230
1.0
 70
     1
 71
     3
 72
    28
 73
    24
 74
     0
 42
0.0000000001
 43
0.0000000001
 40
0.0
 40
0.0
 40
0.0
 40
0.0
 40
0.1666666666666667
 40
0.1666666666666667
 40
0.1666666666666667
 40
0.1666666666666667
 40
0.3333333333333333
 40
0.3333333333333333
 40
0.3333333333333333
 40
0.3333333333333333
 40
0.5
 40
0.5
 40
0.5
 40
0.5
 40
0.6666666666666666
 40
0.6666666666666666
 40
0.6666666666666666
 40
0.6666666666666666
 40
0.8333333333333333
 40
0.8333333333333333
 40
0.8333333333333333
 40
0.8333333333333333
 40
1.0
 40
1.0
 40
1.0
 40
1.0
 10
0.8866000000000001
 20
-1.21214
 30
0.0
 10
0.8866000000000001
 20
-1.21214
 30
0.0
 10
0.5183000000000001
 20
-1.3416800000000002
 30
0.0
 10
0.5183000000000001
 20
-1.3416800000000002
 30
0.0
 10
0.5183000000000001
 20
-1.3416800000000002
 30
0.0
 10
0.5183000000000001
 20
-1.3416800000000002
 30
0.0
 10
0.8485
 20
-1.7328400000000002
 30
0.0
 10
0.8485
 20
-1.7328400000000002
 30
0.0
 10
0.8485
 20
-1.7328400000000002
 30
0.0
 10
0.9018400000000001
 20
-1.9106400000000001
 30
0.0
 10
0.7519800000000001
 20
-2.0325600000000001
 30
0.0
 10
0.7392800000000001
 20
-2.19258
 30
0.0
 10
0.7392800000000001
 20
-2.19258
 30
0.0
 10
0.7392800000000001
 20
-2.19258
 30
0.0
 10
0.86882
 20
-2.2662400000000003
 30
0.0
 10
0.86882
 20
-2.2662400000000003
 30
0.0
 10
0.86882
 20
-2.2662400000000003
 30
0.0
 10
1.1202800000000002
 20
-2.2637
 30
0.0
 10
1.3387200000000001
 20
-2.1367000000000003
 30
0.0
 10
1.5165200000000001
 20
-1.9690600000000003
 30
0.0
 10
1.5165200000000001
 20
-1.9690600000000003
 30
0.0
 10
1.3768200000000002
 20
-1.7049000000000001
 30
0.0
 10
1.2599800000000001
 20
-1.2197600000000002
 30
0.0
 10
0.8866000000000001
 20
-1.21214
 30
0.0
  0
SPLINE
  5
27
100
AcDbEntity
  8
Ebene 1
 62
     7
100
AcDbSpline
210
0.0
220
0.0
230
1.0
 70
     1
 71
     3
 72
   152
 73
   148
 74
     0
 42
0.0000000001
 43
0.0000000001
 40
0.0
 40
0.0
 40
0.0
 40
0.0
 40
0.027027027027027
 40
0.027027027027027
 40
0.027027027027027
 40
0.027027027027027
 40
0.0540540540540541
 40
0.0540540540540541
 40
0.0540540540540541
 40
0.0540540540540541
 40
0.0810810810810811
 40
0.0810810810810811
 40
0.0810810810810811
 40
0.0810810810810811
 40
0.1081081081081081
 40
0.1081081081081081
 40
0.1081081081081081
 40
0.1081081081081081
 40
0.1351351351351351
 40
0.1351351351351351
 40
0.1351351351351351
 40
0.1351351351351351
 40
0.1621621621621622
 40
0.1621621621621622
 40
0.1621621621621622
 40
0.1621621621621622
 40
0.1891891891891892
 40
0.1891891891891892
 40
0.1891891891891892
 40
0.1891891891891892
 40
0.2162162162162162
 40
0.2162162162162162
 40
0.2162162162162162
 40
0.2162162162162162
 40
0.2432432432432433
 40
0.2432432432432433
 40
0.2432432432432433
 40
0.2432432432432433
 40
0.2702702702702703
 40
0.2702702702702703
 40
0.2702702702702703
 40
0.2702702702702703
 40
0.2972972972972973
 40
0.2972972972972973
 40
0.2972972972972973
 40
0.2972972972972973
 40
0.3243243243243243
 40
0.3243243243243243
 40
0.3243243243243243
 40
0.3243243243243243
 40
0.3513513513513514
 40
0.3513513513513514
 40
0.3513513513513514
 40
0.3513513513513514
 40
0.3783783783783784
 40
0.3783783783783784
 40
0.3783783783783784
 40
0.3783783783783784
 40
0.4054054054054054
 40
0.4054054054054054
 40
0.4054054054054054
 40
0.4054054054054054
 40
0.4324324324324325
 40
0.4324324324324325
 40
0.4324324324324325
 40
0.4324324324324325
 40
0.4594594594594595
 40
0.4594594594594595
 40
0.4594594594594595
 40
0.4594594594594595
 40
0.4864864864864865
 40
0.4864864864864865
 40
0.4864864864864865
 40
0.4864864864864865
 40
0.5135135135135136
 40
0.5135135135135136
 40
0.5135135135135136
 40
0.5135135135135136
 40
0.5405405405405406
 40
0.5405405405405406
 40
0.5405405405405406
 40
0.5405405405405406
 40
0.5675675675675675
 40
0.5675675675675675
 40
0.5675675675675675
 40
0.5675675675675675
 40
0.5945945945945945
 40
0.5945945945945945
 40
0.5945945945945945
 40
0.5945945945945945
 40
0.6216216216216215
 40
0.6216216216216215
 40
0.6216216216216215
 40
0.6216216216216215
 40
0.6486486486486485
 40
0.6486486486486485
 40
0.6486486486486485
 40
0.6486486486486485
 40
0.6756756756756754
 40
0.6756756756756754
 40
0.6756756756756754
 40
0.6756756756756754
 40
0.7027027027027024
 40
0.7027027027027024
 40
0.7027027027027024
 40
0.7027027027027024
 40
0.7297297297297294
 40
0.7297297297297294
 40
0.7297297297297294
 40
0.7297297297297294
 40
0.7567567567567564
 40
0.7567567567567564
 40
0.7567567567567564
 40
0.7567567567567564
 40
0.7837837837837833
 40
0.7837837837837833
 40
0.7837837837837833
 40
0.7837837837837833
 40
0.8108108108108103
 40
0.8108108108108103
 40
0.8108108108108103
 40
0.8108108108108103
 40
0.8378378378378373
 40
0.8378378378378373
 40
0.8378378378378373
 40
0.8378378378378373
 40
0.8648648648648643
 40
0.8648648648648643
 40
0.8648648648648643
 40
0.8648648648648643
 40
0.8918918918918912
 40
0.8918918918918912
 40
0.8918918918918912
 40
0.8918918918918912
 40
0.9189189189189182
 40
0.9189189189189182
 40
0.9189189189189182
 40
0.9189189189189182
 40
0.9459459459459452
 40
0.9459459459459452
 40
0.9459459459459452
 40
0.9459459459459452
 40
0.9729729729729721
 40
0.9729729729729721
 40
0.9729729729729721
 40
0.9729729729729721
 40
1.0
 40
1.0
 40
1.0
 40
1.0
 10
-0.21575
 20
-1.8776200000000001
 30
0.0
 10
-0.16241
 20
-1.67188
 30
0.0
 10
-0.24877
 20
-1.4763000000000002
 30
0.0
 10
-0.14717
 20
-1.3035800000000002
 30
0.0
 10
-0.14717
 20
-1.3035800000000002
 30
0.0
 10
0.08904
 20
-1.4788400000000002
 30
0.0
 10
0.11698
 20
-1.8293600000000001
 30
0.0
 10
0.23636
 20
-2.0935200000000003
 30
0.0
 10
0.23636
 20
-2.0935200000000003
 30
0.0
 10
0.05856
 20
-1.9487400000000001
 30
0.0
 10
-0.02271
 20
-2.2891000000000004
 30
0.0
 10
0.01538
 20
-2.3907000000000003
 30
0.0
 10
0.01538
 20
-2.3907000000000003
 30
0.0
 10
-0.27163
 20
-2.2281400000000002
 30
0.0
 10
-0.15479
 20
-2.5888200000000001
 30
0.0
 10
-0.09383
 20
-2.7590000000000003
 30
0.0
 10
-0.09383
 20
-2.7590000000000003
 30
0.0
 10
-0.19543
 20
-2.7259800000000003
 30
0.0
 10
-0.28433
 20
-2.5837400000000001
 30
0.0
 10
-0.41895
 20
-2.6218400000000002
 30
0.0
 10
-0.41895
 20
-2.6218400000000002
 30
0.0
 10
-0.4392700000000001
 20
-2.7615400000000001
 30
0.0
 10
-0.40371
 20
-2.8961600000000001
 30
0.0
 10
-0.35291
 20
-3.0206200000000001
 30
0.0
 10
-0.35291
 20
-3.0206200000000001
 30
0.0
 10
-0.44689
 20
-2.9495000000000005
 30
0.0
 10
-0.5611900000000001
 20
-2.8402800000000004
 30
0.0
 10
-0.6831100000000001
 20
-2.7844000000000002
 30
0.0
 10
-0.6831100000000001
 20
-2.7844000000000002
 30
0.0
 10
-0.8075700000000001
 20
-2.7539200000000004
 30
0.0
 10
-0.7339100000000001
 20
-2.9164800000000004
 30
0.0
 10
-0.75931
 20
-2.9825200000000001
 30
0.0
 10
-0.75931
 20
-2.9825200000000001
 30
0.0
 10
-0.8405900000000001
 20
-2.9799800000000003
 30
0.0
 10
-0.8177300000000001
 20
-2.7971000000000004
 30
0.0
 10
-0.9421900000000001
 20
-2.8402800000000004
 30
0.0
 10
-0.9421900000000001
 20
-2.8402800000000004
 30
0.0
 10
-1.0133100000000002
 20
-2.8707600000000002
 30
0.0
 10
-0.9904500000000001
 20
-2.9596600000000004
 30
0.0
 10
-1.00061
 20
-3.0206200000000001
 30
0.0
 10
-1.00061
 20
-3.0206200000000001
 30
0.0
 10
-1.00061
 20
-3.0206200000000001
 30
0.0
 10
-1.12761
 20
-2.8783800000000004
 30
0.0
 10
-1.12761
 20
-2.8783800000000004
 30
0.0
 10
-1.12761
 20
-2.8783800000000004
 30
0.0
 10
-1.24699
 20
-2.9164800000000004
 30
0.0
 10
-1.2266700000000001
 20
-2.9495000000000005
 30
0.0
 10
-1.3485900000000002
 20
-2.85806
 30
0.0
 10
-1.3485900000000002
 20
-2.85806
 30
0.0
 10
-1.3485900000000002
 20
-2.85806
 30
0.0
 10
-1.46035
 20
-2.9317200000000003
 30
0.0
 10
-1.46035
 20
-2.9317200000000003
 30
0.0
 10
-1.46035
 20
-2.9317200000000003
 30
0.0
 10
-1.8261100000000001
 20
-2.5405600000000002
 30
0.0
 10
-1.7524500000000001
 20
-1.8827000000000003
 30
0.0
 10
-1.7219700000000002
 20
-1.3645400000000001
 30
0.0
 10
-1.7219700000000002
 20
-1.3645400000000001
 30
0.0
 10
-1.7219700000000002
 20
-1.3645400000000001
 30
0.0
 10
-1.8235700000000001
 20
-1.4382000000000001
 30
0.0
 10
-1.8235700000000001
 20
-1.4382000000000001
 30
0.0
 10
-1.8235700000000001
 20
-1.4382000000000001
 30
0.0
 10
-1.9226300000000001
 20
-1.9589000000000001
 30
0.0
 10
-2.6947900000000002
 20
-1.5956800000000002
 30
0.0
 10
-2.5500100000000003
 20
-1.1740400000000002
 30
0.0
 10
-2.5500100000000003
 20
-1.1740400000000002
 30
0.0
 10
-2.5500100000000003
 20
-1.1740400000000002
 30
0.0
 10
-2.6617700000000002
 20
-0.9530600000000001
 30
0.0
 10
-2.6617700000000002
 20
-0.9530600000000001
 30
0.0
 10
-2.6617700000000002
 20
-0.9530600000000001
 30
0.0
 10
-2.4788900000000003
 20
-1.0165600000000001
 30
0.0
 10
-2.3823700000000003
 20
-1.2629400000000002
 30
0.0
 10
-2.18425
 20
-1.2426200000000001
 30
0.0
 10
-2.18425
 20
-1.2426200000000001
 30
0.0
 10
-2.14615
 20
-0.9378200000000001
 30
0.0
 10
-1.8896100000000002
 20
-0.71684
 30
0.0
 10
-1.7194300000000002
 20
-1.0089400000000002
 30
0.0
 10
-1.7194300000000002
 20
-1.0089400000000002
 30
0.0
 10
-1.6940300000000001
 20
-0.6635000000000001
 30
0.0
 10
-2.0394700000000001
 20
-0.69398
 30
0.0
 10
-2.1994900000000004
 20
-0.8971800000000001
 30
0.0
 10
-2.1994900000000004
 20
-0.8971800000000001
 30
0.0
 10
-2.4763500000000001
 20
-0.71938
 30
0.0
 10
-2.8065500000000001
 20
-0.7498600000000001
 30
0.0
 10
-3.0275300000000001
 20
-0.5415800000000001
 30
0.0
 10
-3.0275300000000001
 20
-0.5415800000000001
 30
0.0
 10
-3.15707
 20
-0.34346
 30
0.0
 10
-3.0884900000000002
 20
-0.02342
 30
0.0
 10
-2.86497
 20
0.02483
 30
0.0
 10
-2.86497
 20
0.02483
 30
0.0
 10
-3.6676100000000003
 20
0.8630300000000001
 30
0.0
 10
-4.1578300000000006
 20
2.5597500000000002
 30
0.0
 10
-3.1545300000000003
 20
3.4081100000000002
 30
0.0
 10
-3.1545300000000003
 20
3.4081100000000002
 30
0.0
 10
-3.0732500000000003
 20
3.4436700000000005
 30
0.0
 10
-2.9741900000000001
 20
3.4258900000000003
 30
0.0
 10
-2.8878300000000001
 20
3.4157300000000004
 30
0.0
 10
-2.8878300000000001
 20
3.4157300000000004
 30
0.0
 10
-3.0529300000000004
 20
3.5554300000000003
 30
0.0
 10
-3.2967700000000004
 20
3.4055700000000004
 30
0.0
 10
-3.4339300000000001
 20
3.2861900000000004
 30
0.0
 10
-3.4339300000000001
 20
3.2861900000000004
 30
0.0
 10
-3.2078700000000002
 20
3.7789500000000005
 30
0.0
 10
-2.7887700000000004
 20
4.2361500000000003
 30
0.0
 10
-2.31379
 20
4.5536500000000002
 30
0.0
 10
-2.31379
 20
4.5536500000000002
 30
0.0
 10
-2.3010900000000003
 20
4.4444300000000005
 30
0.0
 10
-2.4890500000000002
 20
4.2158300000000004
 30
0.0
 10
-2.2960100000000003
 20
4.1929700000000008
 30
0.0
 10
-2.2960100000000003
 20
4.1929700000000008
 30
0.0
 10
-1.7803900000000001
 20
5.1505500000000008
 30
0.0
 10
-0.66025
 20
5.7677700000000005
 30
0.0
 10
0.44464
 20
5.5747300000000006
 30
0.0
 10
0.44464
 20
5.5747300000000006
 30
0.0
 10
2.25312
 20
5.1657900000000003
 30
0.0
 10
3.4012000000000002
 20
3.0855300000000003
 30
0.0
 10
3.4596200000000001
 20
1.3024500000000001
 30
0.0
 10
3.4596200000000001
 20
1.3024500000000001
 30
0.0
 10
3.4215200000000001
 20
1.15259
 30
0.0
 10
3.3834200000000001
 20
1.0103500000000001
 30
0.0
 10
3.2792800000000004
 20
0.89097
 30
0.0
 10
3.2792800000000004
 20
0.89097
 30
0.0
 10
3.3377000000000003
 20
0.70555
 30
0.0
 10
3.4697800000000001
 20
1.11195
 30
0.0
 10
3.5840800000000002
 20
1.1322700000000001
 30
0.0
 10
3.5840800000000002
 20
1.1322700000000001
 30
0.0
 10
3.6247200000000004
 20
0.61665
 30
0.0
 10
3.1141800000000002
 20
-0.00818
 30
0.0
 10
2.5350600000000001
 20
0.17215
 30
0.0
 10
2.5350600000000001
 20
0.17215
 30
0.0
 10
2.3267800000000003
 20
0.23057
 30
0.0
 10
2.6925400000000002
 20
0.39821
 30
0.0
 10
2.50204
 20
0.4109100000000001
 30
0.0
 10
2.50204
 20
0.4109100000000001
 30
0.0
 10
2.2074000000000003
 20
0.05277
 30
0.0
 10
1.8645
 20
-0.0793
 30
0.0
 10
1.4479400000000002
 20
-0.12502
 30
0.0
 10
1.4479400000000002
 20
-0.12502
 30
0.0
 10
0.8002400000000001
 20
-0.6000000000000001
 30
0.0
 10
0.4395600000000001
 20
-1.4788400000000002
 30
0.0
 10
-0.51039
 20
-1.1969000000000001
 30
0.0
 10
-0.51039
 20
-1.1969000000000001
 30
0.0
 10
-0.5383300000000001
 20
-1.2146800000000002
 30
0.0
 10
-0.54849
 20
-1.2756400000000001
 30
0.0
 10
-0.5154700000000001
 20
-1.2858000000000001
 30
0.0
 10
-0.5154700000000001
 20
-1.2858000000000001
 30
0.0
 10
-0.17257
 20
-1.1842000000000001
 30
0.0
 10
-0.4291100000000001
 20
-1.7353800000000001
 30
0.0
 10
-0.21575
 20
-1.8776200000000001
 30
0.0
  0
SPLINE
  5
28
100
AcDbEntity
  8
Ebene 1
100
AcDbSpline
210
0.0
220
0.0
230
1.0
 70
     1
 71
     3
 72
    24
 73
    20
 74
     0
 42
0.0000000001
 43
0.0000000001
 40
0.0
 40
0.0
 40
0.0
 40
0.0
 40
0.2
 40
0.2
 40
0.2
 40
0.2
 40
0.4
 40
0.4
 40
0.4
 40
0.4
 40
0.6000000000000001
 40
0.6000000000000001
 40
0.6000000000000001
 40
0.6000000000000001
 40
0.8
 40
0.8
 40
0.8
 40
0.8
 40
1.0
 40
1.0
 40
1.0
 40
1.0
 10
-1.8667500000000001
 20
4.07613
 30
0.0
 10
-1.8667500000000001
 20
4.07613
 30
0.0
 10
-1.6254500000000001
 20
4.0583499999999999
 30
0.0
 10
-1.6254500000000001
 20
4.0583499999999999
 30
0.0
 10
-1.6254500000000001
 20
4.0583499999999999
 30
0.0
 10
-1.4933700000000001
 20
4.0507300000000006
 30
0.0
 10
-1.4882900000000001
 20
3.9618300000000004
 30
0.0
 10
-1.6254500000000001
 20
4.0227900000000005
 30
0.0
 10
-1.6254500000000001
 20
4.0227900000000005
 30
0.0
 10
-1.9886700000000002
 20
4.1167700000000007
 30
0.0
 10
-2.3112500000000002
 20
3.8449900000000001
 30
0.0
 10
-2.5271500000000002
 20
3.6011500000000001
 30
0.0
 10
-2.5271500000000002
 20
3.6011500000000001
 30
0.0
 10
-2.5220700000000003
 20
3.7637100000000001
 30
0.0
 10
-2.3468100000000001
 20
3.8653100000000005
 30
0.0
 10
-2.22235
 20
3.9516700000000005
 30
0.0
 10
-2.22235
 20
3.9516700000000005
 30
0.0
 10
-2.1156700000000002
 20
4.0278700000000001
 30
0.0
 10
-1.9785100000000002
 20
4.0507300000000006
 30
0.0
 10
-1.8667500000000001
 20
4.07613
 30
0.0
  0
SPLINE
  5
29
100
AcDbEntity
  8
Ebene 1
100
AcDbSpline
210
0.0
220
0.0
230
1.0
 70
     1
 71
     3
 72
    28
 73
    24
 74
     0
 42
0.0000000001
 43
0.0000000001
 40
0.0
 40
0.0
 40
0.0
 40
0.0
 40
0.1666666666666667
 40
0.1666666666666667
 40
0.1666666666666667
 40
0.1666666666666667
 40
0.3333333333333333
 40
0.3333333333333333
 40
0.3333333333333333
 40
0.3333333333333333
 40
0.5
 40
0.5
 40
0.5
 40
0.5
 40
0.6666666666666666
 40
0.6666666666666666
 40
0.6666666666666666
 40
0.6666666666666666
 40
0.8333333333333333
 40
0.8333333333333333
 40
0.8333333333333333
 40
0.8333333333333333
 40
1.0
 40
1.0
 40
1.0
 40
1.0
 10
1.6816200000000001
 20
3.9669100000000004
 30
0.0
 10
1.7095600000000002
 20
3.9694500000000001
 30
0.0
 10
1.7527400000000002
 20
3.9694500000000001
 30
0.0
 10
1.7375
 20
3.9288100000000004
 30
0.0
 10
1.7375
 20
3.9288100000000004
 30
0.0
 10
1.4682600000000001
 20
3.6824300000000001
 30
0.0
 10
1.3107800000000001
 20
3.3471500000000001
 30
0.0
 10
1.31332
 20
2.9864700000000002
 30
0.0
 10
1.31332
 20
2.9864700000000002
 30
0.0
 10
1.5190600000000001
 20
2.5699100000000001
 30
0.0
 10
1.8721200000000002
 20
2.1228700000000003
 30
0.0
 10
1.5546200000000001
 20
1.6529700000000001
 30
0.0
 10
1.5546200000000001
 20
1.6529700000000001
 30
0.0
 10
1.4530200000000002
 20
1.7698100000000001
 30
0.0
 10
1.6181200000000002
 20
2.08731
 30
0.0
 10
1.5495400000000001
 20
2.2955900000000002
 30
0.0
 10
1.5495400000000001
 20
2.2955900000000002
 30
0.0
 10
1.31586
 20
2.5343500000000003
 30
0.0
 10
1.0821800000000001
 20
2.7959700000000001
 30
0.0
 10
1.0923400000000001
 20
3.1515700000000004
 30
0.0
 10
1.0923400000000001
 20
3.1515700000000004
 30
0.0
 10
1.2244200000000001
 20
3.4589100000000004
 30
0.0
 10
1.40476
 20
3.7510100000000004
 30
0.0
 10
1.6816200000000001
 20
3.9669100000000004
 30
0.0
  0
SPLINE
  5
2A
100
AcDbEntity
  8
Ebene 1
100
AcDbSpline
210
0.0
220
0.0
230
1.0
 70
     1
 71
     3
 72
    28
 73
    24
 74
     0
 42
0.0000000001
 43
0.0000000001
 40
0.0
 40
0.0
 40
0.0
 40
0.0
 40
0.1666666666666667
 40
0.1666666666666667
 40
0.1666666666666667
 40
0.1666666666666667
 40
0.3333333333333333
 40
0.3333333333333333
 40
0.3333333333333333
 40
0.3333333333333333
 40
0.5
 40
0.5
 40
0.5
 40
0.5
 40
0.6666666666666666
 40
0.6666666666666666
 40
0.6666666666666666
 40
0.6666666666666666
 40
0.8333333333333333
 40
0.8333333333333333
 40
0.8333333333333333
 40
0.8333333333333333
 40
1.0
 40
1.0
 40
1.0
 40
1.0
 10
-0.20051
 20
2.2270100000000004
 30
0.0
 10
-0.17257
 20
1.9958700000000003
 30
0.0
 10
-0.07097
 20
1.7139300000000002
 30
0.0
 10
0.16524
 20
1.5970900000000001
 30
0.0
 10
0.16524
 20
1.5970900000000001
 30
0.0
 10
0.5411600000000001
 20
1.7621900000000001
 30
0.0
 10
0.9196200000000001
 20
1.7926700000000002
 30
0.0
 10
1.3107800000000001
 20
1.6504300000000001
 30
0.0
 10
1.3107800000000001
 20
1.6504300000000001
 30
0.0
 10
1.3107800000000001
 20
1.6504300000000001
 30
0.0
 10
1.3107800000000001
 20
1.6047100000000001
 30
0.0
 10
1.3107800000000001
 20
1.6047100000000001
 30
0.0
 10
1.3107800000000001
 20
1.6047100000000001
 30
0.0
 10
1.10758
 20
1.5488300000000002
 30
0.0
 10
0.93486
 20
1.7012300000000002
 30
0.0
 10
0.74436
 20
1.6301100000000002
 30
0.0
 10
0.74436
 20
1.6301100000000002
 30
0.0
 10
0.4725800000000001
 20
1.5183500000000001
 30
0.0
 10
0.18302
 20
1.3761100000000002
 30
0.0
 10
-0.12177
 20
1.4929500000000002
 30
0.0
 10
-0.12177
 20
1.4929500000000002
 30
0.0
 10
-0.24115
 20
1.7037700000000002
 30
0.0
 10
-0.3427500000000001
 20
2.0034900000000002
 30
0.0
 10
-0.20051
 20
2.2270100000000004
 30
0.0
  0
SPLINE
  5
2B
100
AcDbEntity
  8
Ebene 1
100
AcDbSpline
210
0.0
220
0.0
230
1.0
 70
     1
 71
     3
 72
    24
 73
    20
 74
     0
 42
0.0000000001
 43
0.0000000001
 40
0.0
 40
0.0
 40
0.0
 40
0.0
 40
0.2
 40
0.2
 40
0.2
 40
0.2
 40
0.4
 40
0.4
 40
0.4
 40
0.4
 40
0.6000000000000001
 40
0.6000000000000001
 40
0.6000000000000001
 40
0.6000000000000001
 40
0.8
 40
0.8
 40
0.8
 40
0.8
 40
1.0
 40
1.0
 40
1.0
 40
1.0
 10
1.4606400000000002
 20
1.5234300000000001
 30
0.0
 10
1.5393800000000002
 20
1.5462900000000002
 30
0.0
 10
1.5139800000000001
 20
1.4573900000000002
 30
0.0
 10
1.5165200000000001
 20
1.4116700000000002
 30
0.0
 10
1.5165200000000001
 20
1.4116700000000002
 30
0.0
 10
1.3285600000000002
 20
1.0840100000000001
 30
0.0
 10
1.4682600000000001
 20
0.6750700000000001
 30
0.0
 10
1.7908400000000002
 20
0.4845700000000001
 30
0.0
 10
1.7908400000000002
 20
0.4845700000000001
 30
0.0
 10
1.8111600000000001
 20
0.46933
 30
0.0
 10
1.8187800000000001
 20
0.4413900000000001
 30
0.0
 10
1.8086200000000001
 20
0.41853
 30
0.0
 10
1.8086200000000001
 20
0.41853
 30
0.0
 10
1.5774800000000002
 20
0.4744100000000001
 30
0.0
 10
1.3768200000000002
 20
0.6750700000000001
 30
0.0
 10
1.2015600000000002
 20
0.8401700000000001
 30
0.0
 10
1.2015600000000002
 20
0.8401700000000001
 30
0.0
 10
1.23204
 20
1.0865500000000001
 30
0.0
 10
1.3438000000000001
 20
1.3100700000000001
 30
0.0
 10
1.4606400000000002
 20
1.5234300000000001
 30
0.0
  0
SPLINE
  5
2C
100
AcDbEntity
  8
Ebene 1
100
AcDbSpline
210
0.0
220
0.0
230
1.0
 70
     1
 71
     3
 72
    32
 73
    28
 74
     0
 42
0.0000000001
 43
0.0000000001
 40
0.0
 40
0.0
 40
0.0
 40
0.0
 40
0.1428571428571429
 40
0.1428571428571429
 40
0.1428571428571429
 40
0.1428571428571429
 40
0.2857142857142857
 40
0.2857142857142857
 40
0.2857142857142857
 40
0.2857142857142857
 40
0.4285714285714286
 40
0.4285714285714286
 40
0.4285714285714286
 40
0.4285714285714286
 40
0.5714285714285714
 40
0.5714285714285714
 40
0.5714285714285714
 40
0.5714285714285714
 40
0.7142857142857142
 40
0.7142857142857142
 40
0.7142857142857142
 40
0.7142857142857142
 40
0.857142857142857
 40
0.857142857142857
 40
0.857142857142857
 40
0.857142857142857
 40
1.0
 40
1.0
 40
1.0
 40
1.0
 10
-2.5500100000000003
 20
1.2643500000000001
 30
0.0
 10
-2.4306300000000003
 20
0.9011300000000001
 30
0.0
 10
-2.2401300000000002
 20
0.4642500000000001
 30
0.0
 10
-1.9531100000000001
 20
0.15945
 30
0.0
 10
-1.9531100000000001
 20
0.15945
 30
0.0
 10
-1.9531100000000001
 20
0.15945
 30
0.0
 10
-1.4070100000000001
 20
0.6318900000000001
 30
0.0
 10
-1.4070100000000001
 20
0.6318900000000001
 30
0.0
 10
-1.4070100000000001
 20
0.6318900000000001
 30
0.0
 10
-1.4070100000000001
 20
0.6318900000000001
 30
0.0
 10
-1.9810500000000002
 20
-0.09708
 30
0.0
 10
-1.9810500000000002
 20
-0.09708
 30
0.0
 10
-1.9810500000000002
 20
-0.09708
 30
0.0
 10
-2.0470900000000003
 20
-0.12502
 30
0.0
 10
-2.1105900000000002
 20
-0.07422
 30
0.0
 10
-2.1309100000000001
 20
-0.01326
 30
0.0
 10
-2.1309100000000001
 20
-0.01326
 30
0.0
 10
-2.2426700000000004
 20
-0.14534
 30
0.0
 10
-2.5220700000000003
 20
-0.05898
 30
0.0
 10
-2.6262100000000004
 20
0.06293
 30
0.0
 10
-2.6262100000000004
 20
0.06293
 30
0.0
 10
-2.4992100000000002
 20
0.08833
 30
0.0
 10
-2.2858500000000004
 20
-0.02088
 30
0.0
 10
-2.14615
 20
0.08579
 30
0.0
 10
-2.14615
 20
0.08579
 30
0.0
 10
-2.2071100000000001
 20
0.49981
 30
0.0
 10
-2.5703300000000002
 20
0.8223900000000001
 30
0.0
 10
-2.5500100000000003
 20
1.2643500000000001
 30
0.0
  0
SPLINE
  5
2D
100
AcDbEntity
  8
Ebene 1
100
AcDbSpline
210
0.0
220
0.0
230
1.0
 70
     1
 71
     3
 72
    12
 73
     8
 74
     0
 42
0.0000000001
 43
0.0000000001
 40
0.0
 40
0.0
 40
0.0
 40
0.0
 40
0.5
 40
0.5
 40
0.5
 40
0.5
 40
1.0
 40
1.0
 40
1.0
 40
1.0
 10
0.05602
 20
1.1170300000000002
 30
0.0
 10
0.25922
 20
1.0941700000000001
 30
0.0
 10
0.19572
 20
0.6344300000000001
 30
0.0
 10
-0.01001
 20
0.64205
 30
0.0
 10
-0.01001
 20
0.64205
 30
0.0
 10
0.02046
 20
0.7919100000000001
 30
0.0
 10
0.11698
 20
0.9468500000000001
 30
0.0
 10
0.05602
 20
1.1170300000000002
 30
0.0
  0
SPLINE
  5
2E
100
AcDbEntity
  8
Ebene 1
100
AcDbSpline
210
0.0
220
0.0
230
1.0
 70
     1
 71
     3
 72
    36
 73
    32
 74
     0
 42
0.0000000001
 43
0.0000000001
 40
0.0
 40
0.0
 40
0.0
 40
0.0
 40
0.125
 40
0.125
 40
0.125
 40
0.125
 40
0.25
 40
0.25
 40
0.25
 40
0.25
 40
0.375
 40
0.375
 40
0.375
 40
0.375
 40
0.5
 40
0.5
 40
0.5
 40
0.5
 40
0.625
 40
0.625
 40
0.625
 40
0.625
 40
0.75
 40
0.75
 40
0.75
 40
0.75
 40
0.875
 40
0.875
 40
0.875
 40
0.875
 40
1.0
 40
1.0
 40
1.0
 40
1.0
 10
0.68086
 20
0.5404500000000001
 30
0.0
 10
0.68086
 20
0.5404500000000001
 30
0.0
 10
0.5233800000000001
 20
0.4642500000000001
 30
0.0
 10
0.5233800000000001
 20
0.4642500000000001
 30
0.0
 10
0.5233800000000001
 20
0.4642500000000001
 30
0.0
 10
0.5233800000000001
 20
0.4642500000000001
 30
0.0
 10
0.45734
 20
0.05023
 30
0.0
 10
0.45734
 20
0.05023
 30
0.0
 10
0.45734
 20
0.05023
 30
0.0
 10
0.02554
 20
-0.19106
 30
0.0
 10
-0.28433
 20
-1.00386
 30
0.0
 10
-0.8710700000000001
 20
-0.6431800000000001
 30
0.0
 10
-0.8710700000000001
 20
-0.6431800000000001
 30
0.0
 10
-0.8710700000000001
 20
-0.6431800000000001
 30
0.0
 10
-1.0717300000000001
 20
-0.6000000000000001
 30
0.0
 10
-1.0717300000000001
 20
-0.6000000000000001
 30
0.0
 10
-1.0717300000000001
 20
-0.6000000000000001
 30
0.0
 10
-1.1606300000000001
 20
-0.5771400000000001
 30
0.0
 10
-1.29779
 20
-0.7295400000000001
 30
0.0
 10
-1.3485900000000002
 20
-0.6203200000000001
 30
0.0
 10
-1.3485900000000002
 20
-0.6203200000000001
 30
0.0
 10
-1.0564900000000002
 20
-0.53396
 30
0.0
 10
-0.88885
 20
-0.20376
 30
0.0
 10
-0.65771
 20
0.00197
 30
0.0
 10
-0.65771
 20
0.00197
 30
0.0
 10
-0.5027700000000001
 20
0.17723
 30
0.0
 10
-0.3859300000000001
 20
0.49219
 30
0.0
 10
-0.13193
 20
0.5201300000000001
 30
0.0
 10
-0.13193
 20
0.5201300000000001
 30
0.0
 10
-0.12939
 20
0.30169
 30
0.0
 10
0.27446
 20
0.56077
 30
0.0
 10
0.68086
 20
0.5404500000000001
 30
0.0
  0
SPLINE
  5
2F
100
AcDbEntity
  8
Ebene 1
 62
     7
100
AcDbSpline
210
0.0
220
0.0
230
1.0
 70
     1
 71
     3
 72
   112
 73
   108
 74
     0
 42
0.0000000001
 43
0.0000000001
 40
0.0
 40
0.0
 40
0.0
 40
0.0
 40
0.037037037037037
 40
0.037037037037037
 40
0.037037037037037
 40
0.037037037037037
 40
0.0740740740740741
 40
0.0740740740740741
 40
0.0740740740740741
 40
0.0740740740740741
 40
0.1111111111111111
 40
0.1111111111111111
 40
0.1111111111111111
 40
0.1111111111111111
 40
0.1481481481481481
 40
0.1481481481481481
 40
0.1481481481481481
 40
0.1481481481481481
 40
0.1851851851851852
 40
0.1851851851851852
 40
0.1851851851851852
 40
0.1851851851851852
 40
0.2222222222222222
 40
0.2222222222222222
 40
0.2222222222222222
 40
0.2222222222222222
 40
0.2592592592592592
 40
0.2592592592592592
 40
0.2592592592592592
 40
0.2592592592592592
 40
0.2962962962962963
 40
0.2962962962962963
 40
0.2962962962962963
 40
0.2962962962962963
 40
0.3333333333333333
 40
0.3333333333333333
 40
0.3333333333333333
 40
0.3333333333333333
 40
0.3703703703703704
 40
0.3703703703703704
 40
0.3703703703703704
 40
0.3703703703703704
 40
0.4074074074074074
 40
0.4074074074074074
 40
0.4074074074074074
 40
0.4074074074074074
 40
0.4444444444444444
 40
0.4444444444444444
 40
0.4444444444444444
 40
0.4444444444444444
 40
0.4814814814814815
 40
0.4814814814814815
 40
0.4814814814814815
 40
0.4814814814814815
 40
0.5185185185185185
 40
0.5185185185185185
 40
0.5185185185185185
 40
0.5185185185185185
 40
0.5555555555555556
 40
0.5555555555555556
 40
0.5555555555555556
 40
0.5555555555555556
 40
0.5925925925925926
 40
0.5925925925925926
 40
0.5925925925925926
 40
0.5925925925925926
 40
0.6296296296296295
 40
0.6296296296296295
 40
0.6296296296296295
 40
0.6296296296296295
 40
0.6666666666666665
 40
0.6666666666666665
 40
0.6666666666666665
 40
0.6666666666666665
 40
0.7037037037037035
 40
0.7037037037037035
 40
0.7037037037037035
 40
0.7037037037037035
 40
0.7407407407407405
 40
0.7407407407407405
 40
0.7407407407407405
 40
0.7407407407407405
 40
0.7777777777777775
 40
0.7777777777777775
 40
0.7777777777777775
 40
0.7777777777777775
 40
0.8148148148148144
 40
0.8148148148148144
 40
0.8148148148148144
 40
0.8148148148148144
 40
0.8518518518518514
 40
0.8518518518518514
 40
0.8518518518518514
 40
0.8518518518518514
 40
0.8888888888888884
 40
0.8888888888888884
 40
0.8888888888888884
 40
0.8888888888888884
 40
0.9259259259259254
 40
0.9259259259259254
 40
0.9259259259259254
 40
0.9259259259259254
 40
0.9629629629629624
 40
0.9629629629629624
 40
0.9629629629629624
 40
0.9629629629629624
 40
1.0
 40
1.0
 40
1.0
 40
1.0
 10
2.3115400000000004
 20
0.00705
 30
0.0
 10
2.4055200000000001
 20
-0.3739400000000001
 30
0.0
 10
1.8187800000000001
 20
-0.9632200000000001
 30
0.0
 10
2.12866
 20
-1.41534
 30
0.0
 10
2.12866
 20
-1.41534
 30
0.0
 10
2.1413600000000002
 20
-1.1461000000000001
 30
0.0
 10
2.1058000000000003
 20
-0.7981200000000001
 30
0.0
 10
2.3191600000000001
 20
-0.56698
 30
0.0
 10
2.3191600000000001
 20
-0.56698
 30
0.0
 10
2.4360000000000004
 20
-0.42982
 30
0.0
 10
2.4893400000000003
 20
-0.02088
 30
0.0
 10
2.6595200000000001
 20
-0.06914
 30
0.0
 10
2.6595200000000001
 20
-0.06914
 30
0.0
 10
2.7865200000000003
 20
-0.88702
 30
0.0
 10
2.3318600000000003
 20
-1.8522200000000002
 30
0.0
 10
2.4969600000000001
 20
-2.6370800000000001
 30
0.0
 10
2.4969600000000001
 20
-2.6370800000000001
 30
0.0
 10
2.5401400000000001
 20
-2.5202400000000003
 30
0.0
 10
2.5325200000000003
 20
-2.0046200000000001
 30
0.0
 10
2.6468200000000004
 20
-2.1367000000000003
 30
0.0
 10
2.6468200000000004
 20
-2.1367000000000003
 30
0.0
 10
2.6468200000000004
 20
-2.1367000000000003
 30
0.0
 10
2.7331800000000004
 20
-2.30688
 30
0.0
 10
2.7331800000000004
 20
-2.30688
 30
0.0
 10
2.7331800000000004
 20
-2.30688
 30
0.0
 10
2.7331800000000004
 20
-2.30688
 30
0.0
 10
2.9592400000000003
 20
-2.7285200000000001
 30
0.0
 10
2.9592400000000003
 20
-2.7285200000000001
 30
0.0
 10
2.9592400000000003
 20
-2.7285200000000001
 30
0.0
 10
2.7001600000000003
 20
-3.3355800000000002
 30
0.0
 10
2.1947000000000001
 20
-3.8308800000000005
 30
0.0
 10
1.8137000000000001
 20
-4.3566600000000006
 30
0.0
 10
1.8137000000000001
 20
-4.3566600000000006
 30
0.0
 10
1.9330800000000001
 20
-4.4709600000000007
 30
0.0
 10
2.0804
 20
-4.0670999999999999
 30
0.0
 10
2.2353400000000003
 20
-3.9909000000000003
 30
0.0
 10
2.2353400000000003
 20
-3.9909000000000003
 30
0.0
 10
2.1312000000000002
 20
-4.3795200000000003
 30
0.0
 10
2.12866
 20
-4.7833800000000002
 30
0.0
 10
1.65622
 20
-5.1745400000000004
 30
0.0
 10
1.65622
 20
-5.1745400000000004
 30
0.0
 10
1.1177400000000002
 20
-5.5606200000000001
 30
0.0
 10
0.24144
 20
-5.2151800000000001
 30
0.0
 10
0.34812
 20
-5.5733200000000007
 30
0.0
 10
0.34812
 20
-5.5733200000000007
 30
0.0
 10
0.28208
 20
-5.6012600000000008
 30
0.0
 10
0.22112
 20
-5.6241200000000005
 30
0.0
 10
0.14746
 20
-5.6139600000000005
 30
0.0
 10
0.14746
 20
-5.6139600000000005
 30
0.0
 10
-0.02017
 20
-5.5250600000000007
 30
0.0
 10
-0.17511
 20
-5.40822
 30
0.0
 10
-0.23861
 20
-5.2075600000000009
 30
0.0
 10
-0.23861
 20
-5.2075600000000009
 30
0.0
 10
0.10174
 20
-4.9840400000000002
 30
0.0
 10
0.66308
 20
-5.0577000000000005
 30
0.0
 10
0.8383400000000001
 20
-4.52684
 30
0.0
 10
0.8383400000000001
 20
-4.52684
 30
0.0
 10
0.9755
 20
-4.7148000000000003
 30
0.0
 10
1.1837800000000001
 20
-4.4760400000000002
 30
0.0
 10
1.1329800000000001
 20
-4.2855400000000001
 30
0.0
 10
1.1329800000000001
 20
-4.2855400000000001
 30
0.0
 10
1.3387200000000001
 20
-4.4125400000000008
 30
0.0
 10
1.3463400000000001
 20
-4.13314
 30
0.0
 10
1.3920600000000001
 20
-3.9909000000000003
 30
0.0
 10
1.3920600000000001
 20
-3.9909000000000003
 30
0.0
 10
1.5774800000000002
 20
-4.0670999999999999
 30
0.0
 10
1.6994000000000002
 20
-3.9147000000000003
 30
0.0
 10
1.7730600000000001
 20
-3.7597600000000004
 30
0.0
 10
1.7730600000000001
 20
-3.7597600000000004
 30
0.0
 10
2.0575400000000004
 20
-3.3686000000000003
 30
0.0
 10
2.42584
 20
-2.7920200000000004
 30
0.0
 10
1.9788000000000001
 20
-2.3043400000000003
 30
0.0
 10
1.9788000000000001
 20
-2.3043400000000003
 30
0.0
 10
2.1362800000000002
 20
-2.19258
 30
0.0
 10
2.29122
 20
-1.9411200000000002
 30
0.0
 10
2.1413600000000002
 20
-1.7506200000000001
 30
0.0
 10
2.1413600000000002
 20
-1.7506200000000001
 30
0.0
 10
2.1413600000000002
 20
-1.7506200000000001
 30
0.0
 10
1.9610200000000002
 20
-1.6922000000000001
 30
0.0
 10
1.9610200000000002
 20
-1.6922000000000001
 30
0.0
 10
1.9610200000000002
 20
-1.6922000000000001
 30
0.0
 10
1.9610200000000002
 20
-1.6922000000000001
 30
0.0
 10
1.6282800000000002
 20
-1.9157200000000001
 30
0.0
 10
1.6282800000000002
 20
-1.9157200000000001
 30
0.0
 10
1.6282800000000002
 20
-1.9157200000000001
 30
0.0
 10
1.4631800000000001
 20
-1.5220200000000002
 30
0.0
 10
1.0364600000000002
 20
-1.1410200000000001
 30
0.0
 10
0.9475600000000001
 20
-0.7701800000000001
 30
0.0
 10
0.9475600000000001
 20
-0.7701800000000001
 30
0.0
 10
0.9475600000000001
 20
-0.7701800000000001
 30
0.0
 10
1.1990200000000002
 20
-1.1054600000000001
 30
0.0
 10
1.1990200000000002
 20
-1.1054600000000001
 30
0.0
 10
1.1990200000000002
 20
-1.1054600000000001
 30
0.0
 10
1.1990200000000002
 20
-1.1054600000000001
 30
0.0
 10
1.3641200000000002
 20
-1.2807200000000001
 30
0.0
 10
1.3641200000000002
 20
-1.2807200000000001
 30
0.0
 10
1.3641200000000002
 20
-1.2807200000000001
 30
0.0
 10
1.3488800000000001
 20
-0.9759200000000001
 30
0.0
 10
0.9018400000000001
 20
-0.5746
 30
0.0
 10
1.3311000000000002
 20
-0.36124
 30
0.0
 10
1.3311000000000002
 20
-0.36124
 30
0.0
 10
1.5241400000000001
 20
-0.49586
 30
0.0
 10
1.5952600000000001
 20
-0.88956
 30
0.0
 10
1.8645
 20
-0.90988
 30
0.0
 10
1.8645
 20
-0.90988
 30
0.0
 10
2.09056
 20
-0.6406400000000001
 30
0.0
 10
2.1439000000000004
 20
-0.28504
 30
0.0
 10
2.3115400000000004
 20
0.00705
 30
0.0
  0
SPLINE
  5
30
100
AcDbEntity
  8
Ebene 1
100
AcDbSpline
210
0.0
220
0.0
230
1.0
 70
     1
 71
     3
 72
    16
 73
    12
 74
     0
 42
0.0000000001
 43
0.0000000001
 40
0.0
 40
0.0
 40
0.0
 40
0.0
 40
0.3333333333333333
 40
0.3333333333333333
 40
0.3333333333333333
 40
0.3333333333333333
 40
0.6666666666666666
 40
0.6666666666666666
 40
0.6666666666666666
 40
0.6666666666666666
 40
1.0
 40
1.0
 40
1.0
 40
1.0
 10
-1.9581900000000001
 20
-0.4349
 30
0.0
 10
-1.8921500000000002
 20
-0.5009400000000001
 30
0.0
 10
-1.8311900000000001
 20
-0.59492
 30
0.0
 10
-1.7397500000000001
 20
-0.6431800000000001
 30
0.0
 10
-1.7397500000000001
 20
-0.6431800000000001
 30
0.0
 10
-1.7397500000000001
 20
-0.6431800000000001
 30
0.0
 10
-1.7600700000000002
 20
-0.6889000000000001
 30
0.0
 10
-1.7600700000000002
 20
-0.6889000000000001
 30
0.0
 10
-1.7600700000000002
 20
-0.6889000000000001
 30
0.0
 10
-1.8896100000000002
 20
-0.71684
 30
0.0
 10
-1.9454900000000002
 20
-0.53396
 30
0.0
 10
-1.9581900000000001
 20
-0.4349
 30
0.0
  0
SPLINE
  5
31
100
AcDbEntity
  8
Ebene 1
 62
     7
100
AcDbSpline
210
0.0
220
0.0
230
1.0
 70
     1
 71
     3
 72
    16
 73
    12
 74
     0
 42
0.0000000001
 43
0.0000000001
 40
0.0
 40
0.0
 40
0.0
 40
0.0
 40
0.3333333333333333
 40
0.3333333333333333
 40
0.3333333333333333
 40
0.3333333333333333
 40
0.6666666666666666
 40
0.6666666666666666
 40
0.6666666666666666
 40
0.6666666666666666
 40
1.0
 40
1.0
 40
1.0
 40
1.0
 10
0.1119
 20
-1.3035800000000002
 30
0.0
 10
0.1119
 20
-1.3035800000000002
 30
0.0
 10
0.42178
 20
-1.8547600000000002
 30
0.0
 10
0.42178
 20
-1.8547600000000002
 30
0.0
 10
0.42178
 20
-1.8547600000000002
 30
0.0
 10
0.35828
 20
-1.8446000000000002
 30
0.0
 10
0.29224
 20
-1.8319000000000001
 30
0.0
 10
0.24652
 20
-1.8928600000000002
 30
0.0
 10
0.24652
 20
-1.8928600000000002
 30
0.0
 10
0.19826
 20
-1.6972800000000001
 30
0.0
 10
0.07888
 20
-1.5017
 30
0.0
 10
0.1119
 20
-1.3035800000000002
 30
0.0
  0
SPLINE
  5
32
100
AcDbEntity
  8
Ebene 1
100
AcDbSpline
210
0.0
220
0.0
230
1.0
 70
     1
 71
     3
 72
    48
 73
    44
 74
     0
 42
0.0000000001
 43
0.0000000001
 40
0.0
 40
0.0
 40
0.0
 40
0.0
 40
0.0909090909090909
 40
0.0909090909090909
 40
0.0909090909090909
 40
0.0909090909090909
 40
0.1818181818181818
 40
0.1818181818181818
 40
0.1818181818181818
 40
0.1818181818181818
 40
0.2727272727272727
 40
0.2727272727272727
 40
0.2727272727272727
 40
0.2727272727272727
 40
0.3636363636363637
 40
0.3636363636363637
 40
0.3636363636363637
 40
0.3636363636363637
 40
0.4545454545454546
 40
0.4545454545454546
 40
0.4545454545454546
 40
0.4545454545454546
 40
0.5454545454545455
 40
0.5454545454545455
 40
0.5454545454545455
 40
0.5454545454545455
 40
0.6363636363636365
 40
0.6363636363636365
 40
0.6363636363636365
 40
0.6363636363636365
 40
0.7272727272727274
 40
0.7272727272727274
 40
0.7272727272727274
 40
0.7272727272727274
 40
0.8181818181818183
 40
0.8181818181818183
 40
0.8181818181818183
 40
0.8181818181818183
 40
0.9090909090909093
 40
0.9090909090909093
 40
0.9090909090909093
 40
0.9090909090909093
 40
1.0
 40
1.0
 40
1.0
 40
1.0
 10
-1.46035
 20
-1.3975600000000001
 30
0.0
 10
-1.46035
 20
-1.3975600000000001
 30
0.0
 10
-1.3663700000000001
 20
-1.5271000000000001
 30
0.0
 10
-1.3663700000000001
 20
-1.5271000000000001
 30
0.0
 10
-1.3663700000000001
 20
-1.5271000000000001
 30
0.0
 10
-1.3663700000000001
 20
-1.5271000000000001
 30
0.0
 10
-1.2368300000000001
 20
-1.41534
 30
0.0
 10
-1.2368300000000001
 20
-1.41534
 30
0.0
 10
-1.2368300000000001
 20
-1.41534
 30
0.0
 10
-0.8710700000000001
 20
-1.49916
 30
0.0
 10
-0.59167
 20
-1.8649200000000001
 30
0.0
 10
-0.31481
 20
-2.0859000000000001
 30
0.0
 10
-0.31481
 20
-2.0859000000000001
 30
0.0
 10
-0.31481
 20
-2.0859000000000001
 30
0.0
 10
-0.35291
 20
-2.2408400000000004
 30
0.0
 10
-0.35291
 20
-2.2408400000000004
 30
0.0
 10
-0.35291
 20
-2.2408400000000004
 30
0.0
 10
-0.6196100000000001
 20
-2.1671800000000001
 30
0.0
 10
-0.8990100000000001
 20
-2.0554200000000002
 30
0.0
 10
-1.1758700000000002
 20
-2.0122400000000003
 30
0.0
 10
-1.1758700000000002
 20
-2.0122400000000003
 30
0.0
 10
-1.1758700000000002
 20
-2.0122400000000003
 30
0.0
 10
-1.0564900000000002
 20
-2.3526000000000002
 30
0.0
 10
-1.0564900000000002
 20
-2.3526000000000002
 30
0.0
 10
-1.0564900000000002
 20
-2.3526000000000002
 30
0.0
 10
-1.16571
 20
-2.30688
 30
0.0
 10
-1.1606300000000001
 20
-2.1316200000000003
 30
0.0
 10
-1.2571500000000002
 20
-2.06304
 30
0.0
 10
-1.2571500000000002
 20
-2.06304
 30
0.0
 10
-1.3714500000000001
 20
-2.1900400000000002
 30
0.0
 10
-1.3460500000000002
 20
-2.4389600000000002
 30
0.0
 10
-1.4781300000000002
 20
-2.5431000000000004
 30
0.0
 10
-1.4781300000000002
 20
-2.5431000000000004
 30
0.0
 10
-1.6025900000000002
 20
-2.2586200000000001
 30
0.0
 10
-1.5543300000000002
 20
-1.8750800000000001
 30
0.0
 10
-1.5644900000000002
 20
-1.5677400000000001
 30
0.0
 10
-1.5644900000000002
 20
-1.5677400000000001
 30
0.0
 10
-1.5644900000000002
 20
-1.5677400000000001
 30
0.0
 10
-1.4273300000000002
 20
-1.5398000000000001
 30
0.0
 10
-1.4273300000000002
 20
-1.5398000000000001
 30
0.0
 10
-1.4273300000000002
 20
-1.5398000000000001
 30
0.0
 10
-1.4374900000000002
 20
-1.4940800000000001
 30
0.0
 10
-1.46543
 20
-1.4509000000000001
 30
0.0
 10
-1.46035
 20
-1.3975600000000001
 30
0.0
  0
SPLINE
  5
33
100
AcDbEntity
  8
Ebene 1
 62
     7
100
AcDbSpline
210
0.0
220
0.0
230
1.0
 70
     1
 71
     3
 72
    16
 73
    12
 74
     0
 42
0.0000000001
 43
0.0000000001
 40
0.0
 40
0.0
 40
0.0
 40
0.0
 40
0.3333333333333333
 40
0.3333333333333333
 40
0.3333333333333333
 40
0.3333333333333333
 40
0.6666666666666666
 40
0.6666666666666666
 40
0.6666666666666666
 40
0.6666666666666666
 40
1.0
 40
1.0
 40
1.0
 40
1.0
 10
0.44464
 20
-1.6007600000000002
 30
0.0
 10
0.5818000000000001
 20
-1.6236200000000001
 30
0.0
 10
0.6681600000000001
 20
-1.7531600000000001
 30
0.0
 10
0.7723000000000001
 20
-1.8446000000000002
 30
0.0
 10
0.7723000000000001
 20
-1.8446000000000002
 30
0.0
 10
0.7367400000000001
 20
-1.9208000000000001
 30
0.0
 10
0.7164200000000001
 20
-2.0097
 30
0.0
 10
0.66308
 20
-2.0757400000000001
 30
0.0
 10
0.66308
 20
-2.0757400000000001
 30
0.0
 10
0.49036
 20
-1.9716000000000002
 30
0.0
 10
0.5183000000000001
 20
-1.7607800000000002
 30
0.0
 10
0.44464
 20
-1.6007600000000002
 30
0.0
  0
SPLINE
  5
34
100
AcDbEntity
  8
Ebene 1
 62
     7
100
AcDbSpline
210
0.0
220
0.0
230
1.0
 70
     1
 71
     3
 72
    40
 73
    36
 74
     0
 42
0.0000000001
 43
0.0000000001
 40
0.0
 40
0.0
 40
0.0
 40
0.0
 40
0.1111111111111111
 40
0.1111111111111111
 40
0.1111111111111111
 40
0.1111111111111111
 40
0.2222222222222222
 40
0.2222222222222222
 40
0.2222222222222222
 40
0.2222222222222222
 40
0.3333333333333333
 40
0.3333333333333333
 40
0.3333333333333333
 40
0.3333333333333333
 40
0.4444444444444444
 40
0.4444444444444444
 40
0.4444444444444444
 40
0.4444444444444444
 40
0.5555555555555556
 40
0.5555555555555556
 40
0.5555555555555556
 40
0.5555555555555556
 40
0.6666666666666667
 40
0.6666666666666667
 40
0.6666666666666667
 40
0.6666666666666667
 40
0.7777777777777779
 40
0.7777777777777779
 40
0.7777777777777779
 40
0.7777777777777779
 40
0.8888888888888891
 40
0.8888888888888891
 40
0.8888888888888891
 40
0.8888888888888891
 40
1.0
 40
1.0
 40
1.0
 40
1.0
 10
2.05246
 20
-1.8979400000000002
 30
0.0
 10
2.2302600000000004
 20
-2.0655800000000002
 30
0.0
 10
1.8899000000000001
 20
-2.1494
 30
0.0
 10
1.78068
 20
-2.2408400000000004
 30
0.0
 10
1.78068
 20
-2.2408400000000004
 30
0.0
 10
1.78068
 20
-2.2408400000000004
 30
0.0
 10
1.7756000000000001
 20
-2.1367000000000003
 30
0.0
 10
1.7756000000000001
 20
-2.1367000000000003
 30
0.0
 10
1.7756000000000001
 20
-2.1367000000000003
 30
0.0
 10
1.7756000000000001
 20
-2.1367000000000003
 30
0.0
 10
1.6638400000000002
 20
-2.1189200000000001
 30
0.0
 10
1.6638400000000002
 20
-2.1189200000000001
 30
0.0
 10
1.6638400000000002
 20
-2.1189200000000001
 30
0.0
 10
1.5012800000000002
 20
-2.2002000000000002
 30
0.0
 10
1.4657200000000001
 20
-2.4745200000000001
 30
0.0
 10
1.2625200000000001
 20
-2.4821400000000002
 30
0.0
 10
1.2625200000000001
 20
-2.4821400000000002
 30
0.0
 10
1.2625200000000001
 20
-2.4821400000000002
 30
0.0
 10
1.2066400000000002
 20
-2.3627600000000002
 30
0.0
 10
1.2066400000000002
 20
-2.3627600000000002
 30
0.0
 10
1.2066400000000002
 20
-2.3627600000000002
 30
0.0
 10
1.4250800000000001
 20
-2.2154400000000001
 30
0.0
 10
1.6282800000000002
 20
-1.9995400000000001
 30
0.0
 10
1.8822800000000002
 20
-1.9360400000000002
 30
0.0
 10
1.8822800000000002
 20
-1.9360400000000002
 30
0.0
 10
1.8822800000000002
 20
-1.9360400000000002
 30
0.0
 10
1.9483200000000001
 20
-2.05796
 30
0.0
 10
1.9483200000000001
 20
-2.05796
 30
0.0
 10
1.9483200000000001
 20
-2.05796
 30
0.0
 10
1.9483200000000001
 20
-2.05796
 30
0.0
 10
2.0118200000000002
 20
-2.05796
 30
0.0
 10
2.0118200000000002
 20
-2.05796
 30
0.0
 10
2.0118200000000002
 20
-2.05796
 30
0.0
 10
2.0194400000000003
 20
-1.9995400000000001
 30
0.0
 10
2.0042
 20
-1.9385800000000002
 30
0.0
 10
2.05246
 20
-1.8979400000000002
 30
0.0
  0
SPLINE
  5
35
100
AcDbEntity
  8
Ebene 1
 62
     7
100
AcDbSpline
210
0.0
220
0.0
230
1.0
 70
     1
 71
     3
 72
    16
 73
    12
 74
     0
 42
0.0000000001
 43
0.0000000001
 40
0.0
 40
0.0
 40
0.0
 40
0.0
 40
0.3333333333333333
 40
0.3333333333333333
 40
0.3333333333333333
 40
0.3333333333333333
 40
0.6666666666666666
 40
0.6666666666666666
 40
0.6666666666666666
 40
0.6666666666666666
 40
1.0
 40
1.0
 40
1.0
 40
1.0
 10
0.3151000000000001
 20
-1.9157200000000001
 30
0.0
 10
0.47766
 20
-1.9081000000000001
 30
0.0
 10
0.50814
 20
-2.1163800000000004
 30
0.0
 10
0.64276
 20
-2.1417800000000002
 30
0.0
 10
0.64276
 20
-2.1417800000000002
 30
0.0
 10
0.6122800000000001
 20
-2.2052800000000001
 30
0.0
 10
0.5868800000000001
 20
-2.2865600000000001
 30
0.0
 10
0.5183000000000001
 20
-2.3221200000000004
 30
0.0
 10
0.5183000000000001
 20
-2.3221200000000004
 30
0.0
 10
0.36336
 20
-2.2586200000000001
 30
0.0
 10
0.33034
 20
-2.06304
 30
0.0
 10
0.3151000000000001
 20
-1.9157200000000001
 30
0.0
  0
SPLINE
  5
36
100
AcDbEntity
  8
Ebene 1
 62
     7
100
AcDbSpline
210
0.0
220
0.0
230
1.0
 70
     1
 71
     3
 72
    16
 73
    12
 74
     0
 42
0.0000000001
 43
0.0000000001
 40
0.0
 40
0.0
 40
0.0
 40
0.0
 40
0.3333333333333333
 40
0.3333333333333333
 40
0.3333333333333333
 40
0.3333333333333333
 40
0.6666666666666666
 40
0.6666666666666666
 40
0.6666666666666666
 40
0.6666666666666666
 40
1.0
 40
1.0
 40
1.0
 40
1.0
 10
0.12968
 20
-2.1544800000000004
 30
0.0
 10
0.28208
 20
-2.1697200000000003
 30
0.0
 10
0.35828
 20
-2.3373600000000003
 30
0.0
 10
0.4802
 20
-2.4161000000000001
 30
0.0
 10
0.4802
 20
-2.4161000000000001
 30
0.0
 10
0.4802
 20
-2.4161000000000001
 30
0.0
 10
0.33034
 20
-2.6497800000000002
 30
0.0
 10
0.33034
 20
-2.6497800000000002
 30
0.0
 10
0.33034
 20
-2.6497800000000002
 30
0.0
 10
0.19318
 20
-2.5405600000000002
 30
0.0
 10
0.09158
 20
-2.3348200000000001
 30
0.0
 10
0.12968
 20
-2.1544800000000004
 30
0.0
  0
SPLINE
  5
37
100
AcDbEntity
  8
Ebene 1
 62
     7
100
AcDbSpline
210
0.0
220
0.0
230
1.0
 70
     1
 71
     3
 72
    16
 73
    12
 74
     0
 42
0.0000000001
 43
0.0000000001
 40
0.0
 40
0.0
 40
0.0
 40
0.0
 40
0.3333333333333333
 40
0.3333333333333333
 40
0.3333333333333333
 40
0.3333333333333333
 40
0.6666666666666666
 40
0.6666666666666666
 40
0.6666666666666666
 40
0.6666666666666666
 40
1.0
 40
1.0
 40
1.0
 40
1.0
 10
0.9628000000000001
 20
-2.3043400000000003
 30
0.0
 10
1.0974200000000001
 20
-2.2840200000000004
 30
0.0
 10
1.1228200000000002
 20
-2.4211800000000001
 30
0.0
 10
1.1279000000000001
 20
-2.5253200000000002
 30
0.0
 10
1.1279000000000001
 20
-2.5253200000000002
 30
0.0
 10
1.2295
 20
-2.6447000000000003
 30
0.0
 10
1.18632
 20
-2.8072600000000003
 30
0.0
 10
1.14822
 20
-2.9317200000000003
 30
0.0
 10
1.14822
 20
-2.9317200000000003
 30
0.0
 10
0.9475600000000001
 20
-2.8656800000000002
 30
0.0
 10
0.6859400000000001
 20
-2.4135600000000004
 30
0.0
 10
0.9628000000000001
 20
-2.3043400000000003
 30
0.0
  0
SPLINE
  5
38
100
AcDbEntity
  8
Ebene 1
 62
     7
100
AcDbSpline
210
0.0
220
0.0
230
1.0
 70
     1
 71
     3
 72
    16
 73
    12
 74
     0
 42
0.0000000001
 43
0.0000000001
 40
0.0
 40
0.0
 40
0.0
 40
0.0
 40
0.3333333333333333
 40
0.3333333333333333
 40
0.3333333333333333
 40
0.3333333333333333
 40
0.6666666666666666
 40
0.6666666666666666
 40
0.6666666666666666
 40
0.6666666666666666
 40
1.0
 40
1.0
 40
1.0
 40
1.0
 10
1.7756000000000001
 20
-2.4161000000000001
 30
0.0
 10
2.0778600000000003
 20
-2.5405600000000002
 30
0.0
 10
1.9813400000000001
 20
-2.94442
 30
0.0
 10
1.8492600000000001
 20
-3.15524
 30
0.0
 10
1.8492600000000001
 20
-3.15524
 30
0.0
 10
1.8289400000000002
 20
-2.9317200000000003
 30
0.0
 10
1.8010000000000002
 20
-2.6878800000000003
 30
0.0
 10
1.7375
 20
-2.4694400000000001
 30
0.0
 10
1.7375
 20
-2.4694400000000001
 30
0.0
 10
1.7375
 20
-2.4694400000000001
 30
0.0
 10
1.7756000000000001
 20
-2.4161000000000001
 30
0.0
 10
1.7756000000000001
 20
-2.4161000000000001
 30
0.0
  0
SPLINE
  5
39
100
AcDbEntity
  8
Ebene 1
 62
     7
100
AcDbSpline
210
0.0
220
0.0
230
1.0
 70
     1
 71
     3
 72
    16
 73
    12
 74
     0
 42
0.0000000001
 43
0.0000000001
 40
0.0
 40
0.0
 40
0.0
 40
0.0
 40
0.3333333333333333
 40
0.3333333333333333
 40
0.3333333333333333
 40
0.3333333333333333
 40
0.6666666666666666
 40
0.6666666666666666
 40
0.6666666666666666
 40
0.6666666666666666
 40
1.0
 40
1.0
 40
1.0
 40
1.0
 10
-0.12685
 20
-2.4313400000000001
 30
0.0
 10
0.03062
 20
-2.4567400000000004
 30
0.0
 10
0.13984
 20
-2.6294600000000004
 30
0.0
 10
0.2389
 20
-2.7488400000000004
 30
0.0
 10
0.2389
 20
-2.7488400000000004
 30
0.0
 10
0.2389
 20
-2.7488400000000004
 30
0.0
 10
0.1119
 20
-2.9139400000000002
 30
0.0
 10
0.1119
 20
-2.9139400000000002
 30
0.0
 10
0.1119
 20
-2.9139400000000002
 30
0.0
 10
-0.03287
 20
-2.81488
 30
0.0
 10
-0.09891
 20
-2.6066000000000003
 30
0.0
 10
-0.12685
 20
-2.4313400000000001
 30
0.0
  0
SPLINE
  5
3A
100
AcDbEntity
  8
Ebene 1
 62
     7
100
AcDbSpline
210
0.0
220
0.0
230
1.0
 70
     1
 71
     3
 72
    16
 73
    12
 74
     0
 42
0.0000000001
 43
0.0000000001
 40
0.0
 40
0.0
 40
0.0
 40
0.0
 40
0.3333333333333333
 40
0.3333333333333333
 40
0.3333333333333333
 40
0.3333333333333333
 40
0.6666666666666666
 40
0.6666666666666666
 40
0.6666666666666666
 40
0.6666666666666666
 40
1.0
 40
1.0
 40
1.0
 40
1.0
 10
1.5724
 20
-2.5431000000000004
 30
0.0
 10
1.5724
 20
-2.5431000000000004
 30
0.0
 10
1.6613000000000002
 20
-2.5481800000000003
 30
0.0
 10
1.6613000000000002
 20
-2.5481800000000003
 30
0.0
 10
1.6613000000000002
 20
-2.5481800000000003
 30
0.0
 10
1.7222600000000001
 20
-2.7666200000000001
 30
0.0
 10
1.7578200000000002
 20
-2.9926800000000005
 30
0.0
 10
1.7171800000000002
 20
-3.2212800000000001
 30
0.0
 10
1.7171800000000002
 20
-3.2212800000000001
 30
0.0
 10
1.4454
 20
-3.1400000000000001
 30
0.0
 10
1.5012800000000002
 20
-2.7488400000000004
 30
0.0
 10
1.5724
 20
-2.5431000000000004
 30
0.0
  0
SPLINE
  5
3B
100
AcDbEntity
  8
Ebene 1
 62
     7
100
AcDbSpline
210
0.0
220
0.0
230
1.0
 70
     1
 71
     3
 72
    20
 73
    16
 74
     0
 42
0.0000000001
 43
0.0000000001
 40
0.0
 40
0.0
 40
0.0
 40
0.0
 40
0.25
 40
0.25
 40
0.25
 40
0.25
 40
0.5
 40
0.5
 40
0.5
 40
0.5
 40
0.75
 40
0.75
 40
0.75
 40
0.75
 40
1.0
 40
1.0
 40
1.0
 40
1.0
 10
0.70118
 20
-2.5812000000000004
 30
0.0
 10
0.8485
 20
-2.5431000000000004
 30
0.0
 10
0.78246
 20
-2.7361400000000002
 30
0.0
 10
0.8637400000000001
 20
-2.7971000000000004
 30
0.0
 10
0.8637400000000001
 20
-2.7971000000000004
 30
0.0
 10
0.8637400000000001
 20
-2.7971000000000004
 30
0.0
 10
0.4624200000000001
 20
-3.0434800000000002
 30
0.0
 10
0.4624200000000001
 20
-3.0434800000000002
 30
0.0
 10
0.4624200000000001
 20
-3.0434800000000002
 30
0.0
 10
0.41162
 20
-2.9774400000000001
 30
0.0
 10
0.3532
 20
-2.8783800000000004
 30
0.0
 10
0.35828
 20
-2.7869400000000004
 30
0.0
 10
0.35828
 20
-2.7869400000000004
 30
0.0
 10
0.4421000000000001
 20
-2.6726400000000003
 30
0.0
 10
0.59196
 20
-2.6370800000000001
 30
0.0
 10
0.70118
 20
-2.5812000000000004
 30
0.0
  0
SPLINE
  5
3C
100
AcDbEntity
  8
Ebene 1
 62
     7
100
AcDbSpline
210
0.0
220
0.0
230
1.0
 70
     1
 71
     3
 72
    16
 73
    12
 74
     0
 42
0.0000000001
 43
0.0000000001
 40
0.0
 40
0.0
 40
0.0
 40
0.0
 40
0.3333333333333333
 40
0.3333333333333333
 40
0.3333333333333333
 40
0.3333333333333333
 40
0.6666666666666666
 40
0.6666666666666666
 40
0.6666666666666666
 40
0.6666666666666666
 40
1.0
 40
1.0
 40
1.0
 40
1.0
 10
-0.3859300000000001
 20
-2.6929600000000002
 30
0.0
 10
-0.22337
 20
-2.7209000000000003
 30
0.0
 10
-0.09637
 20
-2.8656800000000002
 30
0.0
 10
0.03316
 20
-2.9723600000000001
 30
0.0
 10
0.03316
 20
-2.9723600000000001
 30
0.0
 10
-0.00493
 20
-3.0587200000000001
 30
0.0
 10
-0.08875
 20
-3.1196800000000002
 30
0.0
 10
-0.16495
 20
-3.1730200000000002
 30
0.0
 10
-0.16495
 20
-3.1730200000000002
 30
0.0
 10
-0.29957
 20
-3.0511000000000004
 30
0.0
 10
-0.3757700000000001
 20
-2.8758400000000002
 30
0.0
 10
-0.3859300000000001
 20
-2.6929600000000002
 30
0.0
  0
SPLINE
  5
3D
100
AcDbEntity
  8
Ebene 1
 62
     7
100
AcDbSpline
210
0.0
220
0.0
230
1.0
 70
     1
 71
     3
 72
    16
 73
    12
 74
     0
 42
0.0000000001
 43
0.0000000001
 40
0.0
 40
0.0
 40
0.0
 40
0.0
 40
0.3333333333333333
 40
0.3333333333333333
 40
0.3333333333333333
 40
0.3333333333333333
 40
0.6666666666666666
 40
0.6666666666666666
 40
0.6666666666666666
 40
0.6666666666666666
 40
1.0
 40
1.0
 40
1.0
 40
1.0
 10
-0.70089
 20
-2.85806
 30
0.0
 10
-0.52563
 20
-2.9342600000000001
 30
0.0
 10
-0.3859300000000001
 20
-3.1044400000000003
 30
0.0
 10
-0.26147
 20
-3.2212800000000001
 30
0.0
 10
-0.26147
 20
-3.2212800000000001
 30
0.0
 10
-0.37069
 20
-3.2720800000000003
 30
0.0
 10
-0.4926100000000001
 20
-3.2924000000000002
 30
0.0
 10
-0.6043700000000001
 20
-3.3152600000000003
 30
0.0
 10
-0.6043700000000001
 20
-3.3152600000000003
 30
0.0
 10
-0.7034300000000001
 20
-3.1908000000000003
 30
0.0
 10
-0.7364500000000001
 20
-3.0104600000000001
 30
0.0
 10
-0.70089
 20
-2.85806
 30
0.0
  0
SPLINE
  5
3E
100
AcDbEntity
  8
Ebene 1
 62
     7
100
AcDbSpline
210
0.0
220
0.0
230
1.0
 70
     1
 71
     3
 72
    12
 73
     8
 74
     0
 42
0.0000000001
 43
0.0000000001
 40
0.0
 40
0.0
 40
0.0
 40
0.0
 40
0.5
 40
0.5
 40
0.5
 40
0.5
 40
1.0
 40
1.0
 40
1.0
 40
1.0
 10
-1.3841500000000002
 20
-2.9317200000000003
 30
0.0
 10
-1.2317500000000001
 20
-2.94442
 30
0.0
 10
-1.2749300000000001
 20
-3.15524
 30
0.0
 10
-1.2596900000000002
 20
-3.2593800000000002
 30
0.0
 10
-1.2596900000000002
 20
-3.2593800000000002
 30
0.0
 10
-1.3841500000000002
 20
-3.2238200000000004
 30
0.0
 10
-1.37399
 20
-3.0434800000000002
 30
0.0
 10
-1.3841500000000002
 20
-2.9317200000000003
 30
0.0
  0
SPLINE
  5
3F
100
AcDbEntity
  8
Ebene 1
 62
     7
100
AcDbSpline
210
0.0
220
0.0
230
1.0
 70
     1
 71
     3
 72
    20
 73
    16
 74
     0
 42
0.0000000001
 43
0.0000000001
 40
0.0
 40
0.0
 40
0.0
 40
0.0
 40
0.25
 40
0.25
 40
0.25
 40
0.25
 40
0.5
 40
0.5
 40
0.5
 40
0.5
 40
0.75
 40
0.75
 40
0.75
 40
0.75
 40
1.0
 40
1.0
 40
1.0
 40
1.0
 10
0.9247000000000001
 20
-2.9317200000000003
 30
0.0
 10
0.9247000000000001
 20
-2.9317200000000003
 30
0.0
 10
1.11012
 20
-3.0815800000000002
 30
0.0
 10
1.11012
 20
-3.0815800000000002
 30
0.0
 10
1.11012
 20
-3.0815800000000002
 30
0.0
 10
1.0390000000000001
 20
-3.2720800000000003
 30
0.0
 10
0.8739000000000001
 20
-3.4346400000000004
 30
0.0
 10
0.7265800000000001
 20
-3.5743400000000003
 30
0.0
 10
0.7265800000000001
 20
-3.5743400000000003
 30
0.0
 10
0.6478400000000001
 20
-3.4625800000000004
 30
0.0
 10
0.57926
 20
-3.3406600000000002
 30
0.0
 10
0.5233800000000001
 20
-3.2136600000000004
 30
0.0
 10
0.5233800000000001
 20
-3.2136600000000004
 30
0.0
 10
0.5233800000000001
 20
-3.2136600000000004
 30
0.0
 10
0.9247000000000001
 20
-2.9317200000000003
 30
0.0
 10
0.9247000000000001
 20
-2.9317200000000003
 30
0.0
  0
SPLINE
  5
40
100
AcDbEntity
  8
Ebene 1
 62
     7
100
AcDbSpline
210
0.0
220
0.0
230
1.0
 70
     1
 71
     3
 72
    12
 73
     8
 74
     0
 42
0.0000000001
 43
0.0000000001
 40
0.0
 40
0.0
 40
0.0
 40
0.0
 40
0.5
 40
0.5
 40
0.5
 40
0.5
 40
1.0
 40
1.0
 40
1.0
 40
1.0
 10
-1.1453900000000001
 20
-2.9495000000000005
 30
0.0
 10
-1.03871
 20
-3.0282400000000003
 30
0.0
 10
-1.00061
 20
-3.2187400000000004
 30
0.0
 10
-0.9828300000000001
 20
-3.3533600000000003
 30
0.0
 10
-0.9828300000000001
 20
-3.3533600000000003
 30
0.0
 10
-1.20381
 20
-3.4117800000000003
 30
0.0
 10
-1.1987300000000001
 20
-3.0765000000000002
 30
0.0
 10
-1.1453900000000001
 20
-2.9495000000000005
 30
0.0
  0
SPLINE
  5
41
100
AcDbEntity
  8
Ebene 1
 62
     7
100
AcDbSpline
210
0.0
220
0.0
230
1.0
 70
     1
 71
     3
 72
    16
 73
    12
 74
     0
 42
0.0000000001
 43
0.0000000001
 40
0.0
 40
0.0
 40
0.0
 40
0.0
 40
0.3333333333333333
 40
0.3333333333333333
 40
0.3333333333333333
 40
0.3333333333333333
 40
0.6666666666666666
 40
0.6666666666666666
 40
0.6666666666666666
 40
0.6666666666666666
 40
1.0
 40
1.0
 40
1.0
 40
1.0
 10
-0.9421900000000001
 20
-2.9495000000000005
 30
0.0
 10
-0.7999500000000001
 20
-3.0130000000000003
 30
0.0
 10
-0.7491500000000001
 20
-3.2212800000000001
 30
0.0
 10
-0.6856500000000001
 20
-3.3533600000000003
 30
0.0
 10
-0.6856500000000001
 20
-3.3533600000000003
 30
0.0
 10
-0.7313700000000001
 20
-3.4143200000000005
 30
0.0
 10
-0.84567
 20
-3.4092400000000005
 30
0.0
 10
-0.8990100000000001
 20
-3.3711400000000005
 30
0.0
 10
-0.8990100000000001
 20
-3.3711400000000005
 30
0.0
 10
-0.8990100000000001
 20
-3.3711400000000005
 30
0.0
 10
-0.9421900000000001
 20
-2.9495000000000005
 30
0.0
 10
-0.9421900000000001
 20
-2.9495000000000005
 30
0.0
  0
SPLINE
  5
42
100
AcDbEntity
  8
Ebene 1
 62
     7
100
AcDbSpline
210
0.0
220
0.0
230
1.0
 70
     1
 71
     3
 72
    20
 73
    16
 74
     0
 42
0.0000000001
 43
0.0000000001
 40
0.0
 40
0.0
 40
0.0
 40
0.0
 40
0.25
 40
0.25
 40
0.25
 40
0.25
 40
0.5
 40
0.5
 40
0.5
 40
0.5
 40
0.75
 40
0.75
 40
0.75
 40
0.75
 40
1.0
 40
1.0
 40
1.0
 40
1.0
 10
0.22112
 20
-2.9495000000000005
 30
0.0
 10
0.4497200000000001
 20
-3.1958800000000003
 30
0.0
 10
0.01538
 20
-3.3051000000000004
 30
0.0
 10
-0.11415
 20
-3.4625800000000004
 30
0.0
 10
-0.11415
 20
-3.4625800000000004
 30
0.0
 10
-0.11415
 20
-3.4625800000000004
 30
0.0
 10
-0.15733
 20
-3.4625800000000004
 30
0.0
 10
-0.15733
 20
-3.4625800000000004
 30
0.0
 10
-0.15733
 20
-3.4625800000000004
 30
0.0
 10
-0.18781
 20
-3.4371800000000001
 30
0.0
 10
-0.19289
 20
-3.3965400000000003
 30
0.0
 10
-0.20051
 20
-3.3584400000000003
 30
0.0
 10
-0.20051
 20
-3.3584400000000003
 30
0.0
 10
-0.06589
 20
-3.2289000000000003
 30
0.0
 10
0.1119
 20
-3.1019000000000001
 30
0.0
 10
0.22112
 20
-2.9495000000000005
 30
0.0
  0
SPLINE
  5
43
100
AcDbEntity
  8
Ebene 1
 62
     7
100
AcDbSpline
210
0.0
220
0.0
230
1.0
 70
     1
 71
     3
 72
    12
 73
     8
 74
     0
 42
0.0000000001
 43
0.0000000001
 40
0.0
 40
0.0
 40
0.0
 40
0.0
 40
0.5
 40
0.5
 40
0.5
 40
0.5
 40
1.0
 40
1.0
 40
1.0
 40
1.0
 10
-1.5340100000000001
 20
-2.9698200000000003
 30
0.0
 10
-1.5340100000000001
 20
-2.9698200000000003
 30
0.0
 10
-1.4806700000000002
 20
-3.0561800000000003
 30
0.0
 10
-1.4806700000000002
 20
-3.0561800000000003
 30
0.0
 10
-1.4806700000000002
 20
-3.0561800000000003
 30
0.0
 10
-1.5340100000000001
 20
-3.0739600000000005
 30
0.0
 10
-1.5390900000000001
 20
-3.0053800000000002
 30
0.0
 10
-1.5340100000000001
 20
-2.9698200000000003
 30
0.0
  0
SPLINE
  5
44
100
AcDbEntity
  8
Ebene 1
 62
     7
100
AcDbSpline
210
0.0
220
0.0
230
1.0
 70
     1
 71
     3
 72
    16
 73
    12
 74
     0
 42
0.0000000001
 43
0.0000000001
 40
0.0
 40
0.0
 40
0.0
 40
0.0
 40
0.3333333333333333
 40
0.3333333333333333
 40
0.3333333333333333
 40
0.3333333333333333
 40
0.6666666666666666
 40
0.6666666666666666
 40
0.6666666666666666
 40
0.6666666666666666
 40
1.0
 40
1.0
 40
1.0
 40
1.0
 10
1.3311000000000002
 20
-3.0053800000000002
 30
0.0
 10
1.3869800000000001
 20
-3.3178000000000001
 30
0.0
 10
1.7883000000000002
 20
-3.4905200000000001
 30
0.0
 10
2.0118200000000002
 20
-3.2136600000000004
 30
0.0
 10
2.0118200000000002
 20
-3.2136600000000004
 30
0.0
 10
1.9559400000000002
 20
-3.3736800000000002
 30
0.0
 10
1.7756000000000001
 20
-3.4752800000000001
 30
0.0
 10
1.6282800000000002
 20
-3.5438600000000005
 30
0.0
 10
1.6282800000000002
 20
-3.5438600000000005
 30
0.0
 10
1.4098400000000002
 20
-3.4702000000000002
 30
0.0
 10
1.2218800000000001
 20
-3.2365200000000001
 30
0.0
 10
1.3311000000000002
 20
-3.0053800000000002
 30
0.0
  0
SPLINE
  5
45
100
AcDbEntity
  8
Ebene 1
 62
     7
100
AcDbSpline
210
0.0
220
0.0
230
1.0
 70
     1
 71
     3
 72
    20
 73
    16
 74
     0
 42
0.0000000001
 43
0.0000000001
 40
0.0
 40
0.0
 40
0.0
 40
0.0
 40
0.25
 40
0.25
 40
0.25
 40
0.25
 40
0.5
 40
0.5
 40
0.5
 40
0.5
 40
0.75
 40
0.75
 40
0.75
 40
0.75
 40
1.0
 40
1.0
 40
1.0
 40
1.0
 10
1.1634600000000002
 20
-3.2644600000000001
 30
0.0
 10
1.1634600000000002
 20
-3.2644600000000001
 30
0.0
 10
1.3463400000000001
 20
-3.5184600000000001
 30
0.0
 10
1.3463400000000001
 20
-3.5184600000000001
 30
0.0
 10
1.3463400000000001
 20
-3.5184600000000001
 30
0.0
 10
1.3463400000000001
 20
-3.5184600000000001
 30
0.0
 10
1.02376
 20
-3.8512000000000004
 30
0.0
 10
1.02376
 20
-3.8512000000000004
 30
0.0
 10
1.02376
 20
-3.8512000000000004
 30
0.0
 10
1.02376
 20
-3.8512000000000004
 30
0.0
 10
0.86882
 20
-3.7292800000000002
 30
0.0
 10
0.86882
 20
-3.7292800000000002
 30
0.0
 10
0.86882
 20
-3.7292800000000002
 30
0.0
 10
0.86882
 20
-3.7292800000000002
 30
0.0
 10
1.1634600000000002
 20
-3.2644600000000001
 30
0.0
 10
1.1634600000000002
 20
-3.2644600000000001
 30
0.0
  0
SPLINE
  5
46
100
AcDbEntity
  8
Ebene 1
 62
     7
100
AcDbSpline
210
0.0
220
0.0
230
1.0
 70
     1
 71
     3
 72
    20
 73
    16
 74
     0
 42
0.0000000001
 43
0.0000000001
 40
0.0
 40
0.0
 40
0.0
 40
0.0
 40
0.25
 40
0.25
 40
0.25
 40
0.25
 40
0.5
 40
0.5
 40
0.5
 40
0.5
 40
0.75
 40
0.75
 40
0.75
 40
0.75
 40
1.0
 40
1.0
 40
1.0
 40
1.0
 10
0.35066
 20
-3.3025600000000002
 30
0.0
 10
0.35066
 20
-3.3025600000000002
 30
0.0
 10
0.6249800000000001
 20
-3.7038800000000003
 30
0.0
 10
0.6249800000000001
 20
-3.7038800000000003
 30
0.0
 10
0.6249800000000001
 20
-3.7038800000000003
 30
0.0
 10
0.4954400000000001
 20
-3.8537400000000002
 30
0.0
 10
0.33034
 20
-3.9807400000000004
 30
0.0
 10
0.17286
 20
-4.0925000000000002
 30
0.0
 10
0.17286
 20
-4.0925000000000002
 30
0.0
 10
0.05856
 20
-3.9578800000000003
 30
0.0
 10
-0.00493
 20
-3.7953200000000002
 30
0.0
 10
-0.07097
 20
-3.6353000000000004
 30
0.0
 10
-0.07097
 20
-3.6353000000000004
 30
0.0
 10
0.05094
 20
-3.5133800000000002
 30
0.0
 10
0.21096
 20
-3.3940000000000001
 30
0.0
 10
0.35066
 20
-3.3025600000000002
 30
0.0
  0
SPLINE
  5
47
100
AcDbEntity
  8
Ebene 1
 62
     7
100
AcDbSpline
210
0.0
220
0.0
230
1.0
 70
     1
 71
     3
 72
    16
 73
    12
 74
     0
 42
0.0000000001
 43
0.0000000001
 40
0.0
 40
0.0
 40
0.0
 40
0.0
 40
0.3333333333333333
 40
0.3333333333333333
 40
0.3333333333333333
 40
0.3333333333333333
 40
0.6666666666666666
 40
0.6666666666666666
 40
0.6666666666666666
 40
0.6666666666666666
 40
1.0
 40
1.0
 40
1.0
 40
1.0
 10
-1.29271
 20
-3.3406600000000002
 30
0.0
 10
-1.29271
 20
-3.3406600000000002
 30
0.0
 10
-1.2012700000000001
 20
-3.5616400000000001
 30
0.0
 10
-1.2012700000000001
 20
-3.5616400000000001
 30
0.0
 10
-1.2012700000000001
 20
-3.5616400000000001
 30
0.0
 10
-1.2012700000000001
 20
-3.5616400000000001
 30
0.0
 10
-1.4349500000000002
 20
-3.8156400000000001
 30
0.0
 10
-1.4349500000000002
 20
-3.8156400000000001
 30
0.0
 10
-1.4349500000000002
 20
-3.8156400000000001
 30
0.0
 10
-1.4705100000000002
 20
-3.6530800000000001
 30
0.0
 10
-1.3562100000000001
 20
-3.4879800000000003
 30
0.0
 10
-1.29271
 20
-3.3406600000000002
 30
0.0
  0
SPLINE
  5
48
100
AcDbEntity
  8
Ebene 1
 62
     7
100
AcDbSpline
210
0.0
220
0.0
230
1.0
 70
     1
 71
     3
 72
    24
 73
    20
 74
     0
 42
0.0000000001
 43
0.0000000001
 40
0.0
 40
0.0
 40
0.0
 40
0.0
 40
0.2
 40
0.2
 40
0.2
 40
0.2
 40
0.4
 40
0.4
 40
0.4
 40
0.4
 40
0.6000000000000001
 40
0.6000000000000001
 40
0.6000000000000001
 40
0.6000000000000001
 40
0.8
 40
0.8
 40
0.8
 40
0.8
 40
1.0
 40
1.0
 40
1.0
 40
1.0
 10
-0.44181
 20
-3.4321000000000002
 30
0.0
 10
-0.44181
 20
-3.4321000000000002
 30
0.0
 10
-0.35291
 20
-3.6302200000000004
 30
0.0
 10
-0.35291
 20
-3.6302200000000004
 30
0.0
 10
-0.35291
 20
-3.6302200000000004
 30
0.0
 10
-0.35291
 20
-3.6302200000000004
 30
0.0
 10
-0.80503
 20
-4.0010600000000007
 30
0.0
 10
-0.80503
 20
-4.0010600000000007
 30
0.0
 10
-0.80503
 20
-4.0010600000000007
 30
0.0
 10
-0.9142500000000001
 20
-3.8740600000000005
 30
0.0
 10
-0.9650500000000001
 20
-3.7038800000000003
 30
0.0
 10
-0.9904500000000001
 20
-3.5464000000000002
 30
0.0
 10
-0.9904500000000001
 20
-3.5464000000000002
 30
0.0
 10
-0.8913900000000001
 20
-3.4397200000000003
 30
0.0
 10
-0.7034300000000001
 20
-3.4067000000000003
 30
0.0
 10
-0.57135
 20
-3.4879800000000003
 30
0.0
 10
-0.57135
 20
-3.4879800000000003
 30
0.0
 10
-0.5230900000000001
 20
-3.4905200000000001
 30
0.0
 10
-0.47229
 20
-3.4625800000000004
 30
0.0
 10
-0.44181
 20
-3.4321000000000002
 30
0.0
  0
SPLINE
  5
49
100
AcDbEntity
  8
Ebene 1
 62
     7
100
AcDbSpline
210
0.0
220
0.0
230
1.0
 70
     1
 71
     3
 72
    20
 73
    16
 74
     0
 42
0.0000000001
 43
0.0000000001
 40
0.0
 40
0.0
 40
0.0
 40
0.0
 40
0.25
 40
0.25
 40
0.25
 40
0.25
 40
0.5
 40
0.5
 40
0.5
 40
0.5
 40
0.75
 40
0.75
 40
0.75
 40
0.75
 40
1.0
 40
1.0
 40
1.0
 40
1.0
 10
1.44286
 20
-3.5616400000000001
 30
0.0
 10
1.4911200000000002
 20
-3.5641800000000003
 30
0.0
 10
1.5419200000000002
 20
-3.5743400000000003
 30
0.0
 10
1.5774800000000002
 20
-3.6124400000000003
 30
0.0
 10
1.5774800000000002
 20
-3.6124400000000003
 30
0.0
 10
1.5774800000000002
 20
-3.6124400000000003
 30
0.0
 10
1.69686
 20
-3.5845000000000002
 30
0.0
 10
1.69686
 20
-3.5845000000000002
 30
0.0
 10
1.69686
 20
-3.5845000000000002
 30
0.0
 10
1.6765400000000001
 20
-3.6581600000000001
 30
0.0
 10
1.6282800000000002
 20
-3.7470600000000003
 30
0.0
 10
1.5724
 20
-3.8029400000000004
 30
0.0
 10
1.5724
 20
-3.8029400000000004
 30
0.0
 10
1.4911200000000002
 20
-3.7496000000000005
 30
0.0
 10
1.4200000000000002
 20
-3.6657800000000003
 30
0.0
 10
1.44286
 20
-3.5616400000000001
 30
0.0
  0
SPLINE
  5
4A
100
AcDbEntity
  8
Ebene 1
 62
     7
100
AcDbSpline
210
0.0
220
0.0
230
1.0
 70
     1
 71
     3
 72
    20
 73
    16
 74
     0
 42
0.0000000001
 43
0.0000000001
 40
0.0
 40
0.0
 40
0.0
 40
0.0
 40
0.25
 40
0.25
 40
0.25
 40
0.25
 40
0.5
 40
0.5
 40
0.5
 40
0.5
 40
0.75
 40
0.75
 40
0.75
 40
0.75
 40
1.0
 40
1.0
 40
1.0
 40
1.0
 10
-1.1809500000000002
 20
-3.7292800000000002
 30
0.0
 10
-1.1809500000000002
 20
-3.7292800000000002
 30
0.0
 10
-0.9269500000000001
 20
-4.1102800000000004
 30
0.0
 10
-0.9269500000000001
 20
-4.1102800000000004
 30
0.0
 10
-0.9269500000000001
 20
-4.1102800000000004
 30
0.0
 10
-0.9269500000000001
 20
-4.1102800000000004
 30
0.0
 10
-1.2190500000000002
 20
-4.3947600000000007
 30
0.0
 10
-1.2190500000000002
 20
-4.3947600000000007
 30
0.0
 10
-1.2190500000000002
 20
-4.3947600000000007
 30
0.0
 10
-1.3282700000000001
 20
-4.30586
 30
0.0
 10
-1.3485900000000002
 20
-4.1483800000000004
 30
0.0
 10
-1.3993900000000001
 20
-4.0289999999999999
 30
0.0
 10
-1.3993900000000001
 20
-4.0289999999999999
 30
0.0
 10
-1.3993900000000001
 20
-4.0289999999999999
 30
0.0
 10
-1.1809500000000002
 20
-3.7292800000000002
 30
0.0
 10
-1.1809500000000002
 20
-3.7292800000000002
 30
0.0
  0
SPLINE
  5
4B
100
AcDbEntity
  8
Ebene 1
 62
     7
100
AcDbSpline
210
0.0
220
0.0
230
1.0
 70
     1
 71
     3
 72
    20
 73
    16
 74
     0
 42
0.0000000001
 43
0.0000000001
 40
0.0
 40
0.0
 40
0.0
 40
0.0
 40
0.25
 40
0.25
 40
0.25
 40
0.25
 40
0.5
 40
0.5
 40
0.5
 40
0.5
 40
0.75
 40
0.75
 40
0.75
 40
0.75
 40
1.0
 40
1.0
 40
1.0
 40
1.0
 10
-0.3122700000000001
 20
-3.7826200000000001
 30
0.0
 10
-0.3122700000000001
 20
-3.7826200000000001
 30
0.0
 10
-0.03541
 20
-4.19156
 30
0.0
 10
-0.03541
 20
-4.19156
 30
0.0
 10
-0.03541
 20
-4.19156
 30
0.0
 10
-0.03541
 20
-4.19156
 30
0.0
 10
-0.49769
 20
-4.43032
 30
0.0
 10
-0.49769
 20
-4.43032
 30
0.0
 10
-0.49769
 20
-4.43032
 30
0.0
 10
-0.6094500000000001
 20
-4.3617400000000002
 30
0.0
 10
-0.6475500000000001
 20
-4.2322000000000006
 30
0.0
 10
-0.71867
 20
-4.1356800000000007
 30
0.0
 10
-0.71867
 20
-4.1356800000000007
 30
0.0
 10
-0.71867
 20
-4.1356800000000007
 30
0.0
 10
-0.3122700000000001
 20
-3.7826200000000001
 30
0.0
 10
-0.3122700000000001
 20
-3.7826200000000001
 30
0.0
  0
SPLINE
  5
4C
100
AcDbEntity
  8
Ebene 1
 62
     7
100
AcDbSpline
210
0.0
220
0.0
230
1.0
 70
     1
 71
     3
 72
    16
 73
    12
 74
     0
 42
0.0000000001
 43
0.0000000001
 40
0.0
 40
0.0
 40
0.0
 40
0.0
 40
0.3333333333333333
 40
0.3333333333333333
 40
0.3333333333333333
 40
0.3333333333333333
 40
0.6666666666666666
 40
0.6666666666666666
 40
0.6666666666666666
 40
0.6666666666666666
 40
1.0
 40
1.0
 40
1.0
 40
1.0
 10
0.7215
 20
-3.8385000000000002
 30
0.0
 10
0.7215
 20
-3.8385000000000002
 30
0.0
 10
0.8866000000000001
 20
-3.9858200000000004
 30
0.0
 10
0.8866000000000001
 20
-3.9858200000000004
 30
0.0
 10
0.8866000000000001
 20
-3.9858200000000004
 30
0.0
 10
0.7164200000000001
 20
-4.1102800000000004
 30
0.0
 10
0.48782
 20
-4.4684200000000001
 30
0.0
 10
0.29478
 20
-4.2093400000000001
 30
0.0
 10
0.29478
 20
-4.2093400000000001
 30
0.0
 10
0.44718
 20
-4.1153599999999999
 30
0.0
 10
0.59196
 20
-3.9731200000000002
 30
0.0
 10
0.7215
 20
-3.8385000000000002
 30
0.0
  0
SPLINE
  5
4D
100
AcDbEntity
  8
Ebene 1
 62
     7
100
AcDbSpline
210
0.0
220
0.0
230
1.0
 70
     1
 71
     3
 72
    20
 73
    16
 74
     0
 42
0.0000000001
 43
0.0000000001
 40
0.0
 40
0.0
 40
0.0
 40
0.0
 40
0.25
 40
0.25
 40
0.25
 40
0.25
 40
0.5
 40
0.5
 40
0.5
 40
0.5
 40
0.75
 40
0.75
 40
0.75
 40
0.75
 40
1.0
 40
1.0
 40
1.0
 40
1.0
 10
1.27522
 20
-3.9299400000000002
 30
0.0
 10
1.27522
 20
-3.9299400000000002
 30
0.0
 10
1.3285600000000002
 20
-3.9350200000000002
 30
0.0
 10
1.3285600000000002
 20
-3.9350200000000002
 30
0.0
 10
1.3285600000000002
 20
-3.9350200000000002
 30
0.0
 10
1.32094
 20
-4.0315400000000006
 30
0.0
 10
1.2676000000000001
 20
-4.1407600000000002
 30
0.0
 10
1.2015600000000002
 20
-4.2093400000000001
 30
0.0
 10
1.2015600000000002
 20
-4.2093400000000001
 30
0.0
 10
1.1279000000000001
 20
-4.1433
 30
0.0
 10
1.06186
 20
-3.9655000000000005
 30
0.0
 10
1.23458
 20
-3.9807400000000004
 30
0.0
 10
1.23458
 20
-3.9807400000000004
 30
0.0
 10
1.23458
 20
-3.9807400000000004
 30
0.0
 10
1.27522
 20
-3.9299400000000002
 30
0.0
 10
1.27522
 20
-3.9299400000000002
 30
0.0
  0
SPLINE
  5
4E
100
AcDbEntity
  8
Ebene 1
 62
     7
100
AcDbSpline
210
0.0
220
0.0
230
1.0
 70
     1
 71
     3
 72
    20
 73
    16
 74
     0
 42
0.0000000001
 43
0.0000000001
 40
0.0
 40
0.0
 40
0.0
 40
0.0
 40
0.25
 40
0.25
 40
0.25
 40
0.25
 40
0.5
 40
0.5
 40
0.5
 40
0.5
 40
0.75
 40
0.75
 40
0.75
 40
0.75
 40
1.0
 40
1.0
 40
1.0
 40
1.0
 10
0.9805800000000001
 20
-4.0975800000000007
 30
0.0
 10
0.9805800000000001
 20
-4.0975800000000007
 30
0.0
 10
1.0136000000000001
 20
-4.1026600000000002
 30
0.0
 10
1.0136000000000001
 20
-4.1026600000000002
 30
0.0
 10
1.0136000000000001
 20
-4.1026600000000002
 30
0.0
 10
0.9983600000000001
 20
-4.2144200000000005
 30
0.0
 10
1.01614
 20
-4.3642799999999999
 30
0.0
 10
0.9424800000000001
 20
-4.4481000000000002
 30
0.0
 10
0.9424800000000001
 20
-4.4481000000000002
 30
0.0
 10
0.8739000000000001
 20
-4.3973000000000004
 30
0.0
 10
0.8612000000000001
 20
-4.3084000000000007
 30
0.0
 10
0.8383400000000001
 20
-4.22966
 30
0.0
 10
0.8383400000000001
 20
-4.22966
 30
0.0
 10
0.8383400000000001
 20
-4.22966
 30
0.0
 10
0.9805800000000001
 20
-4.0975800000000007
 30
0.0
 10
0.9805800000000001
 20
-4.0975800000000007
 30
0.0
  0
SPLINE
  5
4F
100
AcDbEntity
  8
Ebene 1
 62
     7
100
AcDbSpline
210
0.0
220
0.0
230
1.0
 70
     1
 71
     3
 72
    12
 73
     8
 74
     0
 42
0.0000000001
 43
0.0000000001
 40
0.0
 40
0.0
 40
0.0
 40
0.0
 40
0.5
 40
0.5
 40
0.5
 40
0.5
 40
1.0
 40
1.0
 40
1.0
 40
1.0
 10
-1.46035
 20
-4.1356800000000007
 30
0.0
 10
-1.3993900000000001
 20
-4.2474400000000001
 30
0.0
 10
-1.33843
 20
-4.3795200000000003
 30
0.0
 10
-1.29779
 20
-4.4989000000000008
 30
0.0
 10
-1.29779
 20
-4.4989000000000008
 30
0.0
 10
-1.3943100000000002
 20
-4.4100000000000001
 30
0.0
 10
-1.4476500000000001
 20
-4.2703000000000007
 30
0.0
 10
-1.46035
 20
-4.1356800000000007
 30
0.0
  0
SPLINE
  5
50
100
AcDbEntity
  8
Ebene 1
 62
     7
100
AcDbSpline
210
0.0
220
0.0
230
1.0
 70
     1
 71
     3
 72
    16
 73
    12
 74
     0
 42
0.0000000001
 43
0.0000000001
 40
0.0
 40
0.0
 40
0.0
 40
0.0
 40
0.3333333333333333
 40
0.3333333333333333
 40
0.3333333333333333
 40
0.3333333333333333
 40
0.6666666666666666
 40
0.6666666666666666
 40
0.6666666666666666
 40
0.6666666666666666
 40
1.0
 40
1.0
 40
1.0
 40
1.0
 10
-0.86599
 20
-4.2652200000000002
 30
0.0
 10
-0.7923300000000001
 20
-4.3134800000000002
 30
0.0
 10
-0.7110500000000001
 20
-4.43032
 30
0.0
 10
-0.6856500000000001
 20
-4.5192200000000007
 30
0.0
 10
-0.6856500000000001
 20
-4.5192200000000007
 30
0.0
 10
-0.8126500000000001
 20
-4.5878000000000005
 30
0.0
 10
-0.9625100000000001
 20
-4.5497000000000005
 30
0.0
 10
-1.0717300000000001
 20
-4.4862000000000002
 30
0.0
 10
-1.0717300000000001
 20
-4.4862000000000002
 30
0.0
 10
-1.0717300000000001
 20
-4.4862000000000002
 30
0.0
 10
-0.86599
 20
-4.2652200000000002
 30
0.0
 10
-0.86599
 20
-4.2652200000000002
 30
0.0
  0
SPLINE
  5
51
100
AcDbEntity
  8
Ebene 1
 62
     7
100
AcDbSpline
210
0.0
220
0.0
230
1.0
 70
     1
 71
     3
 72
    16
 73
    12
 74
     0
 42
0.0000000001
 43
0.0000000001
 40
0.0
 40
0.0
 40
0.0
 40
0.0
 40
0.3333333333333333
 40
0.3333333333333333
 40
0.3333333333333333
 40
0.3333333333333333
 40
0.6666666666666666
 40
0.6666666666666666
 40
0.6666666666666666
 40
0.6666666666666666
 40
1.0
 40
1.0
 40
1.0
 40
1.0
 10
0.70118
 20
-4.3211000000000004
 30
0.0
 10
0.8205600000000001
 20
-4.3744400000000008
 30
0.0
 10
0.74436
 20
-4.5878000000000005
 30
0.0
 10
0.7164200000000001
 20
-4.6843200000000005
 30
0.0
 10
0.7164200000000001
 20
-4.6843200000000005
 30
0.0
 10
0.6275200000000001
 20
-4.6487600000000002
 30
0.0
 10
0.5843400000000001
 20
-4.5497000000000005
 30
0.0
 10
0.53608
 20
-4.4684200000000001
 30
0.0
 10
0.53608
 20
-4.4684200000000001
 30
0.0
 10
0.53608
 20
-4.4684200000000001
 30
0.0
 10
0.70118
 20
-4.3211000000000004
 30
0.0
 10
0.70118
 20
-4.3211000000000004
 30
0.0
  0
SPLINE
  5
52
100
AcDbEntity
  8
Ebene 1
 62
     7
100
AcDbSpline
210
0.0
220
0.0
230
1.0
 70
     1
 71
     3
 72
    24
 73
    20
 74
     0
 42
0.0000000001
 43
0.0000000001
 40
0.0
 40
0.0
 40
0.0
 40
0.0
 40
0.2
 40
0.2
 40
0.2
 40
0.2
 40
0.4
 40
0.4
 40
0.4
 40
0.4
 40
0.6000000000000001
 40
0.6000000000000001
 40
0.6000000000000001
 40
0.6000000000000001
 40
0.8
 40
0.8
 40
0.8
 40
0.8
 40
1.0
 40
1.0
 40
1.0
 40
1.0
 10
0.0738
 20
-4.3388800000000005
 30
0.0
 10
0.0738
 20
-4.3388800000000005
 30
0.0
 10
0.23636
 20
-4.4633400000000005
 30
0.0
 10
0.23636
 20
-4.4633400000000005
 30
0.0
 10
0.23636
 20
-4.4633400000000005
 30
0.0
 10
0.10174
 20
-4.5954200000000007
 30
0.0
 10
-0.09637
 20
-4.6208200000000001
 30
0.0
 10
-0.27671
 20
-4.6716200000000008
 30
0.0
 10
-0.27671
 20
-4.6716200000000008
 30
0.0
 10
-0.30465
 20
-4.6563800000000004
 30
0.0
 10
-0.33513
 20
-4.6284400000000003
 30
0.0
 10
-0.34783
 20
-4.5979600000000005
 30
0.0
 10
-0.34783
 20
-4.5979600000000005
 30
0.0
 10
-0.34783
 20
-4.5979600000000005
 30
0.0
 10
-0.23353
 20
-4.52684
 30
0.0
 10
-0.23353
 20
-4.52684
 30
0.0
 10
-0.23353
 20
-4.52684
 30
0.0
 10
-0.23353
 20
-4.52684
 30
0.0
 10
0.0738
 20
-4.3388800000000005
 30
0.0
 10
0.0738
 20
-4.3388800000000005
 30
0.0
  0
SPLINE
  5
53
100
AcDbEntity
  8
Ebene 1
 62
     7
100
AcDbSpline
210
0.0
220
0.0
230
1.0
 70
     1
 71
     3
 72
    16
 73
    12
 74
     0
 42
0.0000000001
 43
0.0000000001
 40
0.0
 40
0.0
 40
0.0
 40
0.0
 40
0.3333333333333333
 40
0.3333333333333333
 40
0.3333333333333333
 40
0.3333333333333333
 40
0.6666666666666666
 40
0.6666666666666666
 40
0.6666666666666666
 40
0.6666666666666666
 40
1.0
 40
1.0
 40
1.0
 40
1.0
 10
0.40654
 20
-4.5039800000000003
 30
0.0
 10
0.40654
 20
-4.5039800000000003
 30
0.0
 10
0.45734
 20
-4.5090600000000007
 30
0.0
 10
0.45734
 20
-4.5090600000000007
 30
0.0
 10
0.45734
 20
-4.5090600000000007
 30
0.0
 10
0.47512
 20
-4.6005000000000003
 30
0.0
 10
0.55894
 20
-4.7071800000000001
 30
0.0
 10
0.4954400000000001
 20
-4.7960800000000008
 30
0.0
 10
0.4954400000000001
 20
-4.7960800000000008
 30
0.0
 10
0.38622
 20
-4.7732200000000002
 30
0.0
 10
0.36336
 20
-4.5979600000000005
 30
0.0
 10
0.40654
 20
-4.5039800000000003
 30
0.0
  0
SPLINE
  5
54
100
AcDbEntity
  8
Ebene 1
 62
     7
100
AcDbSpline
210
0.0
220
0.0
230
1.0
 70
     1
 71
     3
 72
    12
 73
     8
 74
     0
 42
0.0000000001
 43
0.0000000001
 40
0.0
 40
0.0
 40
0.0
 40
0.0
 40
0.5
 40
0.5
 40
0.5
 40
0.5
 40
1.0
 40
1.0
 40
1.0
 40
1.0
 10
0.18302
 20
-4.6716200000000008
 30
0.0
 10
0.24906
 20
-4.7148000000000003
 30
0.0
 10
0.3252600000000001
 20
-4.8316400000000002
 30
0.0
 10
0.31002
 20
-4.9256200000000003
 30
0.0
 10
0.31002
 20
-4.9256200000000003
 30
0.0
 10
0.21096
 20
-4.9205400000000008
 30
0.0
 10
0.02554
 20
-4.7198800000000007
 30
0.0
 10
0.18302
 20
-4.6716200000000008
 30
0.0
  0
SPLINE
  5
55
100
AcDbEntity
  8
Ebene 1
 62
     7
100
AcDbSpline
210
0.0
220
0.0
230
1.0
 70
     1
 71
     3
 72
    16
 73
    12
 74
     0
 42
0.0000000001
 43
0.0000000001
 40
0.0
 40
0.0
 40
0.0
 40
0.0
 40
0.3333333333333333
 40
0.3333333333333333
 40
0.3333333333333333
 40
0.3333333333333333
 40
0.6666666666666666
 40
0.6666666666666666
 40
0.6666666666666666
 40
0.6666666666666666
 40
1.0
 40
1.0
 40
1.0
 40
1.0
 10
-0.05319
 20
-4.7452800000000002
 30
0.0
 10
0.05094
 20
-4.7808400000000004
 30
0.0
 10
0.09158
 20
-4.9332400000000005
 30
0.0
 10
0.06872
 20
-5.0373800000000006
 30
0.0
 10
0.06872
 20
-5.0373800000000006
 30
0.0
 10
-0.04303
 20
-5.0450000000000008
 30
0.0
 10
-0.10145
 20
-4.9129200000000006
 30
0.0
 10
-0.16495
 20
-4.8392600000000003
 30
0.0
 10
-0.16495
 20
-4.8392600000000003
 30
0.0
 10
-0.16495
 20
-4.8392600000000003
 30
0.0
 10
-0.05319
 20
-4.7452800000000002
 30
0.0
 10
-0.05319
 20
-4.7452800000000002
 30
0.0
  0
SPLINE
  5
56
100
AcDbEntity
  8
Ebene 1
 62
     7
100
AcDbSpline
210
0.0
220
0.0
230
1.0
 70
     1
 71
     3
 72
    12
 73
     8
 74
     0
 42
0.0000000001
 43
0.0000000001
 40
0.0
 40
0.0
 40
0.0
 40
0.0
 40
0.5
 40
0.5
 40
0.5
 40
0.5
 40
1.0
 40
1.0
 40
1.0
 40
1.0
 10
-0.44181
 20
-4.8189400000000004
 30
0.0
 10
-0.29957
 20
-4.7783000000000007
 30
0.0
 10
-0.10145
 20
-4.9611800000000006
 30
0.0
 10
-0.26147
 20
-5.07294
 30
0.0
 10
-0.26147
 20
-5.07294
 30
0.0
 10
-0.3325900000000001
 20
-5.0069000000000008
 30
0.0
 10
-0.4265700000000001
 20
-4.9205400000000008
 30
0.0
 10
-0.44181
 20
-4.8189400000000004
 30
0.0
  0
ENDSEC
  0
SECTION
  2
OBJECTS
  0
DICTIONARY
  5
19
100
AcDbDictionary
280
     0
281
     1
  3
ACAD_GROUP
350
1A
  3
ACAD_MLINESTYLE
350
1B
  3
ACAD_LAYOUT
350
1E
  3
ACAD_PLOTSETTINGS
350
22
  3
ACAD_PLOTSTYLENAME
350
1F
  3
ACAD_WIPEOUT_VARS
350
23
  0
DICTIONARY
  5
1A
102
{ACAD_REACTORS
330
19
102
}
100
AcDbDictionary
280
     0
281
     1
  0
DICTIONARY
  5
1B
102
{ACAD_REACTORS
330
19
102
}
100
AcDbDictionary
280
     0
281
     1
  3
Standard
350
1C
  0
MLINESTYLE
  5
1C
102
{ACAD_REACTORS
330
1B
102
}
100
AcDbMlineStyle
  2
Standard
 70
     0
  3

 62
     0
 51
90.0
 52
90.0
 71
     2
 49
0.5
 62
   256
  6
BYLAYER
 49
-0.5
 62
   256
  6
BYLAYER
  0
ACDBDICTIONARYWDFLT
  5
1F
102
{ACAD_REACTORS
330
19
102
}
100
AcDbDictionary
281
     1
  3
Normal
350
1D
100
AcDbDictionaryWithDefault
340
1D
  0
ACDBPLACEHOLDER
  5
1D
102
{ACAD_REACTORS
330
1F
102
}
  0
LAYOUT
  5
20
102
{ACAD_REACTORS
330
1E
102
}
100
AcDbPlotSettings
  1

  2

  4

  6

 40
0.0
 41
0.0
 42
0.0
 43
0.0
 44
0.0
 45
0.0
 46
0.0
 47
0.0
 48
0.0
 49
0.0
140
0.0
141
0.0
142
1.0
143
1.0
 70
  1024
 72
     0
 73
     0
 74
     0
  7

 75
     0
147
1.0
148
0.0
149
0.0
100
AcDbLayout
  1
Model
 70
     0
 71
     0
 10
0.0
 20
0.0
 11
0.0
 21
0.0
 12
0.0
 22
0.0
 32
0.0
 14
0.0
 24
0.0
 34
0.0
 15
0.0
 25
0.0
 35
0.0
146
0.0
 13
0.0
 23
0.0
 33
0.0
 16
0.0
 26
0.0
 36
0.0
 17
0.0
 27
0.0
 37
0.0
 76
     0
330
A
331
0
345
0
346
0
  0
LAYOUT
  5
21
102
{ACAD_REACTORS
330
1E
102
}
100
AcDbPlotSettings
  1

  2

  4

  6

 40
0.0
 41
0.0
 42
0.0
 43
0.0
 44
0.0
 45
0.0
 46
0.0
 47
0.0
 48
0.0
 49
0.0
140
0.0
141
0.0
142
1.0
143
1.0
 70
     0
 72
     0
 73
     0
 74
     0
  7

 75
     0
147
1.0
148
0.0
149
0.0
100
AcDbLayout
  1
Layout1
 70
     0
 71
     0
 10
0.0
 20
0.0
 11
0.0
 21
0.0
 12
0.0
 22
0.0
 32
0.0
 14
0.0
 24
0.0
 34
0.0
 15
0.0
 25
0.0
 35
0.0
146
0.0
 13
0.0
 23
0.0
 33
0.0
 16
0.0
 26
0.0
 36
0.0
 17
0.0
 27
0.0
 37
0.0
 76
     0
330
B
331
0
345
0
346
0
  0
DICTIONARY
  5
1E
102
{ACAD_REACTORS
330
19
102
}
100
AcDbDictionary
280
     0
281
     1
  3
Layout1
350
21
  3
Model
350
20
  0
DICTIONARY
  5
22
102
{ACAD_REACTORS
330
19
102
}
100
AcDbDictionary
280
     0
281
     1
  0
WIPEOUTVARIABLES
  5
23
100
AcDbWipeoutVariables
 70
     1
  0
ENDSEC
  0
EOF
