  0
SECTION
  2
HEADER
  9
$ACADVER
  1
AC1015
  9
$ACADMAINTVER
 70
     6
  9
$DWGCODEPAGE
  3
DOS850
  9
$INSBASE
 10
0.0
 20
0.0
 30
0.0
  9
$EXTMIN
 10
-4.52136
 20
-6.94746
 30
1.000000E+20
  9
$EXTMAX
 10
4.52631
 20
6.94125
 30
-1.000000E+20
  9
$LIMMIN
 10
0.0
 20
0.0
  9
$LIMMAX
 10
0.0
 20
0.0
  9
$ORTHOMODE
 70
     0
  9
$REGENMODE
 70
     1
  9
$FILLMODE
 70
     1
  9
$QTEXTMODE
 70
     0
  9
$MIRRTEXT
 70
     1
  9
$LTSCALE
 40
1.0
  9
$ATTMODE
 70
     1
  9
$TEXTSIZE
 40
0.2
  9
$TRACEWID
 40
0.05
  9
$TEXTSTYLE
  7
Standard
  9
$CLAYER
  8
0
  9
$CELTYPE
  6
Continuous
  9
$CECOLOR
 62
   256
  9
$CELTSCALE
 40
1.0
  9
$DISPSILH
 70
     0
  9
$DIMSCALE
 40
1.0
  9
$DIMASZ
 40
0.18
  9
$DIMEXO
 40
0.0625
  9
$DIMDLI
 40
0.38
  9
$DIMRND
 40
0.0
  9
$DIMDLE
 40
0.0
  9
$DIMEXE
 40
0.18
  9
$DIMTP
 40
0.0
  9
$DIMTM
 40
0.0
  9
$DIMTXT
 40
0.18
  9
$DIMCEN
 40
0.09
  9
$DIMTSZ
 40
0.0
  9
$DIMTOL
 70
     0
  9
$DIMLIM
 70
     0
  9
$DIMTIH
 70
     1
  9
$DIMTOH
 70
     1
  9
$DIMSE1
 70
     0
  9
$DIMSE2
 70
     0
  9
$DIMTAD
 70
     0
  9
$DIMZIN
 70
     0
  9
$DIMBLK
  1

  9
$DIMASO
 70
     1
  9
$DIMSHO
 70
     1
  9
$DIMPOST
  1

  9
$DIMAPOST
  1

  9
$DIMALT
 70
     0
  9
$DIMALTD
 70
     2
  9
$DIMALTF
 40
25.4
  9
$DIMLFAC
 40
1.0
  9
$DIMTOFL
 70
     0
  9
$DIMTVP
 40
0.0
  9
$DIMTIX
 70
     0
  9
$DIMSOXD
 70
     0
  9
$DIMSAH
 70
     0
  9
$DIMBLK1
  1

  9
$DIMBLK2
  1

  9
$DIMSTYLE
  2
Standard
  9
$DIMCLRD
 70
     0
  9
$DIMCLRE
 70
     0
  9
$DIMCLRT
 70
     0
  9
$DIMTFAC
 40
1.0
  9
$DIMGAP
 40
0.09
  9
$DIMJUST
 70
     0
  9
$DIMSD1
 70
     0
  9
$DIMSD2
 70
     0
  9
$DIMTOLJ
 70
     1
  9
$DIMTZIN
 70
     0
  9
$DIMALTZ
 70
     0
  9
$DIMALTTZ
 70
     0
  9
$DIMUPT
 70
     0
  9
$DIMDEC
 70
     4
  9
$DIMTDEC
 70
     4
  9
$DIMALTU
 70
     2
  9
$DIMALTTD
 70
     2
  9
$DIMTXSTY
  7
Standard
  9
$DIMAUNIT
 70
     0
  9
$DIMADEC
 70
     0
  9
$DIMALTRND
 40
0.0
  9
$DIMAZIN
 70
     0
  9
$DIMDSEP
 70
     0
  9
$DIMATFIT
 70
     3
  9
$DIMFRAC
 70
     0
  9
$DIMLDRBLK
  1

  9
$DIMLUNIT
 70
     2
  9
$DIMLWD
 70
     0
  9
$DIMLWE
 70
     0
  9
$DIMTMOVE
 70
     0
  9
$LUNITS
 70
     2
  9
$LUPREC
 70
     4
  9
$SKETCHINC
 40
0.1
  9
$FILLETRAD
 40
0.0
  9
$AUNITS
 70
     0
  9
$AUPREC
 70
     0
  9
$MENU
  1
acad
  9
$ELEVATION
 40
0.0
  9
$PELEVATION
 40
0.0
  9
$THICKNESS
 40
0.0
  9
$LIMCHECK
 70
     0
  9
$CHAMFERA
 40
0.0
  9
$CHAMFERB
 40
0.0
  9
$CHAMFERC
 40
0.0
  9
$CHAMFERD
 40
0.0
  9
$SKPOLY
 70
     0
  9
$TDCREATE
 40
0.000000000
  9
$TDUCREATE
 40
0.000000000
  9
$TDUPDATE
 40
0.000000000
  9
$TDUUPDATE
 40
0.000000000
  9
$TDINDWG
 40
0.0000000000
  9
$TDUSRTIMER
 40
0.0000000000
  9
$USRTIMER
 70
     1
  9
$ANGBASE
 50
0.0
  9
$ANGDIR
 70
     0
  9
$PDMODE
 70
     0
  9
$PDSIZE
 40
0.0
  9
$PLINEWID
 40
0.0
  9
$SPLFRAME
 70
     0
  9
$SPLINETYPE
 70
     6
  9
$SPLINESEGS
 70
     8
  9
$HANDSEED
  5
40
  9
$SURFTAB1
 70
     6
  9
$SURFTAB2
 70
     6
  9
$SURFTYPE
 70
     6
  9
$SURFU
 70
     6
  9
$SURFV
 70
     6
  9
$UCSBASE
  2

  9
$UCSNAME
  2

  9
$UCSORG
 10
0.0
 20
0.0
 30
0.0
  9
$UCSXDIR
 10
1.0
 20
0.0
 30
0.0
  9
$UCSYDIR
 10
0.0
 20
1.0
 30
0.0
  9
$UCSORTHOREF
  2

  9
$UCSORTHOVIEW
 70
     0
  9
$UCSORGTOP
 10
0.0
 20
0.0
 30
0.0
  9
$UCSORGBOTTOM
 10
0.0
 20
0.0
 30
0.0
  9
$UCSORGLEFT
 10
0.0
 20
0.0
 30
0.0
  9
$UCSORGRIGHT
 10
0.0
 20
0.0
 30
0.0
  9
$UCSORGFRONT
 10
0.0
 20
0.0
 30
0.0
  9
$UCSORGBACK
 10
0.0
 20
0.0
 30
0.0
  9
$PUCSBASE
  2

  9
$PUCSNAME
  2

  9
$PUCSORG
 10
0.0
 20
0.0
 30
0.0
  9
$PUCSXDIR
 10
1.0
 20
0.0
 30
0.0
  9
$PUCSYDIR
 10
0.0
 20
1.0
 30
0.0
  9
$PUCSORTHOREF
  2

  9
$PUCSORTHOVIEW
 70
     0
  9
$PUCSORGTOP
 10
0.0
 20
0.0
 30
0.0
  9
$PUCSORGBOTTOM
 10
0.0
 20
0.0
 30
0.0
  9
$PUCSORGLEFT
 10
0.0
 20
0.0
 30
0.0
  9
$PUCSORGRIGHT
 10
0.0
 20
0.0
 30
0.0
  9
$PUCSORGFRONT
 10
0.0
 20
0.0
 30
0.0
  9
$PUCSORGBACK
 10
0.0
 20
0.0
 30
0.0
  9
$USERI1
 70
     0
  9
$USERI2
 70
     0
  9
$USERI3
 70
     0
  9
$USERI4
 70
     0
  9
$USERI5
 70
     0
  9
$USERR1
 40
0.0
  9
$USERR2
 40
0.0
  9
$USERR3
 40
0.0
  9
$USERR4
 40
0.0
  9
$USERR5
 40
0.0
  9
$WORLDVIEW
 70
     1
  9
$SHADEDGE
 70
     3
  9
$SHADEDIF
 70
    70
  9
$TILEMODE
 70
     1
  9
$MAXACTVP
 70
    16
  9
$PINSBASE
 10
0.0
 20
0.0
 30
0.0
  9
$PLIMCHECK
 70
     0
  9
$PEXTMIN
 10
1.000000E+20
 20
1.000000E+20
 30
1.000000E+20
  9
$PEXTMAX
 10
-1.000000E+20
 20
-1.000000E+20
 30
-1.000000E+20
  9
$PLIMMIN
 10
0.0
 20
0.0
  9
$PLIMMAX
 10
12.0
 20
9.0
  9
$UNITMODE
 70
     0
  9
$VISRETAIN
 70
     0
  9
$PLINEGEN
 70
     1
  9
$PSLTSCALE
 70
     0
  9
$TREEDEPTH
 70
  3020
  9
$CMLSTYLE
  2
Standard
  9
$CMLJUST
 70
     0
  9
$CMLSCALE
 40
1.0
  9
$PROXYGRAPHICS
 70
     0
  9
$MEASUREMENT
 70
     0
  9
$CELWEIGHT
370
     0
  9
$ENDCAPS
280
     0
  9
$JOINSTYLE
280
     0
  9
$LWDISPLAY
290
     0
  9
$INSUNITS
 70
     5
  9
$HYPERLINKBASE
  1

  9
$XEDIT
290
     1
  9
$CEPSNTYPE
380
     0
  9
$PSTYLEMODE
290
     1
  9
$FINGERPRINTGUID
  2

  9
$VERSIONGUID
  2

  9
$EXTNAMES
290
     1
  9
$PSVPSCALE
 40
0.0
  0
ENDSEC
  0
SECTION
  2
CLASSES
  0
CLASS
  1
LWPOLYLINE
  2
AcDbPolyline
  3
AutoCAD 2000
 90
    32768
280
     0
281
     1
  0
CLASS
  1
IMAGE
  2
AcDbRasterImage
  3
ISM
 90
    32895
280
     0
281
     1
  0
CLASS
  1
OLE2FRAME
  2
AcDbOle2Frame
  3
AutoCAD 2000
 90
    32768
280
     0
281
     1
  0
CLASS
  1
HATCH
  2
AcDbHatch
  3
AutoCAD 2000
 90
    32768
280
     0
281
     1
  0
CLASS
  1
DICTIONARYVAR
  2
AcDbDictionaryVar
  3
AutoCAD 2000
 90
    32768
280
     0
281
     0
  0
CLASS
  1
RASTERVARIABLES
  2
AcDbRasterVariables
  3
ISM
 90
    32768
280
     0
281
     0
  0
CLASS
  1
IMAGEDEF
  2
AcDbRasterImageDef
  3
ISM
 90
    32768
280
     0
281
     0
  0
CLASS
  1
IMAGEDEF_REACTOR
  2
AcDbRasterImageDefReactor
  3
ISM
 90
    32769
280
     0
281
     0
  0
CLASS
  1
IDBUFFER
  2
AcDbIdBuffer
  3
AutoCAD 2000
 90
    32768
280
     0
281
     0
  0
CLASS
  1
SPATIAL_FILTER
  2
AcDbSpatialFilter
  3
AutoCAD 2000
 90
    32768
280
     0
281
     0
  0
CLASS
  1
XRECORD
  2
AcDbXrecord
  3
AutoCAD 2000
 90
    32768
280
     0
281
     0
  0
CLASS
  1
SORTENTSTABLE
  2
AcDbSortentsTable
  3
AutoCAD 2000
 90
    32768
280
     0
281
     0
  0
CLASS
  1
LAYER_INDEX
  2
AcDbLayerIndex
  3
AutoCAD 2000
 90
    32768
280
     0
281
     0
  0
CLASS
  1
SPATIAL_INDEX
  2
AcDbSpatialIndex
  3
AutoCAD 2000
 90
    32768
280
     0
281
     0
  0
CLASS
  1
OBJECT_PTR
  2
CAseDLPNTableRecord
  3
"ASE-LPNTableRecord"
 90
    32769
280
     0
281
     0
  0
CLASS
  1
LAYOUT
  2
AcDbLayout
  3
AutoCAD 2000
 90
        0
280
     0
281
     0
  0
CLASS
  1
PLOTSETTINGS
  2
AcDbPlotSettings
  3
AutoCAD 2000
 90
    32768
280
     0
281
     0
  0
CLASS
  1
ACDBDICTIONARYWDFLT
  2
AcDbDictionaryWithDefault
  3
AutoCAD 2000
 90
        0
280
     0
281
     0
  0
CLASS
  1
ACDBPLACEHOLDER
  2
AcDbPlaceHolder
  3
AutoCAD 2000
 90
        0
280
     0
281
     0
  0
CLASS
  1
VBA_PROJECT
  2
AcDbVbaProject
  3
acadvba
 90
    32768
280
     0
281
     0
  0
CLASS
  1
WIPEOUT
  2
AcDbWipeout
  3
WipeOut|AutoCAD Express Tool|expresstools@autodesk.com
 90
    32895
280
     0
281
     1
  0
CLASS
  1
WIPEOUTVARIABLES
  2
AcDbWipeoutVariables
  3
WipeOut|AutoCAD Express Tool|expresstools@autodesk.com
 90
        0
280
     0
281
     0
  0
CLASS
  1
RTEXT
  2
RText
  3
RText|AutoCAD Express Tool|expresstools@autodesk.com
 90
    32768
280
     0
281
     1
  0
CLASS
  1
ARCALIGNEDTEXT
  2
AcDbArcAlignedText
  3
ATEXT|AutoCAD Express Tool|expresstools@autodesk.com
 90
    32768
280
     0
281
     1
  0
ENDSEC
  0
SECTION
  2
TABLES
  0
TABLE
  2
VPORT
  5
7
100
AcDbSymbolTable
 70
     1
  0
VPORT
  5
15
100
AcDbSymbolTableRecord
100
AcDbViewportTableRecord
  2
*ACTIVE
 70
     0
 10
0.0
 20
0.0
 11
1.0
 21
1.0
 12
6.591288
 22
4.579184
 13
0.0
 23
0.0
 14
1.0
 24
1.0
 15
0.0
 25
0.0
 16
0.0
 26
0.0
 36
1.0
 17
0.0
 27
0.0
 37
0.0
 40
9.158369
 41
0.688564
 42
50.0
 43
0.0
 44
0.0
 50
0.0
 51
0.0
 71
     0
 72
   100
 73
     1
 74
     1
 75
     0
 76
     0
 77
     0
 78
     0
281
     0
 65
     0
110
0.0
120
0.0
130
0.0
111
1.0
121
0.0
131
0.0
112
0.0
122
1.0
132
0.0
345
0
346
0
 79
     0
146
0.0
  0
ENDTAB
  0
TABLE
  2
LTYPE
  5
4
100
AcDbSymbolTable
 70
     3
  0
LTYPE
  5
11
100
AcDbSymbolTableRecord
100
AcDbLinetypeTableRecord
  2
ByBlock
 70
    64
  3

 72
    65
 73
     0
 40
0.0
  0
LTYPE
  5
12
100
AcDbSymbolTableRecord
100
AcDbLinetypeTableRecord
  2
ByLayer
 70
    64
  3

 72
    65
 73
     0
 40
0.0
  0
LTYPE
  5
13
100
AcDbSymbolTableRecord
100
AcDbLinetypeTableRecord
  2
Continuous
 70
    64
  3
Solid line
 72
    65
 73
     0
 40
0.0
  0
ENDTAB
  0
TABLE
  2
LAYER
  5
2
100
AcDbSymbolTable
 70
     2
  0
LAYER
  5
14
100
AcDbSymbolTableRecord
100
AcDbLayerTableRecord
  2
0
 70
     0
 62
     7
  6
Continuous
290
     1
370
    -3
390
1D
  0
LAYER
  5
24
100
AcDbSymbolTableRecord
100
AcDbLayerTableRecord
  2
Ebene 1
 70
     0
 62
     7
  6
Continuous
290
     1
370
    -3
390
1F
  0
ENDTAB
  0
TABLE
  2
STYLE
  5
3
100
AcDbSymbolTable
 70
     1
  0
STYLE
  5
17
100
AcDbSymbolTableRecord
100
AcDbTextStyleTableRecord
  2
Standard
 70
     0
 40
0.0
 41
1.0
 50
0.0
 71
     0
 42
0.0
  3
txt
  4

  0
ENDTAB
  0
TABLE
  2
VIEW
  5
5
100
AcDbSymbolTable
 70
     0
  0
ENDTAB
  0
TABLE
  2
UCS
  5
6
100
AcDbSymbolTable
 70
     0
  0
ENDTAB
  0
TABLE
  2
APPID
  5
8
100
AcDbSymbolTable
 70
     1
  0
APPID
  5
16
100
AcDbSymbolTableRecord
100
AcDbRegAppTableRecord
  2
ACAD
 70
     0
  0
ENDTAB
  0
TABLE
  2
DIMSTYLE
  5
9
100
AcDbSymbolTable
 70
     1
100
AcDbDimStyleTable
 71
     0
  0
DIMSTYLE
105
18
100
AcDbSymbolTableRecord
100
AcDbDimStyleTableRecord
  2
Standard
 70
     0
  3

  4

 40
1.0
 41
0.18
 42
0.0625
 43
0.38
 44
0.18
 45
0.0
 46
0.0
 47
0.0
 48
0.0
 71
     0
 72
     0
 73
     1
 74
     1
 75
     0
 76
     0
 77
     0
 78
     0
 79
     0
140
0.18
141
0.09
142
0.0
143
25.4
144
1.0
145
0.0
146
1.0
147
0.09
148
0.0
170
     0
171
     2
172
     0
173
     0
174
     0
175
     0
176
     0
177
     0
178
     0
179
     0
271
     4
272
     4
273
     2
274
     2
275
     0
276
     0
277
     2
278
    46
279
     0
280
     0
281
     0
282
     0
283
     1
284
     0
285
     0
286
     0
288
     0
340
17
341
0
342
0
343
0
344
0
371
    -2
372
    -2
  0
ENDTAB
  0
TABLE
  2
BLOCK_RECORD
  5
1
100
AcDbSymbolTable
 70
     0
  0
BLOCK_RECORD
  5
A
100
AcDbSymbolTableRecord
100
AcDbBlockTableRecord
  2
*MODEL_SPACE
340
20
  0
BLOCK_RECORD
  5
B
100
AcDbSymbolTableRecord
100
AcDbBlockTableRecord
  2
*PAPER_SPACE
340
21
  0
ENDTAB
  0
ENDSEC
  0
SECTION
  2
BLOCKS
  0
BLOCK
  5
D
100
AcDbEntity
  8
0
100
AcDbBlockBegin
  2
*MODEL_SPACE
 70
     0
 10
0.0
 20
0.0
 30
0.0
  3
*MODEL_SPACE
  1

  0
ENDBLK
  5
E
100
AcDbEntity
  8
0
100
AcDbBlockEnd
  0
BLOCK
  5
F
100
AcDbEntity
 67
     1
  8
0
100
AcDbBlockBegin
  2
*PAPER_SPACE
 70
     0
 10
0.0
 20
0.0
 30
0.0
  3
*PAPER_SPACE
  1

  0
ENDBLK
  5
10
100
AcDbEntity
 67
     1
  8
0
100
AcDbBlockEnd
  0
ENDSEC
  0
SECTION
  2
ENTITIES
  0
SPLINE
  5
25
100
AcDbEntity
  8
Ebene 1
100
AcDbSpline
210
0.0
220
0.0
230
1.0
 70
     1
 71
     3
 72
   184
 73
   180
 74
     0
 42
0.0000000001
 43
0.0000000001
 40
0.0
 40
0.0
 40
0.0
 40
0.0
 40
0.0222222222222222
 40
0.0222222222222222
 40
0.0222222222222222
 40
0.0222222222222222
 40
0.0444444444444444
 40
0.0444444444444444
 40
0.0444444444444444
 40
0.0444444444444444
 40
0.0666666666666667
 40
0.0666666666666667
 40
0.0666666666666667
 40
0.0666666666666667
 40
0.0888888888888889
 40
0.0888888888888889
 40
0.0888888888888889
 40
0.0888888888888889
 40
0.1111111111111111
 40
0.1111111111111111
 40
0.1111111111111111
 40
0.1111111111111111
 40
0.1333333333333333
 40
0.1333333333333333
 40
0.1333333333333333
 40
0.1333333333333333
 40
0.1555555555555556
 40
0.1555555555555556
 40
0.1555555555555556
 40
0.1555555555555556
 40
0.1777777777777778
 40
0.1777777777777778
 40
0.1777777777777778
 40
0.1777777777777778
 40
0.2
 40
0.2
 40
0.2
 40
0.2
 40
0.2222222222222222
 40
0.2222222222222222
 40
0.2222222222222222
 40
0.2222222222222222
 40
0.2444444444444445
 40
0.2444444444444445
 40
0.2444444444444445
 40
0.2444444444444445
 40
0.2666666666666667
 40
0.2666666666666667
 40
0.2666666666666667
 40
0.2666666666666667
 40
0.2888888888888889
 40
0.2888888888888889
 40
0.2888888888888889
 40
0.2888888888888889
 40
0.3111111111111111
 40
0.3111111111111111
 40
0.3111111111111111
 40
0.3111111111111111
 40
0.3333333333333333
 40
0.3333333333333333
 40
0.3333333333333333
 40
0.3333333333333333
 40
0.3555555555555555
 40
0.3555555555555555
 40
0.3555555555555555
 40
0.3555555555555555
 40
0.3777777777777777
 40
0.3777777777777777
 40
0.3777777777777777
 40
0.3777777777777777
 40
0.3999999999999999
 40
0.3999999999999999
 40
0.3999999999999999
 40
0.3999999999999999
 40
0.4222222222222221
 40
0.4222222222222221
 40
0.4222222222222221
 40
0.4222222222222221
 40
0.4444444444444443
 40
0.4444444444444443
 40
0.4444444444444443
 40
0.4444444444444443
 40
0.4666666666666665
 40
0.4666666666666665
 40
0.4666666666666665
 40
0.4666666666666665
 40
0.4888888888888887
 40
0.4888888888888887
 40
0.4888888888888887
 40
0.4888888888888887
 40
0.5111111111111109
 40
0.5111111111111109
 40
0.5111111111111109
 40
0.5111111111111109
 40
0.5333333333333331
 40
0.5333333333333331
 40
0.5333333333333331
 40
0.5333333333333331
 40
0.5555555555555554
 40
0.5555555555555554
 40
0.5555555555555554
 40
0.5555555555555554
 40
0.5777777777777776
 40
0.5777777777777776
 40
0.5777777777777776
 40
0.5777777777777776
 40
0.5999999999999999
 40
0.5999999999999999
 40
0.5999999999999999
 40
0.5999999999999999
 40
0.6222222222222221
 40
0.6222222222222221
 40
0.6222222222222221
 40
0.6222222222222221
 40
0.6444444444444444
 40
0.6444444444444444
 40
0.6444444444444444
 40
0.6444444444444444
 40
0.6666666666666666
 40
0.6666666666666666
 40
0.6666666666666666
 40
0.6666666666666666
 40
0.6888888888888889
 40
0.6888888888888889
 40
0.6888888888888889
 40
0.6888888888888889
 40
0.7111111111111111
 40
0.7111111111111111
 40
0.7111111111111111
 40
0.7111111111111111
 40
0.7333333333333334
 40
0.7333333333333334
 40
0.7333333333333334
 40
0.7333333333333334
 40
0.7555555555555557
 40
0.7555555555555557
 40
0.7555555555555557
 40
0.7555555555555557
 40
0.7777777777777779
 40
0.7777777777777779
 40
0.7777777777777779
 40
0.7777777777777779
 40
0.8000000000000002
 40
0.8000000000000002
 40
0.8000000000000002
 40
0.8000000000000002
 40
0.8222222222222224
 40
0.8222222222222224
 40
0.8222222222222224
 40
0.8222222222222224
 40
0.8444444444444447
 40
0.8444444444444447
 40
0.8444444444444447
 40
0.8444444444444447
 40
0.8666666666666669
 40
0.8666666666666669
 40
0.8666666666666669
 40
0.8666666666666669
 40
0.8888888888888892
 40
0.8888888888888892
 40
0.8888888888888892
 40
0.8888888888888892
 40
0.9111111111111114
 40
0.9111111111111114
 40
0.9111111111111114
 40
0.9111111111111114
 40
0.9333333333333337
 40
0.9333333333333337
 40
0.9333333333333337
 40
0.9333333333333337
 40
0.9555555555555559
 40
0.9555555555555559
 40
0.9555555555555559
 40
0.9555555555555559
 40
0.9777777777777782
 40
0.9777777777777782
 40
0.9777777777777782
 40
0.9777777777777782
 40
1.0
 40
1.0
 40
1.0
 40
1.0
 10
0.9374000000000001
 20
6.9412500000000001
 30
0.0
 10
1.5571600000000001
 20
6.9260100000000007
 30
0.0
 10
1.6587600000000002
 20
6.1970300000000007
 30
0.0
 10
1.56732
 20
5.7322100000000002
 30
0.0
 10
1.56732
 20
5.7322100000000002
 30
0.0
 10
1.8645
 20
5.2165900000000001
 30
0.0
 10
2.24804
 20
4.3377500000000007
 30
0.0
 10
2.9440000000000004
 20
4.5384100000000007
 30
0.0
 10
2.9440000000000004
 20
4.5384100000000007
 30
0.0
 10
2.9262200000000003
 20
4.2056700000000005
 30
0.0
 10
2.6087200000000004
 20
3.9745300000000001
 30
0.0
 10
2.3521800000000002
 20
3.8246700000000002
 30
0.0
 10
2.3521800000000002
 20
3.8246700000000002
 30
0.0
 10
3.8101400000000005
 20
3.4157300000000004
 30
0.0
 10
4.2013000000000007
 20
2.26003
 30
0.0
 10
4.34354
 20
0.9595500000000001
 30
0.0
 10
4.34354
 20
0.9595500000000001
 30
0.0
 10
4.3537000000000008
 20
0.8757300000000001
 30
0.0
 10
4.5188000000000006
 20
0.6877700000000001
 30
0.0
 10
4.5238800000000001
 20
0.60141
 30
0.0
 10
4.5238800000000001
 20
0.60141
 30
0.0
 10
4.5467400000000007
 20
0.34487
 30
0.0
 10
4.4045000000000005
 20
0.09595
 30
0.0
 10
4.41974
 20
-0.15296
 30
0.0
 10
4.41974
 20
-0.15296
 30
0.0
 10
4.4375200000000001
 20
-0.50856
 30
0.0
 10
4.4527600000000005
 20
-0.8489200000000001
 30
0.0
 10
4.4857800000000001
 20
-1.16388
 30
0.0
 10
4.4857800000000001
 20
-1.16388
 30
0.0
 10
3.9142800000000002
 20
-1.6439400000000002
 30
0.0
 10
4.3232200000000001
 20
-2.4897600000000004
 30
0.0
 10
4.0006400000000006
 20
-3.1019000000000001
 30
0.0
 10
4.0006400000000006
 20
-3.1019000000000001
 30
0.0
 10
3.7720400000000005
 20
-3.3660600000000005
 30
0.0
 10
3.4189800000000004
 20
-3.3025600000000002
 30
0.0
 10
3.1294200000000001
 20
-3.3330400000000004
 30
0.0
 10
3.1294200000000001
 20
-3.3330400000000004
 30
0.0
 10
3.1726000000000001
 20
-3.7978600000000005
 30
0.0
 10
3.1802200000000003
 20
-4.3134800000000002
 30
0.0
 10
3.0913200000000001
 20
-4.7427400000000004
 30
0.0
 10
3.0913200000000001
 20
-4.7427400000000004
 30
0.0
 10
3.0329000000000002
 20
-4.5116000000000005
 30
0.0
 10
3.0151200000000005
 20
-3.2187400000000004
 30
0.0
 10
2.8449400000000002
 20
-3.8486600000000002
 30
0.0
 10
2.8449400000000002
 20
-3.8486600000000002
 30
0.0
 10
2.7890600000000001
 20
-3.7978600000000005
 30
0.0
 10
2.8068400000000002
 20
-3.6835600000000004
 30
0.0
 10
2.79922
 20
-3.5997400000000002
 30
0.0
 10
2.79922
 20
-3.5997400000000002
 30
0.0
 10
2.8119200000000002
 20
-3.4651200000000002
 30
0.0
 10
2.8398600000000003
 20
-3.2847800000000005
 30
0.0
 10
2.7509600000000001
 20
-3.1679400000000002
 30
0.0
 10
2.7509600000000001
 20
-3.1679400000000002
 30
0.0
 10
2.2328000000000001
 20
-2.7361400000000002
 30
0.0
 10
2.5909400000000002
 20
-4.2626800000000005
 30
0.0
 10
2.3953600000000002
 20
-3.9147000000000003
 30
0.0
 10
2.3953600000000002
 20
-3.9147000000000003
 30
0.0
 10
2.3953600000000002
 20
-3.9147000000000003
 30
0.0
 10
2.4004400000000001
 20
-3.6657800000000003
 30
0.0
 10
2.4004400000000001
 20
-3.6657800000000003
 30
0.0
 10
2.4004400000000001
 20
-3.6657800000000003
 30
0.0
 10
2.4004400000000001
 20
-3.6657800000000003
 30
0.0
 10
2.3674200000000001
 20
-3.3025600000000002
 30
0.0
 10
2.3674200000000001
 20
-3.3025600000000002
 30
0.0
 10
2.3674200000000001
 20
-3.3025600000000002
 30
0.0
 10
2.4360000000000004
 20
-3.0028400000000004
 30
0.0
 10
2.1947000000000001
 20
-2.8529800000000001
 30
0.0
 10
2.08548
 20
-2.6878800000000003
 30
0.0
 10
2.08548
 20
-2.6878800000000003
 30
0.0
 10
1.7375
 20
-2.6726400000000003
 30
0.0
 10
1.9762600000000001
 20
-3.2339800000000003
 30
0.0
 10
1.9153000000000002
 20
-3.4651200000000002
 30
0.0
 10
1.9153000000000002
 20
-3.4651200000000002
 30
0.0
 10
1.8467200000000001
 20
-4.6284400000000003
 30
0.0
 10
2.0042
 20
-5.7384200000000005
 30
0.0
 10
1.9661000000000002
 20
-6.9474600000000004
 30
0.0
 10
1.9661000000000002
 20
-6.9474600000000004
 30
0.0
 10
1.8162400000000001
 20
-5.8374800000000002
 30
0.0
 10
1.8518000000000001
 20
-4.6589200000000002
 30
0.0
 10
1.7654400000000001
 20
-3.5845000000000002
 30
0.0
 10
1.7654400000000001
 20
-3.5845000000000002
 30
0.0
 10
1.6257400000000002
 20
-3.0688800000000001
 30
0.0
 10
1.9178400000000002
 20
-2.30688
 30
0.0
 10
1.5063600000000001
 20
-1.9589000000000001
 30
0.0
 10
1.5063600000000001
 20
-1.9589000000000001
 30
0.0
 10
1.5063600000000001
 20
-1.9589000000000001
 30
0.0
 10
1.4352400000000001
 20
-2.27386
 30
0.0
 10
1.4352400000000001
 20
-2.27386
 30
0.0
 10
1.4352400000000001
 20
-2.27386
 30
0.0
 10
1.3819000000000001
 20
-2.4542000000000002
 30
0.0
 10
1.40222
 20
-2.7539200000000004
 30
0.0
 10
1.3361800000000001
 20
-2.4059400000000002
 30
0.0
 10
1.3361800000000001
 20
-2.4059400000000002
 30
0.0
 10
1.3438000000000001
 20
-2.2891000000000004
 30
0.0
 10
1.4301600000000001
 20
-2.1240000000000001
 30
0.0
 10
1.31586
 20
-2.02494
 30
0.0
 10
1.31586
 20
-2.02494
 30
0.0
 10
1.18632
 20
-2.1900400000000002
 30
0.0
 10
1.0948800000000001
 20
-1.9919200000000001
 30
0.0
 10
0.9907400000000001
 20
-2.1087600000000002
 30
0.0
 10
0.9907400000000001
 20
-2.1087600000000002
 30
0.0
 10
0.8942200000000001
 20
-3.0358600000000004
 30
0.0
 10
1.10758
 20
-4.0975800000000007
 30
0.0
 10
0.9602600000000001
 20
-5.0754800000000007
 30
0.0
 10
0.9602600000000001
 20
-5.0754800000000007
 30
0.0
 10
0.9221600000000001
 20
-4.8926000000000007
 30
0.0
 10
0.93486
 20
-4.6767000000000003
 30
0.0
 10
0.9374000000000001
 20
-4.5116000000000005
 30
0.0
 10
0.9374000000000001
 20
-4.5116000000000005
 30
0.0
 10
0.8205600000000001
 20
-3.7165800000000004
 30
0.0
 10
0.9653400000000001
 20
-2.9037800000000002
 30
0.0
 10
0.76722
 20
-2.1240000000000001
 30
0.0
 10
0.76722
 20
-2.1240000000000001
 30
0.0
 10
0.6326000000000001
 20
-2.1748000000000003
 30
0.0
 10
0.74182
 20
-2.4389600000000002
 30
0.0
 10
0.6707000000000001
 20
-2.5558000000000001
 30
0.0
 10
0.6707000000000001
 20
-2.5558000000000001
 30
0.0
 10
0.6021200000000001
 20
-2.4059400000000002
 30
0.0
 10
0.40654
 20
-1.62616
 30
0.0
 10
0.27954
 20
-2.13924
 30
0.0
 10
0.27954
 20
-2.13924
 30
0.0
 10
0.17032
 20
-1.9487400000000001
 30
0.0
 10
-0.15987
 20
-1.83952
 30
0.0
 10
-0.38085
 20
-1.9309600000000002
 30
0.0
 10
-0.38085
 20
-1.9309600000000002
 30
0.0
 10
-0.7542300000000001
 20
-2.0859000000000001
 30
0.0
 10
-0.67549
 20
-1.4890000000000001
 30
0.0
 10
-1.4247900000000002
 20
-1.3924800000000002
 30
0.0
 10
-1.4247900000000002
 20
-1.3924800000000002
 30
0.0
 10
-1.4324100000000002
 20
-1.1562600000000001
 30
0.0
 10
-1.2800100000000001
 20
-0.9327400000000001
 30
0.0
 10
-1.37653
 20
-0.69906
 30
0.0
 10
-1.37653
 20
-0.69906
 30
0.0
 10
-1.75753
 20
0.22803
 30
0.0
 10
-1.7880100000000001
 20
0.95701
 30
0.0
 10
-1.3587500000000001
 20
1.7698100000000001
 30
0.0
 10
-1.3587500000000001
 20
1.7698100000000001
 30
0.0
 10
-1.2571500000000002
 20
2.5800700000000001
 30
0.0
 10
-0.3757700000000001
 20
2.9458300000000004
 30
0.0
 10
-0.39863
 20
3.7052900000000002
 30
0.0
 10
-0.39863
 20
3.7052900000000002
 30
0.0
 10
-0.40117
 20
3.7992700000000004
 30
0.0
 10
-0.47229
 20
3.9110300000000002
 30
0.0
 10
-0.39863
 20
4.0558100000000001
 30
0.0
 10
-0.39863
 20
4.0558100000000001
 30
0.0
 10
-0.00493
 20
3.9745300000000001
 30
0.0
 10
0.4192400000000001
 20
4.0558100000000001
 30
0.0
 10
0.6859400000000001
 20
4.3885500000000004
 30
0.0
 10
0.6859400000000001
 20
4.3885500000000004
 30
0.0
 10
0.8332600000000001
 20
4.6527100000000008
 30
0.0
 10
0.6834
 20
5.0032300000000003
 30
0.0
 10
0.404
 20
5.0845100000000008
 30
0.0
 10
0.404
 20
5.0845100000000008
 30
0.0
 10
-1.0615700000000001
 20
4.68065
 30
0.0
 10
-1.50607
 20
3.6443300000000005
 30
0.0
 10
-1.9581900000000001
 20
2.0898500000000002
 30
0.0
 10
-1.9581900000000001
 20
2.0898500000000002
 30
0.0
 10
-2.2883900000000001
 20
0.9595500000000001
 30
0.0
 10
-2.9056100000000002
 20
-0.22408
 30
0.0
 10
-3.6193500000000003
 20
-1.0470400000000002
 30
0.0
 10
-3.6193500000000003
 20
-1.0470400000000002
 30
0.0
 10
-4.1121100000000004
 20
-1.0953000000000002
 30
0.0
 10
-4.5896300000000005
 20
-0.7143000000000001
 30
0.0
 10
-4.5134300000000005
 20
-0.18344
 30
0.0
 10
-4.5134300000000005
 20
-0.18344
 30
0.0
 10
-4.09687
 20
0.27629
 30
0.0
 10
-3.7361900000000001
 20
0.7919100000000001
 30
0.0
 10
-3.3475700000000002
 20
1.2897500000000002
 30
0.0
 10
-3.3475700000000002
 20
1.2897500000000002
 30
0.0
 10
-2.7862300000000002
 20
1.9857100000000001
 30
0.0
 10
-2.4763500000000001
 20
2.8137500000000002
 30
0.0
 10
-2.2807700000000004
 20
3.6595700000000004
 30
0.0
 10
-2.2807700000000004
 20
3.6595700000000004
 30
0.0
 10
-2.1791700000000001
 20
4.5384100000000007
 30
0.0
 10
-1.6991100000000001
 20
5.1861100000000002
 30
0.0
 10
-0.9040900000000001
 20
5.5645700000000007
 30
0.0
 10
-0.9040900000000001
 20
5.5645700000000007
 30
0.0
 10
-0.61453
 20
6.2783100000000003
 30
0.0
 10
0.29224
 20
6.6262900000000009
 30
0.0
 10
0.9374000000000001
 20
6.9412500000000001
 30
0.0
  0
SPLINE
  5
26
100
AcDbEntity
  8
Ebene 1
 62
     7
100
AcDbSpline
210
0.0
220
0.0
230
1.0
 70
     1
 71
     3
 72
    24
 73
    20
 74
     0
 42
0.0000000001
 43
0.0000000001
 40
0.0
 40
0.0
 40
0.0
 40
0.0
 40
0.2
 40
0.2
 40
0.2
 40
0.2
 40
0.4
 40
0.4
 40
0.4
 40
0.4
 40
0.6000000000000001
 40
0.6000000000000001
 40
0.6000000000000001
 40
0.6000000000000001
 40
0.8
 40
0.8
 40
0.8
 40
0.8
 40
1.0
 40
1.0
 40
1.0
 40
1.0
 10
0.9221600000000001
 20
6.8929900000000002
 30
0.0
 10
0.9221600000000001
 20
6.8929900000000002
 30
0.0
 10
1.02376
 20
6.8752100000000009
 30
0.0
 10
1.02376
 20
6.8752100000000009
 30
0.0
 10
1.02376
 20
6.8752100000000009
 30
0.0
 10
1.0415400000000001
 20
6.8752100000000009
 30
0.0
 10
1.0440800000000001
 20
6.8421900000000004
 30
0.0
 10
1.02122
 20
6.8421900000000004
 30
0.0
 10
1.02122
 20
6.8421900000000004
 30
0.0
 10
0.5259200000000001
 20
6.7431300000000007
 30
0.0
 10
1.2447400000000002
 20
5.8973100000000001
 30
0.0
 10
1.4733400000000001
 20
6.3291100000000009
 30
0.0
 10
1.4733400000000001
 20
6.3291100000000009
 30
0.0
 10
1.4809600000000001
 20
6.3291100000000009
 30
0.0
 10
1.5038200000000002
 20
6.3291100000000009
 30
0.0
 10
1.5012800000000002
 20
6.3113300000000008
 30
0.0
 10
1.5012800000000002
 20
6.3113300000000008
 30
0.0
 10
1.3692000000000002
 20
5.7144300000000001
 30
0.0
 10
0.3786000000000001
 20
6.6440700000000001
 30
0.0
 10
0.9221600000000001
 20
6.8929900000000002
 30
0.0
  0
SPLINE
  5
27
100
AcDbEntity
  8
Ebene 1
 62
     7
100
AcDbSpline
210
0.0
220
0.0
230
1.0
 70
     1
 71
     3
 72
    84
 73
    80
 74
     0
 42
0.0000000001
 43
0.0000000001
 40
0.0
 40
0.0
 40
0.0
 40
0.0
 40
0.05
 40
0.05
 40
0.05
 40
0.05
 40
0.1
 40
0.1
 40
0.1
 40
0.1
 40
0.15
 40
0.15
 40
0.15
 40
0.15
 40
0.2
 40
0.2
 40
0.2
 40
0.2
 40
0.25
 40
0.25
 40
0.25
 40
0.25
 40
0.3
 40
0.3
 40
0.3
 40
0.3
 40
0.35
 40
0.35
 40
0.35
 40
0.35
 40
0.4
 40
0.4
 40
0.4
 40
0.4
 40
0.45
 40
0.45
 40
0.45
 40
0.45
 40
0.4999999999999999
 40
0.4999999999999999
 40
0.4999999999999999
 40
0.4999999999999999
 40
0.5499999999999999
 40
0.5499999999999999
 40
0.5499999999999999
 40
0.5499999999999999
 40
0.6
 40
0.6
 40
0.6
 40
0.6
 40
0.65
 40
0.65
 40
0.65
 40
0.65
 40
0.7000000000000001
 40
0.7000000000000001
 40
0.7000000000000001
 40
0.7000000000000001
 40
0.7500000000000001
 40
0.7500000000000001
 40
0.7500000000000001
 40
0.7500000000000001
 40
0.8000000000000002
 40
0.8000000000000002
 40
0.8000000000000002
 40
0.8000000000000002
 40
0.8500000000000002
 40
0.8500000000000002
 40
0.8500000000000002
 40
0.8500000000000002
 40
0.9000000000000002
 40
0.9000000000000002
 40
0.9000000000000002
 40
0.9000000000000002
 40
0.9500000000000003
 40
0.9500000000000003
 40
0.9500000000000003
 40
0.9500000000000003
 40
1.0
 40
1.0
 40
1.0
 40
1.0
 10
0.6884800000000001
 20
6.7609100000000009
 30
0.0
 10
0.6681600000000001
 20
6.3621300000000005
 30
0.0
 10
1.02376
 20
6.0293900000000002
 30
0.0
 10
1.4149200000000002
 20
5.9811300000000003
 30
0.0
 10
1.4149200000000002
 20
5.9811300000000003
 30
0.0
 10
1.4352400000000001
 20
5.3842300000000005
 30
0.0
 10
2.4055200000000001
 20
4.8025700000000002
 30
0.0
 10
1.6333600000000001
 20
4.3555300000000008
 30
0.0
 10
1.6333600000000001
 20
4.3555300000000008
 30
0.0
 10
1.8162400000000001
 20
4.3225100000000003
 30
0.0
 10
1.9508600000000003
 20
4.5714300000000003
 30
0.0
 10
2.12866
 20
4.6374700000000004
 30
0.0
 10
2.12866
 20
4.6374700000000004
 30
0.0
 10
2.3039200000000002
 20
4.4876100000000001
 30
0.0
 10
2.50712
 20
4.3885500000000004
 30
0.0
 10
2.7408000000000001
 20
4.3885500000000004
 30
0.0
 10
2.7408000000000001
 20
4.3885500000000004
 30
0.0
 10
2.7077800000000001
 20
4.17265
 30
0.0
 10
2.2734400000000003
 20
3.9084900000000005
 30
0.0
 10
2.2175600000000002
 20
4.0075500000000002
 30
0.0
 10
2.2175600000000002
 20
4.0075500000000002
 30
0.0
 10
2.2175600000000002
 20
4.0075500000000002
 30
0.0
 10
2.3420200000000002
 20
4.2742500000000003
 30
0.0
 10
2.3420200000000002
 20
4.2742500000000003
 30
0.0
 10
2.3420200000000002
 20
4.2742500000000003
 30
0.0
 10
2.2988400000000002
 20
4.4545900000000005
 30
0.0
 10
2.24804
 20
4.4266500000000004
 30
0.0
 10
2.16168
 20
4.2285300000000001
 30
0.0
 10
2.16168
 20
4.2285300000000001
 30
0.0
 10
2.0575400000000004
 20
3.9846900000000005
 30
0.0
 10
1.7527400000000002
 20
3.7433900000000002
 30
0.0
 10
1.8340200000000002
 20
4.1066100000000008
 30
0.0
 10
1.8340200000000002
 20
4.1066100000000008
 30
0.0
 10
1.4301600000000001
 20
3.5757500000000002
 30
0.0
 10
0.6046600000000001
 20
3.9567500000000004
 30
0.0
 10
0.05856
 20
3.5757500000000002
 30
0.0
 10
0.05856
 20
3.5757500000000002
 30
0.0
 10
-0.02017
 20
3.6265500000000004
 30
0.0
 10
-0.01763
 20
3.7916500000000002
 30
0.0
 10
-0.09891
 20
3.8094300000000003
 30
0.0
 10
-0.09891
 20
3.8094300000000003
 30
0.0
 10
-0.14463
 20
3.7078300000000004
 30
0.0
 10
-0.11923
 20
3.5427300000000002
 30
0.0
 10
-0.23861
 20
3.4944700000000002
 30
0.0
 10
-0.23861
 20
3.4944700000000002
 30
0.0
 10
-0.31989
 20
3.5427300000000002
 30
0.0
 10
-0.25893
 20
3.6290900000000001
 30
0.0
 10
-0.29195
 20
3.7103700000000002
 30
0.0
 10
-0.29195
 20
3.7103700000000002
 30
0.0
 10
-0.3021100000000001
 20
3.7941900000000004
 30
0.0
 10
-0.3427500000000001
 20
3.8754700000000004
 30
0.0
 10
-0.29957
 20
3.9415100000000005
 30
0.0
 10
-0.29957
 20
3.9415100000000005
 30
0.0
 10
0.07126
 20
3.9084900000000005
 30
0.0
 10
0.41162
 20
3.9923100000000002
 30
0.0
 10
0.7392800000000001
 20
4.12439
 30
0.0
 10
0.7392800000000001
 20
4.12439
 30
0.0
 10
1.02122
 20
4.17265
 30
0.0
 10
1.1609200000000002
 20
4.37331
 30
0.0
 10
0.7926200000000001
 20
4.2386900000000001
 30
0.0
 10
0.7926200000000001
 20
4.2386900000000001
 30
0.0
 10
0.82818
 20
4.4876100000000001
 30
0.0
 10
0.78246
 20
4.7517700000000005
 30
0.0
 10
0.71896
 20
4.9854500000000002
 30
0.0
 10
0.71896
 20
4.9854500000000002
 30
0.0
 10
0.6503800000000001
 20
5.1505500000000008
 30
0.0
 10
0.47004
 20
5.2165900000000001
 30
0.0
 10
0.30748
 20
5.2496100000000006
 30
0.0
 10
0.30748
 20
5.2496100000000006
 30
0.0
 10
0.30748
 20
5.2496100000000006
 30
0.0
 10
-0.3021100000000001
 20
4.9194100000000001
 30
0.0
 10
-0.3021100000000001
 20
4.9194100000000001
 30
0.0
 10
-0.3021100000000001
 20
4.9194100000000001
 30
0.0
 10
-0.61707
 20
5.0845100000000008
 30
0.0
 10
-0.7796300000000001
 20
5.4655100000000001
 30
0.0
 10
-0.7135900000000001
 20
5.8134900000000007
 30
0.0
 10
-0.7135900000000001
 20
5.8134900000000007
 30
0.0
 10
-0.3122700000000001
 20
6.2300500000000003
 30
0.0
 10
0.15508
 20
6.4865900000000005
 30
0.0
 10
0.6884800000000001
 20
6.7609100000000009
 30
0.0
  0
SPLINE
  5
28
100
AcDbEntity
  8
Ebene 1
 62
     7
100
AcDbSpline
210
0.0
220
0.0
230
1.0
 70
     1
 71
     3
 72
    12
 73
     8
 74
     0
 42
0.0000000001
 43
0.0000000001
 40
0.0
 40
0.0
 40
0.0
 40
0.0
 40
0.5
 40
0.5
 40
0.5
 40
0.5
 40
1.0
 40
1.0
 40
1.0
 40
1.0
 10
1.02122
 20
6.7431300000000007
 30
0.0
 10
1.1812400000000001
 20
6.7253500000000006
 30
0.0
 10
1.3793600000000001
 20
6.5119900000000008
 30
0.0
 10
1.31586
 20
6.3443500000000004
 30
0.0
 10
1.31586
 20
6.3443500000000004
 30
0.0
 10
1.14314
 20
6.3443500000000004
 30
0.0
 10
0.8662800000000001
 20
6.6110500000000005
 30
0.0
 10
1.02122
 20
6.7431300000000007
 30
0.0
  0
SPLINE
  5
29
100
AcDbEntity
  8
Ebene 1
100
AcDbSpline
210
0.0
220
0.0
230
1.0
 70
     1
 71
     3
 72
    36
 73
    32
 74
     0
 42
0.0000000001
 43
0.0000000001
 40
0.0
 40
0.0
 40
0.0
 40
0.0
 40
0.125
 40
0.125
 40
0.125
 40
0.125
 40
0.25
 40
0.25
 40
0.25
 40
0.25
 40
0.375
 40
0.375
 40
0.375
 40
0.375
 40
0.5
 40
0.5
 40
0.5
 40
0.5
 40
0.625
 40
0.625
 40
0.625
 40
0.625
 40
0.75
 40
0.75
 40
0.75
 40
0.75
 40
0.875
 40
0.875
 40
0.875
 40
0.875
 40
1.0
 40
1.0
 40
1.0
 40
1.0
 10
0.5056000000000001
 20
6.5602500000000008
 30
0.0
 10
0.53608
 20
6.5602500000000008
 30
0.0
 10
0.5818000000000001
 20
6.5602500000000008
 30
0.0
 10
0.5894200000000001
 20
6.5272300000000003
 30
0.0
 10
0.5894200000000001
 20
6.5272300000000003
 30
0.0
 10
0.34304
 20
6.2605300000000002
 30
0.0
 10
-0.06843
 20
6.2122700000000002
 30
0.0
 10
-0.25385
 20
5.8820700000000006
 30
0.0
 10
-0.25385
 20
5.8820700000000006
 30
0.0
 10
-0.25385
 20
5.8820700000000006
 30
0.0
 10
-0.20051
 20
5.7830100000000009
 30
0.0
 10
-0.20051
 20
5.7830100000000009
 30
0.0
 10
-0.20051
 20
5.7830100000000009
 30
0.0
 10
-0.15479
 20
5.7830100000000009
 30
0.0
 10
-0.10907
 20
5.8312700000000008
 30
0.0
 10
-0.06589
 20
5.8465100000000003
 30
0.0
 10
-0.06589
 20
5.8465100000000003
 30
0.0
 10
-0.00747
 20
5.8820700000000006
 30
0.0
 10
0.20842
 20
5.9963700000000006
 30
0.0
 10
0.1119
 20
5.8465100000000003
 30
0.0
 10
0.1119
 20
5.8465100000000003
 30
0.0
 10
0.1119
 20
5.8465100000000003
 30
0.0
 10
-0.37069
 20
5.4655100000000001
 30
0.0
 10
-0.37069
 20
5.4655100000000001
 30
0.0
 10
-0.37069
 20
5.4655100000000001
 30
0.0
 10
-0.59421
 20
5.4324900000000005
 30
0.0
 10
-0.6272300000000001
 20
5.6991900000000006
 30
0.0
 10
-0.5637300000000001
 20
5.8642900000000004
 30
0.0
 10
-0.5637300000000001
 20
5.8642900000000004
 30
0.0
 10
-0.24369
 20
6.1284500000000008
 30
0.0
 10
0.15
 20
6.3443500000000004
 30
0.0
 10
0.5056000000000001
 20
6.5602500000000008
 30
0.0
  0
SPLINE
  5
2A
100
AcDbEntity
  8
Ebene 1
100
AcDbSpline
210
0.0
220
0.0
230
1.0
 70
     1
 71
     3
 72
    28
 73
    24
 74
     0
 42
0.0000000001
 43
0.0000000001
 40
0.0
 40
0.0
 40
0.0
 40
0.0
 40
0.1666666666666667
 40
0.1666666666666667
 40
0.1666666666666667
 40
0.1666666666666667
 40
0.3333333333333333
 40
0.3333333333333333
 40
0.3333333333333333
 40
0.3333333333333333
 40
0.5
 40
0.5
 40
0.5
 40
0.5
 40
0.6666666666666666
 40
0.6666666666666666
 40
0.6666666666666666
 40
0.6666666666666666
 40
0.8333333333333333
 40
0.8333333333333333
 40
0.8333333333333333
 40
0.8333333333333333
 40
1.0
 40
1.0
 40
1.0
 40
1.0
 10
1.1533
 20
5.8973100000000001
 30
0.0
 10
1.2853800000000002
 20
5.9303300000000005
 30
0.0
 10
1.2549000000000001
 20
5.7982500000000003
 30
0.0
 10
1.2193400000000001
 20
5.7322100000000002
 30
0.0
 10
1.2193400000000001
 20
5.7322100000000002
 30
0.0
 10
1.2193400000000001
 20
5.7322100000000002
 30
0.0
 10
1.23204
 20
5.7144300000000001
 30
0.0
 10
1.23204
 20
5.7144300000000001
 30
0.0
 10
1.23204
 20
5.7144300000000001
 30
0.0
 10
1.2676000000000001
 20
5.6991900000000006
 30
0.0
 10
1.2879200000000002
 20
5.6331500000000005
 30
0.0
 10
1.23712
 20
5.6153700000000004
 30
0.0
 10
1.23712
 20
5.6153700000000004
 30
0.0
 10
0.9221600000000001
 20
5.7982500000000003
 30
0.0
 10
0.6326000000000001
 20
5.3994700000000009
 30
0.0
 10
0.3455800000000001
 20
5.3181900000000004
 30
0.0
 10
0.3455800000000001
 20
5.3181900000000004
 30
0.0
 10
0.3455800000000001
 20
5.3181900000000004
 30
0.0
 10
0.5945
 20
5.5645700000000007
 30
0.0
 10
0.5945
 20
5.5645700000000007
 30
0.0
 10
0.5945
 20
5.5645700000000007
 30
0.0
 10
0.5945
 20
5.5645700000000007
 30
0.0
 10
1.1533
 20
5.8973100000000001
 30
0.0
 10
1.1533
 20
5.8973100000000001
 30
0.0
  0
SPLINE
  5
2B
100
AcDbEntity
  8
Ebene 1
 62
     7
100
AcDbSpline
210
0.0
220
0.0
230
1.0
 70
     1
 71
     3
 72
   100
 73
    96
 74
     0
 42
0.0000000001
 43
0.0000000001
 40
0.0
 40
0.0
 40
0.0
 40
0.0
 40
0.0416666666666667
 40
0.0416666666666667
 40
0.0416666666666667
 40
0.0416666666666667
 40
0.0833333333333333
 40
0.0833333333333333
 40
0.0833333333333333
 40
0.0833333333333333
 40
0.125
 40
0.125
 40
0.125
 40
0.125
 40
0.1666666666666667
 40
0.1666666666666667
 40
0.1666666666666667
 40
0.1666666666666667
 40
0.2083333333333333
 40
0.2083333333333333
 40
0.2083333333333333
 40
0.2083333333333333
 40
0.25
 40
0.25
 40
0.25
 40
0.25
 40
0.2916666666666666
 40
0.2916666666666666
 40
0.2916666666666666
 40
0.2916666666666666
 40
0.3333333333333333
 40
0.3333333333333333
 40
0.3333333333333333
 40
0.3333333333333333
 40
0.375
 40
0.375
 40
0.375
 40
0.375
 40
0.4166666666666667
 40
0.4166666666666667
 40
0.4166666666666667
 40
0.4166666666666667
 40
0.4583333333333334
 40
0.4583333333333334
 40
0.4583333333333334
 40
0.4583333333333334
 40
0.5
 40
0.5
 40
0.5
 40
0.5
 40
0.5416666666666666
 40
0.5416666666666666
 40
0.5416666666666666
 40
0.5416666666666666
 40
0.5833333333333333
 40
0.5833333333333333
 40
0.5833333333333333
 40
0.5833333333333333
 40
0.6249999999999999
 40
0.6249999999999999
 40
0.6249999999999999
 40
0.6249999999999999
 40
0.6666666666666665
 40
0.6666666666666665
 40
0.6666666666666665
 40
0.6666666666666665
 40
0.7083333333333332
 40
0.7083333333333332
 40
0.7083333333333332
 40
0.7083333333333332
 40
0.7499999999999998
 40
0.7499999999999998
 40
0.7499999999999998
 40
0.7499999999999998
 40
0.7916666666666664
 40
0.7916666666666664
 40
0.7916666666666664
 40
0.7916666666666664
 40
0.833333333333333
 40
0.833333333333333
 40
0.833333333333333
 40
0.833333333333333
 40
0.8749999999999997
 40
0.8749999999999997
 40
0.8749999999999997
 40
0.8749999999999997
 40
0.9166666666666663
 40
0.9166666666666663
 40
0.9166666666666663
 40
0.9166666666666663
 40
0.9583333333333329
 40
0.9583333333333329
 40
0.9583333333333329
 40
0.9583333333333329
 40
1.0
 40
1.0
 40
1.0
 40
1.0
 10
-3.6193500000000003
 20
-0.8311400000000001
 30
0.0
 10
-3.5507700000000004
 20
-0.63048
 30
0.0
 10
-3.3348700000000004
 20
-0.48316
 30
0.0
 10
-3.3247100000000001
 20
-0.26726
 30
0.0
 10
-3.3247100000000001
 20
-0.26726
 30
0.0
 10
-3.4034500000000003
 20
-0.31806
 30
0.0
 10
-3.4821900000000001
 20
-0.45014
 30
0.0
 10
-3.5355300000000005
 20
-0.5492
 30
0.0
 10
-3.5355300000000005
 20
-0.5492
 30
0.0
 10
-3.6980900000000001
 20
-0.7320800000000001
 30
0.0
 10
-3.9419300000000002
 20
-1.0292600000000001
 30
0.0
 10
-4.1629100000000001
 20
-0.78034
 30
0.0
 10
-4.1629100000000001
 20
-0.78034
 30
0.0
 10
-3.8555700000000002
 20
-0.6482600000000001
 30
0.0
 10
-3.4923500000000001
 20
-0.34854
 30
0.0
 10
-3.5202900000000001
 20
0.01213
 30
0.0
 10
-3.5202900000000001
 20
0.01213
 30
0.0
 10
-3.5456900000000005
 20
0.21533
 30
0.0
 10
-3.6904700000000004
 20
0.25597
 30
0.0
 10
-3.9012900000000004
 20
0.18993
 30
0.0
 10
-3.9012900000000004
 20
0.18993
 30
0.0
 10
-4.0359100000000003
 20
0.17977
 30
0.0
 10
-4.10703
 20
0.07563
 30
0.0
 10
-4.2010100000000001
 20
-0.0412
 30
0.0
 10
-4.2010100000000001
 20
-0.0412
 30
0.0
 10
-4.2441900000000006
 20
-0.09454
 30
0.0
 10
-4.2873700000000001
 20
-0.14788
 30
0.0
 10
-4.3330900000000003
 20
-0.20122
 30
0.0
 10
-4.3330900000000003
 20
-0.20122
 30
0.0
 10
-4.3330900000000003
 20
-0.20122
 30
0.0
 10
-4.3381700000000007
 20
-0.11232
 30
0.0
 10
-4.3381700000000007
 20
-0.11232
 30
0.0
 10
-4.3381700000000007
 20
-0.11232
 30
0.0
 10
-4.3381700000000007
 20
-0.11232
 30
0.0
 10
-3.6980900000000001
 20
0.7411100000000001
 30
0.0
 10
-3.6980900000000001
 20
0.7411100000000001
 30
0.0
 10
-3.6980900000000001
 20
0.7411100000000001
 30
0.0
 10
-3.3983700000000003
 20
1.0382900000000002
 30
0.0
 10
-3.0351500000000002
 20
1.32023
 30
0.0
 10
-2.8446500000000001
 20
1.7037700000000002
 30
0.0
 10
-2.8446500000000001
 20
1.7037700000000002
 30
0.0
 10
-2.9106900000000002
 20
1.7520300000000002
 30
0.0
 10
-2.9792700000000001
 20
1.57169
 30
0.0
 10
-3.0021300000000002
 20
1.6529700000000001
 30
0.0
 10
-3.0021300000000002
 20
1.6529700000000001
 30
0.0
 10
-2.6998700000000002
 20
2.0517500000000002
 30
0.0
 10
-2.5119100000000003
 20
2.51403
 30
0.0
 10
-2.2934700000000001
 20
2.9636100000000001
 30
0.0
 10
-2.2934700000000001
 20
2.9636100000000001
 30
0.0
 10
-2.30871
 20
3.0956900000000003
 30
0.0
 10
-2.3645900000000002
 20
2.9128100000000003
 30
0.0
 10
-2.40523
 20
2.9128100000000003
 30
0.0
 10
-2.40523
 20
2.9128100000000003
 30
0.0
 10
-2.40523
 20
2.9128100000000003
 30
0.0
 10
-1.9226300000000001
 20
4.4393500000000001
 30
0.0
 10
-1.9226300000000001
 20
4.4393500000000001
 30
0.0
 10
-1.9226300000000001
 20
4.4393500000000001
 30
0.0
 10
-1.7067300000000001
 20
4.4723700000000006
 30
0.0
 10
-1.5390900000000001
 20
4.6527100000000008
 30
0.0
 10
-1.3689100000000001
 20
4.7873300000000008
 30
0.0
 10
-1.3689100000000001
 20
4.7873300000000008
 30
0.0
 10
-1.3917700000000002
 20
4.9346500000000004
 30
0.0
 10
-1.5543300000000002
 20
4.6882700000000002
 30
0.0
 10
-1.6584700000000001
 20
4.7212900000000007
 30
0.0
 10
-1.6584700000000001
 20
4.7212900000000007
 30
0.0
 10
-1.5340100000000001
 20
5.0667300000000006
 30
0.0
 10
-1.12507
 20
5.2673900000000007
 30
0.0
 10
-0.8380500000000001
 20
5.4172500000000001
 30
0.0
 10
-0.8380500000000001
 20
5.4172500000000001
 30
0.0
 10
-0.7974100000000001
 20
5.2165900000000001
 30
0.0
 10
-0.7313700000000001
 20
5.0032300000000003
 30
0.0
 10
-0.63993
 20
4.8203500000000004
 30
0.0
 10
-0.63993
 20
4.8203500000000004
 30
0.0
 10
-1.4374900000000002
 20
4.4876100000000001
 30
0.0
 10
-1.8540500000000002
 20
3.7916500000000002
 30
0.0
 10
-2.0064500000000001
 20
2.9788500000000004
 30
0.0
 10
-2.0064500000000001
 20
2.9788500000000004
 30
0.0
 10
-2.0064500000000001
 20
2.9788500000000004
 30
0.0
 10
-1.9073900000000001
 20
3.1287100000000003
 30
0.0
 10
-1.9073900000000001
 20
3.1287100000000003
 30
0.0
 10
-1.9073900000000001
 20
3.1287100000000003
 30
0.0
 10
-1.7803900000000001
 20
3.4766900000000005
 30
0.0
 10
-1.6102100000000001
 20
3.8576900000000003
 30
0.0
 10
-1.33589
 20
4.12439
 30
0.0
 10
-1.33589
 20
4.12439
 30
0.0
 10
-1.8007100000000003
 20
2.9966300000000001
 30
0.0
 10
-2.1766300000000003
 20
1.8180700000000001
 30
0.0
 10
-2.9335500000000003
 20
0.8249300000000001
 30
0.0
 10
-2.9335500000000003
 20
0.8249300000000001
 30
0.0
 10
-2.9056100000000002
 20
0.6928500000000001
 30
0.0
 10
-2.8141700000000003
 20
0.9239900000000001
 30
0.0
 10
-2.7455900000000004
 20
0.9392300000000001
 30
0.0
 10
-2.7455900000000004
 20
0.9392300000000001
 30
0.0
 10
-2.8395700000000001
 20
0.29407
 30
0.0
 10
-3.2078700000000002
 20
-0.3333
 30
0.0
 10
-3.6193500000000003
 20
-0.8311400000000001
 30
0.0
  0
SPLINE
  5
2C
100
AcDbEntity
  8
Ebene 1
 62
     7
100
AcDbSpline
210
0.0
220
0.0
230
1.0
 70
     1
 71
     3
 72
   240
 73
   236
 74
     0
 42
0.0000000001
 43
0.0000000001
 40
0.0
 40
0.0
 40
0.0
 40
0.0
 40
0.0169491525423729
 40
0.0169491525423729
 40
0.0169491525423729
 40
0.0169491525423729
 40
0.0338983050847458
 40
0.0338983050847458
 40
0.0338983050847458
 40
0.0338983050847458
 40
0.0508474576271186
 40
0.0508474576271186
 40
0.0508474576271186
 40
0.0508474576271186
 40
0.0677966101694915
 40
0.0677966101694915
 40
0.0677966101694915
 40
0.0677966101694915
 40
0.0847457627118644
 40
0.0847457627118644
 40
0.0847457627118644
 40
0.0847457627118644
 40
0.1016949152542373
 40
0.1016949152542373
 40
0.1016949152542373
 40
0.1016949152542373
 40
0.1186440677966102
 40
0.1186440677966102
 40
0.1186440677966102
 40
0.1186440677966102
 40
0.1355932203389831
 40
0.1355932203389831
 40
0.1355932203389831
 40
0.1355932203389831
 40
0.1525423728813559
 40
0.1525423728813559
 40
0.1525423728813559
 40
0.1525423728813559
 40
0.1694915254237288
 40
0.1694915254237288
 40
0.1694915254237288
 40
0.1694915254237288
 40
0.1864406779661017
 40
0.1864406779661017
 40
0.1864406779661017
 40
0.1864406779661017
 40
0.2033898305084746
 40
0.2033898305084746
 40
0.2033898305084746
 40
0.2033898305084746
 40
0.2203389830508475
 40
0.2203389830508475
 40
0.2203389830508475
 40
0.2203389830508475
 40
0.2372881355932204
 40
0.2372881355932204
 40
0.2372881355932204
 40
0.2372881355932204
 40
0.2542372881355933
 40
0.2542372881355933
 40
0.2542372881355933
 40
0.2542372881355933
 40
0.2711864406779662
 40
0.2711864406779662
 40
0.2711864406779662
 40
0.2711864406779662
 40
0.2881355932203391
 40
0.2881355932203391
 40
0.2881355932203391
 40
0.2881355932203391
 40
0.3050847457627119
 40
0.3050847457627119
 40
0.3050847457627119
 40
0.3050847457627119
 40
0.3220338983050848
 40
0.3220338983050848
 40
0.3220338983050848
 40
0.3220338983050848
 40
0.3389830508474577
 40
0.3389830508474577
 40
0.3389830508474577
 40
0.3389830508474577
 40
0.3559322033898306
 40
0.3559322033898306
 40
0.3559322033898306
 40
0.3559322033898306
 40
0.3728813559322035
 40
0.3728813559322035
 40
0.3728813559322035
 40
0.3728813559322035
 40
0.3898305084745764
 40
0.3898305084745764
 40
0.3898305084745764
 40
0.3898305084745764
 40
0.4067796610169493
 40
0.4067796610169493
 40
0.4067796610169493
 40
0.4067796610169493
 40
0.4237288135593222
 40
0.4237288135593222
 40
0.4237288135593222
 40
0.4237288135593222
 40
0.4406779661016951
 40
0.4406779661016951
 40
0.4406779661016951
 40
0.4406779661016951
 40
0.457627118644068
 40
0.457627118644068
 40
0.457627118644068
 40
0.457627118644068
 40
0.4745762711864409
 40
0.4745762711864409
 40
0.4745762711864409
 40
0.4745762711864409
 40
0.4915254237288138
 40
0.4915254237288138
 40
0.4915254237288138
 40
0.4915254237288138
 40
0.5084745762711866
 40
0.5084745762711866
 40
0.5084745762711866
 40
0.5084745762711866
 40
0.5254237288135595
 40
0.5254237288135595
 40
0.5254237288135595
 40
0.5254237288135595
 40
0.5423728813559323
 40
0.5423728813559323
 40
0.5423728813559323
 40
0.5423728813559323
 40
0.5593220338983052
 40
0.5593220338983052
 40
0.5593220338983052
 40
0.5593220338983052
 40
0.576271186440678
 40
0.576271186440678
 40
0.576271186440678
 40
0.576271186440678
 40
0.5932203389830508
 40
0.5932203389830508
 40
0.5932203389830508
 40
0.5932203389830508
 40
0.6101694915254237
 40
0.6101694915254237
 40
0.6101694915254237
 40
0.6101694915254237
 40
0.6271186440677965
 40
0.6271186440677965
 40
0.6271186440677965
 40
0.6271186440677965
 40
0.6440677966101693
 40
0.6440677966101693
 40
0.6440677966101693
 40
0.6440677966101693
 40
0.6610169491525422
 40
0.6610169491525422
 40
0.6610169491525422
 40
0.6610169491525422
 40
0.677966101694915
 40
0.677966101694915
 40
0.677966101694915
 40
0.677966101694915
 40
0.6949152542372878
 40
0.6949152542372878
 40
0.6949152542372878
 40
0.6949152542372878
 40
0.7118644067796607
 40
0.7118644067796607
 40
0.7118644067796607
 40
0.7118644067796607
 40
0.7288135593220335
 40
0.7288135593220335
 40
0.7288135593220335
 40
0.7288135593220335
 40
0.7457627118644064
 40
0.7457627118644064
 40
0.7457627118644064
 40
0.7457627118644064
 40
0.7627118644067792
 40
0.7627118644067792
 40
0.7627118644067792
 40
0.7627118644067792
 40
0.779661016949152
 40
0.779661016949152
 40
0.779661016949152
 40
0.779661016949152
 40
0.7966101694915249
 40
0.7966101694915249
 40
0.7966101694915249
 40
0.7966101694915249
 40
0.8135593220338977
 40
0.8135593220338977
 40
0.8135593220338977
 40
0.8135593220338977
 40
0.8305084745762705
 40
0.8305084745762705
 40
0.8305084745762705
 40
0.8305084745762705
 40
0.8474576271186434
 40
0.8474576271186434
 40
0.8474576271186434
 40
0.8474576271186434
 40
0.8644067796610162
 40
0.8644067796610162
 40
0.8644067796610162
 40
0.8644067796610162
 40
0.881355932203389
 40
0.881355932203389
 40
0.881355932203389
 40
0.881355932203389
 40
0.8983050847457619
 40
0.8983050847457619
 40
0.8983050847457619
 40
0.8983050847457619
 40
0.9152542372881347
 40
0.9152542372881347
 40
0.9152542372881347
 40
0.9152542372881347
 40
0.9322033898305075
 40
0.9322033898305075
 40
0.9322033898305075
 40
0.9322033898305075
 40
0.9491525423728804
 40
0.9491525423728804
 40
0.9491525423728804
 40
0.9491525423728804
 40
0.9661016949152532
 40
0.9661016949152532
 40
0.9661016949152532
 40
0.9661016949152532
 40
0.9830508474576261
 40
0.9830508474576261
 40
0.9830508474576261
 40
0.9830508474576261
 40
1.0
 40
1.0
 40
1.0
 40
1.0
 10
3.5891600000000001
 20
-2.5024600000000001
 30
0.0
 10
3.5536000000000003
 20
-2.6269200000000001
 30
0.0
 10
3.5713800000000004
 20
-2.7793200000000002
 30
0.0
 10
3.5053400000000003
 20
-2.8860000000000001
 30
0.0
 10
3.5053400000000003
 20
-2.8860000000000001
 30
0.0
 10
3.4316800000000001
 20
-2.8377400000000002
 30
0.0
 10
3.4951800000000004
 20
-2.6370800000000001
 30
0.0
 10
3.3732600000000001
 20
-2.6370800000000001
 30
0.0
 10
3.3732600000000001
 20
-2.6370800000000001
 30
0.0
 10
3.2970600000000001
 20
-2.7056600000000004
 30
0.0
 10
3.2157800000000001
 20
-2.8377400000000002
 30
0.0
 10
3.2132400000000003
 20
-2.6548600000000002
 30
0.0
 10
3.2132400000000003
 20
-2.6548600000000002
 30
0.0
 10
3.2030800000000004
 20
-2.7361400000000002
 30
0.0
 10
3.1903800000000002
 20
-2.81996
 30
0.0
 10
3.1472000000000002
 20
-2.8860000000000001
 30
0.0
 10
3.1472000000000002
 20
-2.8860000000000001
 30
0.0
 10
3.0913200000000001
 20
-2.8047200000000001
 30
0.0
 10
3.1345000000000001
 20
-2.6726400000000003
 30
0.0
 10
3.0557600000000003
 20
-2.5888200000000001
 30
0.0
 10
3.0557600000000003
 20
-2.5888200000000001
 30
0.0
 10
2.9160600000000003
 20
-2.5888200000000001
 30
0.0
 10
2.8703400000000001
 20
-2.7869400000000004
 30
0.0
 10
2.7814400000000004
 20
-2.8377400000000002
 30
0.0
 10
2.7814400000000004
 20
-2.8377400000000002
 30
0.0
 10
2.8271600000000001
 20
-2.6218400000000002
 30
0.0
 10
2.9059000000000004
 20
-2.4211800000000001
 30
0.0
 10
2.8906600000000005
 20
-2.1900400000000002
 30
0.0
 10
2.8906600000000005
 20
-2.1900400000000002
 30
0.0
 10
2.8906600000000005
 20
-2.1900400000000002
 30
0.0
 10
2.8246200000000004
 20
-2.5050000000000003
 30
0.0
 10
2.8246200000000004
 20
-2.5050000000000003
 30
0.0
 10
2.8246200000000004
 20
-2.5050000000000003
 30
0.0
 10
2.8068400000000002
 20
-2.5558000000000001
 30
0.0
 10
2.7712800000000004
 20
-2.7539200000000004
 30
0.0
 10
2.7433400000000003
 20
-2.60406
 30
0.0
 10
2.7433400000000003
 20
-2.60406
 30
0.0
 10
2.7433400000000003
 20
-2.57104
 30
0.0
 10
2.7306400000000002
 20
-2.5329400000000004
 30
0.0
 10
2.7077800000000001
 20
-2.4999200000000004
 30
0.0
 10
2.7077800000000001
 20
-2.4999200000000004
 30
0.0
 10
2.7077800000000001
 20
-2.4948400000000004
 30
0.0
 10
2.7230200000000004
 20
-2.19258
 30
0.0
 10
2.59348
 20
-2.3907000000000003
 30
0.0
 10
2.59348
 20
-2.3907000000000003
 30
0.0
 10
2.4893400000000003
 20
-2.6218400000000002
 30
0.0
 10
2.41568
 20
-2.6878800000000003
 30
0.0
 10
2.5122
 20
-2.3907000000000003
 30
0.0
 10
2.5122
 20
-2.3907000000000003
 30
0.0
 10
2.5122
 20
-2.3907000000000003
 30
0.0
 10
2.6011000000000002
 20
-1.7430000000000001
 30
0.0
 10
2.6011000000000002
 20
-1.7430000000000001
 30
0.0
 10
2.6011000000000002
 20
-1.7430000000000001
 30
0.0
 10
2.5680800000000001
 20
-1.3620000000000001
 30
0.0
 10
2.9313000000000002
 20
-1.5779000000000001
 30
0.0
 10
3.0075000000000003
 20
-1.4788400000000002
 30
0.0
 10
3.0075000000000003
 20
-1.4788400000000002
 30
0.0
 10
2.9465400000000002
 20
-1.4102600000000001
 30
0.0
 10
2.8703400000000001
 20
-1.3112000000000001
 30
0.0
 10
2.76112
 20
-1.3289800000000001
 30
0.0
 10
2.76112
 20
-1.3289800000000001
 30
0.0
 10
2.3090000000000002
 20
-1.7760200000000002
 30
0.0
 10
1.6994000000000002
 20
-2.02494
 30
0.0
 10
1.1025
 20
-1.7252200000000002
 30
0.0
 10
1.1025
 20
-1.7252200000000002
 30
0.0
 10
0.69864
 20
-1.8573000000000002
 30
0.0
 10
0.1373
 20
-1.8750800000000001
 30
0.0
 10
-0.15479
 20
-1.5601200000000002
 30
0.0
 10
-0.15479
 20
-1.5601200000000002
 30
0.0
 10
-0.25131
 20
-1.5931400000000002
 30
0.0
 10
-0.33767
 20
-1.6439400000000002
 30
0.0
 10
-0.39863
 20
-1.7252200000000002
 30
0.0
 10
-0.39863
 20
-1.7252200000000002
 30
0.0
 10
-0.73899
 20
-1.4788400000000002
 30
0.0
 10
-0.99553
 20
-1.2629400000000002
 30
0.0
 10
-1.2596900000000002
 20
-1.2781800000000001
 30
0.0
 10
-1.2596900000000002
 20
-1.2781800000000001
 30
0.0
 10
-1.3104900000000002
 20
-1.1461000000000001
 30
0.0
 10
-1.2368300000000001
 20
-1.0140200000000001
 30
0.0
 10
-1.1936500000000001
 20
-0.8819400000000001
 30
0.0
 10
-1.1936500000000001
 20
-0.8819400000000001
 30
0.0
 10
-0.9396500000000001
 20
-1.16388
 30
0.0
 10
-0.8812300000000001
 20
-1.1130800000000001
 30
0.0
 10
-1.08697
 20
-0.78034
 30
0.0
 10
-1.08697
 20
-0.78034
 30
0.0
 10
-2.2858500000000004
 20
0.7588900000000001
 30
0.0
 10
-0.8710700000000001
 20
3.2125300000000001
 30
0.0
 10
0.48782
 20
3.6265500000000004
 30
0.0
 10
0.48782
 20
3.6265500000000004
 30
0.0
 10
0.5208400000000001
 20
3.4106500000000004
 30
0.0
 10
0.38114
 20
3.2455500000000002
 30
0.0
 10
0.1881
 20
3.1617300000000004
 30
0.0
 10
0.1881
 20
3.1617300000000004
 30
0.0
 10
-0.03033
 20
3.0448900000000001
 30
0.0
 10
-0.18273
 20
2.8289900000000001
 30
0.0
 10
-0.24877
 20
2.5978500000000002
 30
0.0
 10
-0.24877
 20
2.5978500000000002
 30
0.0
 10
-0.13955
 20
2.5978500000000002
 30
0.0
 10
0.00522
 20
3.0448900000000001
 30
0.0
 10
-0.00493
 20
2.8467700000000002
 30
0.0
 10
-0.00493
 20
2.8467700000000002
 30
0.0
 10
-0.02271
 20
2.8289900000000001
 30
0.0
 10
-0.04049
 20
2.7477100000000001
 30
0.0
 10
0.0103
 20
2.7654900000000002
 30
0.0
 10
0.0103
 20
2.7654900000000002
 30
0.0
 10
0.09158
 20
3.1109300000000002
 30
0.0
 10
0.6199
 20
3.3547700000000003
 30
0.0
 10
0.6275200000000001
 20
2.9407500000000004
 30
0.0
 10
0.6275200000000001
 20
2.9407500000000004
 30
0.0
 10
0.74182
 20
2.8645500000000004
 30
0.0
 10
0.6249800000000001
 20
3.1388700000000003
 30
0.0
 10
0.63514
 20
3.2277700000000005
 30
0.0
 10
0.63514
 20
3.2277700000000005
 30
0.0
 10
0.6707000000000001
 20
3.5808300000000002
 30
0.0
 10
1.0771000000000002
 20
3.9186500000000004
 30
0.0
 10
0.9374000000000001
 20
3.5097100000000001
 30
0.0
 10
0.9374000000000001
 20
3.5097100000000001
 30
0.0
 10
0.9247000000000001
 20
3.2785700000000002
 30
0.0
 10
1.1583800000000002
 20
3.6265500000000004
 30
0.0
 10
1.2498200000000002
 20
3.6773500000000001
 30
0.0
 10
1.2498200000000002
 20
3.6773500000000001
 30
0.0
 10
1.23458
 20
3.4436700000000005
 30
0.0
 10
1.0872600000000001
 20
3.1617300000000004
 30
0.0
 10
1.1202800000000002
 20
2.93059
 30
0.0
 10
1.1202800000000002
 20
2.93059
 30
0.0
 10
1.2193400000000001
 20
3.1617300000000004
 30
0.0
 10
1.2549000000000001
 20
3.6595700000000004
 30
0.0
 10
1.5800200000000002
 20
3.6773500000000001
 30
0.0
 10
1.5800200000000002
 20
3.6773500000000001
 30
0.0
 10
1.4327000000000001
 20
3.5274900000000002
 30
0.0
 10
1.3031600000000001
 20
3.3598500000000002
 30
0.0
 10
1.27522
 20
3.1617300000000004
 30
0.0
 10
1.27522
 20
3.1617300000000004
 30
0.0
 10
1.3793600000000001
 20
3.3446100000000003
 30
0.0
 10
1.4555600000000002
 20
3.4944700000000002
 30
0.0
 10
1.5317600000000002
 20
3.2277700000000005
 30
0.0
 10
1.5317600000000002
 20
3.2277700000000005
 30
0.0
 10
1.6638400000000002
 20
3.0677500000000002
 30
0.0
 10
1.5343000000000002
 20
3.3801700000000001
 30
0.0
 10
1.5368400000000002
 20
3.4284300000000001
 30
0.0
 10
1.5368400000000002
 20
3.4284300000000001
 30
0.0
 10
1.5647800000000001
 20
3.7662500000000003
 30
0.0
 10
2.1591400000000003
 20
3.8068900000000001
 30
0.0
 10
2.3115400000000004
 20
3.4589100000000004
 30
0.0
 10
2.3115400000000004
 20
3.4589100000000004
 30
0.0
 10
2.2124800000000002
 20
3.0956900000000003
 30
0.0
 10
2.1108800000000003
 20
2.7477100000000001
 30
0.0
 10
2.0981800000000002
 20
2.3667100000000003
 30
0.0
 10
2.0981800000000002
 20
2.3667100000000003
 30
0.0
 10
2.0956400000000004
 20
2.1330300000000002
 30
0.0
 10
1.9051400000000001
 20
1.8688700000000003
 30
0.0
 10
1.9483200000000001
 20
1.6859900000000001
 30
0.0
 10
1.9483200000000001
 20
1.6859900000000001
 30
0.0
 10
1.9483200000000001
 20
1.6859900000000001
 30
0.0
 10
2.0194400000000003
 20
1.8688700000000003
 30
0.0
 10
2.0194400000000003
 20
1.8688700000000003
 30
0.0
 10
2.0194400000000003
 20
1.8688700000000003
 30
0.0
 10
2.0702400000000001
 20
1.9171300000000002
 30
0.0
 10
2.1439000000000004
 20
1.7190100000000001
 30
0.0
 10
2.1845400000000001
 20
1.6529700000000001
 30
0.0
 10
2.1845400000000001
 20
1.6529700000000001
 30
0.0
 10
2.2988400000000002
 20
1.4218300000000001
 30
0.0
 10
2.4893400000000003
 20
1.2897500000000002
 30
0.0
 10
2.2861400000000001
 20
1.6047100000000001
 30
0.0
 10
2.2861400000000001
 20
1.6047100000000001
 30
0.0
 10
2.0321400000000001
 20
1.7850500000000002
 30
0.0
 10
2.0677000000000003
 20
2.6003900000000004
 30
0.0
 10
2.2937600000000002
 20
2.2193900000000002
 30
0.0
 10
2.2937600000000002
 20
2.2193900000000002
 30
0.0
 10
2.4512400000000003
 20
2.1762100000000002
 30
0.0
 10
2.24804
 20
2.3717900000000003
 30
0.0
 10
2.2353400000000003
 20
2.4378300000000004
 30
0.0
 10
2.2353400000000003
 20
2.4378300000000004
 30
0.0
 10
2.1794600000000002
 20
2.7273900000000002
 30
0.0
 10
2.3598000000000003
 20
3.0093300000000003
 30
0.0
 10
2.4309200000000004
 20
3.2785700000000002
 30
0.0
 10
2.4309200000000004
 20
3.2785700000000002
 30
0.0
 10
2.9008200000000004
 20
3.0296500000000002
 30
0.0
 10
2.4741000000000004
 20
2.4149700000000003
 30
0.0
 10
2.7077800000000001
 20
2.0669900000000001
 30
0.0
 10
2.7077800000000001
 20
2.0669900000000001
 30
0.0
 10
2.71286
 20
1.9679300000000002
 30
0.0
 10
2.7458800000000001
 20
1.8688700000000003
 30
0.0
 10
2.7916000000000003
 20
1.7850500000000002
 30
0.0
 10
2.7916000000000003
 20
1.7850500000000002
 30
0.0
 10
3.1294200000000001
 20
0.9239900000000001
 30
0.0
 10
2.3750400000000003
 20
3.0626700000000002
 30
0.0
 10
2.8779600000000003
 20
2.1330300000000002
 30
0.0
 10
2.8779600000000003
 20
2.1330300000000002
 30
0.0
 10
2.92876
 20
1.9171300000000002
 30
0.0
 10
3.0862400000000001
 20
1.7698100000000001
 30
0.0
 10
3.0913200000000001
 20
1.5539100000000001
 30
0.0
 10
3.0913200000000001
 20
1.5539100000000001
 30
0.0
 10
3.0913200000000001
 20
1.5539100000000001
 30
0.0
 10
3.0964
 20
1.40405
 30
0.0
 10
3.0964
 20
1.40405
 30
0.0
 10
3.0964
 20
1.40405
 30
0.0
 10
3.2157800000000001
 20
0.95701
 30
0.0
 10
3.0506800000000003
 20
1.8866500000000002
 30
0.0
 10
3.2259400000000005
 20
1.4700900000000001
 30
0.0
 10
3.2259400000000005
 20
1.4700900000000001
 30
0.0
 10
3.3275400000000004
 20
1.40405
 30
0.0
 10
3.2716600000000002
 20
1.5539100000000001
 30
0.0
 10
3.2259400000000005
 20
1.5869300000000002
 30
0.0
 10
3.2259400000000005
 20
1.5869300000000002
 30
0.0
 10
2.6163400000000001
 20
2.2016100000000001
 30
0.0
 10
3.0430600000000001
 20
3.1287100000000003
 30
0.0
 10
2.4004400000000001
 20
3.5935300000000003
 30
0.0
 10
2.4004400000000001
 20
3.5935300000000003
 30
0.0
 10
3.5790000000000002
 20
3.5274900000000002
 30
0.0
 10
4.4298999999999999
 20
2.0517500000000002
 30
0.0
 10
4.0717600000000003
 20
0.95701
 30
0.0
 10
4.0717600000000003
 20
0.95701
 30
0.0
 10
4.2546400000000002
 20
0.9747900000000001
 30
0.0
 10
4.3206800000000003
 20
0.72333
 30
0.0
 10
4.41974
 20
0.57601
 30
0.0
 10
4.41974
 20
0.57601
 30
0.0
 10
4.2241600000000004
 20
-0.0031
 30
0.0
 10
4.19876
 20
-0.61524
 30
0.0
 10
4.4349800000000004
 20
-1.12832
 30
0.0
 10
4.4349800000000004
 20
-1.12832
 30
0.0
 10
3.7822000000000005
 20
-1.3289800000000001
 30
0.0
 10
4.4248200000000004
 20
-2.52278
 30
0.0
 10
3.8711000000000002
 20
-2.7717000000000001
 30
0.0
 10
3.8711000000000002
 20
-2.7717000000000001
 30
0.0
 10
3.8330000000000002
 20
-2.7056600000000004
 30
0.0
 10
3.9219000000000004
 20
-2.3399000000000001
 30
0.0
 10
3.8380800000000002
 20
-2.57104
 30
0.0
 10
3.8380800000000002
 20
-2.57104
 30
0.0
 10
3.6450400000000003
 20
-2.6548600000000002
 30
0.0
 10
3.9879400000000005
 20
-3.2238200000000004
 30
0.0
 10
3.5256600000000002
 20
-3.2390600000000003
 30
0.0
 10
3.5256600000000002
 20
-3.2390600000000003
 30
0.0
 10
3.5282000000000004
 20
-3.2289000000000003
 30
0.0
 10
3.7263200000000003
 20
-2.01986
 30
0.0
 10
3.5891600000000001
 20
-2.5024600000000001
 30
0.0
  0
SPLINE
  5
2D
100
AcDbEntity
  8
Ebene 1
100
AcDbSpline
210
0.0
220
0.0
230
1.0
 70
     1
 71
     3
 72
    56
 73
    52
 74
     0
 42
0.0000000001
 43
0.0000000001
 40
0.0
 40
0.0
 40
0.0
 40
0.0
 40
0.0769230769230769
 40
0.0769230769230769
 40
0.0769230769230769
 40
0.0769230769230769
 40
0.1538461538461539
 40
0.1538461538461539
 40
0.1538461538461539
 40
0.1538461538461539
 40
0.2307692307692308
 40
0.2307692307692308
 40
0.2307692307692308
 40
0.2307692307692308
 40
0.3076923076923077
 40
0.3076923076923077
 40
0.3076923076923077
 40
0.3076923076923077
 40
0.3846153846153846
 40
0.3846153846153846
 40
0.3846153846153846
 40
0.3846153846153846
 40
0.4615384615384616
 40
0.4615384615384616
 40
0.4615384615384616
 40
0.4615384615384616
 40
0.5384615384615386
 40
0.5384615384615386
 40
0.5384615384615386
 40
0.5384615384615386
 40
0.6153846153846154
 40
0.6153846153846154
 40
0.6153846153846154
 40
0.6153846153846154
 40
0.6923076923076923
 40
0.6923076923076923
 40
0.6923076923076923
 40
0.6923076923076923
 40
0.7692307692307692
 40
0.7692307692307692
 40
0.7692307692307692
 40
0.7692307692307692
 40
0.846153846153846
 40
0.846153846153846
 40
0.846153846153846
 40
0.846153846153846
 40
0.9230769230769229
 40
0.9230769230769229
 40
0.9230769230769229
 40
0.9230769230769229
 40
1.0
 40
1.0
 40
1.0
 40
1.0
 10
-0.10399
 20
1.5031100000000002
 30
0.0
 10
0.3989200000000001
 20
1.4700900000000001
 30
0.0
 10
1.0796400000000002
 20
1.3557900000000001
 30
0.0
 10
1.2853800000000002
 20
0.80715
 30
0.0
 10
1.2853800000000002
 20
0.80715
 30
0.0
 10
1.27522
 20
0.45917
 30
0.0
 10
1.0491600000000001
 20
0.17723
 30
0.0
 10
0.8434200000000001
 20
-0.08438
 30
0.0
 10
0.8434200000000001
 20
-0.08438
 30
0.0
 10
0.93232
 20
-0.3002800000000001
 30
0.0
 10
1.0644
 20
-0.5161800000000001
 30
0.0
 10
1.0364600000000002
 20
-0.7651000000000001
 30
0.0
 10
1.0364600000000002
 20
-0.7651000000000001
 30
0.0
 10
0.8637400000000001
 20
-1.0292600000000001
 30
0.0
 10
0.6884800000000001
 20
-1.4280400000000002
 30
0.0
 10
1.06694
 20
-1.62616
 30
0.0
 10
1.06694
 20
-1.62616
 30
0.0
 10
0.9831200000000001
 20
-1.6922000000000001
 30
0.0
 10
0.9221600000000001
 20
-1.54234
 30
0.0
 10
0.8434200000000001
 20
-1.54234
 30
0.0
 10
0.8434200000000001
 20
-1.54234
 30
0.0
 10
0.5640200000000001
 20
-1.0292600000000001
 30
0.0
 10
-0.13701
 20
-1.6439400000000002
 30
0.0
 10
-0.5154700000000001
 20
-1.3289800000000001
 30
0.0
 10
-0.5154700000000001
 20
-1.3289800000000001
 30
0.0
 10
-0.5408700000000001
 20
-1.2629400000000002
 30
0.0
 10
-0.4697500000000001
 20
-1.2781800000000001
 30
0.0
 10
-0.4367300000000001
 20
-1.2781800000000001
 30
0.0
 10
-0.4367300000000001
 20
-1.2781800000000001
 30
0.0
 10
0.12968
 20
-1.5271000000000001
 30
0.0
 10
1.2599800000000001
 20
-0.9810000000000001
 30
0.0
 10
0.80532
 20
-0.26726
 30
0.0
 10
0.80532
 20
-0.26726
 30
0.0
 10
0.78246
 20
-0.15042
 30
0.0
 10
0.7367400000000001
 20
-0.05136
 30
0.0
 10
0.7545200000000001
 20
0.06293
 30
0.0
 10
0.7545200000000001
 20
0.06293
 30
0.0
 10
0.7545200000000001
 20
0.06293
 30
0.0
 10
0.82564
 20
0.24327
 30
0.0
 10
0.82564
 20
0.24327
 30
0.0
 10
0.82564
 20
0.24327
 30
0.0
 10
1.4631800000000001
 20
0.9747900000000001
 30
0.0
 10
0.11698
 20
1.7367900000000001
 30
0.0
 10
-0.53071
 20
1.3710300000000002
 30
0.0
 10
-0.53071
 20
1.3710300000000002
 30
0.0
 10
-0.53071
 20
1.3710300000000002
 30
0.0
 10
-0.7796300000000001
 20
1.2567300000000001
 30
0.0
 10
-0.7796300000000001
 20
1.2567300000000001
 30
0.0
 10
-0.7796300000000001
 20
1.2567300000000001
 30
0.0
 10
-0.6653300000000001
 20
1.4700900000000001
 30
0.0
 10
-0.31989
 20
1.4548500000000002
 30
0.0
 10
-0.10399
 20
1.5031100000000002
 30
0.0
  0
SPLINE
  5
2E
100
AcDbEntity
  8
Ebene 1
100
AcDbSpline
210
0.0
220
0.0
230
1.0
 70
     1
 71
     3
 72
    20
 73
    16
 74
     0
 42
0.0000000001
 43
0.0000000001
 40
0.0
 40
0.0
 40
0.0
 40
0.0
 40
0.25
 40
0.25
 40
0.25
 40
0.25
 40
0.5
 40
0.5
 40
0.5
 40
0.5
 40
0.75
 40
0.75
 40
0.75
 40
0.75
 40
1.0
 40
1.0
 40
1.0
 40
1.0
 10
2.24804
 20
1.2059300000000002
 30
0.0
 10
2.2937600000000002
 20
1.2211700000000001
 30
0.0
 10
2.3191600000000001
 20
1.18815
 30
0.0
 10
2.3598000000000003
 20
1.1729100000000001
 30
0.0
 10
2.3598000000000003
 20
1.1729100000000001
 30
0.0
 10
2.6138000000000003
 20
0.89097
 30
0.0
 10
3.0151200000000005
 20
0.8249300000000001
 30
0.0
 10
3.3554800000000005
 20
0.72333
 30
0.0
 10
3.3554800000000005
 20
0.72333
 30
0.0
 10
3.3554800000000005
 20
0.72333
 30
0.0
 10
3.30722
 20
0.21025
 30
0.0
 10
3.30722
 20
0.21025
 30
0.0
 10
3.30722
 20
0.21025
 30
0.0
 10
3.2488000000000001
 20
0.7741300000000001
 30
0.0
 10
2.4995000000000003
 20
0.80715
 30
0.0
 10
2.24804
 20
1.2059300000000002
 30
0.0
  0
SPLINE
  5
2F
100
AcDbEntity
  8
Ebene 1
100
AcDbSpline
210
0.0
220
0.0
230
1.0
 70
     1
 71
     3
 72
    20
 73
    16
 74
     0
 42
0.0000000001
 43
0.0000000001
 40
0.0
 40
0.0
 40
0.0
 40
0.0
 40
0.25
 40
0.25
 40
0.25
 40
0.25
 40
0.5
 40
0.5
 40
0.5
 40
0.5
 40
0.75
 40
0.75
 40
0.75
 40
0.75
 40
1.0
 40
1.0
 40
1.0
 40
1.0
 10
3.7872800000000004
 20
0.9239900000000001
 30
0.0
 10
3.7872800000000004
 20
0.9239900000000001
 30
0.0
 10
3.8507800000000003
 20
0.9239900000000001
 30
0.0
 10
3.8507800000000003
 20
0.9239900000000001
 30
0.0
 10
3.8507800000000003
 20
0.9239900000000001
 30
0.0
 10
3.7441000000000004
 20
0.72333
 30
0.0
 10
3.8634800000000005
 20
0.45917
 30
0.0
 10
3.7872800000000004
 20
0.26105
 30
0.0
 10
3.7872800000000004
 20
0.26105
 30
0.0
 10
3.7085400000000002
 20
0.4109100000000001
 30
0.0
 10
3.6450400000000003
 20
0.57601
 30
0.0
 10
3.6069400000000003
 20
0.7411100000000001
 30
0.0
 10
3.6069400000000003
 20
0.7411100000000001
 30
0.0
 10
3.6653600000000002
 20
0.7919100000000001
 30
0.0
 10
3.7390200000000005
 20
0.8579500000000001
 30
0.0
 10
3.7872800000000004
 20
0.9239900000000001
 30
0.0
  0
SPLINE
  5
30
100
AcDbEntity
  8
Ebene 1
100
AcDbSpline
210
0.0
220
0.0
230
1.0
 70
     1
 71
     3
 72
    52
 73
    48
 74
     0
 42
0.0000000001
 43
0.0000000001
 40
0.0
 40
0.0
 40
0.0
 40
0.0
 40
0.0833333333333333
 40
0.0833333333333333
 40
0.0833333333333333
 40
0.0833333333333333
 40
0.1666666666666667
 40
0.1666666666666667
 40
0.1666666666666667
 40
0.1666666666666667
 40
0.25
 40
0.25
 40
0.25
 40
0.25
 40
0.3333333333333333
 40
0.3333333333333333
 40
0.3333333333333333
 40
0.3333333333333333
 40
0.4166666666666666
 40
0.4166666666666666
 40
0.4166666666666666
 40
0.4166666666666666
 40
0.4999999999999999
 40
0.4999999999999999
 40
0.4999999999999999
 40
0.4999999999999999
 40
0.5833333333333333
 40
0.5833333333333333
 40
0.5833333333333333
 40
0.5833333333333333
 40
0.6666666666666666
 40
0.6666666666666666
 40
0.6666666666666666
 40
0.6666666666666666
 40
0.75
 40
0.75
 40
0.75
 40
0.75
 40
0.8333333333333334
 40
0.8333333333333334
 40
0.8333333333333334
 40
0.8333333333333334
 40
0.9166666666666667
 40
0.9166666666666667
 40
0.9166666666666667
 40
0.9166666666666667
 40
1.0
 40
1.0
 40
1.0
 40
1.0
 10
1.5012800000000002
 20
0.07817
 30
0.0
 10
1.5317600000000002
 20
0.07817
 30
0.0
 10
1.4987400000000002
 20
0.11119
 30
0.0
 10
1.5012800000000002
 20
0.07817
 30
0.0
 10
1.5012800000000002
 20
0.07817
 30
0.0
 10
1.3793600000000001
 20
0.07817
 30
0.0
 10
1.3057000000000001
 20
-0.06914
 30
0.0
 10
1.1914
 20
-0.08438
 30
0.0
 10
1.1914
 20
-0.08438
 30
0.0
 10
1.4606400000000002
 20
0.34233
 30
0.0
 10
2.20486
 20
0.6928500000000001
 30
0.0
 10
2.6011000000000002
 20
0.19501
 30
0.0
 10
2.6011000000000002
 20
0.19501
 30
0.0
 10
3.0151200000000005
 20
0.3270900000000001
 30
0.0
 10
3.2107000000000001
 20
-0.03358
 30
0.0
 10
3.2589600000000001
 20
-0.39934
 30
0.0
 10
3.2589600000000001
 20
-0.39934
 30
0.0
 10
3.2589600000000001
 20
-0.39934
 30
0.0
 10
3.1980000000000004
 20
-0.48316
 30
0.0
 10
3.1980000000000004
 20
-0.48316
 30
0.0
 10
3.1980000000000004
 20
-0.48316
 30
0.0
 10
3.1980000000000004
 20
-0.48316
 30
0.0
 10
3.1294200000000001
 20
-0.6000000000000001
 30
0.0
 10
3.1294200000000001
 20
-0.6000000000000001
 30
0.0
 10
3.1294200000000001
 20
-0.6000000000000001
 30
0.0
 10
3.01004
 20
-0.5822200000000001
 30
0.0
 10
3.2589600000000001
 20
-0.36632
 30
0.0
 10
3.1065600000000004
 20
-0.28504
 30
0.0
 10
3.1065600000000004
 20
-0.28504
 30
0.0
 10
2.9313000000000002
 20
-0.61524
 30
0.0
 10
2.3572600000000001
 20
-0.5161800000000001
 30
0.0
 10
2.42584
 20
-0.9632200000000001
 30
0.0
 10
2.42584
 20
-0.9632200000000001
 30
0.0
 10
2.20486
 20
-0.7143000000000001
 30
0.0
 10
2.2607400000000002
 20
-1.37724
 30
0.0
 10
2.21502
 20
-1.54234
 30
0.0
 10
2.21502
 20
-1.54234
 30
0.0
 10
2.0550000000000002
 20
-1.4280400000000002
 30
0.0
 10
2.2505800000000002
 20
-0.69906
 30
0.0
 10
2.0194400000000003
 20
-1.0648200000000001
 30
0.0
 10
2.0194400000000003
 20
-1.0648200000000001
 30
0.0
 10
2.0194400000000003
 20
-0.9632200000000001
 30
0.0
 10
2.0169000000000001
 20
-0.8819400000000001
 30
0.0
 10
1.9965800000000002
 20
-0.78034
 30
0.0
 10
1.9965800000000002
 20
-0.78034
 30
0.0
 10
1.4606400000000002
 20
-0.9454400000000001
 30
0.0
 10
1.2523600000000001
 20
-0.31806
 30
0.0
 10
1.5012800000000002
 20
0.07817
 30
0.0
  0
SPLINE
  5
31
100
AcDbEntity
  8
Ebene 1
100
AcDbSpline
210
0.0
220
0.0
230
1.0
 70
     1
 71
     3
 72
    28
 73
    24
 74
     0
 42
0.0000000001
 43
0.0000000001
 40
0.0
 40
0.0
 40
0.0
 40
0.0
 40
0.1666666666666667
 40
0.1666666666666667
 40
0.1666666666666667
 40
0.1666666666666667
 40
0.3333333333333333
 40
0.3333333333333333
 40
0.3333333333333333
 40
0.3333333333333333
 40
0.5
 40
0.5
 40
0.5
 40
0.5
 40
0.6666666666666666
 40
0.6666666666666666
 40
0.6666666666666666
 40
0.6666666666666666
 40
0.8333333333333333
 40
0.8333333333333333
 40
0.8333333333333333
 40
0.8333333333333333
 40
1.0
 40
1.0
 40
1.0
 40
1.0
 10
4.2368600000000001
 20
0.4413900000000001
 30
0.0
 10
4.2368600000000001
 20
0.4413900000000001
 30
0.0
 10
4.3029000000000002
 20
0.42615
 30
0.0
 10
4.3029000000000002
 20
0.42615
 30
0.0
 10
4.3029000000000002
 20
0.42615
 30
0.0
 10
4.1860600000000003
 20
0.14421
 30
0.0
 10
4.1860600000000003
 20
-0.15042
 30
0.0
 10
4.1835200000000006
 20
-0.4679200000000001
 30
0.0
 10
4.1835200000000006
 20
-0.4679200000000001
 30
0.0
 10
4.1835200000000006
 20
-0.4679200000000001
 30
0.0
 10
4.0717600000000003
 20
-0.5161800000000001
 30
0.0
 10
4.0717600000000003
 20
-0.5161800000000001
 30
0.0
 10
4.0717600000000003
 20
-0.5161800000000001
 30
0.0
 10
4.1098600000000003
 20
-0.6000000000000001
 30
0.0
 10
4.0768400000000007
 20
-0.69906
 30
0.0
 10
4.0539800000000001
 20
-0.7651000000000001
 30
0.0
 10
4.0539800000000001
 20
-0.7651000000000001
 30
0.0
 10
4.0539800000000001
 20
-0.7651000000000001
 30
0.0
 10
4.0336600000000002
 20
-0.63048
 30
0.0
 10
4.0336600000000002
 20
-0.63048
 30
0.0
 10
4.0336600000000002
 20
-0.63048
 30
0.0
 10
3.7644200000000003
 20
-0.3002800000000001
 30
0.0
 10
3.8888800000000003
 20
0.21025
 30
0.0
 10
4.2368600000000001
 20
0.4413900000000001
 30
0.0
  0
SPLINE
  5
32
100
AcDbEntity
  8
Ebene 1
 62
     7
100
AcDbSpline
210
0.0
220
0.0
230
1.0
 70
     1
 71
     3
 72
    36
 73
    32
 74
     0
 42
0.0000000001
 43
0.0000000001
 40
0.0
 40
0.0
 40
0.0
 40
0.0
 40
0.125
 40
0.125
 40
0.125
 40
0.125
 40
0.25
 40
0.25
 40
0.25
 40
0.25
 40
0.375
 40
0.375
 40
0.375
 40
0.375
 40
0.5
 40
0.5
 40
0.5
 40
0.5
 40
0.625
 40
0.625
 40
0.625
 40
0.625
 40
0.75
 40
0.75
 40
0.75
 40
0.75
 40
0.875
 40
0.875
 40
0.875
 40
0.875
 40
1.0
 40
1.0
 40
1.0
 40
1.0
 10
-3.8682700000000003
 20
0.16199
 30
0.0
 10
-3.7260300000000002
 20
0.14421
 30
0.0
 10
-3.6015700000000002
 20
0.01213
 30
0.0
 10
-3.5685500000000001
 20
-0.1174
 30
0.0
 10
-3.5685500000000001
 20
-0.1174
 30
0.0
 10
-3.6498300000000001
 20
-0.34854
 30
0.0
 10
-3.8758900000000005
 20
-0.5492
 30
0.0
 10
-4.1121100000000004
 20
-0.61524
 30
0.0
 10
-4.1121100000000004
 20
-0.61524
 30
0.0
 10
-4.1730700000000001
 20
-0.5822200000000001
 30
0.0
 10
-4.2340300000000006
 20
-0.5492
 30
0.0
 10
-4.2619700000000007
 20
-0.48316
 30
0.0
 10
-4.2619700000000007
 20
-0.48316
 30
0.0
 10
-4.26959
 20
-0.45014
 30
0.0
 10
-4.2721300000000006
 20
-0.39934
 30
0.0
 10
-4.2492700000000001
 20
-0.36632
 30
0.0
 10
-4.2492700000000001
 20
-0.36632
 30
0.0
 10
-4.2568900000000003
 20
-0.3002800000000001
 30
0.0
 10
-4.1425900000000002
 20
-0.1682
 30
0.0
 10
-4.1629100000000001
 20
-0.31806
 30
0.0
 10
-4.1629100000000001
 20
-0.31806
 30
0.0
 10
-4.1095700000000006
 20
-0.43236
 30
0.0
 10
-3.9393900000000004
 20
-0.34854
 30
0.0
 10
-3.9038300000000001
 20
-0.24948
 30
0.0
 10
-3.9038300000000001
 20
-0.24948
 30
0.0
 10
-3.8479500000000004
 20
-0.1682
 30
0.0
 10
-3.8631900000000003
 20
-0.01834
 30
0.0
 10
-3.9952700000000005
 20
-0.03358
 30
0.0
 10
-3.9952700000000005
 20
-0.03358
 30
0.0
 10
-3.9952700000000005
 20
-0.03358
 30
0.0
 10
-3.8682700000000003
 20
0.16199
 30
0.0
 10
-3.8682700000000003
 20
0.16199
 30
0.0
  0
SPLINE
  5
33
100
AcDbEntity
  8
Ebene 1
 62
     7
100
AcDbSpline
210
0.0
220
0.0
230
1.0
 70
     1
 71
     3
 72
    20
 73
    16
 74
     0
 42
0.0000000001
 43
0.0000000001
 40
0.0
 40
0.0
 40
0.0
 40
0.0
 40
0.25
 40
0.25
 40
0.25
 40
0.25
 40
0.5
 40
0.5
 40
0.5
 40
0.5
 40
0.75
 40
0.75
 40
0.75
 40
0.75
 40
1.0
 40
1.0
 40
1.0
 40
1.0
 10
2.0321400000000001
 20
0.16199
 30
0.0
 10
2.0321400000000001
 20
0.16199
 30
0.0
 10
2.4918800000000001
 20
0.06293
 30
0.0
 10
2.4918800000000001
 20
0.06293
 30
0.0
 10
2.4918800000000001
 20
0.06293
 30
0.0
 10
2.50204
 20
0.04515
 30
0.0
 10
2.5198200000000002
 20
0.02737
 30
0.0
 10
2.5096600000000002
 20
0.01213
 30
0.0
 10
2.5096600000000002
 20
0.01213
 30
0.0
 10
2.5096600000000002
 20
0.01213
 30
0.0
 10
1.9711800000000002
 20
0.09595
 30
0.0
 10
1.9711800000000002
 20
0.09595
 30
0.0
 10
1.9711800000000002
 20
0.09595
 30
0.0
 10
1.9711800000000002
 20
0.09595
 30
0.0
 10
2.0321400000000001
 20
0.16199
 30
0.0
 10
2.0321400000000001
 20
0.16199
 30
0.0
  0
SPLINE
  5
34
100
AcDbEntity
  8
Ebene 1
 62
     7
100
AcDbSpline
210
0.0
220
0.0
230
1.0
 70
     1
 71
     3
 72
    12
 73
     8
 74
     0
 42
0.0000000001
 43
0.0000000001
 40
0.0
 40
0.0
 40
0.0
 40
0.0
 40
0.5
 40
0.5
 40
0.5
 40
0.5
 40
1.0
 40
1.0
 40
1.0
 40
1.0
 10
4.0870000000000006
 20
0.11119
 30
0.0
 10
4.1581200000000003
 20
0.11119
 30
0.0
 10
4.08446
 20
0.04515
 30
0.0
 10
4.0590600000000006
 20
0.02737
 30
0.0
 10
4.0590600000000006
 20
0.02737
 30
0.0
 10
4.0590600000000006
 20
0.02737
 30
0.0
 10
4.0870000000000006
 20
0.11119
 30
0.0
 10
4.0870000000000006
 20
0.11119
 30
0.0
  0
SPLINE
  5
35
100
AcDbEntity
  8
Ebene 1
 62
     7
100
AcDbSpline
210
0.0
220
0.0
230
1.0
 70
     1
 71
     3
 72
     8
 73
     4
 74
     0
 42
0.0000000001
 43
0.0000000001
 40
0.0
 40
0.0
 40
0.0
 40
0.0
 40
1.0
 40
1.0
 40
1.0
 40
1.0
 10
1.5012800000000002
 20
0.07817
 30
0.0
 10
1.4987400000000002
 20
0.11119
 30
0.0
 10
1.5317600000000002
 20
0.07817
 30
0.0
 10
1.5012800000000002
 20
0.07817
 30
0.0
  0
SPLINE
  5
36
100
AcDbEntity
  8
Ebene 1
 62
     7
100
AcDbSpline
210
0.0
220
0.0
230
1.0
 70
     1
 71
     3
 72
    12
 73
     8
 74
     0
 42
0.0000000001
 43
0.0000000001
 40
0.0
 40
0.0
 40
0.0
 40
0.0
 40
0.5
 40
0.5
 40
0.5
 40
0.5
 40
1.0
 40
1.0
 40
1.0
 40
1.0
 10
-4.0511500000000007
 20
-0.13518
 30
0.0
 10
-3.8682700000000003
 20
-0.10216
 30
0.0
 10
-4.1324300000000003
 20
-0.3841000000000001
 30
0.0
 10
-4.0663900000000002
 20
-0.20122
 30
0.0
 10
-4.0663900000000002
 20
-0.20122
 30
0.0
 10
-4.0714700000000006
 20
-0.1682
 30
0.0
 10
-4.0613100000000006
 20
-0.15042
 30
0.0
 10
-4.0511500000000007
 20
-0.13518
 30
0.0
  0
SPLINE
  5
37
100
AcDbEntity
  8
Ebene 1
100
AcDbSpline
210
0.0
220
0.0
230
1.0
 70
     1
 71
     3
 72
    52
 73
    48
 74
     0
 42
0.0000000001
 43
0.0000000001
 40
0.0
 40
0.0
 40
0.0
 40
0.0
 40
0.0833333333333333
 40
0.0833333333333333
 40
0.0833333333333333
 40
0.0833333333333333
 40
0.1666666666666667
 40
0.1666666666666667
 40
0.1666666666666667
 40
0.1666666666666667
 40
0.25
 40
0.25
 40
0.25
 40
0.25
 40
0.3333333333333333
 40
0.3333333333333333
 40
0.3333333333333333
 40
0.3333333333333333
 40
0.4166666666666666
 40
0.4166666666666666
 40
0.4166666666666666
 40
0.4166666666666666
 40
0.4999999999999999
 40
0.4999999999999999
 40
0.4999999999999999
 40
0.4999999999999999
 40
0.5833333333333333
 40
0.5833333333333333
 40
0.5833333333333333
 40
0.5833333333333333
 40
0.6666666666666666
 40
0.6666666666666666
 40
0.6666666666666666
 40
0.6666666666666666
 40
0.75
 40
0.75
 40
0.75
 40
0.75
 40
0.8333333333333334
 40
0.8333333333333334
 40
0.8333333333333334
 40
0.8333333333333334
 40
0.9166666666666667
 40
0.9166666666666667
 40
0.9166666666666667
 40
0.9166666666666667
 40
1.0
 40
1.0
 40
1.0
 40
1.0
 10
3.5739200000000002
 20
-0.13518
 30
0.0
 10
3.6856800000000005
 20
-0.1174
 30
0.0
 10
3.7593400000000003
 20
-0.15042
 30
0.0
 10
3.8355400000000004
 20
-0.20122
 30
0.0
 10
3.8355400000000004
 20
-0.20122
 30
0.0
 10
3.8330000000000002
 20
-0.3002800000000001
 30
0.0
 10
3.6780600000000003
 20
-0.20122
 30
0.0
 10
3.6882200000000003
 20
-0.31806
 30
0.0
 10
3.6882200000000003
 20
-0.31806
 30
0.0
 10
3.8584000000000005
 20
-0.6482600000000001
 30
0.0
 10
4.0082599999999999
 20
-1.0140200000000001
 30
0.0
 10
4.0387400000000007
 20
-1.4102600000000001
 30
0.0
 10
4.0387400000000007
 20
-1.4102600000000001
 30
0.0
 10
4.0387400000000007
 20
-1.4102600000000001
 30
0.0
 10
3.9676200000000001
 20
-1.5118600000000002
 30
0.0
 10
3.9676200000000001
 20
-1.5118600000000002
 30
0.0
 10
3.9676200000000001
 20
-1.5118600000000002
 30
0.0
 10
3.8888800000000003
 20
-1.54234
 30
0.0
 10
3.7872800000000004
 20
-1.4432800000000001
 30
0.0
 10
3.7390200000000005
 20
-1.5118600000000002
 30
0.0
 10
3.7390200000000005
 20
-1.5118600000000002
 30
0.0
 10
3.7390200000000005
 20
-1.5118600000000002
 30
0.0
 10
3.6933000000000002
 20
-1.8750800000000001
 30
0.0
 10
3.6933000000000002
 20
-1.8750800000000001
 30
0.0
 10
3.6933000000000002
 20
-1.8750800000000001
 30
0.0
 10
3.6552000000000002
 20
-1.7430000000000001
 30
0.0
 10
3.6653600000000002
 20
-1.5931400000000002
 30
0.0
 10
3.7034600000000002
 20
-1.46106
 30
0.0
 10
3.7034600000000002
 20
-1.46106
 30
0.0
 10
3.5866200000000004
 20
-1.4432800000000001
 30
0.0
 10
3.5231200000000005
 20
-1.6109200000000001
 30
0.0
 10
3.3961200000000002
 20
-1.5601200000000002
 30
0.0
 10
3.3961200000000002
 20
-1.5601200000000002
 30
0.0
 10
3.2081600000000003
 20
-1.2273800000000001
 30
0.0
 10
3.4723200000000003
 20
-0.7981200000000001
 30
0.0
 10
3.7034600000000002
 20
-0.5492
 30
0.0
 10
3.7034600000000002
 20
-0.5492
 30
0.0
 10
3.7034600000000002
 20
-0.5492
 30
0.0
 10
3.6044000000000005
 20
-0.26726
 30
0.0
 10
3.6044000000000005
 20
-0.26726
 30
0.0
 10
3.6044000000000005
 20
-0.26726
 30
0.0
 10
3.5536000000000003
 20
-0.24948
 30
0.0
 10
3.3478600000000003
 20
-0.3002800000000001
 30
0.0
 10
3.4215200000000001
 20
-0.21646
 30
0.0
 10
3.4215200000000001
 20
-0.21646
 30
0.0
 10
3.4215200000000001
 20
-0.21646
 30
0.0
 10
3.5739200000000002
 20
-0.13518
 30
0.0
 10
3.5739200000000002
 20
-0.13518
 30
0.0
  0
SPLINE
  5
38
100
AcDbEntity
  8
Ebene 1
 62
     7
100
AcDbSpline
210
0.0
220
0.0
230
1.0
 70
     1
 71
     3
 72
    20
 73
    16
 74
     0
 42
0.0000000001
 43
0.0000000001
 40
0.0
 40
0.0
 40
0.0
 40
0.0
 40
0.25
 40
0.25
 40
0.25
 40
0.25
 40
0.5
 40
0.5
 40
0.5
 40
0.5
 40
0.75
 40
0.75
 40
0.75
 40
0.75
 40
1.0
 40
1.0
 40
1.0
 40
1.0
 10
2.4791800000000004
 20
-1.6922000000000001
 30
0.0
 10
2.4918800000000001
 20
-1.6922000000000001
 30
0.0
 10
2.5147400000000002
 20
-1.6922000000000001
 30
0.0
 10
2.5122
 20
-1.7099800000000001
 30
0.0
 10
2.5122
 20
-1.7099800000000001
 30
0.0
 10
2.5122
 20
-1.7099800000000001
 30
0.0
 10
2.45886
 20
-2.4542000000000002
 30
0.0
 10
2.45886
 20
-2.4542000000000002
 30
0.0
 10
2.45886
 20
-2.4542000000000002
 30
0.0
 10
2.4334600000000002
 20
-2.3399000000000001
 30
0.0
 10
2.3521800000000002
 20
-2.13924
 30
0.0
 10
2.2353400000000003
 20
-2.30688
 30
0.0
 10
2.2353400000000003
 20
-2.30688
 30
0.0
 10
2.3039200000000002
 20
-2.0909800000000001
 30
0.0
 10
2.3140800000000001
 20
-1.8573000000000002
 30
0.0
 10
2.4791800000000004
 20
-1.6922000000000001
 30
0.0
  0
SPLINE
  5
39
100
AcDbEntity
  8
Ebene 1
 62
     7
100
AcDbSpline
210
0.0
220
0.0
230
1.0
 70
     1
 71
     3
 72
    16
 73
    12
 74
     0
 42
0.0000000001
 43
0.0000000001
 40
0.0
 40
0.0
 40
0.0
 40
0.0
 40
0.3333333333333333
 40
0.3333333333333333
 40
0.3333333333333333
 40
0.3333333333333333
 40
0.6666666666666666
 40
0.6666666666666666
 40
0.6666666666666666
 40
0.6666666666666666
 40
1.0
 40
1.0
 40
1.0
 40
1.0
 10
2.1794600000000002
 20
-1.9258800000000003
 30
0.0
 10
2.25312
 20
-1.9589000000000001
 30
0.0
 10
2.2251800000000004
 20
-2.13924
 30
0.0
 10
2.1159600000000003
 20
-2.0757400000000001
 30
0.0
 10
2.1159600000000003
 20
-2.0757400000000001
 30
0.0
 10
2.1159600000000003
 20
-2.0757400000000001
 30
0.0
 10
2.0702400000000001
 20
-2.0909800000000001
 30
0.0
 10
2.0702400000000001
 20
-2.0909800000000001
 30
0.0
 10
2.0702400000000001
 20
-2.0909800000000001
 30
0.0
 10
2.0778600000000003
 20
-2.02494
 30
0.0
 10
2.1261200000000002
 20
-1.9589000000000001
 30
0.0
 10
2.1794600000000002
 20
-1.9258800000000003
 30
0.0
  0
SPLINE
  5
3A
100
AcDbEntity
  8
Ebene 1
 62
     7
100
AcDbSpline
210
0.0
220
0.0
230
1.0
 70
     1
 71
     3
 72
    12
 73
     8
 74
     0
 42
0.0000000001
 43
0.0000000001
 40
0.0
 40
0.0
 40
0.0
 40
0.0
 40
0.5
 40
0.5
 40
0.5
 40
0.5
 40
1.0
 40
1.0
 40
1.0
 40
1.0
 10
2.0804
 20
-2.2078200000000003
 30
0.0
 10
2.13374
 20
-2.2891000000000004
 30
0.0
 10
2.1464400000000001
 20
-2.5050000000000003
 30
0.0
 10
2.0651600000000001
 20
-2.5888200000000001
 30
0.0
 10
2.0651600000000001
 20
-2.5888200000000001
 30
0.0
 10
1.8594200000000001
 20
-2.5558000000000001
 30
0.0
 10
1.9889600000000001
 20
-2.30688
 30
0.0
 10
2.0804
 20
-2.2078200000000003
 30
0.0
  0
SPLINE
  5
3B
100
AcDbEntity
  8
Ebene 1
 62
     7
100
AcDbSpline
210
0.0
220
0.0
230
1.0
 70
     1
 71
     3
 72
    16
 73
    12
 74
     0
 42
0.0000000001
 43
0.0000000001
 40
0.0
 40
0.0
 40
0.0
 40
0.0
 40
0.3333333333333333
 40
0.3333333333333333
 40
0.3333333333333333
 40
0.3333333333333333
 40
0.6666666666666666
 40
0.6666666666666666
 40
0.6666666666666666
 40
0.6666666666666666
 40
1.0
 40
1.0
 40
1.0
 40
1.0
 10
2.3293200000000001
 20
-2.3729200000000001
 30
0.0
 10
2.3902800000000002
 20
-2.4897600000000004
 30
0.0
 10
2.4537800000000001
 20
-2.6878800000000003
 30
0.0
 10
2.3750400000000003
 20
-2.81996
 30
0.0
 10
2.3750400000000003
 20
-2.81996
 30
0.0
 10
2.3039200000000002
 20
-2.7717000000000001
 30
0.0
 10
2.2201
 20
-2.7209000000000003
 30
0.0
 10
2.1642200000000003
 20
-2.6370800000000001
 30
0.0
 10
2.1642200000000003
 20
-2.6370800000000001
 30
0.0
 10
2.1642200000000003
 20
-2.6370800000000001
 30
0.0
 10
2.3293200000000001
 20
-2.3729200000000001
 30
0.0
 10
2.3293200000000001
 20
-2.3729200000000001
 30
0.0
  0
SPLINE
  5
3C
100
AcDbEntity
  8
Ebene 1
 62
     7
100
AcDbSpline
210
0.0
220
0.0
230
1.0
 70
     1
 71
     3
 72
    16
 73
    12
 74
     0
 42
0.0000000001
 43
0.0000000001
 40
0.0
 40
0.0
 40
0.0
 40
0.0
 40
0.3333333333333333
 40
0.3333333333333333
 40
0.3333333333333333
 40
0.3333333333333333
 40
0.6666666666666666
 40
0.6666666666666666
 40
0.6666666666666666
 40
0.6666666666666666
 40
1.0
 40
1.0
 40
1.0
 40
1.0
 10
2.6290400000000003
 20
-2.5558000000000001
 30
0.0
 10
2.7382600000000004
 20
-2.6548600000000002
 30
0.0
 10
2.7408000000000001
 20
-2.9190200000000002
 30
0.0
 10
2.6620600000000003
 20
-3.0358600000000004
 30
0.0
 10
2.6620600000000003
 20
-3.0358600000000004
 30
0.0
 10
2.6620600000000003
 20
-3.0358600000000004
 30
0.0
 10
2.4842600000000004
 20
-2.9368000000000003
 30
0.0
 10
2.4842600000000004
 20
-2.9368000000000003
 30
0.0
 10
2.4842600000000004
 20
-2.9368000000000003
 30
0.0
 10
2.4614000000000003
 20
-2.7869400000000004
 30
0.0
 10
2.5579200000000002
 20
-2.6726400000000003
 30
0.0
 10
2.6290400000000003
 20
-2.5558000000000001
 30
0.0
  0
SPLINE
  5
3D
100
AcDbEntity
  8
Ebene 1
 62
     7
100
AcDbSpline
210
0.0
220
0.0
230
1.0
 70
     1
 71
     3
 72
    16
 73
    12
 74
     0
 42
0.0000000001
 43
0.0000000001
 40
0.0
 40
0.0
 40
0.0
 40
0.0
 40
0.3333333333333333
 40
0.3333333333333333
 40
0.3333333333333333
 40
0.3333333333333333
 40
0.6666666666666666
 40
0.6666666666666666
 40
0.6666666666666666
 40
0.6666666666666666
 40
1.0
 40
1.0
 40
1.0
 40
1.0
 10
3.9879400000000005
 20
-2.7590000000000003
 30
0.0
 10
3.9879400000000005
 20
-2.7590000000000003
 30
0.0
 10
4.0184200000000008
 20
-2.7590000000000003
 30
0.0
 10
4.0184200000000008
 20
-2.7590000000000003
 30
0.0
 10
4.0184200000000008
 20
-2.7590000000000003
 30
0.0
 10
4.0031800000000004
 20
-2.8834600000000004
 30
0.0
 10
4.0260400000000001
 20
-3.0968200000000001
 30
0.0
 10
3.8253800000000004
 20
-3.1349200000000002
 30
0.0
 10
3.8253800000000004
 20
-3.1349200000000002
 30
0.0
 10
3.8380800000000002
 20
-2.9977600000000004
 30
0.0
 10
3.9244400000000002
 20
-2.8834600000000004
 30
0.0
 10
3.9879400000000005
 20
-2.7590000000000003
 30
0.0
  0
SPLINE
  5
3E
100
AcDbEntity
  8
Ebene 1
 62
     7
100
AcDbSpline
210
0.0
220
0.0
230
1.0
 70
     1
 71
     3
 72
    12
 73
     8
 74
     0
 42
0.0000000001
 43
0.0000000001
 40
0.0
 40
0.0
 40
0.0
 40
0.0
 40
0.5
 40
0.5
 40
0.5
 40
0.5
 40
1.0
 40
1.0
 40
1.0
 40
1.0
 10
3.01004
 20
-2.6878800000000003
 30
0.0
 10
3.1091000000000002
 20
-2.8047200000000001
 30
0.0
 10
3.1091000000000002
 20
-3.0866600000000002
 30
0.0
 10
2.9592400000000003
 20
-3.2009600000000002
 30
0.0
 10
2.9592400000000003
 20
-3.2009600000000002
 30
0.0
 10
2.6620600000000003
 20
-3.1679400000000002
 30
0.0
 10
2.8703400000000001
 20
-2.8047200000000001
 30
0.0
 10
3.01004
 20
-2.6878800000000003
 30
0.0
  0
SPLINE
  5
3F
100
AcDbEntity
  8
Ebene 1
 62
     7
100
AcDbSpline
210
0.0
220
0.0
230
1.0
 70
     1
 71
     3
 72
    16
 73
    12
 74
     0
 42
0.0000000001
 43
0.0000000001
 40
0.0
 40
0.0
 40
0.0
 40
0.0
 40
0.3333333333333333
 40
0.3333333333333333
 40
0.3333333333333333
 40
0.3333333333333333
 40
0.6666666666666666
 40
0.6666666666666666
 40
0.6666666666666666
 40
0.6666666666666666
 40
1.0
 40
1.0
 40
1.0
 40
1.0
 10
3.3732600000000001
 20
-2.7209000000000003
 30
0.0
 10
3.4850200000000005
 20
-2.8529800000000001
 30
0.0
 10
3.4367600000000005
 20
-3.0866600000000002
 30
0.0
 10
3.4215200000000001
 20
-3.2670000000000003
 30
0.0
 10
3.4215200000000001
 20
-3.2670000000000003
 30
0.0
 10
3.3402400000000001
 20
-3.3025600000000002
 30
0.0
 10
3.2310200000000004
 20
-3.2670000000000003
 30
0.0
 10
3.1472000000000002
 20
-3.2517600000000004
 30
0.0
 10
3.1472000000000002
 20
-3.2517600000000004
 30
0.0
 10
3.1776800000000001
 20
-3.0688800000000001
 30
0.0
 10
3.2919800000000001
 20
-2.8860000000000001
 30
0.0
 10
3.3732600000000001
 20
-2.7209000000000003
 30
0.0
  0
ENDSEC
  0
SECTION
  2
OBJECTS
  0
DICTIONARY
  5
19
100
AcDbDictionary
280
     0
281
     1
  3
ACAD_GROUP
350
1A
  3
ACAD_MLINESTYLE
350
1B
  3
ACAD_LAYOUT
350
1E
  3
ACAD_PLOTSETTINGS
350
22
  3
ACAD_PLOTSTYLENAME
350
1F
  3
ACAD_WIPEOUT_VARS
350
23
  0
DICTIONARY
  5
1A
102
{ACAD_REACTORS
330
19
102
}
100
AcDbDictionary
280
     0
281
     1
  0
DICTIONARY
  5
1B
102
{ACAD_REACTORS
330
19
102
}
100
AcDbDictionary
280
     0
281
     1
  3
Standard
350
1C
  0
MLINESTYLE
  5
1C
102
{ACAD_REACTORS
330
1B
102
}
100
AcDbMlineStyle
  2
Standard
 70
     0
  3

 62
     0
 51
90.0
 52
90.0
 71
     2
 49
0.5
 62
   256
  6
BYLAYER
 49
-0.5
 62
   256
  6
BYLAYER
  0
ACDBDICTIONARYWDFLT
  5
1F
102
{ACAD_REACTORS
330
19
102
}
100
AcDbDictionary
281
     1
  3
Normal
350
1D
100
AcDbDictionaryWithDefault
340
1D
  0
ACDBPLACEHOLDER
  5
1D
102
{ACAD_REACTORS
330
1F
102
}
  0
LAYOUT
  5
20
102
{ACAD_REACTORS
330
1E
102
}
100
AcDbPlotSettings
  1

  2

  4

  6

 40
0.0
 41
0.0
 42
0.0
 43
0.0
 44
0.0
 45
0.0
 46
0.0
 47
0.0
 48
0.0
 49
0.0
140
0.0
141
0.0
142
1.0
143
1.0
 70
  1024
 72
     0
 73
     0
 74
     0
  7

 75
     0
147
1.0
148
0.0
149
0.0
100
AcDbLayout
  1
Model
 70
     0
 71
     0
 10
0.0
 20
0.0
 11
0.0
 21
0.0
 12
0.0
 22
0.0
 32
0.0
 14
0.0
 24
0.0
 34
0.0
 15
0.0
 25
0.0
 35
0.0
146
0.0
 13
0.0
 23
0.0
 33
0.0
 16
0.0
 26
0.0
 36
0.0
 17
0.0
 27
0.0
 37
0.0
 76
     0
330
A
331
0
345
0
346
0
  0
LAYOUT
  5
21
102
{ACAD_REACTORS
330
1E
102
}
100
AcDbPlotSettings
  1

  2

  4

  6

 40
0.0
 41
0.0
 42
0.0
 43
0.0
 44
0.0
 45
0.0
 46
0.0
 47
0.0
 48
0.0
 49
0.0
140
0.0
141
0.0
142
1.0
143
1.0
 70
     0
 72
     0
 73
     0
 74
     0
  7

 75
     0
147
1.0
148
0.0
149
0.0
100
AcDbLayout
  1
Layout1
 70
     0
 71
     0
 10
0.0
 20
0.0
 11
0.0
 21
0.0
 12
0.0
 22
0.0
 32
0.0
 14
0.0
 24
0.0
 34
0.0
 15
0.0
 25
0.0
 35
0.0
146
0.0
 13
0.0
 23
0.0
 33
0.0
 16
0.0
 26
0.0
 36
0.0
 17
0.0
 27
0.0
 37
0.0
 76
     0
330
B
331
0
345
0
346
0
  0
DICTIONARY
  5
1E
102
{ACAD_REACTORS
330
19
102
}
100
AcDbDictionary
280
     0
281
     1
  3
Layout1
350
21
  3
Model
350
20
  0
DICTIONARY
  5
22
102
{ACAD_REACTORS
330
19
102
}
100
AcDbDictionary
280
     0
281
     1
  0
WIPEOUTVARIABLES
  5
23
100
AcDbWipeoutVariables
 70
     1
  0
ENDSEC
  0
EOF
