  0
SECTION
  2
HEADER
  9
$ACADVER
  1
AC1015
  9
$ACADMAINTVER
 70
     6
  9
$DWGCODEPAGE
  3
DOS850
  9
$INSBASE
 10
0.0
 20
0.0
 30
0.0
  9
$EXTMIN
 10
-4.08033
 20
-5.60888
 30
1.000000E+20
  9
$EXTMAX
 10
4.08642
 20
5.60196
 30
-1.000000E+20
  9
$LIMMIN
 10
0.0
 20
0.0
  9
$LIMMAX
 10
0.0
 20
0.0
  9
$ORTHOMODE
 70
     0
  9
$REGENMODE
 70
     1
  9
$FILLMODE
 70
     1
  9
$QTEXTMODE
 70
     0
  9
$MIRRTEXT
 70
     1
  9
$LTSCALE
 40
1.0
  9
$ATTMODE
 70
     1
  9
$TEXTSIZE
 40
0.2
  9
$TRACEWID
 40
0.05
  9
$TEXTSTYLE
  7
Standard
  9
$CLAYER
  8
0
  9
$CELTYPE
  6
Continuous
  9
$CECOLOR
 62
   256
  9
$CELTSCALE
 40
1.0
  9
$DISPSILH
 70
     0
  9
$DIMSCALE
 40
1.0
  9
$DIMASZ
 40
0.18
  9
$DIMEXO
 40
0.0625
  9
$DIMDLI
 40
0.38
  9
$DIMRND
 40
0.0
  9
$DIMDLE
 40
0.0
  9
$DIMEXE
 40
0.18
  9
$DIMTP
 40
0.0
  9
$DIMTM
 40
0.0
  9
$DIMTXT
 40
0.18
  9
$DIMCEN
 40
0.09
  9
$DIMTSZ
 40
0.0
  9
$DIMTOL
 70
     0
  9
$DIMLIM
 70
     0
  9
$DIMTIH
 70
     1
  9
$DIMTOH
 70
     1
  9
$DIMSE1
 70
     0
  9
$DIMSE2
 70
     0
  9
$DIMTAD
 70
     0
  9
$DIMZIN
 70
     0
  9
$DIMBLK
  1

  9
$DIMASO
 70
     1
  9
$DIMSHO
 70
     1
  9
$DIMPOST
  1

  9
$DIMAPOST
  1

  9
$DIMALT
 70
     0
  9
$DIMALTD
 70
     2
  9
$DIMALTF
 40
25.4
  9
$DIMLFAC
 40
1.0
  9
$DIMTOFL
 70
     0
  9
$DIMTVP
 40
0.0
  9
$DIMTIX
 70
     0
  9
$DIMSOXD
 70
     0
  9
$DIMSAH
 70
     0
  9
$DIMBLK1
  1

  9
$DIMBLK2
  1

  9
$DIMSTYLE
  2
Standard
  9
$DIMCLRD
 70
     0
  9
$DIMCLRE
 70
     0
  9
$DIMCLRT
 70
     0
  9
$DIMTFAC
 40
1.0
  9
$DIMGAP
 40
0.09
  9
$DIMJUST
 70
     0
  9
$DIMSD1
 70
     0
  9
$DIMSD2
 70
     0
  9
$DIMTOLJ
 70
     1
  9
$DIMTZIN
 70
     0
  9
$DIMALTZ
 70
     0
  9
$DIMALTTZ
 70
     0
  9
$DIMUPT
 70
     0
  9
$DIMDEC
 70
     4
  9
$DIMTDEC
 70
     4
  9
$DIMALTU
 70
     2
  9
$DIMALTTD
 70
     2
  9
$DIMTXSTY
  7
Standard
  9
$DIMAUNIT
 70
     0
  9
$DIMADEC
 70
     0
  9
$DIMALTRND
 40
0.0
  9
$DIMAZIN
 70
     0
  9
$DIMDSEP
 70
     0
  9
$DIMATFIT
 70
     3
  9
$DIMFRAC
 70
     0
  9
$DIMLDRBLK
  1

  9
$DIMLUNIT
 70
     2
  9
$DIMLWD
 70
     0
  9
$DIMLWE
 70
     0
  9
$DIMTMOVE
 70
     0
  9
$LUNITS
 70
     2
  9
$LUPREC
 70
     4
  9
$SKETCHINC
 40
0.1
  9
$FILLETRAD
 40
0.0
  9
$AUNITS
 70
     0
  9
$AUPREC
 70
     0
  9
$MENU
  1
acad
  9
$ELEVATION
 40
0.0
  9
$PELEVATION
 40
0.0
  9
$THICKNESS
 40
0.0
  9
$LIMCHECK
 70
     0
  9
$CHAMFERA
 40
0.0
  9
$CHAMFERB
 40
0.0
  9
$CHAMFERC
 40
0.0
  9
$CHAMFERD
 40
0.0
  9
$SKPOLY
 70
     0
  9
$TDCREATE
 40
0.000000000
  9
$TDUCREATE
 40
0.000000000
  9
$TDUPDATE
 40
0.000000000
  9
$TDUUPDATE
 40
0.000000000
  9
$TDINDWG
 40
0.0000000000
  9
$TDUSRTIMER
 40
0.0000000000
  9
$USRTIMER
 70
     1
  9
$ANGBASE
 50
0.0
  9
$ANGDIR
 70
     0
  9
$PDMODE
 70
     0
  9
$PDSIZE
 40
0.0
  9
$PLINEWID
 40
0.0
  9
$SPLFRAME
 70
     0
  9
$SPLINETYPE
 70
     6
  9
$SPLINESEGS
 70
     8
  9
$HANDSEED
  5
44
  9
$SURFTAB1
 70
     6
  9
$SURFTAB2
 70
     6
  9
$SURFTYPE
 70
     6
  9
$SURFU
 70
     6
  9
$SURFV
 70
     6
  9
$UCSBASE
  2

  9
$UCSNAME
  2

  9
$UCSORG
 10
0.0
 20
0.0
 30
0.0
  9
$UCSXDIR
 10
1.0
 20
0.0
 30
0.0
  9
$UCSYDIR
 10
0.0
 20
1.0
 30
0.0
  9
$UCSORTHOREF
  2

  9
$UCSORTHOVIEW
 70
     0
  9
$UCSORGTOP
 10
0.0
 20
0.0
 30
0.0
  9
$UCSORGBOTTOM
 10
0.0
 20
0.0
 30
0.0
  9
$UCSORGLEFT
 10
0.0
 20
0.0
 30
0.0
  9
$UCSORGRIGHT
 10
0.0
 20
0.0
 30
0.0
  9
$UCSORGFRONT
 10
0.0
 20
0.0
 30
0.0
  9
$UCSORGBACK
 10
0.0
 20
0.0
 30
0.0
  9
$PUCSBASE
  2

  9
$PUCSNAME
  2

  9
$PUCSORG
 10
0.0
 20
0.0
 30
0.0
  9
$PUCSXDIR
 10
1.0
 20
0.0
 30
0.0
  9
$PUCSYDIR
 10
0.0
 20
1.0
 30
0.0
  9
$PUCSORTHOREF
  2

  9
$PUCSORTHOVIEW
 70
     0
  9
$PUCSORGTOP
 10
0.0
 20
0.0
 30
0.0
  9
$PUCSORGBOTTOM
 10
0.0
 20
0.0
 30
0.0
  9
$PUCSORGLEFT
 10
0.0
 20
0.0
 30
0.0
  9
$PUCSORGRIGHT
 10
0.0
 20
0.0
 30
0.0
  9
$PUCSORGFRONT
 10
0.0
 20
0.0
 30
0.0
  9
$PUCSORGBACK
 10
0.0
 20
0.0
 30
0.0
  9
$USERI1
 70
     0
  9
$USERI2
 70
     0
  9
$USERI3
 70
     0
  9
$USERI4
 70
     0
  9
$USERI5
 70
     0
  9
$USERR1
 40
0.0
  9
$USERR2
 40
0.0
  9
$USERR3
 40
0.0
  9
$USERR4
 40
0.0
  9
$USERR5
 40
0.0
  9
$WORLDVIEW
 70
     1
  9
$SHADEDGE
 70
     3
  9
$SHADEDIF
 70
    70
  9
$TILEMODE
 70
     1
  9
$MAXACTVP
 70
    16
  9
$PINSBASE
 10
0.0
 20
0.0
 30
0.0
  9
$PLIMCHECK
 70
     0
  9
$PEXTMIN
 10
1.000000E+20
 20
1.000000E+20
 30
1.000000E+20
  9
$PEXTMAX
 10
-1.000000E+20
 20
-1.000000E+20
 30
-1.000000E+20
  9
$PLIMMIN
 10
0.0
 20
0.0
  9
$PLIMMAX
 10
12.0
 20
9.0
  9
$UNITMODE
 70
     0
  9
$VISRETAIN
 70
     0
  9
$PLINEGEN
 70
     1
  9
$PSLTSCALE
 70
     0
  9
$TREEDEPTH
 70
  3020
  9
$CMLSTYLE
  2
Standard
  9
$CMLJUST
 70
     0
  9
$CMLSCALE
 40
1.0
  9
$PROXYGRAPHICS
 70
     0
  9
$MEASUREMENT
 70
     0
  9
$CELWEIGHT
370
     0
  9
$ENDCAPS
280
     0
  9
$JOINSTYLE
280
     0
  9
$LWDISPLAY
290
     0
  9
$INSUNITS
 70
     5
  9
$HYPERLINKBASE
  1

  9
$XEDIT
290
     1
  9
$CEPSNTYPE
380
     0
  9
$PSTYLEMODE
290
     1
  9
$FINGERPRINTGUID
  2

  9
$VERSIONGUID
  2

  9
$EXTNAMES
290
     1
  9
$PSVPSCALE
 40
0.0
  0
ENDSEC
  0
SECTION
  2
CLASSES
  0
CLASS
  1
LWPOLYLINE
  2
AcDbPolyline
  3
AutoCAD 2000
 90
    32768
280
     0
281
     1
  0
CLASS
  1
IMAGE
  2
AcDbRasterImage
  3
ISM
 90
    32895
280
     0
281
     1
  0
CLASS
  1
OLE2FRAME
  2
AcDbOle2Frame
  3
AutoCAD 2000
 90
    32768
280
     0
281
     1
  0
CLASS
  1
HATCH
  2
AcDbHatch
  3
AutoCAD 2000
 90
    32768
280
     0
281
     1
  0
CLASS
  1
DICTIONARYVAR
  2
AcDbDictionaryVar
  3
AutoCAD 2000
 90
    32768
280
     0
281
     0
  0
CLASS
  1
RASTERVARIABLES
  2
AcDbRasterVariables
  3
ISM
 90
    32768
280
     0
281
     0
  0
CLASS
  1
IMAGEDEF
  2
AcDbRasterImageDef
  3
ISM
 90
    32768
280
     0
281
     0
  0
CLASS
  1
IMAGEDEF_REACTOR
  2
AcDbRasterImageDefReactor
  3
ISM
 90
    32769
280
     0
281
     0
  0
CLASS
  1
IDBUFFER
  2
AcDbIdBuffer
  3
AutoCAD 2000
 90
    32768
280
     0
281
     0
  0
CLASS
  1
SPATIAL_FILTER
  2
AcDbSpatialFilter
  3
AutoCAD 2000
 90
    32768
280
     0
281
     0
  0
CLASS
  1
XRECORD
  2
AcDbXrecord
  3
AutoCAD 2000
 90
    32768
280
     0
281
     0
  0
CLASS
  1
SORTENTSTABLE
  2
AcDbSortentsTable
  3
AutoCAD 2000
 90
    32768
280
     0
281
     0
  0
CLASS
  1
LAYER_INDEX
  2
AcDbLayerIndex
  3
AutoCAD 2000
 90
    32768
280
     0
281
     0
  0
CLASS
  1
SPATIAL_INDEX
  2
AcDbSpatialIndex
  3
AutoCAD 2000
 90
    32768
280
     0
281
     0
  0
CLASS
  1
OBJECT_PTR
  2
CAseDLPNTableRecord
  3
"ASE-LPNTableRecord"
 90
    32769
280
     0
281
     0
  0
CLASS
  1
LAYOUT
  2
AcDbLayout
  3
AutoCAD 2000
 90
        0
280
     0
281
     0
  0
CLASS
  1
PLOTSETTINGS
  2
AcDbPlotSettings
  3
AutoCAD 2000
 90
    32768
280
     0
281
     0
  0
CLASS
  1
ACDBDICTIONARYWDFLT
  2
AcDbDictionaryWithDefault
  3
AutoCAD 2000
 90
        0
280
     0
281
     0
  0
CLASS
  1
ACDBPLACEHOLDER
  2
AcDbPlaceHolder
  3
AutoCAD 2000
 90
        0
280
     0
281
     0
  0
CLASS
  1
VBA_PROJECT
  2
AcDbVbaProject
  3
acadvba
 90
    32768
280
     0
281
     0
  0
CLASS
  1
WIPEOUT
  2
AcDbWipeout
  3
WipeOut|AutoCAD Express Tool|expresstools@autodesk.com
 90
    32895
280
     0
281
     1
  0
CLASS
  1
WIPEOUTVARIABLES
  2
AcDbWipeoutVariables
  3
WipeOut|AutoCAD Express Tool|expresstools@autodesk.com
 90
        0
280
     0
281
     0
  0
CLASS
  1
RTEXT
  2
RText
  3
RText|AutoCAD Express Tool|expresstools@autodesk.com
 90
    32768
280
     0
281
     1
  0
CLASS
  1
ARCALIGNEDTEXT
  2
AcDbArcAlignedText
  3
ATEXT|AutoCAD Express Tool|expresstools@autodesk.com
 90
    32768
280
     0
281
     1
  0
ENDSEC
  0
SECTION
  2
TABLES
  0
TABLE
  2
VPORT
  5
7
100
AcDbSymbolTable
 70
     1
  0
VPORT
  5
15
100
AcDbSymbolTableRecord
100
AcDbViewportTableRecord
  2
*ACTIVE
 70
     0
 10
0.0
 20
0.0
 11
1.0
 21
1.0
 12
6.591288
 22
4.579184
 13
0.0
 23
0.0
 14
1.0
 24
1.0
 15
0.0
 25
0.0
 16
0.0
 26
0.0
 36
1.0
 17
0.0
 27
0.0
 37
0.0
 40
9.158369
 41
0.688564
 42
50.0
 43
0.0
 44
0.0
 50
0.0
 51
0.0
 71
     0
 72
   100
 73
     1
 74
     1
 75
     0
 76
     0
 77
     0
 78
     0
281
     0
 65
     0
110
0.0
120
0.0
130
0.0
111
1.0
121
0.0
131
0.0
112
0.0
122
1.0
132
0.0
345
0
346
0
 79
     0
146
0.0
  0
ENDTAB
  0
TABLE
  2
LTYPE
  5
4
100
AcDbSymbolTable
 70
     3
  0
LTYPE
  5
11
100
AcDbSymbolTableRecord
100
AcDbLinetypeTableRecord
  2
ByBlock
 70
    64
  3

 72
    65
 73
     0
 40
0.0
  0
LTYPE
  5
12
100
AcDbSymbolTableRecord
100
AcDbLinetypeTableRecord
  2
ByLayer
 70
    64
  3

 72
    65
 73
     0
 40
0.0
  0
LTYPE
  5
13
100
AcDbSymbolTableRecord
100
AcDbLinetypeTableRecord
  2
Continuous
 70
    64
  3
Solid line
 72
    65
 73
     0
 40
0.0
  0
ENDTAB
  0
TABLE
  2
LAYER
  5
2
100
AcDbSymbolTable
 70
     2
  0
LAYER
  5
14
100
AcDbSymbolTableRecord
100
AcDbLayerTableRecord
  2
0
 70
     0
 62
     7
  6
Continuous
290
     1
370
    -3
390
1D
  0
LAYER
  5
24
100
AcDbSymbolTableRecord
100
AcDbLayerTableRecord
  2
Ebene 1
 70
     0
 62
     7
  6
Continuous
290
     1
370
    -3
390
1F
  0
ENDTAB
  0
TABLE
  2
STYLE
  5
3
100
AcDbSymbolTable
 70
     1
  0
STYLE
  5
17
100
AcDbSymbolTableRecord
100
AcDbTextStyleTableRecord
  2
Standard
 70
     0
 40
0.0
 41
1.0
 50
0.0
 71
     0
 42
0.0
  3
txt
  4

  0
ENDTAB
  0
TABLE
  2
VIEW
  5
5
100
AcDbSymbolTable
 70
     0
  0
ENDTAB
  0
TABLE
  2
UCS
  5
6
100
AcDbSymbolTable
 70
     0
  0
ENDTAB
  0
TABLE
  2
APPID
  5
8
100
AcDbSymbolTable
 70
     1
  0
APPID
  5
16
100
AcDbSymbolTableRecord
100
AcDbRegAppTableRecord
  2
ACAD
 70
     0
  0
ENDTAB
  0
TABLE
  2
DIMSTYLE
  5
9
100
AcDbSymbolTable
 70
     1
100
AcDbDimStyleTable
 71
     0
  0
DIMSTYLE
105
18
100
AcDbSymbolTableRecord
100
AcDbDimStyleTableRecord
  2
Standard
 70
     0
  3

  4

 40
1.0
 41
0.18
 42
0.0625
 43
0.38
 44
0.18
 45
0.0
 46
0.0
 47
0.0
 48
0.0
 71
     0
 72
     0
 73
     1
 74
     1
 75
     0
 76
     0
 77
     0
 78
     0
 79
     0
140
0.18
141
0.09
142
0.0
143
25.4
144
1.0
145
0.0
146
1.0
147
0.09
148
0.0
170
     0
171
     2
172
     0
173
     0
174
     0
175
     0
176
     0
177
     0
178
     0
179
     0
271
     4
272
     4
273
     2
274
     2
275
     0
276
     0
277
     2
278
    46
279
     0
280
     0
281
     0
282
     0
283
     1
284
     0
285
     0
286
     0
288
     0
340
17
341
0
342
0
343
0
344
0
371
    -2
372
    -2
  0
ENDTAB
  0
TABLE
  2
BLOCK_RECORD
  5
1
100
AcDbSymbolTable
 70
     0
  0
BLOCK_RECORD
  5
A
100
AcDbSymbolTableRecord
100
AcDbBlockTableRecord
  2
*MODEL_SPACE
340
20
  0
BLOCK_RECORD
  5
B
100
AcDbSymbolTableRecord
100
AcDbBlockTableRecord
  2
*PAPER_SPACE
340
21
  0
ENDTAB
  0
ENDSEC
  0
SECTION
  2
BLOCKS
  0
BLOCK
  5
D
100
AcDbEntity
  8
0
100
AcDbBlockBegin
  2
*MODEL_SPACE
 70
     0
 10
0.0
 20
0.0
 30
0.0
  3
*MODEL_SPACE
  1

  0
ENDBLK
  5
E
100
AcDbEntity
  8
0
100
AcDbBlockEnd
  0
BLOCK
  5
F
100
AcDbEntity
 67
     1
  8
0
100
AcDbBlockBegin
  2
*PAPER_SPACE
 70
     0
 10
0.0
 20
0.0
 30
0.0
  3
*PAPER_SPACE
  1

  0
ENDBLK
  5
10
100
AcDbEntity
 67
     1
  8
0
100
AcDbBlockEnd
  0
ENDSEC
  0
SECTION
  2
ENTITIES
  0
SPLINE
  5
25
100
AcDbEntity
  8
Ebene 1
100
AcDbSpline
210
0.0
220
0.0
230
1.0
 70
     1
 71
     3
 72
   116
 73
   112
 74
     0
 42
0.0000000001
 43
0.0000000001
 40
0.0
 40
0.0
 40
0.0
 40
0.0
 40
0.0357142857142857
 40
0.0357142857142857
 40
0.0357142857142857
 40
0.0357142857142857
 40
0.0714285714285714
 40
0.0714285714285714
 40
0.0714285714285714
 40
0.0714285714285714
 40
0.1071428571428571
 40
0.1071428571428571
 40
0.1071428571428571
 40
0.1071428571428571
 40
0.1428571428571429
 40
0.1428571428571429
 40
0.1428571428571429
 40
0.1428571428571429
 40
0.1785714285714286
 40
0.1785714285714286
 40
0.1785714285714286
 40
0.1785714285714286
 40
0.2142857142857143
 40
0.2142857142857143
 40
0.2142857142857143
 40
0.2142857142857143
 40
0.2499999999999999
 40
0.2499999999999999
 40
0.2499999999999999
 40
0.2499999999999999
 40
0.2857142857142856
 40
0.2857142857142856
 40
0.2857142857142856
 40
0.2857142857142856
 40
0.3214285714285713
 40
0.3214285714285713
 40
0.3214285714285713
 40
0.3214285714285713
 40
0.357142857142857
 40
0.357142857142857
 40
0.357142857142857
 40
0.357142857142857
 40
0.3928571428571427
 40
0.3928571428571427
 40
0.3928571428571427
 40
0.3928571428571427
 40
0.4285714285714284
 40
0.4285714285714284
 40
0.4285714285714284
 40
0.4285714285714284
 40
0.4642857142857141
 40
0.4642857142857141
 40
0.4642857142857141
 40
0.4642857142857141
 40
0.4999999999999998
 40
0.4999999999999998
 40
0.4999999999999998
 40
0.4999999999999998
 40
0.5357142857142856
 40
0.5357142857142856
 40
0.5357142857142856
 40
0.5357142857142856
 40
0.5714285714285713
 40
0.5714285714285713
 40
0.5714285714285713
 40
0.5714285714285713
 40
0.607142857142857
 40
0.607142857142857
 40
0.607142857142857
 40
0.607142857142857
 40
0.6428571428571427
 40
0.6428571428571427
 40
0.6428571428571427
 40
0.6428571428571427
 40
0.6785714285714284
 40
0.6785714285714284
 40
0.6785714285714284
 40
0.6785714285714284
 40
0.7142857142857141
 40
0.7142857142857141
 40
0.7142857142857141
 40
0.7142857142857141
 40
0.7499999999999998
 40
0.7499999999999998
 40
0.7499999999999998
 40
0.7499999999999998
 40
0.7857142857142855
 40
0.7857142857142855
 40
0.7857142857142855
 40
0.7857142857142855
 40
0.8214285714285712
 40
0.8214285714285712
 40
0.8214285714285712
 40
0.8214285714285712
 40
0.8571428571428569
 40
0.8571428571428569
 40
0.8571428571428569
 40
0.8571428571428569
 40
0.8928571428571426
 40
0.8928571428571426
 40
0.8928571428571426
 40
0.8928571428571426
 40
0.9285714285714283
 40
0.9285714285714283
 40
0.9285714285714283
 40
0.9285714285714283
 40
0.964285714285714
 40
0.964285714285714
 40
0.964285714285714
 40
0.964285714285714
 40
1.0
 40
1.0
 40
1.0
 40
1.0
 10
-1.2266700000000001
 20
5.17849
 30
0.0
 10
0.8459600000000001
 20
6.2681500000000003
 30
0.0
 10
2.6442800000000002
 20
5.0057700000000001
 30
0.0
 10
3.4951800000000004
 20
4.1878900000000003
 30
0.0
 10
3.4951800000000004
 20
4.1878900000000003
 30
0.0
 10
4.1632000000000007
 20
2.71977
 30
0.0
 10
4.4146600000000005
 20
0.9163700000000001
 30
0.0
 10
3.4443800000000002
 20
-0.4171200000000001
 30
0.0
 10
3.4443800000000002
 20
-0.4171200000000001
 30
0.0
 10
3.5459800000000001
 20
-0.53396
 30
0.0
 10
3.6120200000000002
 20
-0.69906
 30
0.0
 10
3.5612200000000005
 20
-0.8667
 30
0.0
 10
3.5612200000000005
 20
-0.8667
 30
0.0
 10
2.8119200000000002
 20
-1.4686800000000002
 30
0.0
 10
2.2759800000000001
 20
-2.6193000000000004
 30
0.0
 10
1.2904600000000002
 20
-3.0206200000000001
 30
0.0
 10
1.2904600000000002
 20
-3.0206200000000001
 30
0.0
 10
1.0085200000000001
 20
-3.3051000000000004
 30
0.0
 10
0.8586600000000001
 20
-3.6556200000000003
 30
0.0
 10
0.5233800000000001
 20
-3.9045400000000003
 30
0.0
 10
0.5233800000000001
 20
-3.9045400000000003
 30
0.0
 10
0.2389
 20
-4.4049200000000006
 30
0.0
 10
0.13984
 20
-5.0399200000000004
 30
0.0
 10
0.17286
 20
-5.6088800000000001
 30
0.0
 10
0.17286
 20
-5.6088800000000001
 30
0.0
 10
-0.35799
 20
-4.7554400000000001
 30
0.0
 10
-0.10653
 20
-3.6886400000000004
 30
0.0
 10
0.17286
 20
-2.8021800000000003
 30
0.0
 10
0.17286
 20
-2.8021800000000003
 30
0.0
 10
0.3913
 20
-2.2865600000000001
 30
0.0
 10
0.72404
 20
-1.8852400000000002
 30
0.0
 10
0.8586600000000001
 20
-1.33406
 30
0.0
 10
0.8586600000000001
 20
-1.33406
 30
0.0
 10
0.6072000000000001
 20
-1.2172200000000002
 30
0.0
 10
0.27446
 20
-1.11816
 30
0.0
 10
-0.00747
 20
-1.1842000000000001
 30
0.0
 10
-0.00747
 20
-1.1842000000000001
 30
0.0
 10
-0.18273
 20
-1.4636
 30
0.0
 10
-0.09383
 20
-1.8725400000000001
 30
0.0
 10
0.00268
 20
-2.1697200000000003
 30
0.0
 10
0.00268
 20
-2.1697200000000003
 30
0.0
 10
0.12714
 20
-2.56596
 30
0.0
 10
0.23128
 20
-2.4440400000000002
 30
0.0
 10
0.04078
 20
-2.7056600000000004
 30
0.0
 10
0.04078
 20
-2.7056600000000004
 30
0.0
 10
-0.02779
 20
-2.8072600000000003
 30
0.0
 10
-0.21575
 20
-2.9571200000000002
 30
0.0
 10
-0.42403
 20
-3.0028400000000004
 30
0.0
 10
-0.42403
 20
-3.0028400000000004
 30
0.0
 10
-0.50785
 20
-2.9037800000000002
 30
0.0
 10
-0.5586500000000001
 20
-2.7717000000000001
 30
0.0
 10
-0.6069100000000001
 20
-2.65232
 30
0.0
 10
-0.6069100000000001
 20
-2.65232
 30
0.0
 10
-0.6907300000000001
 20
-2.6370800000000001
 30
0.0
 10
-0.75931
 20
-2.6853400000000001
 30
0.0
 10
-0.82535
 20
-2.7209000000000003
 30
0.0
 10
-0.82535
 20
-2.7209000000000003
 30
0.0
 10
-0.82535
 20
-2.7209000000000003
 30
0.0
 10
-0.9752100000000001
 20
-2.9368000000000003
 30
0.0
 10
-0.9752100000000001
 20
-2.9368000000000003
 30
0.0
 10
-0.9752100000000001
 20
-2.9368000000000003
 30
0.0
 10
-0.4062500000000001
 20
-3.5057600000000004
 30
0.0
 10
-2.2198100000000003
 20
-3.7369000000000003
 30
0.0
 10
-1.8134100000000002
 20
-2.9876
 30
0.0
 10
-1.8134100000000002
 20
-2.9876
 30
0.0
 10
-1.9073900000000001
 20
-3.0028400000000004
 30
0.0
 10
-1.9835900000000002
 20
-2.9698200000000003
 30
0.0
 10
-2.05471
 20
-2.9215600000000004
 30
0.0
 10
-2.05471
 20
-2.9215600000000004
 30
0.0
 10
-2.4357100000000003
 20
-2.9368000000000003
 30
0.0
 10
-2.8116300000000001
 20
-2.8377400000000002
 30
0.0
 10
-2.7481300000000002
 20
-3.4194000000000004
 30
0.0
 10
-2.7481300000000002
 20
-3.4194000000000004
 30
0.0
 10
-3.0808700000000004
 20
-3.5540200000000004
 30
0.0
 10
-2.9665700000000004
 20
-3.0714200000000003
 30
0.0
 10
-3.0656300000000001
 20
-3.1882600000000001
 30
0.0
 10
-3.0656300000000001
 20
-3.1882600000000001
 30
0.0
 10
-3.1748500000000002
 20
-3.4371800000000001
 30
0.0
 10
-3.3120100000000003
 20
-3.6886400000000004
 30
0.0
 10
-3.5609300000000004
 20
-3.8715200000000003
 30
0.0
 10
-3.5609300000000004
 20
-3.8715200000000003
 30
0.0
 10
-3.8022300000000002
 20
-4.2550600000000003
 30
0.0
 10
-3.8784300000000003
 20
-4.7884600000000006
 30
0.0
 10
-3.8123900000000002
 20
-5.1567600000000002
 30
0.0
 10
-3.8123900000000002
 20
-5.1567600000000002
 30
0.0
 10
-4.0790900000000008
 20
-4.6259000000000006
 30
0.0
 10
-4.1375100000000007
 20
-4.05694
 30
0.0
 10
-4.0282900000000001
 20
-3.5311600000000003
 30
0.0
 10
-4.0282900000000001
 20
-3.5311600000000003
 30
0.0
 10
-3.8657300000000001
 20
-2.7336
 30
0.0
 10
-3.3932900000000004
 20
-1.9817600000000002
 30
0.0
 10
-3.2612100000000002
 20
-1.2172200000000002
 30
0.0
 10
-3.2612100000000002
 20
-1.2172200000000002
 30
0.0
 10
-3.5228300000000004
 20
-1.1003800000000001
 30
0.0
 10
-3.8454100000000002
 20
-0.9733800000000001
 30
0.0
 10
-3.9114500000000003
 20
-0.6381
 30
0.0
 10
-3.9114500000000003
 20
-0.6381
 30
0.0
 10
-3.8403300000000002
 20
-0.30536
 30
0.0
 10
-3.4491700000000001
 20
-0.18344
 30
0.0
 10
-3.3297900000000005
 20
0.13151
 30
0.0
 10
-3.3297900000000005
 20
0.13151
 30
0.0
 10
-3.5533100000000002
 20
0.6318900000000001
 30
0.0
 10
-3.5253700000000001
 20
1.06115
 30
0.0
 10
-3.8987500000000002
 20
1.3786500000000002
 30
0.0
 10
-3.8987500000000002
 20
1.3786500000000002
 30
0.0
 10
-3.7844500000000001
 20
1.5564500000000001
 30
0.0
 10
-3.4593300000000005
 20
1.7901300000000002
 30
0.0
 10
-3.4796500000000004
 20
2.2346300000000001
 30
0.0
 10
-3.4796500000000004
 20
2.2346300000000001
 30
0.0
 10
-3.8708100000000005
 20
4.4368100000000004
 30
0.0
 10
-1.8083300000000002
 20
5.35121
 30
0.0
 10
-1.2266700000000001
 20
5.17849
 30
0.0
  0
SPLINE
  5
26
100
AcDbEntity
  8
Ebene 1
 62
     7
100
AcDbSpline
210
0.0
220
0.0
230
1.0
 70
     1
 71
     3
 72
   200
 73
   196
 74
     0
 42
0.0000000001
 43
0.0000000001
 40
0.0
 40
0.0
 40
0.0
 40
0.0
 40
0.0204081632653061
 40
0.0204081632653061
 40
0.0204081632653061
 40
0.0204081632653061
 40
0.0408163265306122
 40
0.0408163265306122
 40
0.0408163265306122
 40
0.0408163265306122
 40
0.0612244897959184
 40
0.0612244897959184
 40
0.0612244897959184
 40
0.0612244897959184
 40
0.0816326530612245
 40
0.0816326530612245
 40
0.0816326530612245
 40
0.0816326530612245
 40
0.1020408163265306
 40
0.1020408163265306
 40
0.1020408163265306
 40
0.1020408163265306
 40
0.1224489795918367
 40
0.1224489795918367
 40
0.1224489795918367
 40
0.1224489795918367
 40
0.1428571428571429
 40
0.1428571428571429
 40
0.1428571428571429
 40
0.1428571428571429
 40
0.163265306122449
 40
0.163265306122449
 40
0.163265306122449
 40
0.163265306122449
 40
0.1836734693877551
 40
0.1836734693877551
 40
0.1836734693877551
 40
0.1836734693877551
 40
0.2040816326530612
 40
0.2040816326530612
 40
0.2040816326530612
 40
0.2040816326530612
 40
0.2244897959183673
 40
0.2244897959183673
 40
0.2244897959183673
 40
0.2244897959183673
 40
0.2448979591836734
 40
0.2448979591836734
 40
0.2448979591836734
 40
0.2448979591836734
 40
0.2653061224489796
 40
0.2653061224489796
 40
0.2653061224489796
 40
0.2653061224489796
 40
0.2857142857142857
 40
0.2857142857142857
 40
0.2857142857142857
 40
0.2857142857142857
 40
0.3061224489795918
 40
0.3061224489795918
 40
0.3061224489795918
 40
0.3061224489795918
 40
0.326530612244898
 40
0.326530612244898
 40
0.326530612244898
 40
0.326530612244898
 40
0.3469387755102041
 40
0.3469387755102041
 40
0.3469387755102041
 40
0.3469387755102041
 40
0.3673469387755103
 40
0.3673469387755103
 40
0.3673469387755103
 40
0.3673469387755103
 40
0.3877551020408164
 40
0.3877551020408164
 40
0.3877551020408164
 40
0.3877551020408164
 40
0.4081632653061226
 40
0.4081632653061226
 40
0.4081632653061226
 40
0.4081632653061226
 40
0.4285714285714287
 40
0.4285714285714287
 40
0.4285714285714287
 40
0.4285714285714287
 40
0.4489795918367349
 40
0.4489795918367349
 40
0.4489795918367349
 40
0.4489795918367349
 40
0.469387755102041
 40
0.469387755102041
 40
0.469387755102041
 40
0.469387755102041
 40
0.4897959183673472
 40
0.4897959183673472
 40
0.4897959183673472
 40
0.4897959183673472
 40
0.5102040816326533
 40
0.5102040816326533
 40
0.5102040816326533
 40
0.5102040816326533
 40
0.5306122448979594
 40
0.5306122448979594
 40
0.5306122448979594
 40
0.5306122448979594
 40
0.5510204081632656
 40
0.5510204081632656
 40
0.5510204081632656
 40
0.5510204081632656
 40
0.5714285714285717
 40
0.5714285714285717
 40
0.5714285714285717
 40
0.5714285714285717
 40
0.5918367346938779
 40
0.5918367346938779
 40
0.5918367346938779
 40
0.5918367346938779
 40
0.612244897959184
 40
0.612244897959184
 40
0.612244897959184
 40
0.612244897959184
 40
0.6326530612244902
 40
0.6326530612244902
 40
0.6326530612244902
 40
0.6326530612244902
 40
0.6530612244897963
 40
0.6530612244897963
 40
0.6530612244897963
 40
0.6530612244897963
 40
0.6734693877551025
 40
0.6734693877551025
 40
0.6734693877551025
 40
0.6734693877551025
 40
0.6938775510204086
 40
0.6938775510204086
 40
0.6938775510204086
 40
0.6938775510204086
 40
0.7142857142857148
 40
0.7142857142857148
 40
0.7142857142857148
 40
0.7142857142857148
 40
0.7346938775510209
 40
0.7346938775510209
 40
0.7346938775510209
 40
0.7346938775510209
 40
0.755102040816327
 40
0.755102040816327
 40
0.755102040816327
 40
0.755102040816327
 40
0.7755102040816332
 40
0.7755102040816332
 40
0.7755102040816332
 40
0.7755102040816332
 40
0.7959183673469393
 40
0.7959183673469393
 40
0.7959183673469393
 40
0.7959183673469393
 40
0.8163265306122455
 40
0.8163265306122455
 40
0.8163265306122455
 40
0.8163265306122455
 40
0.8367346938775516
 40
0.8367346938775516
 40
0.8367346938775516
 40
0.8367346938775516
 40
0.8571428571428578
 40
0.8571428571428578
 40
0.8571428571428578
 40
0.8571428571428578
 40
0.8775510204081639
 40
0.8775510204081639
 40
0.8775510204081639
 40
0.8775510204081639
 40
0.8979591836734701
 40
0.8979591836734701
 40
0.8979591836734701
 40
0.8979591836734701
 40
0.9183673469387762
 40
0.9183673469387762
 40
0.9183673469387762
 40
0.9183673469387762
 40
0.9387755102040823
 40
0.9387755102040823
 40
0.9387755102040823
 40
0.9387755102040823
 40
0.9591836734693885
 40
0.9591836734693885
 40
0.9591836734693885
 40
0.9591836734693885
 40
0.9795918367346946
 40
0.9795918367346946
 40
0.9795918367346946
 40
0.9795918367346946
 40
1.0
 40
1.0
 40
1.0
 40
1.0
 10
-1.8743700000000001
 20
-2.5913600000000003
 30
0.0
 10
-1.9581900000000001
 20
-2.2230600000000003
 30
0.0
 10
-2.09789
 20
-2.4161000000000001
 30
0.0
 10
-2.05979
 20
-2.5329400000000004
 30
0.0
 10
-2.05979
 20
-2.5329400000000004
 30
0.0
 10
-1.9937500000000001
 20
-3.0028400000000004
 30
0.0
 10
-2.5754100000000002
 20
-2.8809200000000001
 30
0.0
 10
-2.2782300000000002
 20
-2.4186400000000003
 30
0.0
 10
-2.2782300000000002
 20
-2.4186400000000003
 30
0.0
 10
-2.4128500000000002
 20
-2.2764000000000002
 30
0.0
 10
-2.39507
 20
-2.5786600000000002
 30
0.0
 10
-2.4407900000000002
 20
-2.6751800000000001
 30
0.0
 10
-2.4407900000000002
 20
-2.6751800000000001
 30
0.0
 10
-2.5169900000000003
 20
-2.8326600000000002
 30
0.0
 10
-2.57287
 20
-2.9317200000000003
 30
0.0
 10
-2.8446500000000001
 20
-2.7844000000000002
 30
0.0
 10
-2.8446500000000001
 20
-2.7844000000000002
 30
0.0
 10
-2.9970500000000002
 20
-2.26878
 30
0.0
 10
-2.6185900000000002
 20
-1.5347200000000001
 30
0.0
 10
-2.9767300000000003
 20
-0.9835400000000001
 30
0.0
 10
-2.9767300000000003
 20
-0.9835400000000001
 30
0.0
 10
-3.0884900000000002
 20
-0.9683000000000001
 30
0.0
 10
-3.1164300000000003
 20
-1.1359400000000002
 30
0.0
 10
-3.2307300000000003
 20
-1.16642
 30
0.0
 10
-3.2307300000000003
 20
-1.16642
 30
0.0
 10
-3.2307300000000003
 20
-1.16642
 30
0.0
 10
-3.4059900000000001
 20
-1.08514
 30
0.0
 10
-3.4059900000000001
 20
-1.08514
 30
0.0
 10
-3.4059900000000001
 20
-1.08514
 30
0.0
 10
-3.5329900000000003
 20
-0.9835400000000001
 30
0.0
 10
-3.6752300000000004
 20
-0.8997200000000001
 30
0.0
 10
-3.7285700000000004
 20
-0.7498600000000001
 30
0.0
 10
-3.7285700000000004
 20
-0.7498600000000001
 30
0.0
 10
-3.8098500000000004
 20
-0.4679200000000001
 30
0.0
 10
-3.2256500000000004
 20
0.18231
 30
0.0
 10
-3.1316700000000002
 20
-0.21646
 30
0.0
 10
-3.1316700000000002
 20
-0.21646
 30
0.0
 10
-3.0427700000000004
 20
0.15691
 30
0.0
 10
-3.3653500000000003
 20
0.43885
 30
0.0
 10
-3.4415500000000003
 20
0.74619
 30
0.0
 10
-3.4415500000000003
 20
0.74619
 30
0.0
 10
-3.4644100000000004
 20
0.84779
 30
0.0
 10
-3.4948900000000003
 20
0.95447
 30
0.0
 10
-3.4288500000000002
 20
1.06623
 30
0.0
 10
-3.4288500000000002
 20
1.06623
 30
0.0
 10
-3.2459700000000002
 20
0.8147700000000001
 30
0.0
 10
-3.1723100000000004
 20
0.49981
 30
0.0
 10
-3.1240500000000004
 20
0.20009
 30
0.0
 10
-3.1240500000000004
 20
0.20009
 30
0.0
 10
-2.3214100000000002
 20
0.09849
 30
0.0
 10
-2.9437100000000003
 20
-0.9352800000000001
 30
0.0
 10
-2.5957300000000001
 20
-1.4686800000000002
 30
0.0
 10
-2.5957300000000001
 20
-1.4686800000000002
 30
0.0
 10
-2.2782300000000002
 20
-1.5347200000000001
 30
0.0
 10
-2.4915900000000004
 20
-1.7201400000000002
 30
0.0
 10
-2.2629900000000003
 20
-1.33406
 30
0.0
 10
-2.2629900000000003
 20
-1.33406
 30
0.0
 10
-1.9429500000000002
 20
-1.58552
 30
0.0
 10
-1.12507
 20
-1.58552
 30
0.0
 10
-1.37653
 20
-0.95052
 30
0.0
 10
-1.37653
 20
-0.95052
 30
0.0
 10
-1.6051300000000002
 20
-0.5822200000000001
 30
0.0
 10
-2.0293100000000002
 20
0.21533
 30
0.0
 10
-2.52969
 20
-0.21646
 30
0.0
 10
-2.52969
 20
-0.21646
 30
0.0
 10
-2.52969
 20
-0.21646
 30
0.0
 10
-2.6389100000000001
 20
-0.11486
 30
0.0
 10
-2.6389100000000001
 20
-0.11486
 30
0.0
 10
-2.6389100000000001
 20
-0.11486
 30
0.0
 10
-2.5830300000000004
 20
0.09849
 30
0.0
 10
-2.5271500000000002
 20
0.49981
 30
0.0
 10
-2.2782300000000002
 20
0.51505
 30
0.0
 10
-2.2782300000000002
 20
0.51505
 30
0.0
 10
-2.5652500000000003
 20
0.5480700000000001
 30
0.0
 10
-2.3874500000000003
 20
0.8325500000000001
 30
0.0
 10
-2.3798300000000001
 20
1.0154300000000001
 30
0.0
 10
-2.3798300000000001
 20
1.0154300000000001
 30
0.0
 10
-2.5474700000000001
 20
0.53283
 30
0.0
 10
-3.2739100000000003
 20
1.31769
 30
0.0
 10
-3.6726900000000002
 20
1.2999100000000001
 30
0.0
 10
-3.6726900000000002
 20
1.2999100000000001
 30
0.0
 10
-3.6599900000000005
 20
1.6682100000000002
 30
0.0
 10
-3.3678900000000005
 20
2.1000100000000002
 30
0.0
 10
-3.1799300000000001
 20
1.7012300000000002
 30
0.0
 10
-3.1799300000000001
 20
1.7012300000000002
 30
0.0
 10
-2.9614900000000004
 20
1.56915
 30
0.0
 10
-3.1672300000000004
 20
1.8510900000000001
 30
0.0
 10
-3.1977100000000003
 20
1.9196700000000002
 30
0.0
 10
-3.1977100000000003
 20
1.9196700000000002
 30
0.0
 10
-3.8022300000000002
 20
3.2709500000000005
 30
0.0
 10
-2.9589500000000002
 20
4.9219500000000007
 30
0.0
 10
-1.4578100000000001
 20
5.1048300000000006
 30
0.0
 10
-1.4578100000000001
 20
5.1048300000000006
 30
0.0
 10
-2.2604500000000001
 20
4.7060500000000003
 30
0.0
 10
-2.35697
 20
3.8195900000000003
 30
0.0
 10
-2.6211300000000004
 20
3.0855300000000003
 30
0.0
 10
-2.6211300000000004
 20
3.0855300000000003
 30
0.0
 10
-2.4992100000000002
 20
3.1185500000000004
 30
0.0
 10
-2.4407900000000002
 20
3.3192100000000004
 30
0.0
 10
-2.3544300000000002
 20
3.4208100000000004
 30
0.0
 10
-2.3544300000000002
 20
3.4208100000000004
 30
0.0
 10
-2.1258300000000001
 20
2.9178900000000003
 30
0.0
 10
-2.6414500000000003
 20
2.3209900000000001
 30
0.0
 10
-2.2629900000000003
 20
1.9704700000000002
 30
0.0
 10
-2.2629900000000003
 20
1.9704700000000002
 30
0.0
 10
-2.2629900000000003
 20
1.9704700000000002
 30
0.0
 10
-2.26553
 20
2.6537300000000004
 30
0.0
 10
-2.26553
 20
2.6537300000000004
 30
0.0
 10
-2.26553
 20
2.6537300000000004
 30
0.0
 10
-1.8083300000000002
 20
3.2379300000000004
 30
0.0
 10
-2.52969
 20
3.9542100000000002
 30
0.0
 10
-1.9124700000000001
 20
4.42157
 30
0.0
 10
-1.9124700000000001
 20
4.42157
 30
0.0
 10
-1.8591300000000002
 20
4.3199700000000005
 30
0.0
 10
-1.8819900000000001
 20
4.1193100000000005
 30
0.0
 10
-1.8134100000000002
 20
4.1040700000000001
 30
0.0
 10
-1.8134100000000002
 20
4.1040700000000001
 30
0.0
 10
-2.01153
 20
4.4876100000000001
 30
0.0
 10
-1.2266700000000001
 20
5.4883700000000006
 30
0.0
 10
-1.29271
 20
4.7720900000000004
 30
0.0
 10
-1.29271
 20
4.7720900000000004
 30
0.0
 10
-1.2266700000000001
 20
4.8889300000000002
 30
0.0
 10
-1.29271
 20
5.0210100000000004
 30
0.0
 10
-1.1758700000000002
 20
5.1226100000000008
 30
0.0
 10
-1.1758700000000002
 20
5.1226100000000008
 30
0.0
 10
0.023
 20
5.6890300000000007
 30
0.0
 10
1.7603600000000001
 20
5.5569500000000005
 30
0.0
 10
2.6595200000000001
 20
4.5053900000000002
 30
0.0
 10
2.6595200000000001
 20
4.5053900000000002
 30
0.0
 10
2.7433400000000003
 20
4.28695
 30
0.0
 10
2.8779600000000003
 20
4.0888300000000006
 30
0.0
 10
2.8449400000000002
 20
3.8373700000000004
 30
0.0
 10
2.8449400000000002
 20
3.8373700000000004
 30
0.0
 10
2.6595200000000001
 20
3.2353900000000002
 30
0.0
 10
1.9940400000000003
 20
2.9686900000000001
 30
0.0
 10
1.69432
 20
2.4530700000000003
 30
0.0
 10
1.69432
 20
2.4530700000000003
 30
0.0
 10
2.16168
 20
1.8841100000000002
 30
0.0
 10
1.5927200000000001
 20
1.2821300000000002
 30
0.0
 10
1.7603600000000001
 20
0.68269
 30
0.0
 10
1.7603600000000001
 20
0.68269
 30
0.0
 10
2.2429600000000001
 20
0.20009
 30
0.0
 10
2.9059000000000004
 20
-0.1428
 30
0.0
 10
3.4240600000000003
 20
-0.6254000000000001
 30
0.0
 10
3.4240600000000003
 20
-0.6254000000000001
 30
0.0
 10
3.4393000000000002
 20
-0.7752600000000001
 30
0.0
 10
3.3580200000000002
 20
-0.9251200000000001
 30
0.0
 10
3.2564200000000003
 20
-1.0267200000000001
 30
0.0
 10
3.2564200000000003
 20
-1.0267200000000001
 30
0.0
 10
2.38774
 20
-1.0089400000000002
 30
0.0
 10
1.6765400000000001
 20
-1.8522200000000002
 30
0.0
 10
0.9094600000000001
 20
-1.1511800000000001
 30
0.0
 10
0.9094600000000001
 20
-1.1511800000000001
 30
0.0
 10
0.9094600000000001
 20
-1.1511800000000001
 30
0.0
 10
1.4250800000000001
 20
-0.8997200000000001
 30
0.0
 10
1.4250800000000001
 20
-0.8997200000000001
 30
0.0
 10
1.4250800000000001
 20
-0.8997200000000001
 30
0.0
 10
1.8441800000000002
 20
-0.71684
 30
0.0
 10
2.3420200000000002
 20
-0.7676400000000001
 30
0.0
 10
2.76112
 20
-0.63302
 30
0.0
 10
2.76112
 20
-0.63302
 30
0.0
 10
1.6257400000000002
 20
-0.56698
 30
0.0
 10
0.59196
 20
-1.1842000000000001
 30
0.0
 10
-0.52563
 20
-0.9683000000000001
 30
0.0
 10
-0.52563
 20
-0.9683000000000001
 30
0.0
 10
-0.82535
 20
-1.4356600000000002
 30
0.0
 10
-0.4062500000000001
 20
-1.1359400000000002
 30
0.0
 10
-0.17511
 20
-1.1359400000000002
 30
0.0
 10
-0.17511
 20
-1.1359400000000002
 30
0.0
 10
-0.7745500000000001
 20
-1.4026400000000001
 30
0.0
 10
-0.88631
 20
-1.9817600000000002
 30
0.0
 10
-0.6881900000000001
 20
-2.5507200000000001
 30
0.0
 10
-0.6881900000000001
 20
-2.5507200000000001
 30
0.0
 10
-0.6881900000000001
 20
-2.5507200000000001
 30
0.0
 10
-0.9244100000000001
 20
-2.6701000000000001
 30
0.0
 10
-0.9244100000000001
 20
-2.6701000000000001
 30
0.0
 10
-0.9244100000000001
 20
-2.6701000000000001
 30
0.0
 10
-0.9752100000000001
 20
-2.5024600000000001
 30
0.0
 10
-0.9599700000000001
 20
-2.3373600000000003
 30
0.0
 10
-0.9599700000000001
 20
-2.1697200000000003
 30
0.0
 10
-0.9599700000000001
 20
-2.1697200000000003
 30
0.0
 10
-1.0082300000000002
 20
-2.06812
 30
0.0
 10
-1.0666500000000001
 20
-2.2129000000000003
 30
0.0
 10
-1.08443
 20
-2.2459200000000004
 30
0.0
 10
-1.08443
 20
-2.2459200000000004
 30
0.0
 10
-1.1149100000000001
 20
-2.7056600000000004
 30
0.0
 10
-1.3435100000000002
 20
-3.1019000000000001
 30
0.0
 10
-1.3079500000000002
 20
-2.5024600000000001
 30
0.0
 10
-1.3079500000000002
 20
-2.5024600000000001
 30
0.0
 10
-1.4933700000000001
 20
-2.19258
 30
0.0
 10
-1.4501900000000001
 20
-2.6218400000000002
 30
0.0
 10
-1.4857500000000001
 20
-2.6726400000000003
 30
0.0
 10
-1.4857500000000001
 20
-2.6726400000000003
 30
0.0
 10
-1.6483100000000002
 20
-2.8885400000000003
 30
0.0
 10
-2.0293100000000002
 20
-2.8098000000000001
 30
0.0
 10
-1.8743700000000001
 20
-2.5913600000000003
 30
0.0
  0
SPLINE
  5
27
100
AcDbEntity
  8
Ebene 1
 62
     7
100
AcDbSpline
210
0.0
220
0.0
230
1.0
 70
     1
 71
     3
 72
    44
 73
    40
 74
     0
 42
0.0000000001
 43
0.0000000001
 40
0.0
 40
0.0
 40
0.0
 40
0.0
 40
0.1
 40
0.1
 40
0.1
 40
0.1
 40
0.2
 40
0.2
 40
0.2
 40
0.2
 40
0.3
 40
0.3
 40
0.3
 40
0.3
 40
0.4
 40
0.4
 40
0.4
 40
0.4
 40
0.5
 40
0.5
 40
0.5
 40
0.5
 40
0.6
 40
0.6
 40
0.6
 40
0.6
 40
0.7
 40
0.7
 40
0.7
 40
0.7
 40
0.7999999999999999
 40
0.7999999999999999
 40
0.7999999999999999
 40
0.7999999999999999
 40
0.8999999999999999
 40
0.8999999999999999
 40
0.8999999999999999
 40
0.8999999999999999
 40
1.0
 40
1.0
 40
1.0
 40
1.0
 10
3.0278200000000002
 20
4.1878900000000003
 30
0.0
 10
3.7288600000000005
 20
4.1040700000000001
 30
0.0
 10
3.6298000000000004
 20
3.2684100000000003
 30
0.0
 10
3.3453200000000001
 20
2.8366100000000003
 30
0.0
 10
3.3453200000000001
 20
2.8366100000000003
 30
0.0
 10
3.4621600000000003
 20
2.80105
 30
0.0
 10
3.5459800000000001
 20
3.0194900000000002
 30
0.0
 10
3.6450400000000003
 20
3.0677500000000002
 30
0.0
 10
3.6450400000000003
 20
3.0677500000000002
 30
0.0
 10
3.7288600000000005
 20
3.0372700000000004
 30
0.0
 10
3.7949000000000002
 20
2.9864700000000002
 30
0.0
 10
3.8457000000000003
 20
2.9026500000000004
 30
0.0
 10
3.8457000000000003
 20
2.9026500000000004
 30
0.0
 10
3.9219000000000004
 20
2.3336900000000003
 30
0.0
 10
3.5383600000000004
 20
2.0415900000000002
 30
0.0
 10
3.0481400000000001
 20
1.7571100000000002
 30
0.0
 10
3.0481400000000001
 20
1.7571100000000002
 30
0.0
 10
2.6900000000000004
 20
1.5488300000000002
 30
0.0
 10
2.2683600000000004
 20
1.2948300000000001
 30
0.0
 10
1.9610200000000002
 20
1.1830700000000001
 30
0.0
 10
1.9610200000000002
 20
1.1830700000000001
 30
0.0
 10
1.8086200000000001
 20
1.6834500000000001
 30
0.0
 10
2.2607400000000002
 20
2.0339700000000001
 30
0.0
 10
2.6773000000000002
 20
2.21685
 30
0.0
 10
2.6773000000000002
 20
2.21685
 30
0.0
 10
2.9490800000000004
 20
2.3692500000000001
 30
0.0
 10
3.1446600000000005
 20
2.46577
 30
0.0
 10
3.1776800000000001
 20
2.6689700000000003
 30
0.0
 10
3.1776800000000001
 20
2.6689700000000003
 30
0.0
 10
2.8779600000000003
 20
2.3692500000000001
 30
0.0
 10
2.4944200000000003
 20
2.1508100000000003
 30
0.0
 10
2.0753200000000001
 20
2.0339700000000001
 30
0.0
 10
2.0753200000000001
 20
2.0339700000000001
 30
0.0
 10
1.9940400000000003
 20
2.1177900000000003
 30
0.0
 10
1.9432400000000001
 20
2.2346300000000001
 30
0.0
 10
1.9432400000000001
 20
2.3514700000000004
 30
0.0
 10
1.9432400000000001
 20
2.3514700000000004
 30
0.0
 10
2.2429600000000001
 20
3.0017100000000001
 30
0.0
 10
2.9440000000000004
 20
3.4208100000000004
 30
0.0
 10
3.0278200000000002
 20
4.1878900000000003
 30
0.0
  0
SPLINE
  5
28
100
AcDbEntity
  8
Ebene 1
100
AcDbSpline
210
0.0
220
0.0
230
1.0
 70
     1
 71
     3
 72
    76
 73
    72
 74
     0
 42
0.0000000001
 43
0.0000000001
 40
0.0
 40
0.0
 40
0.0
 40
0.0
 40
0.0555555555555556
 40
0.0555555555555556
 40
0.0555555555555556
 40
0.0555555555555556
 40
0.1111111111111111
 40
0.1111111111111111
 40
0.1111111111111111
 40
0.1111111111111111
 40
0.1666666666666667
 40
0.1666666666666667
 40
0.1666666666666667
 40
0.1666666666666667
 40
0.2222222222222222
 40
0.2222222222222222
 40
0.2222222222222222
 40
0.2222222222222222
 40
0.2777777777777778
 40
0.2777777777777778
 40
0.2777777777777778
 40
0.2777777777777778
 40
0.3333333333333334
 40
0.3333333333333334
 40
0.3333333333333334
 40
0.3333333333333334
 40
0.388888888888889
 40
0.388888888888889
 40
0.388888888888889
 40
0.388888888888889
 40
0.4444444444444445
 40
0.4444444444444445
 40
0.4444444444444445
 40
0.4444444444444445
 40
0.5000000000000001
 40
0.5000000000000001
 40
0.5000000000000001
 40
0.5000000000000001
 40
0.5555555555555557
 40
0.5555555555555557
 40
0.5555555555555557
 40
0.5555555555555557
 40
0.6111111111111113
 40
0.6111111111111113
 40
0.6111111111111113
 40
0.6111111111111113
 40
0.6666666666666669
 40
0.6666666666666669
 40
0.6666666666666669
 40
0.6666666666666669
 40
0.7222222222222224
 40
0.7222222222222224
 40
0.7222222222222224
 40
0.7222222222222224
 40
0.777777777777778
 40
0.777777777777778
 40
0.777777777777778
 40
0.777777777777778
 40
0.8333333333333336
 40
0.8333333333333336
 40
0.8333333333333336
 40
0.8333333333333336
 40
0.8888888888888892
 40
0.8888888888888892
 40
0.8888888888888892
 40
0.8888888888888892
 40
0.9444444444444448
 40
0.9444444444444448
 40
0.9444444444444448
 40
0.9444444444444448
 40
1.0
 40
1.0
 40
1.0
 40
1.0
 10
-0.67549
 20
3.9364300000000005
 30
0.0
 10
-0.4062500000000001
 20
3.2684100000000003
 30
0.0
 10
-0.75931
 20
2.4683100000000002
 30
0.0
 10
-0.59167
 20
1.7494900000000002
 30
0.0
 10
-0.59167
 20
1.7494900000000002
 30
0.0
 10
-0.59167
 20
1.7494900000000002
 30
0.0
 10
-0.45705
 20
1.8841100000000002
 30
0.0
 10
-0.45705
 20
1.8841100000000002
 30
0.0
 10
-0.45705
 20
1.8841100000000002
 30
0.0
 10
-0.34021
 20
1.9679300000000002
 30
0.0
 10
-0.19035
 20
2.2016100000000001
 30
0.0
 10
-0.09129
 20
2.1508100000000003
 30
0.0
 10
-0.09129
 20
2.1508100000000003
 30
0.0
 10
-0.15733
 20
2.0517500000000002
 30
0.0
 10
-0.25639
 20
1.9171300000000002
 30
0.0
 10
-0.34021
 20
1.8333100000000002
 30
0.0
 10
-0.34021
 20
1.8333100000000002
 30
0.0
 10
-0.34021
 20
1.8333100000000002
 30
0.0
 10
1.2422000000000002
 20
2.16859
 30
0.0
 10
1.2422000000000002
 20
2.16859
 30
0.0
 10
1.2422000000000002
 20
2.16859
 30
0.0
 10
1.1761600000000001
 20
2.1000100000000002
 30
0.0
 10
1.0745600000000002
 20
2.0669900000000001
 30
0.0
 10
0.9755
 20
2.0517500000000002
 30
0.0
 10
0.9755
 20
2.0517500000000002
 30
0.0
 10
0.8586600000000001
 20
2.0161900000000004
 30
0.0
 10
0.72404
 20
1.9501500000000001
 30
0.0
 10
0.6249800000000001
 20
1.8841100000000002
 30
0.0
 10
0.6249800000000001
 20
1.8841100000000002
 30
0.0
 10
0.8739000000000001
 20
1.8002900000000002
 30
0.0
 10
1.0415400000000001
 20
1.5005700000000002
 30
0.0
 10
1.3082400000000001
 20
1.5005700000000002
 30
0.0
 10
1.3082400000000001
 20
1.5005700000000002
 30
0.0
 10
0.9907400000000001
 20
1.3329300000000002
 30
0.0
 10
0.6072000000000001
 20
1.15005
 30
0.0
 10
0.3405
 20
0.84779
 30
0.0
 10
0.3405
 20
0.84779
 30
0.0
 10
0.7164200000000001
 20
0.7334900000000001
 30
0.0
 10
0.8662800000000001
 20
0.4312300000000001
 30
0.0
 10
0.8408800000000001
 20
0.20009
 30
0.0
 10
0.8408800000000001
 20
0.20009
 30
0.0
 10
0.64276
 20
0.6318900000000001
 30
0.0
 10
0.13984
 20
0.93415
 30
0.0
 10
-0.19035
 20
0.4312300000000001
 30
0.0
 10
-0.19035
 20
0.4312300000000001
 30
0.0
 10
0.15762
 20
0.28391
 30
0.0
 10
0.19064
 20
0.36519
 30
0.0
 10
0.19064
 20
-0.03358
 30
0.0
 10
0.19064
 20
-0.03358
 30
0.0
 10
-0.05827
 20
0.74873
 30
0.0
 10
-1.2266700000000001
 20
-0.09962
 30
0.0
 10
-1.3917700000000002
 20
0.76651
 30
0.0
 10
-1.3917700000000002
 20
0.76651
 30
0.0
 10
-1.3917700000000002
 20
0.76651
 30
0.0
 10
-1.7880100000000001
 20
0.84779
 30
0.0
 10
-1.7880100000000001
 20
0.84779
 30
0.0
 10
-1.7880100000000001
 20
0.84779
 30
0.0
 10
-0.6424700000000001
 20
1.0484500000000001
 30
0.0
 10
-0.20813
 20
2.9356700000000004
 30
0.0
 10
-1.4425700000000001
 20
3.3522300000000005
 30
0.0
 10
-1.4425700000000001
 20
3.3522300000000005
 30
0.0
 10
-1.3587500000000001
 20
3.4868500000000004
 30
0.0
 10
-1.1733300000000002
 20
3.3573100000000005
 30
0.0
 10
-1.0742700000000001
 20
3.3090500000000005
 30
0.0
 10
-1.0742700000000001
 20
3.3090500000000005
 30
0.0
 10
-0.82281
 20
3.0728300000000002
 30
0.0
 10
-0.6272300000000001
 20
3.0017100000000001
 30
0.0
 10
-0.7110500000000001
 20
3.3852500000000001
 30
0.0
 10
-0.7110500000000001
 20
3.3852500000000001
 30
0.0
 10
-0.7110500000000001
 20
3.3852500000000001
 30
0.0
 10
-0.67549
 20
3.9364300000000005
 30
0.0
 10
-0.67549
 20
3.9364300000000005
 30
0.0
  0
SPLINE
  5
29
100
AcDbEntity
  8
Ebene 1
100
AcDbSpline
210
0.0
220
0.0
230
1.0
 70
     1
 71
     3
 72
    24
 73
    20
 74
     0
 42
0.0000000001
 43
0.0000000001
 40
0.0
 40
0.0
 40
0.0
 40
0.0
 40
0.2
 40
0.2
 40
0.2
 40
0.2
 40
0.4
 40
0.4
 40
0.4
 40
0.4
 40
0.6000000000000001
 40
0.6000000000000001
 40
0.6000000000000001
 40
0.6000000000000001
 40
0.8
 40
0.8
 40
0.8
 40
0.8
 40
1.0
 40
1.0
 40
1.0
 40
1.0
 10
0.3913
 20
3.3522300000000005
 30
0.0
 10
0.59196
 20
3.3700100000000002
 30
0.0
 10
0.7570600000000001
 20
3.3039700000000001
 30
0.0
 10
0.9424800000000001
 20
3.2684100000000003
 30
0.0
 10
0.9424800000000001
 20
3.2684100000000003
 30
0.0
 10
1.11012
 20
3.2176100000000001
 30
0.0
 10
1.2904600000000002
 20
3.1871300000000002
 30
0.0
 10
1.4098400000000002
 20
3.0194900000000002
 30
0.0
 10
1.4098400000000002
 20
3.0194900000000002
 30
0.0
 10
0.8231000000000001
 20
3.2023700000000002
 30
0.0
 10
0.13984
 20
3.3369900000000001
 30
0.0
 10
-0.42403
 20
3.0194900000000002
 30
0.0
 10
-0.42403
 20
3.0194900000000002
 30
0.0
 10
-0.4926100000000001
 20
3.1363300000000001
 30
0.0
 10
-0.30719
 20
3.1363300000000001
 30
0.0
 10
-0.24115
 20
3.1515700000000004
 30
0.0
 10
-0.24115
 20
3.1515700000000004
 30
0.0
 10
-0.05827
 20
3.2684100000000003
 30
0.0
 10
0.19064
 20
3.3039700000000001
 30
0.0
 10
0.3913
 20
3.3522300000000005
 30
0.0
  0
SPLINE
  5
2A
100
AcDbEntity
  8
Ebene 1
100
AcDbSpline
210
0.0
220
0.0
230
1.0
 70
     1
 71
     3
 72
    20
 73
    16
 74
     0
 42
0.0000000001
 43
0.0000000001
 40
0.0
 40
0.0
 40
0.0
 40
0.0
 40
0.25
 40
0.25
 40
0.25
 40
0.25
 40
0.5
 40
0.5
 40
0.5
 40
0.5
 40
0.75
 40
0.75
 40
0.75
 40
0.75
 40
1.0
 40
1.0
 40
1.0
 40
1.0
 10
-1.6940300000000001
 20
2.2016100000000001
 30
0.0
 10
-1.6610100000000001
 20
2.21685
 30
0.0
 10
-1.6254500000000001
 20
2.1838300000000004
 30
0.0
 10
-1.6457700000000002
 20
2.1508100000000003
 30
0.0
 10
-1.6457700000000002
 20
2.1508100000000003
 30
0.0
 10
-2.15123
 20
1.9501500000000001
 30
0.0
 10
-2.3112500000000002
 20
1.31769
 30
0.0
 10
-1.9632700000000001
 20
0.9163700000000001
 30
0.0
 10
-1.9632700000000001
 20
0.9163700000000001
 30
0.0
 10
-2.2731500000000002
 20
1.0992500000000001
 30
0.0
 10
-2.2502900000000001
 20
1.5513700000000001
 30
0.0
 10
-2.2401300000000002
 20
1.86633
 30
0.0
 10
-2.2401300000000002
 20
1.86633
 30
0.0
 10
-2.2401300000000002
 20
1.86633
 30
0.0
 10
-1.6940300000000001
 20
2.2016100000000001
 30
0.0
 10
-1.6940300000000001
 20
2.2016100000000001
 30
0.0
  0
SPLINE
  5
2B
100
AcDbEntity
  8
Ebene 1
 62
     7
100
AcDbSpline
210
0.0
220
0.0
230
1.0
 70
     1
 71
     3
 72
    28
 73
    24
 74
     0
 42
0.0000000001
 43
0.0000000001
 40
0.0
 40
0.0
 40
0.0
 40
0.0
 40
0.1666666666666667
 40
0.1666666666666667
 40
0.1666666666666667
 40
0.1666666666666667
 40
0.3333333333333333
 40
0.3333333333333333
 40
0.3333333333333333
 40
0.3333333333333333
 40
0.5
 40
0.5
 40
0.5
 40
0.5
 40
0.6666666666666666
 40
0.6666666666666666
 40
0.6666666666666666
 40
0.6666666666666666
 40
0.8333333333333333
 40
0.8333333333333333
 40
0.8333333333333333
 40
0.8333333333333333
 40
1.0
 40
1.0
 40
1.0
 40
1.0
 10
3.7949000000000002
 20
2.0517500000000002
 30
0.0
 10
3.8609400000000003
 20
2.0669900000000001
 30
0.0
 10
3.9117400000000004
 20
2.00095
 30
0.0
 10
3.9473000000000003
 20
1.9501500000000001
 30
0.0
 10
3.9473000000000003
 20
1.9501500000000001
 30
0.0
 10
3.9625400000000002
 20
1.8333100000000002
 30
0.0
 10
3.9295200000000001
 20
1.7164700000000002
 30
0.0
 10
3.9117400000000004
 20
1.5996300000000001
 30
0.0
 10
3.9117400000000004
 20
1.5996300000000001
 30
0.0
 10
3.3707200000000004
 20
1.1246500000000001
 30
0.0
 10
2.6823800000000002
 20
0.9163700000000001
 30
0.0
 10
2.1439000000000004
 20
0.5480700000000001
 30
0.0
 10
2.1439000000000004
 20
0.5480700000000001
 30
0.0
 10
2.0931000000000002
 20
0.5480700000000001
 30
0.0
 10
2.0600800000000001
 20
0.58109
 30
0.0
 10
2.0270600000000001
 20
0.61665
 30
0.0
 10
2.0270600000000001
 20
0.61665
 30
0.0
 10
2.00928
 20
0.66491
 30
0.0
 10
1.9940400000000003
 20
0.7157100000000001
 30
0.0
 10
1.9940400000000003
 20
0.7817500000000001
 30
0.0
 10
1.9940400000000003
 20
0.7817500000000001
 30
0.0
 10
2.3928200000000004
 20
1.4167500000000002
 30
0.0
 10
3.2284800000000002
 20
1.6174100000000002
 30
0.0
 10
3.7949000000000002
 20
2.0517500000000002
 30
0.0
  0
SPLINE
  5
2C
100
AcDbEntity
  8
Ebene 1
100
AcDbSpline
210
0.0
220
0.0
230
1.0
 70
     1
 71
     3
 72
    20
 73
    16
 74
     0
 42
0.0000000001
 43
0.0000000001
 40
0.0
 40
0.0
 40
0.0
 40
0.0
 40
0.25
 40
0.25
 40
0.25
 40
0.25
 40
0.5
 40
0.5
 40
0.5
 40
0.5
 40
0.75
 40
0.75
 40
0.75
 40
0.75
 40
1.0
 40
1.0
 40
1.0
 40
1.0
 10
-2.77861
 20
1.9501500000000001
 30
0.0
 10
-2.77861
 20
1.9501500000000001
 30
0.0
 10
-2.4153900000000004
 20
1.8333100000000002
 30
0.0
 10
-2.4153900000000004
 20
1.8333100000000002
 30
0.0
 10
-2.4153900000000004
 20
1.8333100000000002
 30
0.0
 10
-2.4280900000000001
 20
1.7342500000000001
 30
0.0
 10
-2.36205
 20
1.5843900000000002
 30
0.0
 10
-2.4611100000000001
 20
1.5183500000000001
 30
0.0
 10
-2.4611100000000001
 20
1.5183500000000001
 30
0.0
 10
-2.5550900000000003
 20
1.6326500000000002
 30
0.0
 10
-2.5449300000000004
 20
1.8510900000000001
 30
0.0
 10
-2.7405100000000004
 20
1.86633
 30
0.0
 10
-2.7405100000000004
 20
1.86633
 30
0.0
 10
-2.7633700000000001
 20
1.8841100000000002
 30
0.0
 10
-2.7887700000000004
 20
1.9171300000000002
 30
0.0
 10
-2.77861
 20
1.9501500000000001
 30
0.0
  0
SPLINE
  5
2D
100
AcDbEntity
  8
Ebene 1
 62
     7
100
AcDbSpline
210
0.0
220
0.0
230
1.0
 70
     1
 71
     3
 72
    24
 73
    20
 74
     0
 42
0.0000000001
 43
0.0000000001
 40
0.0
 40
0.0
 40
0.0
 40
0.0
 40
0.2
 40
0.2
 40
0.2
 40
0.2
 40
0.4
 40
0.4
 40
0.4
 40
0.4
 40
0.6000000000000001
 40
0.6000000000000001
 40
0.6000000000000001
 40
0.6000000000000001
 40
0.8
 40
0.8
 40
0.8
 40
0.8
 40
1.0
 40
1.0
 40
1.0
 40
1.0
 10
3.7618800000000001
 20
1.23387
 30
0.0
 10
3.8126800000000003
 20
1.2516500000000002
 30
0.0
 10
3.8609400000000003
 20
1.2160900000000001
 30
0.0
 10
3.8965000000000005
 20
1.1830700000000001
 30
0.0
 10
3.8965000000000005
 20
1.1830700000000001
 30
0.0
 10
3.8965000000000005
 20
0.5658500000000001
 30
0.0
 10
3.1624400000000001
 20
0.41599
 30
0.0
 10
2.7433400000000003
 20
0.16453
 30
0.0
 10
2.7433400000000003
 20
0.16453
 30
0.0
 10
2.7433400000000003
 20
0.16453
 30
0.0
 10
2.6595200000000001
 20
0.18231
 30
0.0
 10
2.6595200000000001
 20
0.18231
 30
0.0
 10
2.6595200000000001
 20
0.18231
 30
0.0
 10
2.5426800000000003
 20
0.28137
 30
0.0
 10
2.4766400000000002
 20
0.4312300000000001
 30
0.0
 10
2.4766400000000002
 20
0.58109
 30
0.0
 10
2.4766400000000002
 20
0.58109
 30
0.0
 10
2.8449400000000002
 20
0.9163700000000001
 30
0.0
 10
3.3631000000000002
 20
1.0001900000000001
 30
0.0
 10
3.7618800000000001
 20
1.23387
 30
0.0
  0
SPLINE
  5
2E
100
AcDbEntity
  8
Ebene 1
 62
     7
100
AcDbSpline
210
0.0
220
0.0
230
1.0
 70
     1
 71
     3
 72
    16
 73
    12
 74
     0
 42
0.0000000001
 43
0.0000000001
 40
0.0
 40
0.0
 40
0.0
 40
0.0
 40
0.3333333333333333
 40
0.3333333333333333
 40
0.3333333333333333
 40
0.3333333333333333
 40
0.6666666666666666
 40
0.6666666666666666
 40
0.6666666666666666
 40
0.6666666666666666
 40
1.0
 40
1.0
 40
1.0
 40
1.0
 10
-0.35799
 20
1.2160900000000001
 30
0.0
 10
-0.34021
 20
1.2160900000000001
 30
0.0
 10
-0.30719
 20
1.23387
 30
0.0
 10
-0.30719
 20
1.2008500000000002
 30
0.0
 10
-0.30719
 20
1.2008500000000002
 30
0.0
 10
-0.30719
 20
1.2008500000000002
 30
0.0
 10
-0.74153
 20
0.9646300000000001
 30
0.0
 10
-0.74153
 20
0.9646300000000001
 30
0.0
 10
-0.74153
 20
0.9646300000000001
 30
0.0
 10
-0.67549
 20
1.1322700000000001
 30
0.0
 10
-0.47483
 20
1.1170300000000002
 30
0.0
 10
-0.35799
 20
1.2160900000000001
 30
0.0
  0
SPLINE
  5
2F
100
AcDbEntity
  8
Ebene 1
100
AcDbSpline
210
0.0
220
0.0
230
1.0
 70
     1
 71
     3
 72
    20
 73
    16
 74
     0
 42
0.0000000001
 43
0.0000000001
 40
0.0
 40
0.0
 40
0.0
 40
0.0
 40
0.25
 40
0.25
 40
0.25
 40
0.25
 40
0.5
 40
0.5
 40
0.5
 40
0.5
 40
0.75
 40
0.75
 40
0.75
 40
0.75
 40
1.0
 40
1.0
 40
1.0
 40
1.0
 10
1.3082400000000001
 20
0.51505
 30
0.0
 10
1.3082400000000001
 20
0.51505
 30
0.0
 10
1.3768200000000002
 20
0.51505
 30
0.0
 10
1.3768200000000002
 20
0.51505
 30
0.0
 10
1.3768200000000002
 20
0.51505
 30
0.0
 10
1.35904
 20
0.4312300000000001
 30
0.0
 10
1.2091800000000001
 20
0.36519
 30
0.0
 10
1.1253600000000001
 20
0.36519
 30
0.0
 10
1.1253600000000001
 20
0.36519
 30
0.0
 10
1.1253600000000001
 20
0.36519
 30
0.0
 10
1.2091800000000001
 20
0.44901
 30
0.0
 10
1.2091800000000001
 20
0.44901
 30
0.0
 10
1.2091800000000001
 20
0.44901
 30
0.0
 10
1.2091800000000001
 20
0.44901
 30
0.0
 10
1.3082400000000001
 20
0.51505
 30
0.0
 10
1.3082400000000001
 20
0.51505
 30
0.0
  0
SPLINE
  5
30
100
AcDbEntity
  8
Ebene 1
100
AcDbSpline
210
0.0
220
0.0
230
1.0
 70
     1
 71
     3
 72
    20
 73
    16
 74
     0
 42
0.0000000001
 43
0.0000000001
 40
0.0
 40
0.0
 40
0.0
 40
0.0
 40
0.25
 40
0.25
 40
0.25
 40
0.25
 40
0.5
 40
0.5
 40
0.5
 40
0.5
 40
0.75
 40
0.75
 40
0.75
 40
0.75
 40
1.0
 40
1.0
 40
1.0
 40
1.0
 10
1.6257400000000002
 20
0.49981
 30
0.0
 10
1.9432400000000001
 20
0.4312300000000001
 30
0.0
 10
2.3420200000000002
 20
-0.0666
 30
0.0
 10
1.9610200000000002
 20
-0.2825
 30
0.0
 10
1.9610200000000002
 20
-0.2825
 30
0.0
 10
1.9432400000000001
 20
-0.2825
 30
0.0
 10
1.9254600000000002
 20
-0.26726
 30
0.0
 10
1.9254600000000002
 20
-0.24948
 30
0.0
 10
1.9254600000000002
 20
-0.24948
 30
0.0
 10
2.0753200000000001
 20
-0.0158
 30
0.0
 10
1.8924400000000001
 20
0.29915
 30
0.0
 10
1.6435200000000001
 20
0.39821
 30
0.0
 10
1.6435200000000001
 20
0.39821
 30
0.0
 10
1.6435200000000001
 20
0.39821
 30
0.0
 10
1.6257400000000002
 20
0.49981
 30
0.0
 10
1.6257400000000002
 20
0.49981
 30
0.0
  0
SPLINE
  5
31
100
AcDbEntity
  8
Ebene 1
 62
     7
100
AcDbSpline
210
0.0
220
0.0
230
1.0
 70
     1
 71
     3
 72
    16
 73
    12
 74
     0
 42
0.0000000001
 43
0.0000000001
 40
0.0
 40
0.0
 40
0.0
 40
0.0
 40
0.3333333333333333
 40
0.3333333333333333
 40
0.3333333333333333
 40
0.3333333333333333
 40
0.6666666666666666
 40
0.6666666666666666
 40
0.6666666666666666
 40
0.6666666666666666
 40
1.0
 40
1.0
 40
1.0
 40
1.0
 10
3.6450400000000003
 20
0.49981
 30
0.0
 10
3.6780600000000003
 20
0.51505
 30
0.0
 10
3.7110800000000004
 20
0.48203
 30
0.0
 10
3.7288600000000005
 20
0.46679
 30
0.0
 10
3.7288600000000005
 20
0.46679
 30
0.0
 10
3.8279200000000002
 20
0.11373
 30
0.0
 10
3.4621600000000003
 20
-0.21646
 30
0.0
 10
3.1624400000000001
 20
-0.20122
 30
0.0
 10
3.1624400000000001
 20
-0.20122
 30
0.0
 10
2.8957400000000004
 20
0.14929
 30
0.0
 10
3.3935800000000005
 20
0.39821
 30
0.0
 10
3.6450400000000003
 20
0.49981
 30
0.0
  0
SPLINE
  5
32
100
AcDbEntity
  8
Ebene 1
100
AcDbSpline
210
0.0
220
0.0
230
1.0
 70
     1
 71
     3
 72
    24
 73
    20
 74
     0
 42
0.0000000001
 43
0.0000000001
 40
0.0
 40
0.0
 40
0.0
 40
0.0
 40
0.2
 40
0.2
 40
0.2
 40
0.2
 40
0.4
 40
0.4
 40
0.4
 40
0.4
 40
0.6000000000000001
 40
0.6000000000000001
 40
0.6000000000000001
 40
0.6000000000000001
 40
0.8
 40
0.8
 40
0.8
 40
0.8
 40
1.0
 40
1.0
 40
1.0
 40
1.0
 10
-1.12507
 20
-0.08438
 30
0.0
 10
-0.8913900000000001
 20
-0.13264
 30
0.0
 10
-0.65771
 20
-0.21646
 30
0.0
 10
-0.4062500000000001
 20
-0.16566
 30
0.0
 10
-0.4062500000000001
 20
-0.16566
 30
0.0
 10
-0.39101
 20
-0.16566
 30
0.0
 10
-0.3757700000000001
 20
-0.18344
 30
0.0
 10
-0.3757700000000001
 20
-0.20122
 30
0.0
 10
-0.3757700000000001
 20
-0.20122
 30
0.0
 10
-0.50785
 20
-0.26726
 30
0.0
 10
-0.7085100000000001
 20
-0.26726
 30
0.0
 10
-0.8075700000000001
 20
-0.4171200000000001
 30
0.0
 10
-0.8075700000000001
 20
-0.4171200000000001
 30
0.0
 10
-0.8761500000000001
 20
-0.3002800000000001
 30
0.0
 10
-0.9752100000000001
 20
-0.16566
 30
0.0
 10
-1.12507
 20
-0.15042
 30
0.0
 10
-1.12507
 20
-0.15042
 30
0.0
 10
-1.12507
 20
-0.15042
 30
0.0
 10
-1.12507
 20
-0.08438
 30
0.0
 10
-1.12507
 20
-0.08438
 30
0.0
  0
SPLINE
  5
33
100
AcDbEntity
  8
Ebene 1
 62
     7
100
AcDbSpline
210
0.0
220
0.0
230
1.0
 70
     1
 71
     3
 72
    12
 73
     8
 74
     0
 42
0.0000000001
 43
0.0000000001
 40
0.0
 40
0.0
 40
0.0
 40
0.0
 40
0.5
 40
0.5
 40
0.5
 40
0.5
 40
1.0
 40
1.0
 40
1.0
 40
1.0
 10
-3.1113500000000003
 20
-1.20198
 30
0.0
 10
-2.94625
 20
-1.3010400000000002
 30
0.0
 10
-2.9259300000000001
 20
-1.7201400000000002
 30
0.0
 10
-3.1113500000000003
 20
-1.8014200000000002
 30
0.0
 10
-3.1113500000000003
 20
-1.8014200000000002
 30
0.0
 10
-3.3043900000000002
 20
-1.66934
 30
0.0
 10
-3.2434300000000005
 20
-1.3670800000000001
 30
0.0
 10
-3.1113500000000003
 20
-1.20198
 30
0.0
  0
SPLINE
  5
34
100
AcDbEntity
  8
Ebene 1
 62
     7
100
AcDbSpline
210
0.0
220
0.0
230
1.0
 70
     1
 71
     3
 72
    32
 73
    28
 74
     0
 42
0.0000000001
 43
0.0000000001
 40
0.0
 40
0.0
 40
0.0
 40
0.0
 40
0.1428571428571429
 40
0.1428571428571429
 40
0.1428571428571429
 40
0.1428571428571429
 40
0.2857142857142857
 40
0.2857142857142857
 40
0.2857142857142857
 40
0.2857142857142857
 40
0.4285714285714286
 40
0.4285714285714286
 40
0.4285714285714286
 40
0.4285714285714286
 40
0.5714285714285714
 40
0.5714285714285714
 40
0.5714285714285714
 40
0.5714285714285714
 40
0.7142857142857142
 40
0.7142857142857142
 40
0.7142857142857142
 40
0.7142857142857142
 40
0.857142857142857
 40
0.857142857142857
 40
0.857142857142857
 40
0.857142857142857
 40
1.0
 40
1.0
 40
1.0
 40
1.0
 10
1.0923400000000001
 20
-1.4026400000000001
 30
0.0
 10
1.3082400000000001
 20
-1.5347200000000001
 30
0.0
 10
1.5597000000000001
 20
-1.5194800000000002
 30
0.0
 10
1.7933800000000002
 20
-1.6007600000000002
 30
0.0
 10
1.7933800000000002
 20
-1.6007600000000002
 30
0.0
 10
2.0600800000000001
 20
-1.5525000000000002
 30
0.0
 10
2.3267800000000003
 20
-1.4026400000000001
 30
0.0
 10
2.6112600000000001
 20
-1.4839200000000001
 30
0.0
 10
2.6112600000000001
 20
-1.4839200000000001
 30
0.0
 10
2.5274400000000004
 20
-1.58552
 30
0.0
 10
2.3267800000000003
 20
-1.5677400000000001
 30
0.0
 10
2.1921600000000003
 20
-1.58552
 30
0.0
 10
2.1921600000000003
 20
-1.58552
 30
0.0
 10
2.17692
 20
-1.66934
 30
0.0
 10
2.3115400000000004
 20
-1.6515600000000001
 30
0.0
 10
2.3115400000000004
 20
-1.7201400000000002
 30
0.0
 10
2.3115400000000004
 20
-1.7201400000000002
 30
0.0
 10
2.6950800000000004
 20
-1.7684000000000002
 30
0.0
 10
2.2759800000000001
 20
-2.2179800000000003
 30
0.0
 10
2.0753200000000001
 20
-2.26878
 30
0.0
 10
2.0753200000000001
 20
-2.26878
 30
0.0
 10
1.6587600000000002
 20
-2.1519400000000002
 30
0.0
 10
1.4098400000000002
 20
-1.7353800000000001
 30
0.0
 10
0.9755
 20
-1.6337800000000002
 30
0.0
 10
0.9755
 20
-1.6337800000000002
 30
0.0
 10
0.9424800000000001
 20
-1.5194800000000002
 30
0.0
 10
1.05932
 20
-1.4686800000000002
 30
0.0
 10
1.0923400000000001
 20
-1.4026400000000001
 30
0.0
  0
SPLINE
  5
35
100
AcDbEntity
  8
Ebene 1
 62
     7
100
AcDbSpline
210
0.0
220
0.0
230
1.0
 70
     1
 71
     3
 72
    24
 73
    20
 74
     0
 42
0.0000000001
 43
0.0000000001
 40
0.0
 40
0.0
 40
0.0
 40
0.0
 40
0.2
 40
0.2
 40
0.2
 40
0.2
 40
0.4
 40
0.4
 40
0.4
 40
0.4
 40
0.6000000000000001
 40
0.6000000000000001
 40
0.6000000000000001
 40
0.6000000000000001
 40
0.8
 40
0.8
 40
0.8
 40
0.8
 40
1.0
 40
1.0
 40
1.0
 40
1.0
 10
-0.29195
 20
-1.4509000000000001
 30
0.0
 10
-0.29195
 20
-1.4509000000000001
 30
0.0
 10
-0.25639
 20
-1.4509000000000001
 30
0.0
 10
-0.25639
 20
-1.4509000000000001
 30
0.0
 10
-0.25639
 20
-1.4509000000000001
 30
0.0
 10
-0.25639
 20
-1.4509000000000001
 30
0.0
 10
-0.12431
 20
-2.1697200000000003
 30
0.0
 10
-0.12431
 20
-2.1697200000000003
 30
0.0
 10
-0.12431
 20
-2.1697200000000003
 30
0.0
 10
-0.13955
 20
-2.2027400000000004
 30
0.0
 10
-0.19035
 20
-2.2179800000000003
 30
0.0
 10
-0.22591
 20
-2.2535400000000001
 30
0.0
 10
-0.22591
 20
-2.2535400000000001
 30
0.0
 10
-0.22591
 20
-2.2535400000000001
 30
0.0
 10
-0.27417
 20
-2.2535400000000001
 30
0.0
 10
-0.27417
 20
-2.2535400000000001
 30
0.0
 10
-0.27417
 20
-2.2535400000000001
 30
0.0
 10
-0.39101
 20
-2.01986
 30
0.0
 10
-0.4926100000000001
 20
-1.66934
 30
0.0
 10
-0.29195
 20
-1.4509000000000001
 30
0.0
  0
SPLINE
  5
36
100
AcDbEntity
  8
Ebene 1
100
AcDbSpline
210
0.0
220
0.0
230
1.0
 70
     1
 71
     3
 72
    12
 73
     8
 74
     0
 42
0.0000000001
 43
0.0000000001
 40
0.0
 40
0.0
 40
0.0
 40
0.0
 40
0.5
 40
0.5
 40
0.5
 40
0.5
 40
1.0
 40
1.0
 40
1.0
 40
1.0
 10
-1.1352300000000002
 20
-1.3670800000000001
 30
0.0
 10
-0.8812300000000001
 20
-1.3264400000000001
 30
0.0
 10
-1.2215900000000002
 20
-1.7557
 30
0.0
 10
-1.2723900000000001
 20
-1.7912600000000001
 30
0.0
 10
-1.2723900000000001
 20
-1.7912600000000001
 30
0.0
 10
-1.2723900000000001
 20
-1.7226800000000002
 30
0.0
 10
-1.1530100000000001
 20
-1.4356600000000002
 30
0.0
 10
-1.1352300000000002
 20
-1.3670800000000001
 30
0.0
  0
SPLINE
  5
37
100
AcDbEntity
  8
Ebene 1
 62
     7
100
AcDbSpline
210
0.0
220
0.0
230
1.0
 70
     1
 71
     3
 72
    20
 73
    16
 74
     0
 42
0.0000000001
 43
0.0000000001
 40
0.0
 40
0.0
 40
0.0
 40
0.0
 40
0.25
 40
0.25
 40
0.25
 40
0.25
 40
0.5
 40
0.5
 40
0.5
 40
0.5
 40
0.75
 40
0.75
 40
0.75
 40
0.75
 40
1.0
 40
1.0
 40
1.0
 40
1.0
 10
-0.5586500000000001
 20
-1.6515600000000001
 30
0.0
 10
-0.5408700000000001
 20
-1.6515600000000001
 30
0.0
 10
-0.50785
 20
-1.66934
 30
0.0
 10
-0.50785
 20
-1.6845800000000002
 30
0.0
 10
-0.50785
 20
-1.6845800000000002
 30
0.0
 10
-0.52563
 20
-1.9690600000000003
 30
0.0
 10
-0.35799
 20
-2.23576
 30
0.0
 10
-0.34021
 20
-2.5024600000000001
 30
0.0
 10
-0.34021
 20
-2.5024600000000001
 30
0.0
 10
-0.34021
 20
-2.5024600000000001
 30
0.0
 10
-0.42403
 20
-2.5202400000000003
 30
0.0
 10
-0.42403
 20
-2.5202400000000003
 30
0.0
 10
-0.42403
 20
-2.5202400000000003
 30
0.0
 10
-0.7085100000000001
 20
-2.3526000000000002
 30
0.0
 10
-0.72375
 20
-1.9004800000000002
 30
0.0
 10
-0.5586500000000001
 20
-1.6515600000000001
 30
0.0
  0
SPLINE
  5
38
100
AcDbEntity
  8
Ebene 1
 62
     7
100
AcDbSpline
210
0.0
220
0.0
230
1.0
 70
     1
 71
     3
 72
    16
 73
    12
 74
     0
 42
0.0000000001
 43
0.0000000001
 40
0.0
 40
0.0
 40
0.0
 40
0.0
 40
0.3333333333333333
 40
0.3333333333333333
 40
0.3333333333333333
 40
0.3333333333333333
 40
0.6666666666666666
 40
0.6666666666666666
 40
0.6666666666666666
 40
0.6666666666666666
 40
1.0
 40
1.0
 40
1.0
 40
1.0
 10
-3.2281900000000001
 20
-1.8014200000000002
 30
0.0
 10
-3.1900900000000001
 20
-1.8344400000000001
 30
0.0
 10
-3.1418300000000001
 20
-1.8700000000000001
 30
0.0
 10
-3.1392900000000004
 20
-1.9182600000000001
 30
0.0
 10
-3.1392900000000004
 20
-1.9182600000000001
 30
0.0
 10
-2.9310100000000001
 20
-1.9868400000000002
 30
0.0
 10
-2.9665700000000004
 20
-2.3703800000000004
 30
0.0
 10
-3.1443700000000003
 20
-2.4694400000000001
 30
0.0
 10
-3.1443700000000003
 20
-2.4694400000000001
 30
0.0
 10
-3.3983700000000003
 20
-2.3373600000000003
 30
0.0
 10
-3.4847300000000003
 20
-1.9690600000000003
 30
0.0
 10
-3.2281900000000001
 20
-1.8014200000000002
 30
0.0
  0
SPLINE
  5
39
100
AcDbEntity
  8
Ebene 1
 62
     7
100
AcDbSpline
210
0.0
220
0.0
230
1.0
 70
     1
 71
     3
 72
    52
 73
    48
 74
     0
 42
0.0000000001
 43
0.0000000001
 40
0.0
 40
0.0
 40
0.0
 40
0.0
 40
0.0833333333333333
 40
0.0833333333333333
 40
0.0833333333333333
 40
0.0833333333333333
 40
0.1666666666666667
 40
0.1666666666666667
 40
0.1666666666666667
 40
0.1666666666666667
 40
0.25
 40
0.25
 40
0.25
 40
0.25
 40
0.3333333333333333
 40
0.3333333333333333
 40
0.3333333333333333
 40
0.3333333333333333
 40
0.4166666666666666
 40
0.4166666666666666
 40
0.4166666666666666
 40
0.4166666666666666
 40
0.4999999999999999
 40
0.4999999999999999
 40
0.4999999999999999
 40
0.4999999999999999
 40
0.5833333333333333
 40
0.5833333333333333
 40
0.5833333333333333
 40
0.5833333333333333
 40
0.6666666666666666
 40
0.6666666666666666
 40
0.6666666666666666
 40
0.6666666666666666
 40
0.75
 40
0.75
 40
0.75
 40
0.75
 40
0.8333333333333334
 40
0.8333333333333334
 40
0.8333333333333334
 40
0.8333333333333334
 40
0.9166666666666667
 40
0.9166666666666667
 40
0.9166666666666667
 40
0.9166666666666667
 40
1.0
 40
1.0
 40
1.0
 40
1.0
 10
1.0415400000000001
 20
-1.8344400000000001
 30
0.0
 10
1.4250800000000001
 20
-1.8522200000000002
 30
0.0
 10
1.6435200000000001
 20
-2.1367000000000003
 30
0.0
 10
1.9102200000000003
 20
-2.3526000000000002
 30
0.0
 10
1.9102200000000003
 20
-2.3526000000000002
 30
0.0
 10
1.7248000000000001
 20
-2.5862800000000004
 30
0.0
 10
1.52668
 20
-3.0028400000000004
 30
0.0
 10
1.1914
 20
-2.7869400000000004
 30
0.0
 10
1.1914
 20
-2.7869400000000004
 30
0.0
 10
1.2193400000000001
 20
-2.9952200000000002
 30
0.0
 10
1.0517000000000001
 20
-3.2339800000000003
 30
0.0
 10
0.8561200000000001
 20
-3.2416000000000005
 30
0.0
 10
0.8561200000000001
 20
-3.2416000000000005
 30
0.0
 10
0.8027800000000001
 20
-3.2441400000000002
 30
0.0
 10
0.76214
 20
-3.1222200000000004
 30
0.0
 10
0.6910200000000001
 20
-3.1882600000000001
 30
0.0
 10
0.6910200000000001
 20
-3.1882600000000001
 30
0.0
 10
0.9094600000000001
 20
-3.4879800000000003
 30
0.0
 10
0.3913
 20
-3.8715200000000003
 30
0.0
 10
0.10682
 20
-3.6708600000000002
 30
0.0
 10
0.10682
 20
-3.6708600000000002
 30
0.0
 10
-0.00747
 20
-3.4879800000000003
 30
0.0
 10
0.10682
 20
-3.2873200000000002
 30
0.0
 10
0.22366
 20
-3.1527000000000003
 30
0.0
 10
0.22366
 20
-3.1527000000000003
 30
0.0
 10
0.35828
 20
-3.1196800000000002
 30
0.0
 10
0.49036
 20
-3.1527000000000003
 30
0.0
 10
0.6072000000000001
 20
-3.2212800000000001
 30
0.0
 10
0.6072000000000001
 20
-3.2212800000000001
 30
0.0
 10
0.6732400000000001
 20
-3.1882600000000001
 30
0.0
 10
0.57418
 20
-3.1196800000000002
 30
0.0
 10
0.5564
 20
-3.1044400000000003
 30
0.0
 10
0.5564
 20
-3.1044400000000003
 30
0.0
 10
0.0738
 20
-3.0714200000000003
 30
0.0
 10
0.3405
 20
-2.5532600000000003
 30
0.0
 10
0.59196
 20
-2.3703800000000004
 30
0.0
 10
0.59196
 20
-2.3703800000000004
 30
0.0
 10
0.80786
 20
-2.4186400000000003
 30
0.0
 10
1.0415400000000001
 20
-2.4694400000000001
 30
0.0
 10
1.2422000000000002
 20
-2.57104
 30
0.0
 10
1.2422000000000002
 20
-2.57104
 30
0.0
 10
1.1761600000000001
 20
-2.3526000000000002
 30
0.0
 10
0.8739000000000001
 20
-2.3526000000000002
 30
0.0
 10
0.7088000000000001
 20
-2.2535400000000001
 30
0.0
 10
0.7088000000000001
 20
-2.2535400000000001
 30
0.0
 10
0.6910200000000001
 20
-2.05288
 30
0.0
 10
0.89168
 20
-1.8852400000000002
 30
0.0
 10
1.0415400000000001
 20
-1.8344400000000001
 30
0.0
  0
SPLINE
  5
3A
100
AcDbEntity
  8
Ebene 1
 62
     7
100
AcDbSpline
210
0.0
220
0.0
230
1.0
 70
     1
 71
     3
 72
    12
 73
     8
 74
     0
 42
0.0000000001
 43
0.0000000001
 40
0.0
 40
0.0
 40
0.0
 40
0.0
 40
0.5
 40
0.5
 40
0.5
 40
0.5
 40
1.0
 40
1.0
 40
1.0
 40
1.0
 10
-3.4618700000000002
 20
-2.3018000000000001
 30
0.0
 10
-3.2612100000000002
 20
-2.43642
 30
0.0
 10
-3.0935700000000002
 20
-2.7361400000000002
 30
0.0
 10
-3.2307300000000003
 20
-2.9876
 30
0.0
 10
-3.2307300000000003
 20
-2.9876
 30
0.0
 10
-3.6828500000000002
 20
-3.1704800000000004
 30
0.0
 10
-3.7488900000000003
 20
-2.5202400000000003
 30
0.0
 10
-3.4618700000000002
 20
-2.3018000000000001
 30
0.0
  0
SPLINE
  5
3B
100
AcDbEntity
  8
Ebene 1
 62
     7
100
AcDbSpline
210
0.0
220
0.0
230
1.0
 70
     1
 71
     3
 72
    16
 73
    12
 74
     0
 42
0.0000000001
 43
0.0000000001
 40
0.0
 40
0.0
 40
0.0
 40
0.0
 40
0.3333333333333333
 40
0.3333333333333333
 40
0.3333333333333333
 40
0.3333333333333333
 40
0.6666666666666666
 40
0.6666666666666666
 40
0.6666666666666666
 40
0.6666666666666666
 40
1.0
 40
1.0
 40
1.0
 40
1.0
 10
-0.10653
 20
-2.3018000000000001
 30
0.0
 10
-0.10653
 20
-2.3018000000000001
 30
0.0
 10
-0.00747
 20
-2.5024600000000001
 30
0.0
 10
-0.00747
 20
-2.5024600000000001
 30
0.0
 10
-0.00747
 20
-2.5024600000000001
 30
0.0
 10
-0.00747
 20
-2.5024600000000001
 30
0.0
 10
-0.15733
 20
-2.60406
 30
0.0
 10
-0.15733
 20
-2.60406
 30
0.0
 10
-0.15733
 20
-2.60406
 30
0.0
 10
-0.19035
 20
-2.5202400000000003
 30
0.0
 10
-0.20813
 20
-2.3526000000000002
 30
0.0
 10
-0.10653
 20
-2.3018000000000001
 30
0.0
  0
SPLINE
  5
3C
100
AcDbEntity
  8
Ebene 1
 62
     7
100
AcDbSpline
210
0.0
220
0.0
230
1.0
 70
     1
 71
     3
 72
    20
 73
    16
 74
     0
 42
0.0000000001
 43
0.0000000001
 40
0.0
 40
0.0
 40
0.0
 40
0.0
 40
0.25
 40
0.25
 40
0.25
 40
0.25
 40
0.5
 40
0.5
 40
0.5
 40
0.5
 40
0.75
 40
0.75
 40
0.75
 40
0.75
 40
1.0
 40
1.0
 40
1.0
 40
1.0
 10
-0.4062500000000001
 20
-2.5532600000000003
 30
0.0
 10
-0.4062500000000001
 20
-2.5532600000000003
 30
0.0
 10
-0.24115
 20
-2.8377400000000002
 30
0.0
 10
-0.24115
 20
-2.8377400000000002
 30
0.0
 10
-0.24115
 20
-2.8377400000000002
 30
0.0
 10
-0.25639
 20
-2.8529800000000001
 30
0.0
 10
-0.29195
 20
-2.8860000000000001
 30
0.0
 10
-0.32497
 20
-2.8860000000000001
 30
0.0
 10
-0.32497
 20
-2.8860000000000001
 30
0.0
 10
-0.3757700000000001
 20
-2.7869400000000004
 30
0.0
 10
-0.44181
 20
-2.6853400000000001
 30
0.0
 10
-0.45705
 20
-2.57104
 30
0.0
 10
-0.45705
 20
-2.57104
 30
0.0
 10
-0.45705
 20
-2.57104
 30
0.0
 10
-0.4062500000000001
 20
-2.5532600000000003
 30
0.0
 10
-0.4062500000000001
 20
-2.5532600000000003
 30
0.0
  0
SPLINE
  5
3D
100
AcDbEntity
  8
Ebene 1
 62
     7
100
AcDbSpline
210
0.0
220
0.0
230
1.0
 70
     1
 71
     3
 72
    16
 73
    12
 74
     0
 42
0.0000000001
 43
0.0000000001
 40
0.0
 40
0.0
 40
0.0
 40
0.0
 40
0.3333333333333333
 40
0.3333333333333333
 40
0.3333333333333333
 40
0.3333333333333333
 40
0.6666666666666666
 40
0.6666666666666666
 40
0.6666666666666666
 40
0.6666666666666666
 40
1.0
 40
1.0
 40
1.0
 40
1.0
 10
-2.8776700000000002
 20
-2.8707600000000002
 30
0.0
 10
-2.8370300000000004
 20
-2.8707600000000002
 30
0.0
 10
-2.7938500000000004
 20
-2.8707600000000002
 30
0.0
 10
-2.7633700000000001
 20
-2.9037800000000002
 30
0.0
 10
-2.7633700000000001
 20
-2.9037800000000002
 30
0.0
 10
-2.7836900000000004
 20
-3.0536400000000001
 30
0.0
 10
-2.7684500000000001
 20
-3.2212800000000001
 30
0.0
 10
-2.8319500000000004
 20
-3.3533600000000003
 30
0.0
 10
-2.8319500000000004
 20
-3.3533600000000003
 30
0.0
 10
-3.1062700000000003
 20
-3.3533600000000003
 30
0.0
 10
-2.8725900000000002
 20
-3.0206200000000001
 30
0.0
 10
-2.8776700000000002
 20
-2.8707600000000002
 30
0.0
  0
SPLINE
  5
3E
100
AcDbEntity
  8
Ebene 1
 62
     7
100
AcDbSpline
210
0.0
220
0.0
230
1.0
 70
     1
 71
     3
 72
    16
 73
    12
 74
     0
 42
0.0000000001
 43
0.0000000001
 40
0.0
 40
0.0
 40
0.0
 40
0.0
 40
0.3333333333333333
 40
0.3333333333333333
 40
0.3333333333333333
 40
0.3333333333333333
 40
0.6666666666666666
 40
0.6666666666666666
 40
0.6666666666666666
 40
0.6666666666666666
 40
1.0
 40
1.0
 40
1.0
 40
1.0
 10
-1.12507
 20
-2.8707600000000002
 30
0.0
 10
-0.9904500000000001
 20
-2.9037800000000002
 30
0.0
 10
-0.9904500000000001
 20
-3.1044400000000003
 30
0.0
 10
-0.9421900000000001
 20
-3.2212800000000001
 30
0.0
 10
-0.9421900000000001
 20
-3.2212800000000001
 30
0.0
 10
-0.9421900000000001
 20
-3.2212800000000001
 30
0.0
 10
-1.1428500000000001
 20
-3.3203400000000003
 30
0.0
 10
-1.1428500000000001
 20
-3.3203400000000003
 30
0.0
 10
-1.1428500000000001
 20
-3.3203400000000003
 30
0.0
 10
-1.1580900000000001
 20
-3.1882600000000001
 30
0.0
 10
-1.3257300000000001
 20
-2.9037800000000002
 30
0.0
 10
-1.12507
 20
-2.8707600000000002
 30
0.0
  0
SPLINE
  5
3F
100
AcDbEntity
  8
Ebene 1
 62
     7
100
AcDbSpline
210
0.0
220
0.0
230
1.0
 70
     1
 71
     3
 72
    16
 73
    12
 74
     0
 42
0.0000000001
 43
0.0000000001
 40
0.0
 40
0.0
 40
0.0
 40
0.0
 40
0.3333333333333333
 40
0.3333333333333333
 40
0.3333333333333333
 40
0.3333333333333333
 40
0.6666666666666666
 40
0.6666666666666666
 40
0.6666666666666666
 40
0.6666666666666666
 40
1.0
 40
1.0
 40
1.0
 40
1.0
 10
-1.6762500000000002
 20
-2.8860000000000001
 30
0.0
 10
-1.3917700000000002
 20
-2.8377400000000002
 30
0.0
 10
-1.4425700000000001
 20
-3.1527000000000003
 30
0.0
 10
-1.37653
 20
-3.3203400000000003
 30
0.0
 10
-1.37653
 20
-3.3203400000000003
 30
0.0
 10
-1.37653
 20
-3.3203400000000003
 30
0.0
 10
-1.75499
 20
-3.3381200000000004
 30
0.0
 10
-1.75499
 20
-3.3381200000000004
 30
0.0
 10
-1.75499
 20
-3.3381200000000004
 30
0.0
 10
-1.75499
 20
-3.1882600000000001
 30
0.0
 10
-1.7295900000000002
 20
-3.0206200000000001
 30
0.0
 10
-1.6762500000000002
 20
-2.8860000000000001
 30
0.0
  0
SPLINE
  5
40
100
AcDbEntity
  8
Ebene 1
 62
     7
100
AcDbSpline
210
0.0
220
0.0
230
1.0
 70
     1
 71
     3
 72
    12
 73
     8
 74
     0
 42
0.0000000001
 43
0.0000000001
 40
0.0
 40
0.0
 40
0.0
 40
0.0
 40
0.5
 40
0.5
 40
0.5
 40
0.5
 40
1.0
 40
1.0
 40
1.0
 40
1.0
 10
-3.5964900000000002
 20
-3.0206200000000001
 30
0.0
 10
-3.2256500000000004
 20
-3.0866600000000002
 30
0.0
 10
-3.4110700000000005
 20
-3.6048200000000001
 30
0.0
 10
-3.6955500000000003
 20
-3.6048200000000001
 30
0.0
 10
-3.6955500000000003
 20
-3.6048200000000001
 30
0.0
 10
-4.0130500000000007
 20
-3.5057600000000004
 30
0.0
 10
-3.8682700000000003
 20
-3.0536400000000001
 30
0.0
 10
-3.5964900000000002
 20
-3.0206200000000001
 30
0.0
  0
SPLINE
  5
41
100
AcDbEntity
  8
Ebene 1
 62
     7
100
AcDbSpline
210
0.0
220
0.0
230
1.0
 70
     1
 71
     3
 72
    12
 73
     8
 74
     0
 42
0.0000000001
 43
0.0000000001
 40
0.0
 40
0.0
 40
0.0
 40
0.0
 40
0.5
 40
0.5
 40
0.5
 40
0.5
 40
1.0
 40
1.0
 40
1.0
 40
1.0
 10
-1.3663700000000001
 20
-2.8885400000000003
 30
0.0
 10
-1.3003300000000002
 20
-2.8885400000000003
 30
0.0
 10
-1.1530100000000001
 20
-3.4092400000000005
 30
0.0
 10
-1.2698500000000001
 20
-3.3305000000000002
 30
0.0
 10
-1.2698500000000001
 20
-3.3305000000000002
 30
0.0
 10
-1.3663700000000001
 20
-3.4600400000000002
 30
0.0
 10
-1.3663700000000001
 20
-2.9393400000000001
 30
0.0
 10
-1.3663700000000001
 20
-2.8885400000000003
 30
0.0
  0
SPLINE
  5
42
100
AcDbEntity
  8
Ebene 1
 62
     7
100
AcDbSpline
210
0.0
220
0.0
230
1.0
 70
     1
 71
     3
 72
    16
 73
    12
 74
     0
 42
0.0000000001
 43
0.0000000001
 40
0.0
 40
0.0
 40
0.0
 40
0.0
 40
0.3333333333333333
 40
0.3333333333333333
 40
0.3333333333333333
 40
0.3333333333333333
 40
0.6666666666666666
 40
0.6666666666666666
 40
0.6666666666666666
 40
0.6666666666666666
 40
1.0
 40
1.0
 40
1.0
 40
1.0
 10
-3.8631900000000003
 20
-3.6226000000000003
 30
0.0
 10
-3.8631900000000003
 20
-3.6226000000000003
 30
0.0
 10
-3.7285700000000004
 20
-3.7546800000000005
 30
0.0
 10
-3.7285700000000004
 20
-3.7546800000000005
 30
0.0
 10
-3.7285700000000004
 20
-3.7546800000000005
 30
0.0
 10
-3.7742900000000001
 20
-3.9883600000000001
 30
0.0
 10
-3.8225500000000001
 20
-4.2398199999999999
 30
0.0
 10
-3.9241500000000005
 20
-4.4557200000000003
 30
0.0
 10
-3.9241500000000005
 20
-4.4557200000000003
 30
0.0
 10
-3.9393900000000004
 20
-4.1890200000000002
 30
0.0
 10
-4.0740100000000004
 20
-3.8537400000000002
 30
0.0
 10
-3.8631900000000003
 20
-3.6226000000000003
 30
0.0
  0
SPLINE
  5
43
100
AcDbEntity
  8
Ebene 1
 62
     7
100
AcDbSpline
210
0.0
220
0.0
230
1.0
 70
     1
 71
     3
 72
    16
 73
    12
 74
     0
 42
0.0000000001
 43
0.0000000001
 40
0.0
 40
0.0
 40
0.0
 40
0.0
 40
0.3333333333333333
 40
0.3333333333333333
 40
0.3333333333333333
 40
0.3333333333333333
 40
0.6666666666666666
 40
0.6666666666666666
 40
0.6666666666666666
 40
0.6666666666666666
 40
1.0
 40
1.0
 40
1.0
 40
1.0
 10
0.11698
 20
-3.8080200000000004
 30
0.0
 10
0.11698
 20
-3.8080200000000004
 30
0.0
 10
0.3913
 20
-3.8232600000000003
 30
0.0
 10
0.3913
 20
-3.8232600000000003
 30
0.0
 10
0.3913
 20
-3.8232600000000003
 30
0.0
 10
0.22366
 20
-4.1229800000000001
 30
0.0
 10
0.15762
 20
-4.7173400000000001
 30
0.0
 10
0.0738
 20
-5.0526200000000001
 30
0.0
 10
0.0738
 20
-5.0526200000000001
 30
0.0
 10
-0.00747
 20
-4.7351200000000002
 30
0.0
 10
-0.07097
 20
-4.0696400000000006
 30
0.0
 10
0.11698
 20
-3.8080200000000004
 30
0.0
  0
ENDSEC
  0
SECTION
  2
OBJECTS
  0
DICTIONARY
  5
19
100
AcDbDictionary
280
     0
281
     1
  3
ACAD_GROUP
350
1A
  3
ACAD_MLINESTYLE
350
1B
  3
ACAD_LAYOUT
350
1E
  3
ACAD_PLOTSETTINGS
350
22
  3
ACAD_PLOTSTYLENAME
350
1F
  3
ACAD_WIPEOUT_VARS
350
23
  0
DICTIONARY
  5
1A
102
{ACAD_REACTORS
330
19
102
}
100
AcDbDictionary
280
     0
281
     1
  0
DICTIONARY
  5
1B
102
{ACAD_REACTORS
330
19
102
}
100
AcDbDictionary
280
     0
281
     1
  3
Standard
350
1C
  0
MLINESTYLE
  5
1C
102
{ACAD_REACTORS
330
1B
102
}
100
AcDbMlineStyle
  2
Standard
 70
     0
  3

 62
     0
 51
90.0
 52
90.0
 71
     2
 49
0.5
 62
   256
  6
BYLAYER
 49
-0.5
 62
   256
  6
BYLAYER
  0
ACDBDICTIONARYWDFLT
  5
1F
102
{ACAD_REACTORS
330
19
102
}
100
AcDbDictionary
281
     1
  3
Normal
350
1D
100
AcDbDictionaryWithDefault
340
1D
  0
ACDBPLACEHOLDER
  5
1D
102
{ACAD_REACTORS
330
1F
102
}
  0
LAYOUT
  5
20
102
{ACAD_REACTORS
330
1E
102
}
100
AcDbPlotSettings
  1

  2

  4

  6

 40
0.0
 41
0.0
 42
0.0
 43
0.0
 44
0.0
 45
0.0
 46
0.0
 47
0.0
 48
0.0
 49
0.0
140
0.0
141
0.0
142
1.0
143
1.0
 70
  1024
 72
     0
 73
     0
 74
     0
  7

 75
     0
147
1.0
148
0.0
149
0.0
100
AcDbLayout
  1
Model
 70
     0
 71
     0
 10
0.0
 20
0.0
 11
0.0
 21
0.0
 12
0.0
 22
0.0
 32
0.0
 14
0.0
 24
0.0
 34
0.0
 15
0.0
 25
0.0
 35
0.0
146
0.0
 13
0.0
 23
0.0
 33
0.0
 16
0.0
 26
0.0
 36
0.0
 17
0.0
 27
0.0
 37
0.0
 76
     0
330
A
331
0
345
0
346
0
  0
LAYOUT
  5
21
102
{ACAD_REACTORS
330
1E
102
}
100
AcDbPlotSettings
  1

  2

  4

  6

 40
0.0
 41
0.0
 42
0.0
 43
0.0
 44
0.0
 45
0.0
 46
0.0
 47
0.0
 48
0.0
 49
0.0
140
0.0
141
0.0
142
1.0
143
1.0
 70
     0
 72
     0
 73
     0
 74
     0
  7

 75
     0
147
1.0
148
0.0
149
0.0
100
AcDbLayout
  1
Layout1
 70
     0
 71
     0
 10
0.0
 20
0.0
 11
0.0
 21
0.0
 12
0.0
 22
0.0
 32
0.0
 14
0.0
 24
0.0
 34
0.0
 15
0.0
 25
0.0
 35
0.0
146
0.0
 13
0.0
 23
0.0
 33
0.0
 16
0.0
 26
0.0
 36
0.0
 17
0.0
 27
0.0
 37
0.0
 76
     0
330
B
331
0
345
0
346
0
  0
DICTIONARY
  5
1E
102
{ACAD_REACTORS
330
19
102
}
100
AcDbDictionary
280
     0
281
     1
  3
Layout1
350
21
  3
Model
350
20
  0
DICTIONARY
  5
22
102
{ACAD_REACTORS
330
19
102
}
100
AcDbDictionary
280
     0
281
     1
  0
WIPEOUTVARIABLES
  5
23
100
AcDbWipeoutVariables
 70
     1
  0
ENDSEC
  0
EOF
