  0
SECTION
  2
HEADER
  9
$ACADVER
  1
AC1015
  9
$ACADMAINTVER
 70
     6
  9
$DWGCODEPAGE
  3
DOS850
  9
$INSBASE
 10
0.0
 20
0.0
 30
0.0
  9
$EXTMIN
 10
-6.27462
 20
-4.91596
 30
1.000000E+20
  9
$EXTMAX
 10
6.27902
 20
4.91044
 30
-1.000000E+20
  9
$LIMMIN
 10
0.0
 20
0.0
  9
$LIMMAX
 10
0.0
 20
0.0
  9
$ORTHOMODE
 70
     0
  9
$REGENMODE
 70
     1
  9
$FILLMODE
 70
     1
  9
$QTEXTMODE
 70
     0
  9
$MIRRTEXT
 70
     1
  9
$LTSCALE
 40
1.0
  9
$ATTMODE
 70
     1
  9
$TEXTSIZE
 40
0.2
  9
$TRACEWID
 40
0.05
  9
$TEXTSTYLE
  7
Standard
  9
$CLAYER
  8
0
  9
$CELTYPE
  6
Continuous
  9
$CECOLOR
 62
   256
  9
$CELTSCALE
 40
1.0
  9
$DISPSILH
 70
     0
  9
$DIMSCALE
 40
1.0
  9
$DIMASZ
 40
0.18
  9
$DIMEXO
 40
0.0625
  9
$DIMDLI
 40
0.38
  9
$DIMRND
 40
0.0
  9
$DIMDLE
 40
0.0
  9
$DIMEXE
 40
0.18
  9
$DIMTP
 40
0.0
  9
$DIMTM
 40
0.0
  9
$DIMTXT
 40
0.18
  9
$DIMCEN
 40
0.09
  9
$DIMTSZ
 40
0.0
  9
$DIMTOL
 70
     0
  9
$DIMLIM
 70
     0
  9
$DIMTIH
 70
     1
  9
$DIMTOH
 70
     1
  9
$DIMSE1
 70
     0
  9
$DIMSE2
 70
     0
  9
$DIMTAD
 70
     0
  9
$DIMZIN
 70
     0
  9
$DIMBLK
  1

  9
$DIMASO
 70
     1
  9
$DIMSHO
 70
     1
  9
$DIMPOST
  1

  9
$DIMAPOST
  1

  9
$DIMALT
 70
     0
  9
$DIMALTD
 70
     2
  9
$DIMALTF
 40
25.4
  9
$DIMLFAC
 40
1.0
  9
$DIMTOFL
 70
     0
  9
$DIMTVP
 40
0.0
  9
$DIMTIX
 70
     0
  9
$DIMSOXD
 70
     0
  9
$DIMSAH
 70
     0
  9
$DIMBLK1
  1

  9
$DIMBLK2
  1

  9
$DIMSTYLE
  2
Standard
  9
$DIMCLRD
 70
     0
  9
$DIMCLRE
 70
     0
  9
$DIMCLRT
 70
     0
  9
$DIMTFAC
 40
1.0
  9
$DIMGAP
 40
0.09
  9
$DIMJUST
 70
     0
  9
$DIMSD1
 70
     0
  9
$DIMSD2
 70
     0
  9
$DIMTOLJ
 70
     1
  9
$DIMTZIN
 70
     0
  9
$DIMALTZ
 70
     0
  9
$DIMALTTZ
 70
     0
  9
$DIMUPT
 70
     0
  9
$DIMDEC
 70
     4
  9
$DIMTDEC
 70
     4
  9
$DIMALTU
 70
     2
  9
$DIMALTTD
 70
     2
  9
$DIMTXSTY
  7
Standard
  9
$DIMAUNIT
 70
     0
  9
$DIMADEC
 70
     0
  9
$DIMALTRND
 40
0.0
  9
$DIMAZIN
 70
     0
  9
$DIMDSEP
 70
     0
  9
$DIMATFIT
 70
     3
  9
$DIMFRAC
 70
     0
  9
$DIMLDRBLK
  1

  9
$DIMLUNIT
 70
     2
  9
$DIMLWD
 70
     0
  9
$DIMLWE
 70
     0
  9
$DIMTMOVE
 70
     0
  9
$LUNITS
 70
     2
  9
$LUPREC
 70
     4
  9
$SKETCHINC
 40
0.1
  9
$FILLETRAD
 40
0.0
  9
$AUNITS
 70
     0
  9
$AUPREC
 70
     0
  9
$MENU
  1
acad
  9
$ELEVATION
 40
0.0
  9
$PELEVATION
 40
0.0
  9
$THICKNESS
 40
0.0
  9
$LIMCHECK
 70
     0
  9
$CHAMFERA
 40
0.0
  9
$CHAMFERB
 40
0.0
  9
$CHAMFERC
 40
0.0
  9
$CHAMFERD
 40
0.0
  9
$SKPOLY
 70
     0
  9
$TDCREATE
 40
0.000000000
  9
$TDUCREATE
 40
0.000000000
  9
$TDUPDATE
 40
0.000000000
  9
$TDUUPDATE
 40
0.000000000
  9
$TDINDWG
 40
0.0000000000
  9
$TDUSRTIMER
 40
0.0000000000
  9
$USRTIMER
 70
     1
  9
$ANGBASE
 50
0.0
  9
$ANGDIR
 70
     0
  9
$PDMODE
 70
     0
  9
$PDSIZE
 40
0.0
  9
$PLINEWID
 40
0.0
  9
$SPLFRAME
 70
     0
  9
$SPLINETYPE
 70
     6
  9
$SPLINESEGS
 70
     8
  9
$HANDSEED
  5
58
  9
$SURFTAB1
 70
     6
  9
$SURFTAB2
 70
     6
  9
$SURFTYPE
 70
     6
  9
$SURFU
 70
     6
  9
$SURFV
 70
     6
  9
$UCSBASE
  2

  9
$UCSNAME
  2

  9
$UCSORG
 10
0.0
 20
0.0
 30
0.0
  9
$UCSXDIR
 10
1.0
 20
0.0
 30
0.0
  9
$UCSYDIR
 10
0.0
 20
1.0
 30
0.0
  9
$UCSORTHOREF
  2

  9
$UCSORTHOVIEW
 70
     0
  9
$UCSORGTOP
 10
0.0
 20
0.0
 30
0.0
  9
$UCSORGBOTTOM
 10
0.0
 20
0.0
 30
0.0
  9
$UCSORGLEFT
 10
0.0
 20
0.0
 30
0.0
  9
$UCSORGRIGHT
 10
0.0
 20
0.0
 30
0.0
  9
$UCSORGFRONT
 10
0.0
 20
0.0
 30
0.0
  9
$UCSORGBACK
 10
0.0
 20
0.0
 30
0.0
  9
$PUCSBASE
  2

  9
$PUCSNAME
  2

  9
$PUCSORG
 10
0.0
 20
0.0
 30
0.0
  9
$PUCSXDIR
 10
1.0
 20
0.0
 30
0.0
  9
$PUCSYDIR
 10
0.0
 20
1.0
 30
0.0
  9
$PUCSORTHOREF
  2

  9
$PUCSORTHOVIEW
 70
     0
  9
$PUCSORGTOP
 10
0.0
 20
0.0
 30
0.0
  9
$PUCSORGBOTTOM
 10
0.0
 20
0.0
 30
0.0
  9
$PUCSORGLEFT
 10
0.0
 20
0.0
 30
0.0
  9
$PUCSORGRIGHT
 10
0.0
 20
0.0
 30
0.0
  9
$PUCSORGFRONT
 10
0.0
 20
0.0
 30
0.0
  9
$PUCSORGBACK
 10
0.0
 20
0.0
 30
0.0
  9
$USERI1
 70
     0
  9
$USERI2
 70
     0
  9
$USERI3
 70
     0
  9
$USERI4
 70
     0
  9
$USERI5
 70
     0
  9
$USERR1
 40
0.0
  9
$USERR2
 40
0.0
  9
$USERR3
 40
0.0
  9
$USERR4
 40
0.0
  9
$USERR5
 40
0.0
  9
$WORLDVIEW
 70
     1
  9
$SHADEDGE
 70
     3
  9
$SHADEDIF
 70
    70
  9
$TILEMODE
 70
     1
  9
$MAXACTVP
 70
    16
  9
$PINSBASE
 10
0.0
 20
0.0
 30
0.0
  9
$PLIMCHECK
 70
     0
  9
$PEXTMIN
 10
1.000000E+20
 20
1.000000E+20
 30
1.000000E+20
  9
$PEXTMAX
 10
-1.000000E+20
 20
-1.000000E+20
 30
-1.000000E+20
  9
$PLIMMIN
 10
0.0
 20
0.0
  9
$PLIMMAX
 10
12.0
 20
9.0
  9
$UNITMODE
 70
     0
  9
$VISRETAIN
 70
     0
  9
$PLINEGEN
 70
     1
  9
$PSLTSCALE
 70
     0
  9
$TREEDEPTH
 70
  3020
  9
$CMLSTYLE
  2
Standard
  9
$CMLJUST
 70
     0
  9
$CMLSCALE
 40
1.0
  9
$PROXYGRAPHICS
 70
     0
  9
$MEASUREMENT
 70
     0
  9
$CELWEIGHT
370
     0
  9
$ENDCAPS
280
     0
  9
$JOINSTYLE
280
     0
  9
$LWDISPLAY
290
     0
  9
$INSUNITS
 70
     5
  9
$HYPERLINKBASE
  1

  9
$XEDIT
290
     1
  9
$CEPSNTYPE
380
     0
  9
$PSTYLEMODE
290
     1
  9
$FINGERPRINTGUID
  2

  9
$VERSIONGUID
  2

  9
$EXTNAMES
290
     1
  9
$PSVPSCALE
 40
0.0
  0
ENDSEC
  0
SECTION
  2
CLASSES
  0
CLASS
  1
LWPOLYLINE
  2
AcDbPolyline
  3
AutoCAD 2000
 90
    32768
280
     0
281
     1
  0
CLASS
  1
IMAGE
  2
AcDbRasterImage
  3
ISM
 90
    32895
280
     0
281
     1
  0
CLASS
  1
OLE2FRAME
  2
AcDbOle2Frame
  3
AutoCAD 2000
 90
    32768
280
     0
281
     1
  0
CLASS
  1
HATCH
  2
AcDbHatch
  3
AutoCAD 2000
 90
    32768
280
     0
281
     1
  0
CLASS
  1
DICTIONARYVAR
  2
AcDbDictionaryVar
  3
AutoCAD 2000
 90
    32768
280
     0
281
     0
  0
CLASS
  1
RASTERVARIABLES
  2
AcDbRasterVariables
  3
ISM
 90
    32768
280
     0
281
     0
  0
CLASS
  1
IMAGEDEF
  2
AcDbRasterImageDef
  3
ISM
 90
    32768
280
     0
281
     0
  0
CLASS
  1
IMAGEDEF_REACTOR
  2
AcDbRasterImageDefReactor
  3
ISM
 90
    32769
280
     0
281
     0
  0
CLASS
  1
IDBUFFER
  2
AcDbIdBuffer
  3
AutoCAD 2000
 90
    32768
280
     0
281
     0
  0
CLASS
  1
SPATIAL_FILTER
  2
AcDbSpatialFilter
  3
AutoCAD 2000
 90
    32768
280
     0
281
     0
  0
CLASS
  1
XRECORD
  2
AcDbXrecord
  3
AutoCAD 2000
 90
    32768
280
     0
281
     0
  0
CLASS
  1
SORTENTSTABLE
  2
AcDbSortentsTable
  3
AutoCAD 2000
 90
    32768
280
     0
281
     0
  0
CLASS
  1
LAYER_INDEX
  2
AcDbLayerIndex
  3
AutoCAD 2000
 90
    32768
280
     0
281
     0
  0
CLASS
  1
SPATIAL_INDEX
  2
AcDbSpatialIndex
  3
AutoCAD 2000
 90
    32768
280
     0
281
     0
  0
CLASS
  1
OBJECT_PTR
  2
CAseDLPNTableRecord
  3
"ASE-LPNTableRecord"
 90
    32769
280
     0
281
     0
  0
CLASS
  1
LAYOUT
  2
AcDbLayout
  3
AutoCAD 2000
 90
        0
280
     0
281
     0
  0
CLASS
  1
PLOTSETTINGS
  2
AcDbPlotSettings
  3
AutoCAD 2000
 90
    32768
280
     0
281
     0
  0
CLASS
  1
ACDBDICTIONARYWDFLT
  2
AcDbDictionaryWithDefault
  3
AutoCAD 2000
 90
        0
280
     0
281
     0
  0
CLASS
  1
ACDBPLACEHOLDER
  2
AcDbPlaceHolder
  3
AutoCAD 2000
 90
        0
280
     0
281
     0
  0
CLASS
  1
VBA_PROJECT
  2
AcDbVbaProject
  3
acadvba
 90
    32768
280
     0
281
     0
  0
CLASS
  1
WIPEOUT
  2
AcDbWipeout
  3
WipeOut|AutoCAD Express Tool|expresstools@autodesk.com
 90
    32895
280
     0
281
     1
  0
CLASS
  1
WIPEOUTVARIABLES
  2
AcDbWipeoutVariables
  3
WipeOut|AutoCAD Express Tool|expresstools@autodesk.com
 90
        0
280
     0
281
     0
  0
CLASS
  1
RTEXT
  2
RText
  3
RText|AutoCAD Express Tool|expresstools@autodesk.com
 90
    32768
280
     0
281
     1
  0
CLASS
  1
ARCALIGNEDTEXT
  2
AcDbArcAlignedText
  3
ATEXT|AutoCAD Express Tool|expresstools@autodesk.com
 90
    32768
280
     0
281
     1
  0
ENDSEC
  0
SECTION
  2
TABLES
  0
TABLE
  2
VPORT
  5
7
100
AcDbSymbolTable
 70
     1
  0
VPORT
  5
15
100
AcDbSymbolTableRecord
100
AcDbViewportTableRecord
  2
*ACTIVE
 70
     0
 10
0.0
 20
0.0
 11
1.0
 21
1.0
 12
6.591288
 22
4.579184
 13
0.0
 23
0.0
 14
1.0
 24
1.0
 15
0.0
 25
0.0
 16
0.0
 26
0.0
 36
1.0
 17
0.0
 27
0.0
 37
0.0
 40
9.158369
 41
0.688564
 42
50.0
 43
0.0
 44
0.0
 50
0.0
 51
0.0
 71
     0
 72
   100
 73
     1
 74
     1
 75
     0
 76
     0
 77
     0
 78
     0
281
     0
 65
     0
110
0.0
120
0.0
130
0.0
111
1.0
121
0.0
131
0.0
112
0.0
122
1.0
132
0.0
345
0
346
0
 79
     0
146
0.0
  0
ENDTAB
  0
TABLE
  2
LTYPE
  5
4
100
AcDbSymbolTable
 70
     3
  0
LTYPE
  5
11
100
AcDbSymbolTableRecord
100
AcDbLinetypeTableRecord
  2
ByBlock
 70
    64
  3

 72
    65
 73
     0
 40
0.0
  0
LTYPE
  5
12
100
AcDbSymbolTableRecord
100
AcDbLinetypeTableRecord
  2
ByLayer
 70
    64
  3

 72
    65
 73
     0
 40
0.0
  0
LTYPE
  5
13
100
AcDbSymbolTableRecord
100
AcDbLinetypeTableRecord
  2
Continuous
 70
    64
  3
Solid line
 72
    65
 73
     0
 40
0.0
  0
ENDTAB
  0
TABLE
  2
LAYER
  5
2
100
AcDbSymbolTable
 70
     2
  0
LAYER
  5
14
100
AcDbSymbolTableRecord
100
AcDbLayerTableRecord
  2
0
 70
     0
 62
     7
  6
Continuous
290
     1
370
    -3
390
1D
  0
LAYER
  5
24
100
AcDbSymbolTableRecord
100
AcDbLayerTableRecord
  2
Ebene 1
 70
     0
 62
     7
  6
Continuous
290
     1
370
    -3
390
1F
  0
ENDTAB
  0
TABLE
  2
STYLE
  5
3
100
AcDbSymbolTable
 70
     1
  0
STYLE
  5
17
100
AcDbSymbolTableRecord
100
AcDbTextStyleTableRecord
  2
Standard
 70
     0
 40
0.0
 41
1.0
 50
0.0
 71
     0
 42
0.0
  3
txt
  4

  0
ENDTAB
  0
TABLE
  2
VIEW
  5
5
100
AcDbSymbolTable
 70
     0
  0
ENDTAB
  0
TABLE
  2
UCS
  5
6
100
AcDbSymbolTable
 70
     0
  0
ENDTAB
  0
TABLE
  2
APPID
  5
8
100
AcDbSymbolTable
 70
     1
  0
APPID
  5
16
100
AcDbSymbolTableRecord
100
AcDbRegAppTableRecord
  2
ACAD
 70
     0
  0
ENDTAB
  0
TABLE
  2
DIMSTYLE
  5
9
100
AcDbSymbolTable
 70
     1
100
AcDbDimStyleTable
 71
     0
  0
DIMSTYLE
105
18
100
AcDbSymbolTableRecord
100
AcDbDimStyleTableRecord
  2
Standard
 70
     0
  3

  4

 40
1.0
 41
0.18
 42
0.0625
 43
0.38
 44
0.18
 45
0.0
 46
0.0
 47
0.0
 48
0.0
 71
     0
 72
     0
 73
     1
 74
     1
 75
     0
 76
     0
 77
     0
 78
     0
 79
     0
140
0.18
141
0.09
142
0.0
143
25.4
144
1.0
145
0.0
146
1.0
147
0.09
148
0.0
170
     0
171
     2
172
     0
173
     0
174
     0
175
     0
176
     0
177
     0
178
     0
179
     0
271
     4
272
     4
273
     2
274
     2
275
     0
276
     0
277
     2
278
    46
279
     0
280
     0
281
     0
282
     0
283
     1
284
     0
285
     0
286
     0
288
     0
340
17
341
0
342
0
343
0
344
0
371
    -2
372
    -2
  0
ENDTAB
  0
TABLE
  2
BLOCK_RECORD
  5
1
100
AcDbSymbolTable
 70
     0
  0
BLOCK_RECORD
  5
A
100
AcDbSymbolTableRecord
100
AcDbBlockTableRecord
  2
*MODEL_SPACE
340
20
  0
BLOCK_RECORD
  5
B
100
AcDbSymbolTableRecord
100
AcDbBlockTableRecord
  2
*PAPER_SPACE
340
21
  0
ENDTAB
  0
ENDSEC
  0
SECTION
  2
BLOCKS
  0
BLOCK
  5
D
100
AcDbEntity
  8
0
100
AcDbBlockBegin
  2
*MODEL_SPACE
 70
     0
 10
0.0
 20
0.0
 30
0.0
  3
*MODEL_SPACE
  1

  0
ENDBLK
  5
E
100
AcDbEntity
  8
0
100
AcDbBlockEnd
  0
BLOCK
  5
F
100
AcDbEntity
 67
     1
  8
0
100
AcDbBlockBegin
  2
*PAPER_SPACE
 70
     0
 10
0.0
 20
0.0
 30
0.0
  3
*PAPER_SPACE
  1

  0
ENDBLK
  5
10
100
AcDbEntity
 67
     1
  8
0
100
AcDbBlockEnd
  0
ENDSEC
  0
SECTION
  2
ENTITIES
  0
SPLINE
  5
25
100
AcDbEntity
  8
Ebene 1
100
AcDbSpline
210
0.0
220
0.0
230
1.0
 70
     1
 71
     3
 72
   124
 73
   120
 74
     0
 42
0.0000000001
 43
0.0000000001
 40
0.0
 40
0.0
 40
0.0
 40
0.0
 40
0.0333333333333333
 40
0.0333333333333333
 40
0.0333333333333333
 40
0.0333333333333333
 40
0.0666666666666667
 40
0.0666666666666667
 40
0.0666666666666667
 40
0.0666666666666667
 40
0.1
 40
0.1
 40
0.1
 40
0.1
 40
0.1333333333333333
 40
0.1333333333333333
 40
0.1333333333333333
 40
0.1333333333333333
 40
0.1666666666666667
 40
0.1666666666666667
 40
0.1666666666666667
 40
0.1666666666666667
 40
0.2
 40
0.2
 40
0.2
 40
0.2
 40
0.2333333333333333
 40
0.2333333333333333
 40
0.2333333333333333
 40
0.2333333333333333
 40
0.2666666666666667
 40
0.2666666666666667
 40
0.2666666666666667
 40
0.2666666666666667
 40
0.3
 40
0.3
 40
0.3
 40
0.3
 40
0.3333333333333333
 40
0.3333333333333333
 40
0.3333333333333333
 40
0.3333333333333333
 40
0.3666666666666666
 40
0.3666666666666666
 40
0.3666666666666666
 40
0.3666666666666666
 40
0.4
 40
0.4
 40
0.4
 40
0.4
 40
0.4333333333333333
 40
0.4333333333333333
 40
0.4333333333333333
 40
0.4333333333333333
 40
0.4666666666666666
 40
0.4666666666666666
 40
0.4666666666666666
 40
0.4666666666666666
 40
0.4999999999999999
 40
0.4999999999999999
 40
0.4999999999999999
 40
0.4999999999999999
 40
0.5333333333333333
 40
0.5333333333333333
 40
0.5333333333333333
 40
0.5333333333333333
 40
0.5666666666666667
 40
0.5666666666666667
 40
0.5666666666666667
 40
0.5666666666666667
 40
0.6
 40
0.6
 40
0.6
 40
0.6
 40
0.6333333333333333
 40
0.6333333333333333
 40
0.6333333333333333
 40
0.6333333333333333
 40
0.6666666666666666
 40
0.6666666666666666
 40
0.6666666666666666
 40
0.6666666666666666
 40
0.7
 40
0.7
 40
0.7
 40
0.7
 40
0.7333333333333333
 40
0.7333333333333333
 40
0.7333333333333333
 40
0.7333333333333333
 40
0.7666666666666666
 40
0.7666666666666666
 40
0.7666666666666666
 40
0.7666666666666666
 40
0.7999999999999999
 40
0.7999999999999999
 40
0.7999999999999999
 40
0.7999999999999999
 40
0.8333333333333333
 40
0.8333333333333333
 40
0.8333333333333333
 40
0.8333333333333333
 40
0.8666666666666666
 40
0.8666666666666666
 40
0.8666666666666666
 40
0.8666666666666666
 40
0.8999999999999999
 40
0.8999999999999999
 40
0.8999999999999999
 40
0.8999999999999999
 40
0.9333333333333332
 40
0.9333333333333332
 40
0.9333333333333332
 40
0.9333333333333332
 40
0.9666666666666666
 40
0.9666666666666666
 40
0.9666666666666666
 40
0.9666666666666666
 40
1.0
 40
1.0
 40
1.0
 40
1.0
 10
-3.7819100000000003
 20
-0.36124
 30
0.0
 10
-3.6193500000000003
 20
-0.21392
 30
0.0
 10
-3.2840700000000003
 20
-0.10724
 30
0.0
 10
-3.1697700000000002
 20
-0.32822
 30
0.0
 10
-3.1697700000000002
 20
-0.32822
 30
0.0
 10
-3.1342100000000004
 20
-0.50856
 30
0.0
 10
-3.2332700000000001
 20
-0.69398
 30
0.0
 10
-3.2104100000000004
 20
-0.8819400000000001
 30
0.0
 10
-3.2104100000000004
 20
-0.8819400000000001
 30
0.0
 10
-3.2104100000000004
 20
-0.8819400000000001
 30
0.0
 10
-2.7608300000000003
 20
-0.6406400000000001
 30
0.0
 10
-2.7608300000000003
 20
-0.6406400000000001
 30
0.0
 10
-2.7608300000000003
 20
-0.6406400000000001
 30
0.0
 10
-2.9538700000000002
 20
-0.44252
 30
0.0
 10
-2.8319500000000004
 20
-0.17328
 30
0.0
 10
-2.7582900000000001
 20
0.05531
 30
0.0
 10
-2.7582900000000001
 20
0.05531
 30
0.0
 10
-2.6871700000000001
 20
0.46679
 30
0.0
 10
-3.0503900000000002
 20
0.9265300000000001
 30
0.0
 10
-2.9513300000000005
 20
1.3430900000000001
 30
0.0
 10
-2.9513300000000005
 20
1.3430900000000001
 30
0.0
 10
-2.9106900000000002
 20
1.5081900000000001
 30
0.0
 10
-2.7659100000000003
 20
1.6631300000000002
 30
0.0
 10
-2.6820900000000001
 20
2.0034900000000002
 30
0.0
 10
-2.6820900000000001
 20
2.0034900000000002
 30
0.0
 10
-2.6135100000000002
 20
5.4604300000000006
 30
0.0
 10
3.0278200000000002
 20
6.0522500000000008
 30
0.0
 10
3.6679000000000004
 20
2.6003900000000004
 30
0.0
 10
3.6679000000000004
 20
2.6003900000000004
 30
0.0
 10
4.4781600000000008
 20
3.0448900000000001
 30
0.0
 10
5.3798600000000008
 20
3.4284300000000001
 30
0.0
 10
6.2790200000000009
 20
3.4589100000000004
 30
0.0
 10
6.2790200000000009
 20
3.4589100000000004
 30
0.0
 10
5.5475000000000003
 20
2.6994500000000001
 30
0.0
 10
4.7524800000000003
 20
1.9653900000000002
 30
0.0
 10
3.7441000000000004
 20
1.69869
 30
0.0
 10
3.7441000000000004
 20
1.69869
 30
0.0
 10
3.6526600000000005
 20
0.9214500000000001
 30
0.0
 10
3.5917000000000003
 20
0.06801
 30
0.0
 10
2.9973400000000003
 20
-0.473
 30
0.0
 10
2.9973400000000003
 20
-0.473
 30
0.0
 10
3.2411800000000004
 20
-1.16896
 30
0.0
 10
2.3090000000000002
 20
-1.1334000000000002
 30
0.0
 10
1.9432400000000001
 20
-1.3696200000000001
 30
0.0
 10
1.9432400000000001
 20
-1.3696200000000001
 30
0.0
 10
1.6841600000000001
 20
-2.05796
 30
0.0
 10
1.06948
 20
-2.6802600000000001
 30
0.0
 10
1.31332
 20
-3.4702000000000002
 30
0.0
 10
1.31332
 20
-3.4702000000000002
 30
0.0
 10
0.42686
 20
-3.9045400000000003
 30
0.0
 10
-0.27671
 20
-5.2990000000000004
 30
0.0
 10
-1.3536700000000002
 20
-4.8164000000000007
 30
0.0
 10
-1.3536700000000002
 20
-4.8164000000000007
 30
0.0
 10
-1.54671
 20
-4.7986200000000006
 30
0.0
 10
-1.7854700000000001
 20
-4.9129200000000006
 30
0.0
 10
-1.9454900000000002
 20
-4.81386
 30
0.0
 10
-1.9454900000000002
 20
-4.81386
 30
0.0
 10
-1.9581900000000001
 20
-4.2652200000000002
 30
0.0
 10
-2.4357100000000003
 20
-3.8308800000000005
 30
0.0
 10
-2.2198100000000003
 20
-3.2543000000000002
 30
0.0
 10
-2.2198100000000003
 20
-3.2543000000000002
 30
0.0
 10
-2.0826500000000001
 20
-3.1882600000000001
 30
0.0
 10
-2.22743
 20
-3.4600400000000002
 30
0.0
 10
-2.1182100000000004
 20
-3.5032200000000002
 30
0.0
 10
-2.1182100000000004
 20
-3.5032200000000002
 30
0.0
 10
-2.05471
 20
-2.9190200000000002
 30
0.0
 10
-1.7880100000000001
 20
-3.0993600000000003
 30
0.0
 10
-1.7829300000000001
 20
-2.6320000000000001
 30
0.0
 10
-1.7829300000000001
 20
-2.6320000000000001
 30
0.0
 10
-1.9531100000000001
 20
-2.52786
 30
0.0
 10
-2.0572500000000002
 20
-3.0028400000000004
 30
0.0
 10
-2.1004300000000002
 20
-2.5812000000000004
 30
0.0
 10
-2.1004300000000002
 20
-2.5812000000000004
 30
0.0
 10
-2.2350500000000002
 20
-2.6802600000000001
 30
0.0
 10
-2.3341100000000004
 20
-2.7107400000000004
 30
0.0
 10
-2.4026900000000002
 20
-2.3678400000000002
 30
0.0
 10
-2.4026900000000002
 20
-2.3678400000000002
 30
0.0
 10
-2.4992100000000002
 20
-2.2891000000000004
 30
0.0
 10
-2.4839700000000002
 20
-2.5888200000000001
 30
0.0
 10
-2.6008100000000001
 20
-2.5431000000000004
 30
0.0
 10
-2.6008100000000001
 20
-2.5431000000000004
 30
0.0
 10
-2.7659100000000003
 20
-2.0909800000000001
 30
0.0
 10
-2.5220700000000003
 20
-1.6033000000000002
 30
0.0
 10
-2.5931900000000003
 20
-1.1461000000000001
 30
0.0
 10
-2.5931900000000003
 20
-1.1461000000000001
 30
0.0
 10
-2.5931900000000003
 20
-1.1461000000000001
 30
0.0
 10
-3.2459700000000002
 20
-1.46106
 30
0.0
 10
-3.2459700000000002
 20
-1.46106
 30
0.0
 10
-3.2459700000000002
 20
-1.46106
 30
0.0
 10
-3.7412700000000001
 20
-2.4440400000000002
 30
0.0
 10
-4.4270700000000005
 20
-3.4778200000000004
 30
0.0
 10
-5.6284900000000002
 20
-3.3635200000000003
 30
0.0
 10
-5.6284900000000002
 20
-3.3635200000000003
 30
0.0
 10
-5.7935900000000009
 20
-3.4067000000000003
 30
0.0
 10
-5.9180500000000009
 20
-3.5743400000000003
 30
0.0
 10
-6.0831500000000007
 20
-3.5997400000000002
 30
0.0
 10
-6.0831500000000007
 20
-3.5997400000000002
 30
0.0
 10
-6.0374300000000005
 20
-3.4143200000000005
 30
0.0
 10
-5.9459900000000001
 20
-3.2035000000000005
 30
0.0
 10
-5.8012100000000002
 20
-3.0714200000000003
 30
0.0
 10
-5.8012100000000002
 20
-3.0714200000000003
 30
0.0
 10
-5.9409100000000006
 20
-2.9876
 30
0.0
 10
-6.1644300000000003
 20
-2.9952200000000002
 30
0.0
 10
-6.2660300000000007
 20
-2.8301200000000004
 30
0.0
 10
-6.2660300000000007
 20
-2.8301200000000004
 30
0.0
 10
-6.3168300000000004
 20
-2.6015200000000003
 30
0.0
 10
-6.1314100000000007
 20
-2.4491200000000002
 30
0.0
 10
-6.0221900000000002
 20
-2.27894
 30
0.0
 10
-6.0221900000000002
 20
-2.27894
 30
0.0
 10
-5.32369
 20
-2.23576
 30
0.0
 10
-4.6658300000000006
 20
-1.8344400000000001
 30
0.0
 10
-4.3864300000000007
 20
-1.1867400000000001
 30
0.0
 10
-4.3864300000000007
 20
-1.1867400000000001
 30
0.0
 10
-4.3280099999999999
 20
-1.0495800000000002
 30
0.0
 10
-4.0714700000000006
 20
-0.8311400000000001
 30
0.0
 10
-3.9317700000000002
 20
-0.6508000000000001
 30
0.0
 10
-3.9317700000000002
 20
-0.6508000000000001
 30
0.0
 10
-3.8225500000000001
 20
-0.5111
 30
0.0
 10
-3.8200100000000003
 20
-0.3942600000000001
 30
0.0
 10
-3.7819100000000003
 20
-0.36124
 30
0.0
  0
SPLINE
  5
26
100
AcDbEntity
  8
Ebene 1
100
AcDbSpline
210
0.0
220
0.0
230
1.0
 70
     1
 71
     3
 72
    72
 73
    68
 74
     0
 42
0.0000000001
 43
0.0000000001
 40
0.0
 40
0.0
 40
0.0
 40
0.0
 40
0.0588235294117647
 40
0.0588235294117647
 40
0.0588235294117647
 40
0.0588235294117647
 40
0.1176470588235294
 40
0.1176470588235294
 40
0.1176470588235294
 40
0.1176470588235294
 40
0.1764705882352941
 40
0.1764705882352941
 40
0.1764705882352941
 40
0.1764705882352941
 40
0.2352941176470588
 40
0.2352941176470588
 40
0.2352941176470588
 40
0.2352941176470588
 40
0.2941176470588235
 40
0.2941176470588235
 40
0.2941176470588235
 40
0.2941176470588235
 40
0.3529411764705883
 40
0.3529411764705883
 40
0.3529411764705883
 40
0.3529411764705883
 40
0.411764705882353
 40
0.411764705882353
 40
0.411764705882353
 40
0.411764705882353
 40
0.4705882352941177
 40
0.4705882352941177
 40
0.4705882352941177
 40
0.4705882352941177
 40
0.5294117647058824
 40
0.5294117647058824
 40
0.5294117647058824
 40
0.5294117647058824
 40
0.5882352941176471
 40
0.5882352941176471
 40
0.5882352941176471
 40
0.5882352941176471
 40
0.6470588235294118
 40
0.6470588235294118
 40
0.6470588235294118
 40
0.6470588235294118
 40
0.7058823529411765
 40
0.7058823529411765
 40
0.7058823529411765
 40
0.7058823529411765
 40
0.7647058823529412
 40
0.7647058823529412
 40
0.7647058823529412
 40
0.7647058823529412
 40
0.823529411764706
 40
0.823529411764706
 40
0.823529411764706
 40
0.823529411764706
 40
0.8823529411764707
 40
0.8823529411764707
 40
0.8823529411764707
 40
0.8823529411764707
 40
0.9411764705882354
 40
0.9411764705882354
 40
0.9411764705882354
 40
0.9411764705882354
 40
1.0
 40
1.0
 40
1.0
 40
1.0
 10
-0.14717
 20
-1.3975600000000001
 30
0.0
 10
-0.13193
 20
-1.5702800000000001
 30
0.0
 10
0.00268
 20
-1.7404600000000001
 30
0.0
 10
-0.10399
 20
-1.9030200000000002
 30
0.0
 10
-0.10399
 20
-1.9030200000000002
 30
0.0
 10
-0.15479
 20
-2.14432
 30
0.0
 10
-0.28179
 20
-1.9538200000000001
 30
0.0
 10
-0.40117
 20
-1.8801600000000001
 30
0.0
 10
-0.40117
 20
-1.8801600000000001
 30
0.0
 10
-0.4494300000000001
 20
-2.0427200000000001
 30
0.0
 10
-0.47737
 20
-2.2129000000000003
 30
0.0
 10
-0.5002300000000001
 20
-2.3830800000000001
 30
0.0
 10
-0.5002300000000001
 20
-2.3830800000000001
 30
0.0
 10
-0.6272300000000001
 20
-2.43642
 30
0.0
 10
-0.61453
 20
-2.2662400000000003
 30
0.0
 10
-0.67549
 20
-2.2154400000000001
 30
0.0
 10
-0.67549
 20
-2.2154400000000001
 30
0.0
 10
-0.7085100000000001
 20
-2.3957800000000002
 30
0.0
 10
-0.7669300000000001
 20
-2.7539200000000004
 30
0.0
 10
-0.88885
 20
-2.5202400000000003
 30
0.0
 10
-0.88885
 20
-2.5202400000000003
 30
0.0
 10
-0.6907300000000001
 20
-2.9215600000000004
 30
0.0
 10
-1.2368300000000001
 20
-3.2771600000000003
 30
0.0
 10
-0.9244100000000001
 20
-3.6353000000000004
 30
0.0
 10
-0.9244100000000001
 20
-3.6353000000000004
 30
0.0
 10
-0.9244100000000001
 20
-3.6353000000000004
 30
0.0
 10
-0.80249
 20
-3.2670000000000003
 30
0.0
 10
-0.80249
 20
-3.2670000000000003
 30
0.0
 10
-0.80249
 20
-3.2670000000000003
 30
0.0
 10
-0.7339100000000001
 20
-3.3355800000000002
 30
0.0
 10
-0.8101100000000001
 20
-3.4600400000000002
 30
0.0
 10
-0.8304300000000001
 20
-3.5413200000000002
 30
0.0
 10
-0.8304300000000001
 20
-3.5413200000000002
 30
0.0
 10
-0.8304300000000001
 20
-3.6403800000000004
 30
0.0
 10
-0.9396500000000001
 20
-3.7470600000000003
 30
0.0
 10
-0.8736100000000001
 20
-3.8207200000000001
 30
0.0
 10
-0.8736100000000001
 20
-3.8207200000000001
 30
0.0
 10
-0.6272300000000001
 20
-3.7572200000000002
 30
0.0
 10
-0.51293
 20
-3.3101800000000003
 30
0.0
 10
-0.8304300000000001
 20
-3.2314400000000001
 30
0.0
 10
-0.8304300000000001
 20
-3.2314400000000001
 30
0.0
 10
-0.8304300000000001
 20
-3.2314400000000001
 30
0.0
 10
-0.8304300000000001
 20
-3.1603200000000005
 30
0.0
 10
-0.8304300000000001
 20
-3.1603200000000005
 30
0.0
 10
-0.8304300000000001
 20
-3.1603200000000005
 30
0.0
 10
-0.69581
 20
-3.1476200000000003
 30
0.0
 10
-0.63739
 20
-3.3228800000000001
 30
0.0
 10
-0.57389
 20
-3.4117800000000003
 30
0.0
 10
-0.57389
 20
-3.4117800000000003
 30
0.0
 10
-0.43165
 20
-3.2593800000000002
 30
0.0
 10
-0.44689
 20
-3.0409400000000004
 30
0.0
 10
-0.43165
 20
-2.8555200000000003
 30
0.0
 10
-0.43165
 20
-2.8555200000000003
 30
0.0
 10
-0.3224300000000001
 20
-2.9825200000000001
 30
0.0
 10
-0.17511
 20
-3.1146000000000003
 30
0.0
 10
-0.09637
 20
-2.8555200000000003
 30
0.0
 10
-0.09637
 20
-2.8555200000000003
 30
0.0
 10
-0.09637
 20
-2.8555200000000003
 30
0.0
 10
-0.00493
 20
-2.9901400000000002
 30
0.0
 10
-0.00493
 20
-2.9901400000000002
 30
0.0
 10
-0.00493
 20
-2.9901400000000002
 30
0.0
 10
0.404
 20
-2.6574000000000004
 30
0.0
 10
0.30494
 20
-1.9893800000000001
 30
0.0
 10
0.19826
 20
-1.5118600000000002
 30
0.0
 10
0.19826
 20
-1.5118600000000002
 30
0.0
 10
0.10174
 20
-1.4255000000000002
 30
0.0
 10
-0.04557
 20
-1.4788400000000002
 30
0.0
 10
-0.14717
 20
-1.3975600000000001
 30
0.0
  0
SPLINE
  5
27
100
AcDbEntity
  8
Ebene 1
100
AcDbSpline
210
0.0
220
0.0
230
1.0
 70
     1
 71
     3
 72
    20
 73
    16
 74
     0
 42
0.0000000001
 43
0.0000000001
 40
0.0
 40
0.0
 40
0.0
 40
0.0
 40
0.25
 40
0.25
 40
0.25
 40
0.25
 40
0.5
 40
0.5
 40
0.5
 40
0.5
 40
0.75
 40
0.75
 40
0.75
 40
0.75
 40
1.0
 40
1.0
 40
1.0
 40
1.0
 10
-4.8360100000000008
 20
-2.4211800000000001
 30
0.0
 10
-5.0061900000000001
 20
-2.5634200000000003
 30
0.0
 10
-5.3059100000000008
 20
-2.5634200000000003
 30
0.0
 10
-5.3998900000000001
 20
-2.7869400000000004
 30
0.0
 10
-5.3998900000000001
 20
-2.7869400000000004
 30
0.0
 10
-5.3998900000000001
 20
-2.7869400000000004
 30
0.0
 10
-5.2932100000000002
 20
-2.7564600000000001
 30
0.0
 10
-5.2932100000000002
 20
-2.7564600000000001
 30
0.0
 10
-5.2932100000000002
 20
-2.7564600000000001
 30
0.0
 10
-5.2170100000000001
 20
-2.7869400000000004
 30
0.0
 10
-5.3033700000000001
 20
-2.8504400000000003
 30
0.0
 10
-5.2881300000000007
 20
-2.8961600000000001
 30
0.0
 10
-5.2881300000000007
 20
-2.8961600000000001
 30
0.0
 10
-5.0696900000000005
 20
-2.8301200000000004
 30
0.0
 10
-4.8055300000000001
 20
-2.6828000000000003
 30
0.0
 10
-4.8360100000000008
 20
-2.4211800000000001
 30
0.0
  0
SPLINE
  5
28
100
AcDbEntity
  8
Ebene 1
 62
     7
100
AcDbSpline
210
0.0
220
0.0
230
1.0
 70
     1
 71
     3
 72
   184
 73
   180
 74
     0
 42
0.0000000001
 43
0.0000000001
 40
0.0
 40
0.0
 40
0.0
 40
0.0
 40
0.0222222222222222
 40
0.0222222222222222
 40
0.0222222222222222
 40
0.0222222222222222
 40
0.0444444444444444
 40
0.0444444444444444
 40
0.0444444444444444
 40
0.0444444444444444
 40
0.0666666666666667
 40
0.0666666666666667
 40
0.0666666666666667
 40
0.0666666666666667
 40
0.0888888888888889
 40
0.0888888888888889
 40
0.0888888888888889
 40
0.0888888888888889
 40
0.1111111111111111
 40
0.1111111111111111
 40
0.1111111111111111
 40
0.1111111111111111
 40
0.1333333333333333
 40
0.1333333333333333
 40
0.1333333333333333
 40
0.1333333333333333
 40
0.1555555555555556
 40
0.1555555555555556
 40
0.1555555555555556
 40
0.1555555555555556
 40
0.1777777777777778
 40
0.1777777777777778
 40
0.1777777777777778
 40
0.1777777777777778
 40
0.2
 40
0.2
 40
0.2
 40
0.2
 40
0.2222222222222222
 40
0.2222222222222222
 40
0.2222222222222222
 40
0.2222222222222222
 40
0.2444444444444445
 40
0.2444444444444445
 40
0.2444444444444445
 40
0.2444444444444445
 40
0.2666666666666667
 40
0.2666666666666667
 40
0.2666666666666667
 40
0.2666666666666667
 40
0.2888888888888889
 40
0.2888888888888889
 40
0.2888888888888889
 40
0.2888888888888889
 40
0.3111111111111111
 40
0.3111111111111111
 40
0.3111111111111111
 40
0.3111111111111111
 40
0.3333333333333333
 40
0.3333333333333333
 40
0.3333333333333333
 40
0.3333333333333333
 40
0.3555555555555555
 40
0.3555555555555555
 40
0.3555555555555555
 40
0.3555555555555555
 40
0.3777777777777777
 40
0.3777777777777777
 40
0.3777777777777777
 40
0.3777777777777777
 40
0.3999999999999999
 40
0.3999999999999999
 40
0.3999999999999999
 40
0.3999999999999999
 40
0.4222222222222221
 40
0.4222222222222221
 40
0.4222222222222221
 40
0.4222222222222221
 40
0.4444444444444443
 40
0.4444444444444443
 40
0.4444444444444443
 40
0.4444444444444443
 40
0.4666666666666665
 40
0.4666666666666665
 40
0.4666666666666665
 40
0.4666666666666665
 40
0.4888888888888887
 40
0.4888888888888887
 40
0.4888888888888887
 40
0.4888888888888887
 40
0.5111111111111109
 40
0.5111111111111109
 40
0.5111111111111109
 40
0.5111111111111109
 40
0.5333333333333331
 40
0.5333333333333331
 40
0.5333333333333331
 40
0.5333333333333331
 40
0.5555555555555554
 40
0.5555555555555554
 40
0.5555555555555554
 40
0.5555555555555554
 40
0.5777777777777776
 40
0.5777777777777776
 40
0.5777777777777776
 40
0.5777777777777776
 40
0.5999999999999999
 40
0.5999999999999999
 40
0.5999999999999999
 40
0.5999999999999999
 40
0.6222222222222221
 40
0.6222222222222221
 40
0.6222222222222221
 40
0.6222222222222221
 40
0.6444444444444444
 40
0.6444444444444444
 40
0.6444444444444444
 40
0.6444444444444444
 40
0.6666666666666666
 40
0.6666666666666666
 40
0.6666666666666666
 40
0.6666666666666666
 40
0.6888888888888889
 40
0.6888888888888889
 40
0.6888888888888889
 40
0.6888888888888889
 40
0.7111111111111111
 40
0.7111111111111111
 40
0.7111111111111111
 40
0.7111111111111111
 40
0.7333333333333334
 40
0.7333333333333334
 40
0.7333333333333334
 40
0.7333333333333334
 40
0.7555555555555557
 40
0.7555555555555557
 40
0.7555555555555557
 40
0.7555555555555557
 40
0.7777777777777779
 40
0.7777777777777779
 40
0.7777777777777779
 40
0.7777777777777779
 40
0.8000000000000002
 40
0.8000000000000002
 40
0.8000000000000002
 40
0.8000000000000002
 40
0.8222222222222224
 40
0.8222222222222224
 40
0.8222222222222224
 40
0.8222222222222224
 40
0.8444444444444447
 40
0.8444444444444447
 40
0.8444444444444447
 40
0.8444444444444447
 40
0.8666666666666669
 40
0.8666666666666669
 40
0.8666666666666669
 40
0.8666666666666669
 40
0.8888888888888892
 40
0.8888888888888892
 40
0.8888888888888892
 40
0.8888888888888892
 40
0.9111111111111114
 40
0.9111111111111114
 40
0.9111111111111114
 40
0.9111111111111114
 40
0.9333333333333337
 40
0.9333333333333337
 40
0.9333333333333337
 40
0.9333333333333337
 40
0.9555555555555559
 40
0.9555555555555559
 40
0.9555555555555559
 40
0.9555555555555559
 40
0.9777777777777782
 40
0.9777777777777782
 40
0.9777777777777782
 40
0.9777777777777782
 40
1.0
 40
1.0
 40
1.0
 40
1.0
 10
0.6300600000000001
 20
4.7847900000000001
 30
0.0
 10
1.8975200000000001
 20
4.9041700000000006
 30
0.0
 10
3.4088200000000004
 20
3.9059500000000003
 30
0.0
 10
3.4088200000000004
 20
2.4835500000000001
 30
0.0
 10
3.4088200000000004
 20
2.4835500000000001
 30
0.0
 10
3.1192600000000001
 20
2.2295500000000001
 30
0.0
 10
2.7204800000000002
 20
2.0974700000000004
 30
0.0
 10
2.4004400000000001
 20
1.8968100000000001
 30
0.0
 10
2.4004400000000001
 20
1.8968100000000001
 30
0.0
 10
2.41568
 20
2.0517500000000002
 30
0.0
 10
2.7052400000000003
 20
2.2270100000000004
 30
0.0
 10
2.7839800000000001
 20
2.41751
 30
0.0
 10
2.7839800000000001
 20
2.41751
 30
0.0
 10
2.2937600000000002
 20
2.16351
 30
0.0
 10
2.17184
 20
1.4650100000000001
 30
0.0
 10
1.6409800000000001
 20
1.2186300000000001
 30
0.0
 10
1.6409800000000001
 20
1.2186300000000001
 30
0.0
 10
1.7603600000000001
 20
1.14751
 30
0.0
 10
1.8822800000000002
 20
1.3811900000000001
 30
0.0
 10
2.0194400000000003
 20
1.3938900000000001
 30
0.0
 10
2.0194400000000003
 20
1.3938900000000001
 30
0.0
 10
1.7908400000000002
 20
1.0408300000000001
 30
0.0
 10
1.5622400000000001
 20
0.66491
 30
0.0
 10
1.4733400000000001
 20
0.25089
 30
0.0
 10
1.4733400000000001
 20
0.25089
 30
0.0
 10
1.6232000000000002
 20
0.29915
 30
0.0
 10
1.5774800000000002
 20
0.5404500000000001
 30
0.0
 10
1.6689200000000002
 20
0.66237
 30
0.0
 10
1.6689200000000002
 20
0.66237
 30
0.0
 10
2.2023200000000003
 20
1.6809100000000001
 30
0.0
 10
1.8975200000000001
 20
-0.9657600000000001
 30
0.0
 10
2.0499200000000002
 20
0.06801
 30
0.0
 10
2.0499200000000002
 20
0.06801
 30
0.0
 10
2.1261200000000002
 20
-0.0666
 30
0.0
 10
2.0956400000000004
 20
-0.24694
 30
0.0
 10
2.1566000000000001
 20
-0.39172
 30
0.0
 10
2.1566000000000001
 20
-0.39172
 30
0.0
 10
2.1261200000000002
 20
-0.21646
 30
0.0
 10
1.9432400000000001
 20
1.3278500000000002
 30
0.0
 10
2.2785200000000003
 20
0.4540900000000001
 30
0.0
 10
2.2785200000000003
 20
0.4540900000000001
 30
0.0
 10
2.0499200000000002
 20
1.27451
 30
0.0
 10
2.9821000000000004
 20
1.3303900000000002
 30
0.0
 10
3.4697800000000001
 20
1.5843900000000002
 30
0.0
 10
3.4697800000000001
 20
1.5843900000000002
 30
0.0
 10
3.8050600000000001
 20
0.7131700000000001
 30
0.0
 10
3.0735400000000004
 20
-0.82606
 30
0.0
 10
2.0956400000000004
 20
-0.5822200000000001
 30
0.0
 10
2.0956400000000004
 20
-0.5822200000000001
 30
0.0
 10
2.2023200000000003
 20
-0.88956
 30
0.0
 10
2.63158
 20
-0.6508000000000001
 30
0.0
 10
2.8119200000000002
 20
-0.80574
 30
0.0
 10
2.8119200000000002
 20
-0.80574
 30
0.0
 10
2.1566000000000001
 20
-1.2426200000000001
 30
0.0
 10
1.3082400000000001
 20
-0.7270000000000001
 30
0.0
 10
0.6046600000000001
 20
-0.67366
 30
0.0
 10
0.6046600000000001
 20
-0.67366
 30
0.0
 10
0.65546
 20
-0.58984
 30
0.0
 10
0.8358000000000001
 20
-0.53396
 30
0.0
 10
0.82818
 20
-0.43998
 30
0.0
 10
0.82818
 20
-0.43998
 30
0.0
 10
0.25414
 20
-0.6889000000000001
 30
0.0
 10
-0.5459500000000001
 20
-1.29088
 30
0.0
 10
-1.0615700000000001
 20
-0.67874
 30
0.0
 10
-1.0615700000000001
 20
-0.67874
 30
0.0
 10
-1.0691900000000001
 20
-1.03942
 30
0.0
 10
-1.07681
 20
-1.0546600000000002
 30
0.0
 10
-0.82281
 20
-1.0318000000000001
 30
0.0
 10
-0.82281
 20
-1.0318000000000001
 30
0.0
 10
-0.82789
 20
-1.3239000000000001
 30
0.0
 10
-0.6653300000000001
 20
-1.63124
 30
0.0
 10
-0.7872500000000001
 20
-1.92334
 30
0.0
 10
-0.7872500000000001
 20
-1.92334
 30
0.0
 10
-0.8609100000000001
 20
-1.8598400000000002
 30
0.0
 10
-0.9447300000000001
 20
-1.5372600000000001
 30
0.0
 10
-1.03617
 20
-1.71252
 30
0.0
 10
-1.03617
 20
-1.71252
 30
0.0
 10
-1.07935
 20
-1.9004800000000002
 30
0.0
 10
-1.1403100000000002
 20
-2.0071600000000003
 30
0.0
 10
-1.12507
 20
-1.7328400000000002
 30
0.0
 10
-1.12507
 20
-1.7328400000000002
 30
0.0
 10
-1.0107700000000002
 20
-1.4077200000000001
 30
0.0
 10
-1.1123700000000001
 20
-1.4128000000000001
 30
0.0
 10
-1.16571
 20
-1.7379200000000001
 30
0.0
 10
-1.16571
 20
-1.7379200000000001
 30
0.0
 10
-1.1555500000000001
 20
-1.8344400000000001
 30
0.0
 10
-1.1885700000000001
 20
-1.9792200000000002
 30
0.0
 10
-1.2342900000000001
 20
-1.8166600000000002
 30
0.0
 10
-1.2342900000000001
 20
-1.8166600000000002
 30
0.0
 10
-1.2876300000000001
 20
-1.6591800000000001
 30
0.0
 10
-0.9625100000000001
 20
-2.9545800000000004
 30
0.0
 10
-1.4019300000000001
 20
-2.31196
 30
0.0
 10
-1.4019300000000001
 20
-2.31196
 30
0.0
 10
-1.4324100000000002
 20
-2.14432
 30
0.0
 10
-1.3460500000000002
 20
-1.9462000000000002
 30
0.0
 10
-1.37907
 20
-1.7836400000000001
 30
0.0
 10
-1.37907
 20
-1.7836400000000001
 30
0.0
 10
-1.4095500000000001
 20
-1.8801600000000001
 30
0.0
 10
-1.4120900000000001
 20
-2.1697200000000003
 30
0.0
 10
-1.4755900000000002
 20
-2.1316200000000003
 30
0.0
 10
-1.4755900000000002
 20
-2.1316200000000003
 30
0.0
 10
-1.4705100000000002
 20
-2.05796
 30
0.0
 10
-1.4806700000000002
 20
-1.9868400000000002
 30
0.0
 10
-1.50099
 20
-1.9208000000000001
 30
0.0
 10
-1.50099
 20
-1.9208000000000001
 30
0.0
 10
-1.4908300000000001
 20
-1.7176000000000002
 30
0.0
 10
-1.5644900000000002
 20
-1.7861800000000001
 30
0.0
 10
-1.5517900000000002
 20
-1.92334
 30
0.0
 10
-1.5517900000000002
 20
-1.92334
 30
0.0
 10
-1.6381500000000002
 20
-1.7836400000000001
 30
0.0
 10
-1.6813300000000002
 20
-1.7836400000000001
 30
0.0
 10
-1.7041900000000001
 20
-1.92334
 30
0.0
 10
-1.7041900000000001
 20
-1.92334
 30
0.0
 10
-1.7041900000000001
 20
-1.92334
 30
0.0
 10
-1.79817
 20
-2.2560800000000003
 30
0.0
 10
-1.79817
 20
-2.2560800000000003
 30
0.0
 10
-1.79817
 20
-2.2560800000000003
 30
0.0
 10
-1.8388100000000001
 20
-2.0325600000000001
 30
0.0
 10
-1.8769100000000001
 20
-2.18242
 30
0.0
 10
-1.9531100000000001
 20
-1.8649200000000001
 30
0.0
 10
-1.9531100000000001
 20
-1.8649200000000001
 30
0.0
 10
-2.1740900000000001
 20
-2.0986000000000002
 30
0.0
 10
-2.2121900000000001
 20
-1.5702800000000001
 30
0.0
 10
-2.3722100000000004
 20
-1.9995400000000001
 30
0.0
 10
-2.3722100000000004
 20
-1.9995400000000001
 30
0.0
 10
-2.77861
 20
-1.5677400000000001
 30
0.0
 10
-2.2909300000000004
 20
-0.46538
 30
0.0
 10
-2.7887700000000004
 20
-0.3739400000000001
 30
0.0
 10
-2.7887700000000004
 20
-0.3739400000000001
 30
0.0
 10
-2.5500100000000003
 20
0.20771
 30
0.0
 10
-2.6947900000000002
 20
0.6699900000000001
 30
0.0
 10
-2.8802100000000004
 20
1.2211700000000001
 30
0.0
 10
-2.8802100000000004
 20
1.2211700000000001
 30
0.0
 10
-2.8802100000000004
 20
1.2211700000000001
 30
0.0
 10
-2.6160500000000004
 20
1.7291700000000001
 30
0.0
 10
-2.6160500000000004
 20
1.7291700000000001
 30
0.0
 10
-2.6160500000000004
 20
1.7291700000000001
 30
0.0
 10
-2.4357100000000003
 20
1.8587100000000001
 30
0.0
 10
-2.3112500000000002
 20
1.5462900000000002
 30
0.0
 10
-2.1918700000000002
 20
1.52597
 30
0.0
 10
-2.1918700000000002
 20
1.52597
 30
0.0
 10
-3.0884900000000002
 20
2.5064100000000002
 30
0.0
 10
-1.9988300000000001
 20
4.3199700000000005
 30
0.0
 10
-0.7745500000000001
 20
4.3987100000000003
 30
0.0
 10
-0.7745500000000001
 20
4.3987100000000003
 30
0.0
 10
-0.8990100000000001
 20
4.2132900000000006
 30
0.0
 10
-1.1022100000000001
 20
4.0608900000000006
 30
0.0
 10
-1.2647700000000002
 20
3.9110300000000002
 30
0.0
 10
-1.2647700000000002
 20
3.9110300000000002
 30
0.0
 10
-1.9886700000000002
 20
3.3115900000000003
 30
0.0
 10
-2.0775700000000001
 20
2.41751
 30
0.0
 10
-2.0242300000000002
 20
1.8917300000000001
 30
0.0
 10
-2.0242300000000002
 20
1.8917300000000001
 30
0.0
 10
-1.9023100000000002
 20
2.1660500000000003
 30
0.0
 10
-1.9810500000000002
 20
2.59023
 30
0.0
 10
-1.7676900000000002
 20
2.8493100000000005
 30
0.0
 10
-1.7676900000000002
 20
2.8493100000000005
 30
0.0
 10
-1.6610100000000001
 20
2.6715100000000001
 30
0.0
 10
-1.7397500000000001
 20
2.46069
 30
0.0
 10
-1.8261100000000001
 20
2.2905100000000003
 30
0.0
 10
-1.8261100000000001
 20
2.2905100000000003
 30
0.0
 10
-1.7753100000000002
 20
2.2727300000000001
 30
0.0
 10
-1.67371
 20
2.4454500000000001
 30
0.0
 10
-1.7194300000000002
 20
2.26003
 30
0.0
 10
-1.7194300000000002
 20
2.26003
 30
0.0
 10
-1.7270500000000002
 20
2.0619100000000001
 30
0.0
 10
-1.8642100000000001
 20
1.8688700000000003
 30
0.0
 10
-1.84135
 20
1.6834500000000001
 30
0.0
 10
-1.84135
 20
1.6834500000000001
 30
0.0
 10
-1.4095500000000001
 20
2.3311500000000001
 30
0.0
 10
-2.02677
 20
3.4614500000000001
 30
0.0
 10
-1.1733300000000002
 20
3.8221300000000005
 30
0.0
 10
-1.1733300000000002
 20
3.8221300000000005
 30
0.0
 10
-1.0564900000000002
 20
3.7433900000000002
 30
0.0
 10
-1.1961900000000001
 20
3.4157300000000004
 30
0.0
 10
-1.0666500000000001
 20
3.5097100000000001
 30
0.0
 10
-1.0666500000000001
 20
3.5097100000000001
 30
0.0
 10
-1.1098300000000001
 20
4.4241100000000007
 30
0.0
 10
-0.05573
 20
4.7035100000000005
 30
0.0
 10
0.6300600000000001
 20
4.7847900000000001
 30
0.0
  0
SPLINE
  5
29
100
AcDbEntity
  8
Ebene 1
 62
     7
100
AcDbSpline
210
0.0
220
0.0
230
1.0
 70
     1
 71
     3
 72
    16
 73
    12
 74
     0
 42
0.0000000001
 43
0.0000000001
 40
0.0
 40
0.0
 40
0.0
 40
0.0
 40
0.3333333333333333
 40
0.3333333333333333
 40
0.3333333333333333
 40
0.3333333333333333
 40
0.6666666666666666
 40
0.6666666666666666
 40
0.6666666666666666
 40
0.6666666666666666
 40
1.0
 40
1.0
 40
1.0
 40
1.0
 10
2.4004400000000001
 20
1.6834500000000001
 30
0.0
 10
2.4461600000000003
 20
1.7672700000000001
 30
0.0
 10
2.5376000000000003
 20
1.8002900000000002
 30
0.0
 10
2.5985600000000004
 20
1.8561700000000001
 30
0.0
 10
2.5985600000000004
 20
1.8561700000000001
 30
0.0
 10
3.5459800000000001
 20
2.2625700000000002
 30
0.0
 10
4.3562400000000006
 20
3.1363300000000001
 30
0.0
 10
5.4230400000000003
 20
3.1998300000000004
 30
0.0
 10
5.4230400000000003
 20
3.1998300000000004
 30
0.0
 10
4.4172000000000002
 20
2.6918300000000004
 30
0.0
 10
3.4545400000000002
 20
2.0415900000000002
 30
0.0
 10
2.4004400000000001
 20
1.6834500000000001
 30
0.0
  0
SPLINE
  5
2A
100
AcDbEntity
  8
Ebene 1
 62
     7
100
AcDbSpline
210
0.0
220
0.0
230
1.0
 70
     1
 71
     3
 72
    16
 73
    12
 74
     0
 42
0.0000000001
 43
0.0000000001
 40
0.0
 40
0.0
 40
0.0
 40
0.0
 40
0.3333333333333333
 40
0.3333333333333333
 40
0.3333333333333333
 40
0.3333333333333333
 40
0.6666666666666666
 40
0.6666666666666666
 40
0.6666666666666666
 40
0.6666666666666666
 40
1.0
 40
1.0
 40
1.0
 40
1.0
 10
5.0877600000000003
 20
2.8823300000000001
 30
0.0
 10
5.0877600000000003
 20
2.8823300000000001
 30
0.0
 10
4.6610400000000007
 20
2.1990700000000003
 30
0.0
 10
4.6610400000000007
 20
2.1990700000000003
 30
0.0
 10
4.6610400000000007
 20
2.1990700000000003
 30
0.0
 10
4.6610400000000007
 20
2.1990700000000003
 30
0.0
 10
4.6458000000000004
 20
2.2244700000000002
 30
0.0
 10
4.6458000000000004
 20
2.2244700000000002
 30
0.0
 10
4.6458000000000004
 20
2.2244700000000002
 30
0.0
 10
4.8134400000000008
 20
2.42767
 30
0.0
 10
4.88964
 20
2.7223100000000002
 30
0.0
 10
5.0877600000000003
 20
2.8823300000000001
 30
0.0
  0
SPLINE
  5
2B
100
AcDbEntity
  8
Ebene 1
 62
     7
100
AcDbSpline
210
0.0
220
0.0
230
1.0
 70
     1
 71
     3
 72
    16
 73
    12
 74
     0
 42
0.0000000001
 43
0.0000000001
 40
0.0
 40
0.0
 40
0.0
 40
0.0
 40
0.3333333333333333
 40
0.3333333333333333
 40
0.3333333333333333
 40
0.3333333333333333
 40
0.6666666666666666
 40
0.6666666666666666
 40
0.6666666666666666
 40
0.6666666666666666
 40
1.0
 40
1.0
 40
1.0
 40
1.0
 10
5.1360200000000003
 20
2.8670900000000001
 30
0.0
 10
5.1360200000000003
 20
2.8670900000000001
 30
0.0
 10
5.1639600000000003
 20
2.8620100000000002
 30
0.0
 10
5.1639600000000003
 20
2.8620100000000002
 30
0.0
 10
5.1639600000000003
 20
2.8620100000000002
 30
0.0
 10
5.1030000000000006
 20
2.76295
 30
0.0
 10
5.0572800000000004
 20
2.6435700000000004
 30
0.0
 10
4.96584
 20
2.5673700000000004
 30
0.0
 10
4.96584
 20
2.5673700000000004
 30
0.0
 10
4.96584
 20
2.5673700000000004
 30
0.0
 10
5.1360200000000003
 20
2.8670900000000001
 30
0.0
 10
5.1360200000000003
 20
2.8670900000000001
 30
0.0
  0
SPLINE
  5
2C
100
AcDbEntity
  8
Ebene 1
 62
     7
100
AcDbSpline
210
0.0
220
0.0
230
1.0
 70
     1
 71
     3
 72
    40
 73
    36
 74
     0
 42
0.0000000001
 43
0.0000000001
 40
0.0
 40
0.0
 40
0.0
 40
0.0
 40
0.1111111111111111
 40
0.1111111111111111
 40
0.1111111111111111
 40
0.1111111111111111
 40
0.2222222222222222
 40
0.2222222222222222
 40
0.2222222222222222
 40
0.2222222222222222
 40
0.3333333333333333
 40
0.3333333333333333
 40
0.3333333333333333
 40
0.3333333333333333
 40
0.4444444444444444
 40
0.4444444444444444
 40
0.4444444444444444
 40
0.4444444444444444
 40
0.5555555555555556
 40
0.5555555555555556
 40
0.5555555555555556
 40
0.5555555555555556
 40
0.6666666666666667
 40
0.6666666666666667
 40
0.6666666666666667
 40
0.6666666666666667
 40
0.7777777777777779
 40
0.7777777777777779
 40
0.7777777777777779
 40
0.7777777777777779
 40
0.8888888888888891
 40
0.8888888888888891
 40
0.8888888888888891
 40
0.8888888888888891
 40
1.0
 40
1.0
 40
1.0
 40
1.0
 10
4.88964
 20
2.8035900000000002
 30
0.0
 10
4.88964
 20
2.8035900000000002
 30
0.0
 10
4.9353600000000002
 20
2.7908900000000001
 30
0.0
 10
4.9353600000000002
 20
2.7908900000000001
 30
0.0
 10
4.9353600000000002
 20
2.7908900000000001
 30
0.0
 10
4.7220000000000004
 20
2.3336900000000003
 30
0.0
 10
4.4172000000000002
 20
1.9323700000000001
 30
0.0
 10
3.9117400000000004
 20
1.8637900000000001
 30
0.0
 10
3.9117400000000004
 20
1.8637900000000001
 30
0.0
 10
3.9117400000000004
 20
1.8637900000000001
 30
0.0
 10
4.0641400000000001
 20
2.1609700000000003
 30
0.0
 10
4.0641400000000001
 20
2.1609700000000003
 30
0.0
 10
4.0641400000000001
 20
2.1609700000000003
 30
0.0
 10
4.0793800000000005
 20
2.26003
 30
0.0
 10
4.1733600000000006
 20
2.2473300000000003
 30
0.0
 10
4.1733600000000006
 20
2.3209900000000001
 30
0.0
 10
4.1733600000000006
 20
2.3209900000000001
 30
0.0
 10
4.1733600000000006
 20
2.3209900000000001
 30
0.0
 10
4.2038400000000005
 20
2.4505300000000001
 30
0.0
 10
4.2038400000000005
 20
2.4505300000000001
 30
0.0
 10
4.2038400000000005
 20
2.4505300000000001
 30
0.0
 10
4.2038400000000005
 20
2.4505300000000001
 30
0.0
 10
4.2800400000000005
 20
2.4810100000000004
 30
0.0
 10
4.2800400000000005
 20
2.4810100000000004
 30
0.0
 10
4.2800400000000005
 20
2.4810100000000004
 30
0.0
 10
4.2495600000000007
 20
2.2828900000000001
 30
0.0
 10
4.0641400000000001
 20
2.12033
 30
0.0
 10
4.0209600000000005
 20
1.9298300000000002
 30
0.0
 10
4.0209600000000005
 20
1.9298300000000002
 30
0.0
 10
4.0362
 20
1.9196700000000002
 30
0.0
 10
4.0641400000000001
 20
1.9196700000000002
 30
0.0
 10
4.0641400000000001
 20
1.9374500000000001
 30
0.0
 10
4.0641400000000001
 20
1.9374500000000001
 30
0.0
 10
4.2343200000000003
 20
2.34131
 30
0.0
 10
4.4781600000000008
 20
2.6791300000000002
 30
0.0
 10
4.88964
 20
2.8035900000000002
 30
0.0
  0
SPLINE
  5
2D
100
AcDbEntity
  8
Ebene 1
100
AcDbSpline
210
0.0
220
0.0
230
1.0
 70
     1
 71
     3
 72
    44
 73
    40
 74
     0
 42
0.0000000001
 43
0.0000000001
 40
0.0
 40
0.0
 40
0.0
 40
0.0
 40
0.1
 40
0.1
 40
0.1
 40
0.1
 40
0.2
 40
0.2
 40
0.2
 40
0.2
 40
0.3
 40
0.3
 40
0.3
 40
0.3
 40
0.4
 40
0.4
 40
0.4
 40
0.4
 40
0.5
 40
0.5
 40
0.5
 40
0.5
 40
0.6
 40
0.6
 40
0.6
 40
0.6
 40
0.7
 40
0.7
 40
0.7
 40
0.7
 40
0.7999999999999999
 40
0.7999999999999999
 40
0.7999999999999999
 40
0.7999999999999999
 40
0.8999999999999999
 40
0.8999999999999999
 40
0.8999999999999999
 40
0.8999999999999999
 40
1.0
 40
1.0
 40
1.0
 40
1.0
 10
2.33948
 20
2.6892900000000002
 30
0.0
 10
2.5833200000000001
 20
2.7172300000000003
 30
0.0
 10
2.8119200000000002
 20
2.54705
 30
0.0
 10
2.4461600000000003
 20
2.5800700000000001
 30
0.0
 10
2.4461600000000003
 20
2.5800700000000001
 30
0.0
 10
1.8670400000000003
 20
2.5775300000000003
 30
0.0
 10
1.3666600000000002
 20
2.04921
 30
0.0
 10
1.3742800000000002
 20
1.4497700000000002
 30
0.0
 10
1.3742800000000002
 20
1.4497700000000002
 30
0.0
 10
0.93486
 20
0.8985900000000001
 30
0.0
 10
0.9272400000000001
 20
-0.12248
 30
0.0
 10
1.6689200000000002
 20
-0.4272800000000001
 30
0.0
 10
1.6689200000000002
 20
-0.4272800000000001
 30
0.0
 10
1.6841600000000001
 20
-0.47046
 30
0.0
 10
1.8060800000000001
 20
-0.4907800000000001
 30
0.0
 10
1.7756000000000001
 20
-0.54666
 30
0.0
 10
1.7756000000000001
 20
-0.54666
 30
0.0
 10
1.4657200000000001
 20
-0.473
 30
0.0
 10
1.1329800000000001
 20
-0.00818
 30
0.0
 10
0.8942200000000001
 20
-0.3536200000000001
 30
0.0
 10
0.8942200000000001
 20
-0.3536200000000001
 30
0.0
 10
1.14822
 20
0.01467
 30
0.0
 10
1.0567800000000001
 20
0.4642500000000001
 30
0.0
 10
0.9501000000000001
 20
0.8681100000000001
 30
0.0
 10
0.9501000000000001
 20
0.8681100000000001
 30
0.0
 10
1.1380600000000001
 20
1.2618100000000001
 30
0.0
 10
1.44032
 20
1.82315
 30
0.0
 10
1.0466200000000001
 20
2.1838300000000004
 30
0.0
 10
1.0466200000000001
 20
2.1838300000000004
 30
0.0
 10
1.0466200000000001
 20
2.1838300000000004
 30
0.0
 10
1.0466200000000001
 20
2.2879700000000001
 30
0.0
 10
1.0466200000000001
 20
2.2879700000000001
 30
0.0
 10
1.0466200000000001
 20
2.2879700000000001
 30
0.0
 10
1.1304400000000001
 20
2.3057500000000002
 30
0.0
 10
1.10758
 20
2.1711300000000002
 30
0.0
 10
1.19394
 20
2.17875
 30
0.0
 10
1.19394
 20
2.17875
 30
0.0
 10
1.5774800000000002
 20
2.3336900000000003
 30
0.0
 10
1.9432400000000001
 20
2.6181700000000001
 30
0.0
 10
2.33948
 20
2.6892900000000002
 30
0.0
  0
SPLINE
  5
2E
100
AcDbEntity
  8
Ebene 1
100
AcDbSpline
210
0.0
220
0.0
230
1.0
 70
     1
 71
     3
 72
    20
 73
    16
 74
     0
 42
0.0000000001
 43
0.0000000001
 40
0.0
 40
0.0
 40
0.0
 40
0.0
 40
0.25
 40
0.25
 40
0.25
 40
0.25
 40
0.5
 40
0.5
 40
0.5
 40
0.5
 40
0.75
 40
0.75
 40
0.75
 40
0.75
 40
1.0
 40
1.0
 40
1.0
 40
1.0
 10
-0.07097
 20
2.6105500000000004
 30
0.0
 10
0.05094
 20
2.6181700000000001
 30
0.0
 10
-0.06843
 20
2.54705
 30
0.0
 10
-0.08875
 20
2.50387
 30
0.0
 10
-0.08875
 20
2.50387
 30
0.0
 10
-0.52563
 20
2.3311500000000001
 30
0.0
 10
-0.9269500000000001
 20
1.9984100000000002
 30
0.0
 10
-1.2190500000000002
 20
1.6097900000000001
 30
0.0
 10
-1.2190500000000002
 20
1.6097900000000001
 30
0.0
 10
-1.2190500000000002
 20
1.6097900000000001
 30
0.0
 10
-1.3181100000000001
 20
1.5767700000000002
 30
0.0
 10
-1.3181100000000001
 20
1.5767700000000002
 30
0.0
 10
-1.3181100000000001
 20
1.5767700000000002
 30
0.0
 10
-1.11999
 20
2.08731
 30
0.0
 10
-0.5611900000000001
 20
2.4479900000000003
 30
0.0
 10
-0.07097
 20
2.6105500000000004
 30
0.0
  0
SPLINE
  5
2F
100
AcDbEntity
  8
Ebene 1
100
AcDbSpline
210
0.0
220
0.0
230
1.0
 70
     1
 71
     3
 72
    16
 73
    12
 74
     0
 42
0.0000000001
 43
0.0000000001
 40
0.0
 40
0.0
 40
0.0
 40
0.0
 40
0.3333333333333333
 40
0.3333333333333333
 40
0.3333333333333333
 40
0.3333333333333333
 40
0.6666666666666666
 40
0.6666666666666666
 40
0.6666666666666666
 40
0.6666666666666666
 40
1.0
 40
1.0
 40
1.0
 40
1.0
 10
0.21604
 20
2.5165700000000002
 30
0.0
 10
0.38368
 20
2.4937100000000001
 30
0.0
 10
0.55894
 20
2.4378300000000004
 30
0.0
 10
0.6884800000000001
 20
2.3286100000000003
 30
0.0
 10
0.6884800000000001
 20
2.3286100000000003
 30
0.0
 10
0.5259200000000001
 20
2.3387700000000002
 30
0.0
 10
0.3887600000000001
 20
2.46577
 30
0.0
 10
0.22366
 20
2.47085
 30
0.0
 10
0.22366
 20
2.47085
 30
0.0
 10
0.19826
 20
2.4835500000000001
 30
0.0
 10
0.20842
 20
2.4962500000000003
 30
0.0
 10
0.21604
 20
2.5165700000000002
 30
0.0
  0
SPLINE
  5
30
100
AcDbEntity
  8
Ebene 1
 62
     7
100
AcDbSpline
210
0.0
220
0.0
230
1.0
 70
     1
 71
     3
 72
    20
 73
    16
 74
     0
 42
0.0000000001
 43
0.0000000001
 40
0.0
 40
0.0
 40
0.0
 40
0.0
 40
0.25
 40
0.25
 40
0.25
 40
0.25
 40
0.5
 40
0.5
 40
0.5
 40
0.5
 40
0.75
 40
0.75
 40
0.75
 40
0.75
 40
1.0
 40
1.0
 40
1.0
 40
1.0
 10
4.0362
 20
2.3717900000000003
 30
0.0
 10
4.0362
 20
2.3717900000000003
 30
0.0
 10
3.7136200000000001
 20
1.7850500000000002
 30
0.0
 10
3.7136200000000001
 20
1.7850500000000002
 30
0.0
 10
3.7136200000000001
 20
1.7850500000000002
 30
0.0
 10
3.7136200000000001
 20
1.7850500000000002
 30
0.0
 10
3.2259400000000005
 20
1.6402700000000001
 30
0.0
 10
3.2259400000000005
 20
1.6402700000000001
 30
0.0
 10
3.2259400000000005
 20
1.6402700000000001
 30
0.0
 10
3.2869000000000002
 20
1.7850500000000002
 30
0.0
 10
3.3478600000000003
 20
1.9399900000000001
 30
0.0
 10
3.4393000000000002
 20
2.0644500000000003
 30
0.0
 10
3.4393000000000002
 20
2.0644500000000003
 30
0.0
 10
3.4393000000000002
 20
2.0644500000000003
 30
0.0
 10
4.0362
 20
2.3717900000000003
 30
0.0
 10
4.0362
 20
2.3717900000000003
 30
0.0
  0
SPLINE
  5
31
100
AcDbEntity
  8
Ebene 1
 62
     7
100
AcDbSpline
210
0.0
220
0.0
230
1.0
 70
     1
 71
     3
 72
    12
 73
     8
 74
     0
 42
0.0000000001
 43
0.0000000001
 40
0.0
 40
0.0
 40
0.0
 40
0.0
 40
0.5
 40
0.5
 40
0.5
 40
0.5
 40
1.0
 40
1.0
 40
1.0
 40
1.0
 10
3.9727000000000001
 20
2.1152500000000001
 30
0.0
 10
3.9727000000000001
 20
2.0314300000000003
 30
0.0
 10
3.8838000000000004
 20
1.8790300000000002
 30
0.0
 10
3.8050600000000001
 20
1.8333100000000002
 30
0.0
 10
3.8050600000000001
 20
1.8333100000000002
 30
0.0
 10
3.8050600000000001
 20
1.8333100000000002
 30
0.0
 10
3.9727000000000001
 20
2.1152500000000001
 30
0.0
 10
3.9727000000000001
 20
2.1152500000000001
 30
0.0
  0
SPLINE
  5
32
100
AcDbEntity
  8
Ebene 1
100
AcDbSpline
210
0.0
220
0.0
230
1.0
 70
     1
 71
     3
 72
    48
 73
    44
 74
     0
 42
0.0000000001
 43
0.0000000001
 40
0.0
 40
0.0
 40
0.0
 40
0.0
 40
0.0909090909090909
 40
0.0909090909090909
 40
0.0909090909090909
 40
0.0909090909090909
 40
0.1818181818181818
 40
0.1818181818181818
 40
0.1818181818181818
 40
0.1818181818181818
 40
0.2727272727272727
 40
0.2727272727272727
 40
0.2727272727272727
 40
0.2727272727272727
 40
0.3636363636363637
 40
0.3636363636363637
 40
0.3636363636363637
 40
0.3636363636363637
 40
0.4545454545454546
 40
0.4545454545454546
 40
0.4545454545454546
 40
0.4545454545454546
 40
0.5454545454545455
 40
0.5454545454545455
 40
0.5454545454545455
 40
0.5454545454545455
 40
0.6363636363636365
 40
0.6363636363636365
 40
0.6363636363636365
 40
0.6363636363636365
 40
0.7272727272727274
 40
0.7272727272727274
 40
0.7272727272727274
 40
0.7272727272727274
 40
0.8181818181818183
 40
0.8181818181818183
 40
0.8181818181818183
 40
0.8181818181818183
 40
0.9090909090909093
 40
0.9090909090909093
 40
0.9090909090909093
 40
0.9090909090909093
 40
1.0
 40
1.0
 40
1.0
 40
1.0
 10
0.05094
 20
2.0034900000000002
 30
0.0
 10
0.14238
 20
1.8993500000000001
 30
0.0
 10
-0.06081
 20
1.6605900000000002
 30
0.0
 10
-0.05573
 20
1.4929500000000002
 30
0.0
 10
-0.05573
 20
1.4929500000000002
 30
0.0
 10
-0.06843
 20
1.4700900000000001
 30
0.0
 10
-0.07859
 20
1.44215
 30
0.0
 10
-0.06589
 20
1.4167500000000002
 30
0.0
 10
-0.06589
 20
1.4167500000000002
 30
0.0
 10
0.2135
 20
1.5158100000000001
 30
0.0
 10
0.5259200000000001
 20
1.6453500000000001
 30
0.0
 10
0.82564
 20
1.6326500000000002
 30
0.0
 10
0.82564
 20
1.6326500000000002
 30
0.0
 10
0.7392800000000001
 20
1.52851
 30
0.0
 10
0.4929000000000001
 20
1.5640700000000001
 30
0.0
 10
0.37352
 20
1.44215
 30
0.0
 10
0.37352
 20
1.44215
 30
0.0
 10
0.45734
 20
0.8020700000000001
 30
0.0
 10
-0.07605
 20
0.35249
 30
0.0
 10
-0.56881
 20
0.15437
 30
0.0
 10
-0.56881
 20
0.15437
 30
0.0
 10
-0.5865900000000001
 20
0.22549
 30
0.0
 10
-0.3427500000000001
 20
0.34233
 30
0.0
 10
-0.4824500000000001
 20
0.34233
 30
0.0
 10
-0.4824500000000001
 20
0.34233
 30
0.0
 10
-0.65771
 20
0.25851
 30
0.0
 10
-0.8532900000000001
 20
0.32455
 30
0.0
 10
-0.9396500000000001
 20
0.5023500000000001
 30
0.0
 10
-0.9396500000000001
 20
0.5023500000000001
 30
0.0
 10
-1.0920500000000002
 20
0.5023500000000001
 30
0.0
 10
-1.2723900000000001
 20
0.41853
 30
0.0
 10
-1.3993900000000001
 20
0.53283
 30
0.0
 10
-1.3993900000000001
 20
0.53283
 30
0.0
 10
-1.3968500000000001
 20
0.5480700000000001
 30
0.0
 10
-1.4070100000000001
 20
0.58109
 30
0.0
 10
-1.3841500000000002
 20
0.58109
 30
0.0
 10
-1.3841500000000002
 20
0.58109
 30
0.0
 10
-1.3257300000000001
 20
0.53283
 30
0.0
 10
-1.2596900000000002
 20
0.5252100000000001
 30
0.0
 10
-1.1834900000000002
 20
0.53283
 30
0.0
 10
-1.1834900000000002
 20
0.53283
 30
0.0
 10
-0.6196100000000001
 20
0.8401700000000001
 30
0.0
 10
-0.13955
 20
1.3684900000000002
 30
0.0
 10
0.05094
 20
2.0034900000000002
 30
0.0
  0
SPLINE
  5
33
100
AcDbEntity
  8
Ebene 1
 62
     7
100
AcDbSpline
210
0.0
220
0.0
230
1.0
 70
     1
 71
     3
 72
    16
 73
    12
 74
     0
 42
0.0000000001
 43
0.0000000001
 40
0.0
 40
0.0
 40
0.0
 40
0.0
 40
0.3333333333333333
 40
0.3333333333333333
 40
0.3333333333333333
 40
0.3333333333333333
 40
0.6666666666666666
 40
0.6666666666666666
 40
0.6666666666666666
 40
0.6666666666666666
 40
1.0
 40
1.0
 40
1.0
 40
1.0
 10
3.3173800000000004
 20
2.0034900000000002
 30
0.0
 10
3.3326200000000004
 20
2.00603
 30
0.0
 10
3.3326200000000004
 20
1.9831700000000001
 30
0.0
 10
3.3326200000000004
 20
1.9704700000000002
 30
0.0
 10
3.3326200000000004
 20
1.9704700000000002
 30
0.0
 10
3.2411800000000004
 20
1.8510900000000001
 30
0.0
 10
3.2107000000000001
 20
1.6402700000000001
 30
0.0
 10
3.0735400000000004
 20
1.5920100000000001
 30
0.0
 10
3.0735400000000004
 20
1.5920100000000001
 30
0.0
 10
3.1345000000000001
 20
1.7317100000000001
 30
0.0
 10
3.2411800000000004
 20
1.8688700000000003
 30
0.0
 10
3.3173800000000004
 20
2.0034900000000002
 30
0.0
  0
SPLINE
  5
34
100
AcDbEntity
  8
Ebene 1
 62
     7
100
AcDbSpline
210
0.0
220
0.0
230
1.0
 70
     1
 71
     3
 72
    12
 73
     8
 74
     0
 42
0.0000000001
 43
0.0000000001
 40
0.0
 40
0.0
 40
0.0
 40
0.0
 40
0.5
 40
0.5
 40
0.5
 40
0.5
 40
1.0
 40
1.0
 40
1.0
 40
1.0
 10
3.1802200000000003
 20
1.9399900000000001
 30
0.0
 10
3.1802200000000003
 20
1.8104500000000001
 30
0.0
 10
3.0430600000000001
 20
1.6631300000000002
 30
0.0
 10
2.9668600000000001
 20
1.5462900000000002
 30
0.0
 10
2.9668600000000001
 20
1.5462900000000002
 30
0.0
 10
3.0125800000000003
 20
1.6809100000000001
 30
0.0
 10
3.0887800000000003
 20
1.8206100000000001
 30
0.0
 10
3.1802200000000003
 20
1.9399900000000001
 30
0.0
  0
SPLINE
  5
35
100
AcDbEntity
  8
Ebene 1
 62
     7
100
AcDbSpline
210
0.0
220
0.0
230
1.0
 70
     1
 71
     3
 72
    16
 73
    12
 74
     0
 42
0.0000000001
 43
0.0000000001
 40
0.0
 40
0.0
 40
0.0
 40
0.0
 40
0.3333333333333333
 40
0.3333333333333333
 40
0.3333333333333333
 40
0.3333333333333333
 40
0.6666666666666666
 40
0.6666666666666666
 40
0.6666666666666666
 40
0.6666666666666666
 40
1.0
 40
1.0
 40
1.0
 40
1.0
 10
2.9821000000000004
 20
1.7469500000000002
 30
0.0
 10
2.9821000000000004
 20
1.7469500000000002
 30
0.0
 10
2.9973400000000003
 20
1.7317100000000001
 30
0.0
 10
2.9973400000000003
 20
1.7317100000000001
 30
0.0
 10
2.9973400000000003
 20
1.7317100000000001
 30
0.0
 10
2.9973400000000003
 20
1.7317100000000001
 30
0.0
 10
2.8424
 20
1.4980300000000002
 30
0.0
 10
2.8424
 20
1.4980300000000002
 30
0.0
 10
2.8424
 20
1.4980300000000002
 30
0.0
 10
2.8424
 20
1.4980300000000002
 30
0.0
 10
2.9821000000000004
 20
1.7469500000000002
 30
0.0
 10
2.9821000000000004
 20
1.7469500000000002
 30
0.0
  0
SPLINE
  5
36
100
AcDbEntity
  8
Ebene 1
 62
     7
100
AcDbSpline
210
0.0
220
0.0
230
1.0
 70
     1
 71
     3
 72
    12
 73
     8
 74
     0
 42
0.0000000001
 43
0.0000000001
 40
0.0
 40
0.0
 40
0.0
 40
0.0
 40
0.5
 40
0.5
 40
0.5
 40
0.5
 40
1.0
 40
1.0
 40
1.0
 40
1.0
 10
2.8754200000000001
 20
1.69869
 30
0.0
 10
2.8424
 20
1.61233
 30
0.0
 10
2.7839800000000001
 20
1.4954900000000002
 30
0.0
 10
2.7204800000000002
 20
1.4497700000000002
 30
0.0
 10
2.7204800000000002
 20
1.4497700000000002
 30
0.0
 10
2.7687400000000002
 20
1.5335900000000002
 30
0.0
 10
2.8119200000000002
 20
1.6351900000000001
 30
0.0
 10
2.8754200000000001
 20
1.69869
 30
0.0
  0
SPLINE
  5
37
100
AcDbEntity
  8
Ebene 1
100
AcDbSpline
210
0.0
220
0.0
230
1.0
 70
     1
 71
     3
 72
    20
 73
    16
 74
     0
 42
0.0000000001
 43
0.0000000001
 40
0.0
 40
0.0
 40
0.0
 40
0.0
 40
0.25
 40
0.25
 40
0.25
 40
0.25
 40
0.5
 40
0.5
 40
0.5
 40
0.5
 40
0.75
 40
0.75
 40
0.75
 40
0.75
 40
1.0
 40
1.0
 40
1.0
 40
1.0
 10
-1.4146300000000001
 20
1.23641
 30
0.0
 10
-1.4146300000000001
 20
1.23641
 30
0.0
 10
-1.3562100000000001
 20
1.23387
 30
0.0
 10
-1.3562100000000001
 20
1.23387
 30
0.0
 10
-1.3562100000000001
 20
1.23387
 30
0.0
 10
-1.4349500000000002
 20
1.0382900000000002
 30
0.0
 10
-1.6051300000000002
 20
0.7944500000000001
 30
0.0
 10
-1.5822700000000001
 20
0.5658500000000001
 30
0.0
 10
-1.5822700000000001
 20
0.5658500000000001
 30
0.0
 10
-1.5822700000000001
 20
0.5658500000000001
 30
0.0
 10
-1.6229100000000001
 20
0.5709300000000001
 30
0.0
 10
-1.6229100000000001
 20
0.5709300000000001
 30
0.0
 10
-1.6229100000000001
 20
0.5709300000000001
 30
0.0
 10
-1.7778500000000002
 20
0.8249300000000001
 30
0.0
 10
-1.5594100000000002
 20
1.0484500000000001
 30
0.0
 10
-1.4146300000000001
 20
1.23641
 30
0.0
  0
SPLINE
  5
38
100
AcDbEntity
  8
Ebene 1
100
AcDbSpline
210
0.0
220
0.0
230
1.0
 70
     1
 71
     3
 72
    20
 73
    16
 74
     0
 42
0.0000000001
 43
0.0000000001
 40
0.0
 40
0.0
 40
0.0
 40
0.0
 40
0.25
 40
0.25
 40
0.25
 40
0.25
 40
0.5
 40
0.5
 40
0.5
 40
0.5
 40
0.75
 40
0.75
 40
0.75
 40
0.75
 40
1.0
 40
1.0
 40
1.0
 40
1.0
 10
-2.36205
 20
1.02813
 30
0.0
 10
-2.3468100000000001
 20
1.02559
 30
0.0
 10
-2.3341100000000004
 20
1.0128900000000001
 30
0.0
 10
-2.3315700000000001
 20
0.99765
 30
0.0
 10
-2.3315700000000001
 20
0.99765
 30
0.0
 10
-2.3772900000000003
 20
0.8122300000000001
 30
0.0
 10
-2.3544300000000002
 20
0.6090300000000001
 30
0.0
 10
-2.1969500000000002
 20
0.48203
 30
0.0
 10
-2.1969500000000002
 20
0.48203
 30
0.0
 10
-2.1969500000000002
 20
0.48203
 30
0.0
 10
-2.1969500000000002
 20
0.4413900000000001
 30
0.0
 10
-2.1969500000000002
 20
0.4413900000000001
 30
0.0
 10
-2.1969500000000002
 20
0.4413900000000001
 30
0.0
 10
-2.4204700000000003
 20
0.4972700000000001
 30
0.0
 10
-2.4560300000000002
 20
0.8350900000000001
 30
0.0
 10
-2.36205
 20
1.02813
 30
0.0
  0
SPLINE
  5
39
100
AcDbEntity
  8
Ebene 1
100
AcDbSpline
210
0.0
220
0.0
230
1.0
 70
     1
 71
     3
 72
    24
 73
    20
 74
     0
 42
0.0000000001
 43
0.0000000001
 40
0.0
 40
0.0
 40
0.0
 40
0.0
 40
0.2
 40
0.2
 40
0.2
 40
0.2
 40
0.4
 40
0.4
 40
0.4
 40
0.4
 40
0.6000000000000001
 40
0.6000000000000001
 40
0.6000000000000001
 40
0.6000000000000001
 40
0.8
 40
0.8
 40
0.8
 40
0.8
 40
1.0
 40
1.0
 40
1.0
 40
1.0
 10
-1.8870700000000002
 20
0.9493900000000001
 30
0.0
 10
-1.8743700000000001
 20
0.9468500000000001
 30
0.0
 10
-1.8438900000000003
 20
0.9595500000000001
 30
0.0
 10
-1.84135
 20
0.93415
 30
0.0
 10
-1.84135
 20
0.93415
 30
0.0
 10
-1.9302500000000002
 20
0.7969900000000001
 30
0.0
 10
-2.05979
 20
0.6344300000000001
 30
0.0
 10
-1.9480300000000002
 20
0.46933
 30
0.0
 10
-1.9480300000000002
 20
0.46933
 30
0.0
 10
-1.9480300000000002
 20
0.46933
 30
0.0
 10
-1.9531100000000001
 20
0.4109100000000001
 30
0.0
 10
-1.9531100000000001
 20
0.4109100000000001
 30
0.0
 10
-1.9531100000000001
 20
0.4109100000000001
 30
0.0
 10
-2.0572500000000002
 20
0.43885
 30
0.0
 10
-2.0521700000000003
 20
0.62173
 30
0.0
 10
-2.06995
 20
0.72587
 30
0.0
 10
-2.06995
 20
0.72587
 30
0.0
 10
-1.9988300000000001
 20
0.78429
 30
0.0
 10
-1.9480300000000002
 20
0.87319
 30
0.0
 10
-1.8870700000000002
 20
0.9493900000000001
 30
0.0
  0
SPLINE
  5
3A
100
AcDbEntity
  8
Ebene 1
100
AcDbSpline
210
0.0
220
0.0
230
1.0
 70
     1
 71
     3
 72
    24
 73
    20
 74
     0
 42
0.0000000001
 43
0.0000000001
 40
0.0
 40
0.0
 40
0.0
 40
0.0
 40
0.2
 40
0.2
 40
0.2
 40
0.2
 40
0.4
 40
0.4
 40
0.4
 40
0.4
 40
0.6000000000000001
 40
0.6000000000000001
 40
0.6000000000000001
 40
0.6000000000000001
 40
0.8
 40
0.8
 40
0.8
 40
0.8
 40
1.0
 40
1.0
 40
1.0
 40
1.0
 10
-2.6363700000000003
 20
0.7741300000000001
 30
0.0
 10
-2.56271
 20
0.6547500000000001
 30
0.0
 10
-2.4534900000000004
 20
0.5074300000000001
 30
0.0
 10
-2.3468100000000001
 20
0.43631
 30
0.0
 10
-2.3468100000000001
 20
0.43631
 30
0.0
 10
-2.3722100000000004
 20
0.18739
 30
0.0
 10
-2.3798300000000001
 20
-0.08438
 30
0.0
 10
-2.5093700000000001
 20
-0.29012
 30
0.0
 10
-2.5093700000000001
 20
-0.29012
 30
0.0
 10
-2.5093700000000001
 20
-0.29012
 30
0.0
 10
-2.4357100000000003
 20
0.10103
 30
0.0
 10
-2.4357100000000003
 20
0.10103
 30
0.0
 10
-2.4357100000000003
 20
0.10103
 30
0.0
 10
-2.6287500000000001
 20
0.21787
 30
0.0
 10
-2.51953
 20
0.5201300000000001
 30
0.0
 10
-2.6668500000000002
 20
0.6928500000000001
 30
0.0
 10
-2.6668500000000002
 20
0.6928500000000001
 30
0.0
 10
-2.6744700000000003
 20
0.7334900000000001
 30
0.0
 10
-2.6592300000000004
 20
0.7538100000000001
 30
0.0
 10
-2.6363700000000003
 20
0.7741300000000001
 30
0.0
  0
SPLINE
  5
3B
100
AcDbEntity
  8
Ebene 1
100
AcDbSpline
210
0.0
220
0.0
230
1.0
 70
     1
 71
     3
 72
    24
 73
    20
 74
     0
 42
0.0000000001
 43
0.0000000001
 40
0.0
 40
0.0
 40
0.0
 40
0.0
 40
0.2
 40
0.2
 40
0.2
 40
0.2
 40
0.4
 40
0.4
 40
0.4
 40
0.4
 40
0.6000000000000001
 40
0.6000000000000001
 40
0.6000000000000001
 40
0.6000000000000001
 40
0.8
 40
0.8
 40
0.8
 40
0.8
 40
1.0
 40
1.0
 40
1.0
 40
1.0
 10
-1.8718300000000001
 20
0.34233
 30
0.0
 10
-1.58735
 20
0.4007500000000001
 30
0.0
 10
-1.5416300000000001
 20
0.03499
 30
0.0
 10
-1.3714500000000001
 20
-0.10724
 30
0.0
 10
-1.3714500000000001
 20
-0.10724
 30
0.0
 10
-1.2749300000000001
 20
-0.17328
 30
0.0
 10
-1.1961900000000001
 20
-0.346
 30
0.0
 10
-1.3485900000000002
 20
-0.20884
 30
0.0
 10
-1.3485900000000002
 20
-0.20884
 30
0.0
 10
-1.5416300000000001
 20
-0.06152
 30
0.0
 10
-1.7346700000000002
 20
0.42615
 30
0.0
 10
-2.0089900000000003
 20
0.14929
 30
0.0
 10
-2.0089900000000003
 20
0.14929
 30
0.0
 10
-2.14615
 20
0.20263
 30
0.0
 10
-2.2477500000000004
 20
0.22803
 30
0.0
 10
-2.3264900000000002
 20
0.09087
 30
0.0
 10
-2.3264900000000002
 20
0.09087
 30
0.0
 10
-2.3544300000000002
 20
0.38805
 30
0.0
 10
-2.0140700000000002
 20
0.24327
 30
0.0
 10
-1.8718300000000001
 20
0.34233
 30
0.0
  0
SPLINE
  5
3C
100
AcDbEntity
  8
Ebene 1
100
AcDbSpline
210
0.0
220
0.0
230
1.0
 70
     1
 71
     3
 72
    16
 73
    12
 74
     0
 42
0.0000000001
 43
0.0000000001
 40
0.0
 40
0.0
 40
0.0
 40
0.0
 40
0.3333333333333333
 40
0.3333333333333333
 40
0.3333333333333333
 40
0.3333333333333333
 40
0.6666666666666666
 40
0.6666666666666666
 40
0.6666666666666666
 40
0.6666666666666666
 40
1.0
 40
1.0
 40
1.0
 40
1.0
 10
-1.9023100000000002
 20
-0.10216
 30
0.0
 10
-1.6330700000000002
 20
-0.16312
 30
0.0
 10
-1.50099
 20
-0.5136400000000001
 30
0.0
 10
-1.3714500000000001
 20
-0.73716
 30
0.0
 10
-1.3714500000000001
 20
-0.73716
 30
0.0
 10
-1.5670300000000001
 20
-0.73716
 30
0.0
 10
-1.8032500000000002
 20
-0.3104400000000001
 30
0.0
 10
-1.9607300000000001
 20
-0.59492
 30
0.0
 10
-1.9607300000000001
 20
-0.59492
 30
0.0
 10
-2.0191500000000002
 20
-0.43236
 30
0.0
 10
-1.9912100000000001
 20
-0.24694
 30
0.0
 10
-1.9023100000000002
 20
-0.10216
 30
0.0
  0
SPLINE
  5
3D
100
AcDbEntity
  8
Ebene 1
100
AcDbSpline
210
0.0
220
0.0
230
1.0
 70
     1
 71
     3
 72
    24
 73
    20
 74
     0
 42
0.0000000001
 43
0.0000000001
 40
0.0
 40
0.0
 40
0.0
 40
0.0
 40
0.2
 40
0.2
 40
0.2
 40
0.2
 40
0.4
 40
0.4
 40
0.4
 40
0.4
 40
0.6000000000000001
 40
0.6000000000000001
 40
0.6000000000000001
 40
0.6000000000000001
 40
0.8
 40
0.8
 40
0.8
 40
0.8
 40
1.0
 40
1.0
 40
1.0
 40
1.0
 10
-2.2833100000000002
 20
-0.11994
 30
0.0
 10
-2.2833100000000002
 20
-0.11994
 30
0.0
 10
-2.1817100000000003
 20
-0.12248
 30
0.0
 10
-2.1817100000000003
 20
-0.12248
 30
0.0
 10
-2.1817100000000003
 20
-0.12248
 30
0.0
 10
-2.1182100000000004
 20
-0.27488
 30
0.0
 10
-2.0953500000000003
 20
-0.473
 30
0.0
 10
-2.1055100000000002
 20
-0.6254000000000001
 30
0.0
 10
-2.1055100000000002
 20
-0.6254000000000001
 30
0.0
 10
-2.15123
 20
-0.5568200000000001
 30
0.0
 10
-2.1994900000000004
 20
-0.4476000000000001
 30
0.0
 10
-2.3112500000000002
 20
-0.4907800000000001
 30
0.0
 10
-2.3112500000000002
 20
-0.4907800000000001
 30
0.0
 10
-2.35189
 20
-0.5441200000000001
 30
0.0
 10
-2.40015
 20
-0.6279400000000001
 30
0.0
 10
-2.4636500000000003
 20
-0.6406400000000001
 30
0.0
 10
-2.4636500000000003
 20
-0.6406400000000001
 30
0.0
 10
-2.5017500000000004
 20
-0.43998
 30
0.0
 10
-2.3493500000000003
 20
-0.29012
 30
0.0
 10
-2.2833100000000002
 20
-0.11994
 30
0.0
  0
SPLINE
  5
3E
100
AcDbEntity
  8
Ebene 1
 62
     7
100
AcDbSpline
210
0.0
220
0.0
230
1.0
 70
     1
 71
     3
 72
    20
 73
    16
 74
     0
 42
0.0000000001
 43
0.0000000001
 40
0.0
 40
0.0
 40
0.0
 40
0.0
 40
0.25
 40
0.25
 40
0.25
 40
0.25
 40
0.5
 40
0.5
 40
0.5
 40
0.5
 40
0.75
 40
0.75
 40
0.75
 40
0.75
 40
1.0
 40
1.0
 40
1.0
 40
1.0
 10
-3.4923500000000001
 20
-0.27996
 30
0.0
 10
-3.4923500000000001
 20
-0.27996
 30
0.0
 10
-3.3983700000000003
 20
-0.2952
 30
0.0
 10
-3.3983700000000003
 20
-0.2952
 30
0.0
 10
-3.3983700000000003
 20
-0.2952
 30
0.0
 10
-3.3983700000000003
 20
-0.2952
 30
0.0
 10
-3.3704300000000003
 20
-0.31298
 30
0.0
 10
-3.3704300000000003
 20
-0.31298
 30
0.0
 10
-3.3704300000000003
 20
-0.31298
 30
0.0
 10
-3.3882100000000004
 20
-0.35616
 30
0.0
 10
-3.4567900000000003
 20
-0.3968
 30
0.0
 10
-3.4771100000000001
 20
-0.34346
 30
0.0
 10
-3.4771100000000001
 20
-0.34346
 30
0.0
 10
-3.5685500000000001
 20
-0.3587
 30
0.0
 10
-3.5507700000000004
 20
-0.3079
 30
0.0
 10
-3.4923500000000001
 20
-0.27996
 30
0.0
  0
SPLINE
  5
3F
100
AcDbEntity
  8
Ebene 1
 62
     7
100
AcDbSpline
210
0.0
220
0.0
230
1.0
 70
     1
 71
     3
 72
    32
 73
    28
 74
     0
 42
0.0000000001
 43
0.0000000001
 40
0.0
 40
0.0
 40
0.0
 40
0.0
 40
0.1428571428571429
 40
0.1428571428571429
 40
0.1428571428571429
 40
0.1428571428571429
 40
0.2857142857142857
 40
0.2857142857142857
 40
0.2857142857142857
 40
0.2857142857142857
 40
0.4285714285714286
 40
0.4285714285714286
 40
0.4285714285714286
 40
0.4285714285714286
 40
0.5714285714285714
 40
0.5714285714285714
 40
0.5714285714285714
 40
0.5714285714285714
 40
0.7142857142857142
 40
0.7142857142857142
 40
0.7142857142857142
 40
0.7142857142857142
 40
0.857142857142857
 40
0.857142857142857
 40
0.857142857142857
 40
0.857142857142857
 40
1.0
 40
1.0
 40
1.0
 40
1.0
 10
-3.3374100000000002
 20
-0.5187200000000001
 30
0.0
 10
-3.2459700000000002
 20
-0.59492
 30
0.0
 10
-3.2993100000000002
 20
-0.7981200000000001
 30
0.0
 10
-3.2967700000000004
 20
-0.9124200000000001
 30
0.0
 10
-3.2967700000000004
 20
-0.9124200000000001
 30
0.0
 10
-3.6955500000000003
 20
-1.0902200000000002
 30
0.0
 10
-4.0232100000000006
 20
-1.4509000000000001
 30
0.0
 10
-4.09687
 20
-1.9030200000000002
 30
0.0
 10
-4.09687
 20
-1.9030200000000002
 30
0.0
 10
-3.8885900000000002
 20
-2.0097
 30
0.0
 10
-3.7031700000000005
 20
-1.6845800000000002
 30
0.0
 10
-3.5202900000000001
 20
-1.66934
 30
0.0
 10
-3.5202900000000001
 20
-1.66934
 30
0.0
 10
-3.6650700000000005
 20
-2.0325600000000001
 30
0.0
 10
-3.8530300000000004
 20
-2.4211800000000001
 30
0.0
 10
-4.2086300000000003
 20
-2.6294600000000004
 30
0.0
 10
-4.2086300000000003
 20
-2.6294600000000004
 30
0.0
 10
-4.2086300000000003
 20
-2.6294600000000004
 30
0.0
 10
-4.3102300000000007
 20
-2.5913600000000003
 30
0.0
 10
-4.3102300000000007
 20
-2.5913600000000003
 30
0.0
 10
-4.3102300000000007
 20
-2.5913600000000003
 30
0.0
 10
-4.3102300000000007
 20
-2.5913600000000003
 30
0.0
 10
-4.3915100000000002
 20
-2.3881600000000001
 30
0.0
 10
-4.3915100000000002
 20
-2.3881600000000001
 30
0.0
 10
-4.3915100000000002
 20
-2.3881600000000001
 30
0.0
 10
-4.2670500000000002
 20
-1.6820400000000002
 30
0.0
 10
-3.9495500000000003
 20
-0.9048000000000001
 30
0.0
 10
-3.3374100000000002
 20
-0.5187200000000001
 30
0.0
  0
SPLINE
  5
40
100
AcDbEntity
  8
Ebene 1
 62
     7
100
AcDbSpline
210
0.0
220
0.0
230
1.0
 70
     1
 71
     3
 72
    40
 73
    36
 74
     0
 42
0.0000000001
 43
0.0000000001
 40
0.0
 40
0.0
 40
0.0
 40
0.0
 40
0.1111111111111111
 40
0.1111111111111111
 40
0.1111111111111111
 40
0.1111111111111111
 40
0.2222222222222222
 40
0.2222222222222222
 40
0.2222222222222222
 40
0.2222222222222222
 40
0.3333333333333333
 40
0.3333333333333333
 40
0.3333333333333333
 40
0.3333333333333333
 40
0.4444444444444444
 40
0.4444444444444444
 40
0.4444444444444444
 40
0.4444444444444444
 40
0.5555555555555556
 40
0.5555555555555556
 40
0.5555555555555556
 40
0.5555555555555556
 40
0.6666666666666667
 40
0.6666666666666667
 40
0.6666666666666667
 40
0.6666666666666667
 40
0.7777777777777779
 40
0.7777777777777779
 40
0.7777777777777779
 40
0.7777777777777779
 40
0.8888888888888891
 40
0.8888888888888891
 40
0.8888888888888891
 40
0.8888888888888891
 40
1.0
 40
1.0
 40
1.0
 40
1.0
 10
-3.7209500000000002
 20
-0.61524
 30
0.0
 10
-4.0943300000000002
 20
-1.2985000000000002
 30
0.0
 10
-4.7496500000000008
 20
-2.13924
 30
0.0
 10
-4.5337500000000004
 20
-2.9901400000000002
 30
0.0
 10
-4.5337500000000004
 20
-2.9901400000000002
 30
0.0
 10
-4.7598100000000008
 20
-3.1247600000000002
 30
0.0
 10
-5.0569900000000008
 20
-3.1730200000000002
 30
0.0
 10
-5.3084500000000006
 20
-3.15524
 30
0.0
 10
-5.3084500000000006
 20
-3.15524
 30
0.0
 10
-5.1890700000000001
 20
-3.0612600000000003
 30
0.0
 10
-4.95031
 20
-3.0993600000000003
 30
0.0
 10
-4.8842700000000008
 20
-2.9672800000000001
 30
0.0
 10
-4.8842700000000008
 20
-2.9672800000000001
 30
0.0
 10
-5.1331900000000008
 20
-3.0358600000000004
 30
0.0
 10
-5.3948100000000005
 20
-3.1044400000000003
 30
0.0
 10
-5.6564300000000003
 20
-3.1349200000000002
 30
0.0
 10
-5.6564300000000003
 20
-3.1349200000000002
 30
0.0
 10
-5.6564300000000003
 20
-3.1349200000000002
 30
0.0
 10
-5.4913300000000005
 20
-2.9952200000000002
 30
0.0
 10
-5.4913300000000005
 20
-2.9952200000000002
 30
0.0
 10
-5.4913300000000005
 20
-2.9952200000000002
 30
0.0
 10
-5.2830500000000002
 20
-3.0942800000000004
 30
0.0
 10
-5.0595300000000005
 20
-2.8910800000000001
 30
0.0
 10
-4.85379
 20
-2.8301200000000004
 30
0.0
 10
-4.85379
 20
-2.8301200000000004
 30
0.0
 10
-4.6302700000000003
 20
-2.35514
 30
0.0
 10
-4.5261300000000002
 20
-1.8242800000000001
 30
0.0
 10
-4.2111700000000001
 20
-1.3924800000000002
 30
0.0
 10
-4.2111700000000001
 20
-1.3924800000000002
 30
0.0
 10
-4.1984700000000004
 20
-1.3391400000000002
 30
0.0
 10
-4.2543500000000005
 20
-1.3569200000000001
 30
0.0
 10
-4.2797499999999999
 20
-1.3594600000000001
 30
0.0
 10
-4.2797499999999999
 20
-1.3594600000000001
 30
0.0
 10
-4.2010100000000001
 20
-1.0445
 30
0.0
 10
-3.9038300000000001
 20
-0.8565400000000001
 30
0.0
 10
-3.7209500000000002
 20
-0.61524
 30
0.0
  0
SPLINE
  5
41
100
AcDbEntity
  8
Ebene 1
100
AcDbSpline
210
0.0
220
0.0
230
1.0
 70
     1
 71
     3
 72
    16
 73
    12
 74
     0
 42
0.0000000001
 43
0.0000000001
 40
0.0
 40
0.0
 40
0.0
 40
0.0
 40
0.3333333333333333
 40
0.3333333333333333
 40
0.3333333333333333
 40
0.3333333333333333
 40
0.6666666666666666
 40
0.6666666666666666
 40
0.6666666666666666
 40
0.6666666666666666
 40
1.0
 40
1.0
 40
1.0
 40
1.0
 10
-2.14615
 20
-0.74224
 30
0.0
 10
-2.14615
 20
-0.74224
 30
0.0
 10
-2.1055100000000002
 20
-0.7447800000000001
 30
0.0
 10
-2.1055100000000002
 20
-0.7447800000000001
 30
0.0
 10
-2.1055100000000002
 20
-0.7447800000000001
 30
0.0
 10
-2.06995
 20
-0.88448
 30
0.0
 10
-1.9937500000000001
 20
-1.0699000000000001
 30
0.0
 10
-2.0674100000000002
 20
-1.1994400000000001
 30
0.0
 10
-2.0674100000000002
 20
-1.1994400000000001
 30
0.0
 10
-2.05471
 20
-1.03688
 30
0.0
 10
-2.11313
 20
-0.8946400000000001
 30
0.0
 10
-2.14615
 20
-0.74224
 30
0.0
  0
SPLINE
  5
42
100
AcDbEntity
  8
Ebene 1
 62
     7
100
AcDbSpline
210
0.0
220
0.0
230
1.0
 70
     1
 71
     3
 72
   124
 73
   120
 74
     0
 42
0.0000000001
 43
0.0000000001
 40
0.0
 40
0.0
 40
0.0
 40
0.0
 40
0.0333333333333333
 40
0.0333333333333333
 40
0.0333333333333333
 40
0.0333333333333333
 40
0.0666666666666667
 40
0.0666666666666667
 40
0.0666666666666667
 40
0.0666666666666667
 40
0.1
 40
0.1
 40
0.1
 40
0.1
 40
0.1333333333333333
 40
0.1333333333333333
 40
0.1333333333333333
 40
0.1333333333333333
 40
0.1666666666666667
 40
0.1666666666666667
 40
0.1666666666666667
 40
0.1666666666666667
 40
0.2
 40
0.2
 40
0.2
 40
0.2
 40
0.2333333333333333
 40
0.2333333333333333
 40
0.2333333333333333
 40
0.2333333333333333
 40
0.2666666666666667
 40
0.2666666666666667
 40
0.2666666666666667
 40
0.2666666666666667
 40
0.3
 40
0.3
 40
0.3
 40
0.3
 40
0.3333333333333333
 40
0.3333333333333333
 40
0.3333333333333333
 40
0.3333333333333333
 40
0.3666666666666666
 40
0.3666666666666666
 40
0.3666666666666666
 40
0.3666666666666666
 40
0.4
 40
0.4
 40
0.4
 40
0.4
 40
0.4333333333333333
 40
0.4333333333333333
 40
0.4333333333333333
 40
0.4333333333333333
 40
0.4666666666666666
 40
0.4666666666666666
 40
0.4666666666666666
 40
0.4666666666666666
 40
0.4999999999999999
 40
0.4999999999999999
 40
0.4999999999999999
 40
0.4999999999999999
 40
0.5333333333333333
 40
0.5333333333333333
 40
0.5333333333333333
 40
0.5333333333333333
 40
0.5666666666666667
 40
0.5666666666666667
 40
0.5666666666666667
 40
0.5666666666666667
 40
0.6
 40
0.6
 40
0.6
 40
0.6
 40
0.6333333333333333
 40
0.6333333333333333
 40
0.6333333333333333
 40
0.6333333333333333
 40
0.6666666666666666
 40
0.6666666666666666
 40
0.6666666666666666
 40
0.6666666666666666
 40
0.7
 40
0.7
 40
0.7
 40
0.7
 40
0.7333333333333333
 40
0.7333333333333333
 40
0.7333333333333333
 40
0.7333333333333333
 40
0.7666666666666666
 40
0.7666666666666666
 40
0.7666666666666666
 40
0.7666666666666666
 40
0.7999999999999999
 40
0.7999999999999999
 40
0.7999999999999999
 40
0.7999999999999999
 40
0.8333333333333333
 40
0.8333333333333333
 40
0.8333333333333333
 40
0.8333333333333333
 40
0.8666666666666666
 40
0.8666666666666666
 40
0.8666666666666666
 40
0.8666666666666666
 40
0.8999999999999999
 40
0.8999999999999999
 40
0.8999999999999999
 40
0.8999999999999999
 40
0.9333333333333332
 40
0.9333333333333332
 40
0.9333333333333332
 40
0.9333333333333332
 40
0.9666666666666666
 40
0.9666666666666666
 40
0.9666666666666666
 40
0.9666666666666666
 40
1.0
 40
1.0
 40
1.0
 40
1.0
 10
1.15076
 20
-1.2096
 30
0.0
 10
1.02122
 20
-1.5271000000000001
 30
0.0
 10
0.9704200000000001
 20
-1.8217400000000001
 30
0.0
 10
0.9247000000000001
 20
-2.1595600000000004
 30
0.0
 10
0.9247000000000001
 20
-2.1595600000000004
 30
0.0
 10
0.9247000000000001
 20
-2.1595600000000004
 30
0.0
 10
1.06186
 20
-1.8319000000000001
 30
0.0
 10
1.06186
 20
-1.8319000000000001
 30
0.0
 10
1.06186
 20
-1.8319000000000001
 30
0.0
 10
1.1533
 20
-1.5271000000000001
 30
0.0
 10
1.31332
 20
-1.1765800000000002
 30
0.0
 10
1.6181200000000002
 20
-1.0495800000000002
 30
0.0
 10
1.6181200000000002
 20
-1.0495800000000002
 30
0.0
 10
1.7121000000000002
 20
-1.1562600000000001
 30
0.0
 10
1.8213200000000001
 20
-1.25024
 30
0.0
 10
1.8213200000000001
 20
-1.3975600000000001
 30
0.0
 10
1.8213200000000001
 20
-1.3975600000000001
 30
0.0
 10
1.5825600000000002
 20
-2.0706600000000002
 30
0.0
 10
1.1228200000000002
 20
-2.6497800000000002
 30
0.0
 10
0.9094600000000001
 20
-3.3279600000000005
 30
0.0
 10
0.9094600000000001
 20
-3.3279600000000005
 30
0.0
 10
0.9094600000000001
 20
-3.3279600000000005
 30
0.0
 10
1.1177400000000002
 20
-3.1222200000000004
 30
0.0
 10
1.1177400000000002
 20
-3.1222200000000004
 30
0.0
 10
1.1177400000000002
 20
-3.1222200000000004
 30
0.0
 10
1.1787000000000001
 20
-3.1755600000000004
 30
0.0
 10
1.2066400000000002
 20
-3.3127200000000001
 30
0.0
 10
1.2066400000000002
 20
-3.4067000000000003
 30
0.0
 10
1.2066400000000002
 20
-3.4067000000000003
 30
0.0
 10
0.9805800000000001
 20
-3.6937200000000003
 30
0.0
 10
-0.61707
 20
-4.4912800000000006
 30
0.0
 10
0.17286
 20
-4.1941000000000006
 30
0.0
 10
0.17286
 20
-4.1941000000000006
 30
0.0
 10
-0.10653
 20
-4.4354000000000005
 30
0.0
 10
-0.35545
 20
-4.7833800000000002
 30
0.0
 10
-0.7262900000000001
 20
-4.8494200000000003
 30
0.0
 10
-0.7262900000000001
 20
-4.8494200000000003
 30
0.0
 10
-1.07681
 20
-4.8824400000000008
 30
0.0
 10
-1.3841500000000002
 20
-4.5420800000000003
 30
0.0
 10
-1.7295900000000002
 20
-4.6868600000000002
 30
0.0
 10
-1.7295900000000002
 20
-4.6868600000000002
 30
0.0
 10
-1.7295900000000002
 20
-4.6868600000000002
 30
0.0
 10
-1.62799
 20
-4.7046400000000004
 30
0.0
 10
-1.62799
 20
-4.7046400000000004
 30
0.0
 10
-1.62799
 20
-4.7046400000000004
 30
0.0
 10
-1.62799
 20
-4.7046400000000004
 30
0.0
 10
-1.6889500000000002
 20
-4.7529000000000003
 30
0.0
 10
-1.6889500000000002
 20
-4.7529000000000003
 30
0.0
 10
-1.6889500000000002
 20
-4.7529000000000003
 30
0.0
 10
-1.6889500000000002
 20
-4.7529000000000003
 30
0.0
 10
-1.8667500000000001
 20
-4.7986200000000006
 30
0.0
 10
-1.8667500000000001
 20
-4.7986200000000006
 30
0.0
 10
-1.8667500000000001
 20
-4.7986200000000006
 30
0.0
 10
-1.9099300000000001
 20
-4.5522400000000003
 30
0.0
 10
-2.19441
 20
-3.8410400000000005
 30
0.0
 10
-1.9023100000000002
 20
-3.9705800000000004
 30
0.0
 10
-1.9023100000000002
 20
-3.9705800000000004
 30
0.0
 10
-1.9023100000000002
 20
-3.9705800000000004
 30
0.0
 10
-1.9454900000000002
 20
-3.8613600000000003
 30
0.0
 10
-1.9454900000000002
 20
-3.8613600000000003
 30
0.0
 10
-1.9454900000000002
 20
-3.8613600000000003
 30
0.0
 10
-1.8591300000000002
 20
-3.9782000000000002
 30
0.0
 10
-1.7321300000000002
 20
-3.9934400000000005
 30
0.0
 10
-1.6584700000000001
 20
-3.8588200000000001
 30
0.0
 10
-1.6584700000000001
 20
-3.8588200000000001
 30
0.0
 10
-1.6076700000000002
 20
-3.9807400000000004
 30
0.0
 10
-1.58989
 20
-3.9680400000000002
 30
0.0
 10
-1.5695700000000001
 20
-3.8613600000000003
 30
0.0
 10
-1.5695700000000001
 20
-3.8613600000000003
 30
0.0
 10
-1.50353
 20
-4.01884
 30
0.0
 10
-1.3638300000000001
 20
-3.9045400000000003
 30
0.0
 10
-1.3181100000000001
 20
-3.7978600000000005
 30
0.0
 10
-1.3181100000000001
 20
-3.7978600000000005
 30
0.0
 10
-1.2774700000000001
 20
-3.9832800000000002
 30
0.0
 10
-1.0641100000000001
 20
-3.9934400000000005
 30
0.0
 10
-0.9675900000000001
 20
-3.8308800000000005
 30
0.0
 10
-0.9675900000000001
 20
-3.8308800000000005
 30
0.0
 10
-0.69581
 20
-3.9807400000000004
 30
0.0
 10
-0.6069100000000001
 20
-3.4295600000000004
 30
0.0
 10
-0.34783
 20
-3.6607000000000003
 30
0.0
 10
-0.34783
 20
-3.6607000000000003
 30
0.0
 10
-0.3325900000000001
 20
-3.5641800000000003
 30
0.0
 10
-0.32497
 20
-3.4575000000000005
 30
0.0
 10
-0.24877
 20
-3.3813000000000004
 30
0.0
 10
-0.24877
 20
-3.3813000000000004
 30
0.0
 10
-0.04557
 20
-3.3254200000000003
 30
0.0
 10
-0.34783
 20
-3.6403800000000004
 30
0.0
 10
-0.22337
 20
-3.7318200000000004
 30
0.0
 10
-0.22337
 20
-3.7318200000000004
 30
0.0
 10
-0.13447
 20
-3.3609800000000001
 30
0.0
 10
-0.01763
 20
-3.2873200000000002
 30
0.0
 10
0.22874
 20
-2.9342600000000001
 30
0.0
 10
0.22874
 20
-2.9342600000000001
 30
0.0
 10
0.30748
 20
-2.9876
 30
0.0
 10
0.2008
 20
-3.1882600000000001
 30
0.0
 10
0.32018
 20
-3.1679400000000002
 30
0.0
 10
0.32018
 20
-3.1679400000000002
 30
0.0
 10
0.32018
 20
-2.64724
 30
0.0
 10
0.42178
 20
-2.1519400000000002
 30
0.0
 10
0.33796
 20
-1.6363200000000002
 30
0.0
 10
0.33796
 20
-1.6363200000000002
 30
0.0
 10
0.33288
 20
-1.3467600000000002
 30
0.0
 10
-0.11161
 20
-0.9632200000000001
 30
0.0
 10
0.2897
 20
-0.7778000000000001
 30
0.0
 10
0.2897
 20
-0.7778000000000001
 30
0.0
 10
0.07888
 20
-1.1308600000000002
 30
0.0
 10
0.43702
 20
-1.4636
 30
0.0
 10
0.47766
 20
-1.8115800000000002
 30
0.0
 10
0.47766
 20
-1.8115800000000002
 30
0.0
 10
0.55386
 20
-1.6160000000000001
 30
0.0
 10
0.07126
 20
-0.7397
 30
0.0
 10
0.7494400000000001
 20
-0.7930400000000001
 30
0.0
 10
0.7494400000000001
 20
-0.7930400000000001
 30
0.0
 10
0.82818
 20
-1.0064000000000002
 30
0.0
 10
0.7748400000000001
 20
-1.2731000000000001
 30
0.0
 10
0.8637400000000001
 20
-1.4890000000000001
 30
0.0
 10
0.8637400000000001
 20
-1.4890000000000001
 30
0.0
 10
1.0313800000000002
 20
-1.4915400000000001
 30
0.0
 10
1.0263
 20
-1.29342
 30
0.0
 10
1.15076
 20
-1.2096
 30
0.0
  0
SPLINE
  5
43
100
AcDbEntity
  8
Ebene 1
 62
     7
100
AcDbSpline
210
0.0
220
0.0
230
1.0
 70
     1
 71
     3
 72
    16
 73
    12
 74
     0
 42
0.0000000001
 43
0.0000000001
 40
0.0
 40
0.0
 40
0.0
 40
0.0
 40
0.3333333333333333
 40
0.3333333333333333
 40
0.3333333333333333
 40
0.3333333333333333
 40
0.6666666666666666
 40
0.6666666666666666
 40
0.6666666666666666
 40
0.6666666666666666
 40
1.0
 40
1.0
 40
1.0
 40
1.0
 10
-3.1240500000000004
 20
-0.9327400000000001
 30
0.0
 10
-3.1240500000000004
 20
-0.9327400000000001
 30
0.0
 10
-3.0630900000000003
 20
-0.95052
 30
0.0
 10
-3.0630900000000003
 20
-0.95052
 30
0.0
 10
-3.0630900000000003
 20
-0.95052
 30
0.0
 10
-3.2434300000000005
 20
-1.1461000000000001
 30
0.0
 10
-3.5025100000000005
 20
-1.2299200000000001
 30
0.0
 10
-3.7158700000000002
 20
-1.3594600000000001
 30
0.0
 10
-3.7158700000000002
 20
-1.3594600000000001
 30
0.0
 10
-3.6574500000000003
 20
-1.0953000000000002
 30
0.0
 10
-3.3145500000000001
 20
-1.0648200000000001
 30
0.0
 10
-3.1240500000000004
 20
-0.9327400000000001
 30
0.0
  0
SPLINE
  5
44
100
AcDbEntity
  8
Ebene 1
 62
     7
100
AcDbSpline
210
0.0
220
0.0
230
1.0
 70
     1
 71
     3
 72
    24
 73
    20
 74
     0
 42
0.0000000001
 43
0.0000000001
 40
0.0
 40
0.0
 40
0.0
 40
0.0
 40
0.2
 40
0.2
 40
0.2
 40
0.2
 40
0.4
 40
0.4
 40
0.4
 40
0.4
 40
0.6000000000000001
 40
0.6000000000000001
 40
0.6000000000000001
 40
0.6000000000000001
 40
0.8
 40
0.8
 40
0.8
 40
0.8
 40
1.0
 40
1.0
 40
1.0
 40
1.0
 10
-0.3757700000000001
 20
-1.0140200000000001
 30
0.0
 10
-0.27417
 20
-1.0953000000000002
 30
0.0
 10
-0.24877
 20
-1.3391400000000002
 30
0.0
 10
-0.31481
 20
-1.4458200000000001
 30
0.0
 10
-0.31481
 20
-1.4458200000000001
 30
0.0
 10
-0.18527
 20
-1.5575800000000002
 30
0.0
 10
-0.20305
 20
-1.7404600000000001
 30
0.0
 10
-0.24115
 20
-1.8877800000000002
 30
0.0
 10
-0.24115
 20
-1.8877800000000002
 30
0.0
 10
-0.34783
 20
-1.7506200000000001
 30
0.0
 10
-0.4799100000000001
 20
-1.5804400000000001
 30
0.0
 10
-0.34783
 20
-1.41788
 30
0.0
 10
-0.34783
 20
-1.41788
 30
0.0
 10
-0.4062500000000001
 20
-1.3975600000000001
 30
0.0
 10
-0.4062500000000001
 20
-1.4940800000000001
 30
0.0
 10
-0.44689
 20
-1.4890000000000001
 30
0.0
 10
-0.44689
 20
-1.4890000000000001
 30
0.0
 10
-0.49769
 20
-1.3416800000000002
 30
0.0
 10
-0.5154700000000001
 20
-1.08514
 30
0.0
 10
-0.3757700000000001
 20
-1.0140200000000001
 30
0.0
  0
SPLINE
  5
45
100
AcDbEntity
  8
Ebene 1
 62
     7
100
AcDbSpline
210
0.0
220
0.0
230
1.0
 70
     1
 71
     3
 72
    12
 73
     8
 74
     0
 42
0.0000000001
 43
0.0000000001
 40
0.0
 40
0.0
 40
0.0
 40
0.0
 40
0.5
 40
0.5
 40
0.5
 40
0.5
 40
1.0
 40
1.0
 40
1.0
 40
1.0
 10
-0.6043700000000001
 20
-1.1410200000000001
 30
0.0
 10
-0.6043700000000001
 20
-1.1410200000000001
 30
0.0
 10
-0.48499
 20
-1.7455400000000001
 30
0.0
 10
-0.48499
 20
-1.7455400000000001
 30
0.0
 10
-0.48499
 20
-1.7455400000000001
 30
0.0
 10
-0.7135900000000001
 20
-1.6337800000000002
 30
0.0
 10
-0.6907300000000001
 20
-1.3264400000000001
 30
0.0
 10
-0.6043700000000001
 20
-1.1410200000000001
 30
0.0
  0
SPLINE
  5
46
100
AcDbEntity
  8
Ebene 1
 62
     7
100
AcDbSpline
210
0.0
220
0.0
230
1.0
 70
     1
 71
     3
 72
    16
 73
    12
 74
     0
 42
0.0000000001
 43
0.0000000001
 40
0.0
 40
0.0
 40
0.0
 40
0.0
 40
0.3333333333333333
 40
0.3333333333333333
 40
0.3333333333333333
 40
0.3333333333333333
 40
0.6666666666666666
 40
0.6666666666666666
 40
0.6666666666666666
 40
0.6666666666666666
 40
1.0
 40
1.0
 40
1.0
 40
1.0
 10
-0.6500900000000001
 20
-1.7023600000000001
 30
0.0
 10
-0.57643
 20
-1.7150600000000003
 30
0.0
 10
-0.50785
 20
-1.79634
 30
0.0
 10
-0.46721
 20
-1.8623800000000001
 30
0.0
 10
-0.46721
 20
-1.8623800000000001
 30
0.0
 10
-0.46721
 20
-1.8623800000000001
 30
0.0
 10
-0.5611900000000001
 20
-2.2078200000000003
 30
0.0
 10
-0.5611900000000001
 20
-2.2078200000000003
 30
0.0
 10
-0.5611900000000001
 20
-2.2078200000000003
 30
0.0
 10
-0.63485
 20
-2.06304
 30
0.0
 10
-0.65263
 20
-1.8776200000000001
 30
0.0
 10
-0.6500900000000001
 20
-1.7023600000000001
 30
0.0
  0
SPLINE
  5
47
100
AcDbEntity
  8
Ebene 1
 62
     7
100
AcDbSpline
210
0.0
220
0.0
230
1.0
 70
     1
 71
     3
 72
    20
 73
    16
 74
     0
 42
0.0000000001
 43
0.0000000001
 40
0.0
 40
0.0
 40
0.0
 40
0.0
 40
0.25
 40
0.25
 40
0.25
 40
0.25
 40
0.5
 40
0.5
 40
0.5
 40
0.5
 40
0.75
 40
0.75
 40
0.75
 40
0.75
 40
1.0
 40
1.0
 40
1.0
 40
1.0
 10
-4.5896300000000005
 20
-1.7658600000000002
 30
0.0
 10
-4.5896300000000005
 20
-1.7658600000000002
 30
0.0
 10
-4.5337500000000004
 20
-1.7684000000000002
 30
0.0
 10
-4.5337500000000004
 20
-1.7684000000000002
 30
0.0
 10
-4.5337500000000004
 20
-1.7684000000000002
 30
0.0
 10
-4.5489900000000008
 20
-1.8827000000000003
 30
0.0
 10
-4.7140900000000006
 20
-1.8674600000000001
 30
0.0
 10
-4.7852100000000002
 20
-1.9360400000000002
 30
0.0
 10
-4.7852100000000002
 20
-1.9360400000000002
 30
0.0
 10
-4.8004500000000005
 20
-1.9081000000000001
 30
0.0
 10
-4.7750500000000002
 20
-1.8750800000000001
 30
0.0
 10
-4.7471100000000002
 20
-1.8725400000000001
 30
0.0
 10
-4.7471100000000002
 20
-1.8725400000000001
 30
0.0
 10
-4.7471100000000002
 20
-1.8725400000000001
 30
0.0
 10
-4.5896300000000005
 20
-1.7658600000000002
 30
0.0
 10
-4.5896300000000005
 20
-1.7658600000000002
 30
0.0
  0
SPLINE
  5
48
100
AcDbEntity
  8
Ebene 1
 62
     7
100
AcDbSpline
210
0.0
220
0.0
230
1.0
 70
     1
 71
     3
 72
    16
 73
    12
 74
     0
 42
0.0000000001
 43
0.0000000001
 40
0.0
 40
0.0
 40
0.0
 40
0.0
 40
0.3333333333333333
 40
0.3333333333333333
 40
0.3333333333333333
 40
0.3333333333333333
 40
0.6666666666666666
 40
0.6666666666666666
 40
0.6666666666666666
 40
0.6666666666666666
 40
1.0
 40
1.0
 40
1.0
 40
1.0
 10
-2.5754100000000002
 20
-1.7811000000000001
 30
0.0
 10
-2.5754100000000002
 20
-1.7811000000000001
 30
0.0
 10
-2.5322300000000002
 20
-1.7836400000000001
 30
0.0
 10
-2.5322300000000002
 20
-1.7836400000000001
 30
0.0
 10
-2.5322300000000002
 20
-1.7836400000000001
 30
0.0
 10
-2.4153900000000004
 20
-1.9817600000000002
 30
0.0
 10
-2.4357100000000003
 20
-2.2256
 30
0.0
 10
-2.5906500000000001
 20
-2.3881600000000001
 30
0.0
 10
-2.5906500000000001
 20
-2.3881600000000001
 30
0.0
 10
-2.64907
 20
-2.2103600000000001
 30
0.0
 10
-2.6287500000000001
 20
-1.9639800000000001
 30
0.0
 10
-2.5754100000000002
 20
-1.7811000000000001
 30
0.0
  0
SPLINE
  5
49
100
AcDbEntity
  8
Ebene 1
 62
     7
100
AcDbSpline
210
0.0
220
0.0
230
1.0
 70
     1
 71
     3
 72
    20
 73
    16
 74
     0
 42
0.0000000001
 43
0.0000000001
 40
0.0
 40
0.0
 40
0.0
 40
0.0
 40
0.25
 40
0.25
 40
0.25
 40
0.25
 40
0.5
 40
0.5
 40
0.5
 40
0.5
 40
0.75
 40
0.75
 40
0.75
 40
0.75
 40
1.0
 40
1.0
 40
1.0
 40
1.0
 10
-0.9879100000000001
 20
-1.7811000000000001
 30
0.0
 10
-0.8177300000000001
 20
-1.9208000000000001
 30
0.0
 10
-0.8177300000000001
 20
-2.1595600000000004
 30
0.0
 10
-0.7720100000000001
 20
-2.35514
 30
0.0
 10
-0.7720100000000001
 20
-2.35514
 30
0.0
 10
-0.7720100000000001
 20
-2.35514
 30
0.0
 10
-0.82281
 20
-2.4313400000000001
 30
0.0
 10
-0.82281
 20
-2.4313400000000001
 30
0.0
 10
-0.82281
 20
-2.4313400000000001
 30
0.0
 10
-0.82281
 20
-2.4313400000000001
 30
0.0
 10
-1.04379
 20
-2.2078200000000003
 30
0.0
 10
-1.04379
 20
-2.2078200000000003
 30
0.0
 10
-1.04379
 20
-2.2078200000000003
 30
0.0
 10
-1.0615700000000001
 20
-2.05796
 30
0.0
 10
-1.03871
 20
-1.9106400000000001
 30
0.0
 10
-0.9879100000000001
 20
-1.7811000000000001
 30
0.0
  0
SPLINE
  5
4A
100
AcDbEntity
  8
Ebene 1
 62
     7
100
AcDbSpline
210
0.0
220
0.0
230
1.0
 70
     1
 71
     3
 72
    20
 73
    16
 74
     0
 42
0.0000000001
 43
0.0000000001
 40
0.0
 40
0.0
 40
0.0
 40
0.0
 40
0.25
 40
0.25
 40
0.25
 40
0.25
 40
0.5
 40
0.5
 40
0.5
 40
0.5
 40
0.75
 40
0.75
 40
0.75
 40
0.75
 40
1.0
 40
1.0
 40
1.0
 40
1.0
 10
-1.6584700000000001
 20
-1.8928600000000002
 30
0.0
 10
-1.5390900000000001
 20
-2.0020800000000003
 30
0.0
 10
-1.50607
 20
-2.2078200000000003
 30
0.0
 10
-1.4755900000000002
 20
-2.3729200000000001
 30
0.0
 10
-1.4755900000000002
 20
-2.3729200000000001
 30
0.0
 10
-1.4755900000000002
 20
-2.3729200000000001
 30
0.0
 10
-1.6432300000000002
 20
-2.6751800000000001
 30
0.0
 10
-1.6432300000000002
 20
-2.6751800000000001
 30
0.0
 10
-1.6432300000000002
 20
-2.6751800000000001
 30
0.0
 10
-1.6432300000000002
 20
-2.6751800000000001
 30
0.0
 10
-1.6610100000000001
 20
-2.5837400000000001
 30
0.0
 10
-1.6610100000000001
 20
-2.5837400000000001
 30
0.0
 10
-1.6610100000000001
 20
-2.5837400000000001
 30
0.0
 10
-1.8896100000000002
 20
-2.3780000000000001
 30
0.0
 10
-1.6229100000000001
 20
-2.1240000000000001
 30
0.0
 10
-1.6584700000000001
 20
-1.8928600000000002
 30
0.0
  0
SPLINE
  5
4B
100
AcDbEntity
  8
Ebene 1
 62
     7
100
AcDbSpline
210
0.0
220
0.0
230
1.0
 70
     1
 71
     3
 72
    16
 73
    12
 74
     0
 42
0.0000000001
 43
0.0000000001
 40
0.0
 40
0.0
 40
0.0
 40
0.0
 40
0.3333333333333333
 40
0.3333333333333333
 40
0.3333333333333333
 40
0.3333333333333333
 40
0.6666666666666666
 40
0.6666666666666666
 40
0.6666666666666666
 40
0.6666666666666666
 40
1.0
 40
1.0
 40
1.0
 40
1.0
 10
-2.27061
 20
-1.92334
 30
0.0
 10
-2.27061
 20
-1.92334
 30
0.0
 10
-2.2426700000000004
 20
-1.9284200000000002
 30
0.0
 10
-2.2426700000000004
 20
-1.9284200000000002
 30
0.0
 10
-2.2426700000000004
 20
-1.9284200000000002
 30
0.0
 10
-2.2045700000000004
 20
-2.1087600000000002
 30
0.0
 10
-2.1334500000000003
 20
-2.3322800000000004
 30
0.0
 10
-2.2248900000000003
 20
-2.4999200000000004
 30
0.0
 10
-2.2248900000000003
 20
-2.4999200000000004
 30
0.0
 10
-2.3163300000000002
 20
-2.3297400000000001
 30
0.0
 10
-2.40015
 20
-2.1036800000000002
 30
0.0
 10
-2.27061
 20
-1.92334
 30
0.0
  0
SPLINE
  5
4C
100
AcDbEntity
  8
Ebene 1
 62
     7
100
AcDbSpline
210
0.0
220
0.0
230
1.0
 70
     1
 71
     3
 72
    12
 73
     8
 74
     0
 42
0.0000000001
 43
0.0000000001
 40
0.0
 40
0.0
 40
0.0
 40
0.0
 40
0.5
 40
0.5
 40
0.5
 40
0.5
 40
1.0
 40
1.0
 40
1.0
 40
1.0
 10
-4.8817300000000001
 20
-1.9411200000000002
 30
0.0
 10
-4.8817300000000001
 20
-1.9411200000000002
 30
0.0
 10
-4.9274500000000003
 20
-2.2281400000000002
 30
0.0
 10
-4.9274500000000003
 20
-2.2281400000000002
 30
0.0
 10
-4.9274500000000003
 20
-2.2281400000000002
 30
0.0
 10
-4.9960300000000002
 20
-2.14432
 30
0.0
 10
-4.9376100000000003
 20
-2.01986
 30
0.0
 10
-4.8817300000000001
 20
-1.9411200000000002
 30
0.0
  0
SPLINE
  5
4D
100
AcDbEntity
  8
Ebene 1
 62
     7
100
AcDbSpline
210
0.0
220
0.0
230
1.0
 70
     1
 71
     3
 72
    16
 73
    12
 74
     0
 42
0.0000000001
 43
0.0000000001
 40
0.0
 40
0.0
 40
0.0
 40
0.0
 40
0.3333333333333333
 40
0.3333333333333333
 40
0.3333333333333333
 40
0.3333333333333333
 40
0.6666666666666666
 40
0.6666666666666666
 40
0.6666666666666666
 40
0.6666666666666666
 40
1.0
 40
1.0
 40
1.0
 40
1.0
 10
-2.0089900000000003
 20
-1.9716000000000002
 30
0.0
 10
-1.9912100000000001
 20
-1.9690600000000003
 30
0.0
 10
-1.9785100000000002
 20
-1.9792200000000002
 30
0.0
 10
-1.9683500000000003
 20
-1.9919200000000001
 30
0.0
 10
-1.9683500000000003
 20
-1.9919200000000001
 30
0.0
 10
-1.9099300000000001
 20
-2.1976600000000004
 30
0.0
 10
-1.8057900000000002
 20
-2.4389600000000002
 30
0.0
 10
-1.9785100000000002
 20
-2.6116800000000002
 30
0.0
 10
-1.9785100000000002
 20
-2.6116800000000002
 30
0.0
 10
-2.0775700000000001
 20
-2.4389600000000002
 30
0.0
 10
-2.1690100000000001
 20
-2.1494
 30
0.0
 10
-2.0089900000000003
 20
-1.9716000000000002
 30
0.0
  0
SPLINE
  5
4E
100
AcDbEntity
  8
Ebene 1
 62
     7
100
AcDbSpline
210
0.0
220
0.0
230
1.0
 70
     1
 71
     3
 72
    12
 73
     8
 74
     0
 42
0.0000000001
 43
0.0000000001
 40
0.0
 40
0.0
 40
0.0
 40
0.0
 40
0.5
 40
0.5
 40
0.5
 40
0.5
 40
1.0
 40
1.0
 40
1.0
 40
1.0
 10
-5.0188900000000007
 20
-2.01986
 30
0.0
 10
-4.9680900000000001
 20
-2.0909800000000001
 30
0.0
 10
-5.1077900000000005
 20
-2.1138400000000002
 30
0.0
 10
-5.15097
 20
-2.1290800000000001
 30
0.0
 10
-5.15097
 20
-2.1290800000000001
 30
0.0
 10
-5.15097
 20
-2.1290800000000001
 30
0.0
 10
-5.0188900000000007
 20
-2.01986
 30
0.0
 10
-5.0188900000000007
 20
-2.01986
 30
0.0
  0
SPLINE
  5
4F
100
AcDbEntity
  8
Ebene 1
 62
     7
100
AcDbSpline
210
0.0
220
0.0
230
1.0
 70
     1
 71
     3
 72
    12
 73
     8
 74
     0
 42
0.0000000001
 43
0.0000000001
 40
0.0
 40
0.0
 40
0.0
 40
0.0
 40
0.5
 40
0.5
 40
0.5
 40
0.5
 40
1.0
 40
1.0
 40
1.0
 40
1.0
 10
-5.24749
 20
-2.1494
 30
0.0
 10
-5.24749
 20
-2.1494
 30
0.0
 10
-5.2805100000000005
 20
-2.3348200000000001
 30
0.0
 10
-5.2805100000000005
 20
-2.3348200000000001
 30
0.0
 10
-5.2805100000000005
 20
-2.3348200000000001
 30
0.0
 10
-5.3440100000000008
 20
-2.2941800000000003
 30
0.0
 10
-5.2779700000000007
 20
-2.1976600000000004
 30
0.0
 10
-5.24749
 20
-2.1494
 30
0.0
  0
SPLINE
  5
50
100
AcDbEntity
  8
Ebene 1
 62
     7
100
AcDbSpline
210
0.0
220
0.0
230
1.0
 70
     1
 71
     3
 72
    20
 73
    16
 74
     0
 42
0.0000000001
 43
0.0000000001
 40
0.0
 40
0.0
 40
0.0
 40
0.0
 40
0.25
 40
0.25
 40
0.25
 40
0.25
 40
0.5
 40
0.5
 40
0.5
 40
0.5
 40
0.75
 40
0.75
 40
0.75
 40
0.75
 40
1.0
 40
1.0
 40
1.0
 40
1.0
 10
-5.8266100000000005
 20
-2.3881600000000001
 30
0.0
 10
-5.8266100000000005
 20
-2.3881600000000001
 30
0.0
 10
-5.7377100000000008
 20
-2.3907000000000003
 30
0.0
 10
-5.7377100000000008
 20
-2.3907000000000003
 30
0.0
 10
-5.7377100000000008
 20
-2.3907000000000003
 30
0.0
 10
-5.7885100000000005
 20
-2.4872200000000002
 30
0.0
 10
-5.8596300000000001
 20
-2.6218400000000002
 30
0.0
 10
-5.9917100000000003
 20
-2.5913600000000003
 30
0.0
 10
-5.9917100000000003
 20
-2.5913600000000003
 30
0.0
 10
-6.0044100000000009
 20
-2.5481800000000003
 30
0.0
 10
-5.9663100000000009
 20
-2.5024600000000001
 30
0.0
 10
-5.9307500000000006
 20
-2.4872200000000002
 30
0.0
 10
-5.9307500000000006
 20
-2.4872200000000002
 30
0.0
 10
-5.9307500000000006
 20
-2.4872200000000002
 30
0.0
 10
-5.8266100000000005
 20
-2.3881600000000001
 30
0.0
 10
-5.8266100000000005
 20
-2.3881600000000001
 30
0.0
  0
SPLINE
  5
51
100
AcDbEntity
  8
Ebene 1
 62
     7
100
AcDbSpline
210
0.0
220
0.0
230
1.0
 70
     1
 71
     3
 72
    12
 73
     8
 74
     0
 42
0.0000000001
 43
0.0000000001
 40
0.0
 40
0.0
 40
0.0
 40
0.0
 40
0.5
 40
0.5
 40
0.5
 40
0.5
 40
1.0
 40
1.0
 40
1.0
 40
1.0
 10
-6.2253900000000009
 20
-2.6599400000000002
 30
0.0
 10
-6.1796700000000007
 20
-2.6853400000000001
 30
0.0
 10
-6.1618900000000005
 20
-2.7742400000000003
 30
0.0
 10
-6.2101500000000005
 20
-2.8047200000000001
 30
0.0
 10
-6.2101500000000005
 20
-2.8047200000000001
 30
0.0
 10
-6.2482500000000005
 20
-2.7742400000000003
 30
0.0
 10
-6.2507900000000003
 20
-2.7005800000000004
 30
0.0
 10
-6.2253900000000009
 20
-2.6599400000000002
 30
0.0
  0
SPLINE
  5
52
100
AcDbEntity
  8
Ebene 1
 62
     7
100
AcDbSpline
210
0.0
220
0.0
230
1.0
 70
     1
 71
     3
 72
    16
 73
    12
 74
     0
 42
0.0000000001
 43
0.0000000001
 40
0.0
 40
0.0
 40
0.0
 40
0.0
 40
0.3333333333333333
 40
0.3333333333333333
 40
0.3333333333333333
 40
0.3333333333333333
 40
0.6666666666666666
 40
0.6666666666666666
 40
0.6666666666666666
 40
0.6666666666666666
 40
1.0
 40
1.0
 40
1.0
 40
1.0
 10
-0.08621
 20
-2.9622000000000002
 30
0.0
 10
0.01538
 20
-3.0790400000000004
 30
0.0
 10
-0.08367
 20
-3.2797000000000001
 30
0.0
 10
-0.21829
 20
-3.3101800000000003
 30
0.0
 10
-0.21829
 20
-3.3101800000000003
 30
0.0
 10
-0.19797
 20
-3.2492200000000002
 30
0.0
 10
-0.21321
 20
-3.1755600000000004
 30
0.0
 10
-0.21829
 20
-3.1095200000000003
 30
0.0
 10
-0.21829
 20
-3.1095200000000003
 30
0.0
 10
-0.21829
 20
-3.1095200000000003
 30
0.0
 10
-0.08621
 20
-2.9622000000000002
 30
0.0
 10
-0.08621
 20
-2.9622000000000002
 30
0.0
  0
SPLINE
  5
53
100
AcDbEntity
  8
Ebene 1
 62
     7
100
AcDbSpline
210
0.0
220
0.0
230
1.0
 70
     1
 71
     3
 72
    16
 73
    12
 74
     0
 42
0.0000000001
 43
0.0000000001
 40
0.0
 40
0.0
 40
0.0
 40
0.0
 40
0.3333333333333333
 40
0.3333333333333333
 40
0.3333333333333333
 40
0.3333333333333333
 40
0.6666666666666666
 40
0.6666666666666666
 40
0.6666666666666666
 40
0.6666666666666666
 40
1.0
 40
1.0
 40
1.0
 40
1.0
 10
-0.36053
 20
-2.9952200000000002
 30
0.0
 10
-0.15987
 20
-3.1603200000000005
 30
0.0
 10
-0.31481
 20
-3.4879800000000003
 30
0.0
 10
-0.50785
 20
-3.5667200000000001
 30
0.0
 10
-0.50785
 20
-3.5667200000000001
 30
0.0
 10
-0.6018300000000001
 20
-3.4041600000000001
 30
0.0
 10
-0.3427500000000001
 20
-3.2619200000000004
 30
0.0
 10
-0.4062500000000001
 20
-3.0739600000000005
 30
0.0
 10
-0.4062500000000001
 20
-3.0739600000000005
 30
0.0
 10
-0.4062500000000001
 20
-3.0739600000000005
 30
0.0
 10
-0.36053
 20
-2.9952200000000002
 30
0.0
 10
-0.36053
 20
-2.9952200000000002
 30
0.0
  0
SPLINE
  5
54
100
AcDbEntity
  8
Ebene 1
 62
     7
100
AcDbSpline
210
0.0
220
0.0
230
1.0
 70
     1
 71
     3
 72
    12
 73
     8
 74
     0
 42
0.0000000001
 43
0.0000000001
 40
0.0
 40
0.0
 40
0.0
 40
0.0
 40
0.5
 40
0.5
 40
0.5
 40
0.5
 40
1.0
 40
1.0
 40
1.0
 40
1.0
 10
-1.1098300000000001
 20
-3.3635200000000003
 30
0.0
 10
-1.00569
 20
-3.5337000000000005
 30
0.0
 10
-0.8812300000000001
 20
-3.8258000000000005
 30
0.0
 10
-1.1555500000000001
 20
-3.9070800000000001
 30
0.0
 10
-1.1555500000000001
 20
-3.9070800000000001
 30
0.0
 10
-1.37399
 20
-3.7877000000000005
 30
0.0
 10
-1.1758700000000002
 20
-3.5260800000000003
 30
0.0
 10
-1.1098300000000001
 20
-3.3635200000000003
 30
0.0
  0
SPLINE
  5
55
100
AcDbEntity
  8
Ebene 1
 62
     7
100
AcDbSpline
210
0.0
220
0.0
230
1.0
 70
     1
 71
     3
 72
    16
 73
    12
 74
     0
 42
0.0000000001
 43
0.0000000001
 40
0.0
 40
0.0
 40
0.0
 40
0.0
 40
0.3333333333333333
 40
0.3333333333333333
 40
0.3333333333333333
 40
0.3333333333333333
 40
0.6666666666666666
 40
0.6666666666666666
 40
0.6666666666666666
 40
0.6666666666666666
 40
1.0
 40
1.0
 40
1.0
 40
1.0
 10
-1.50607
 20
-3.3787600000000002
 30
0.0
 10
-1.50607
 20
-3.3787600000000002
 30
0.0
 10
-1.33843
 20
-3.6988000000000003
 30
0.0
 10
-1.33843
 20
-3.6988000000000003
 30
0.0
 10
-1.33843
 20
-3.6988000000000003
 30
0.0
 10
-1.33843
 20
-3.6988000000000003
 30
0.0
 10
-1.46035
 20
-3.8918400000000002
 30
0.0
 10
-1.46035
 20
-3.8918400000000002
 30
0.0
 10
-1.46035
 20
-3.8918400000000002
 30
0.0
 10
-1.6660900000000001
 20
-3.7826200000000001
 30
0.0
 10
-1.5797300000000001
 20
-3.5438600000000005
 30
0.0
 10
-1.50607
 20
-3.3787600000000002
 30
0.0
  0
SPLINE
  5
56
100
AcDbEntity
  8
Ebene 1
 62
     7
100
AcDbSpline
210
0.0
220
0.0
230
1.0
 70
     1
 71
     3
 72
    16
 73
    12
 74
     0
 42
0.0000000001
 43
0.0000000001
 40
0.0
 40
0.0
 40
0.0
 40
0.0
 40
0.3333333333333333
 40
0.3333333333333333
 40
0.3333333333333333
 40
0.3333333333333333
 40
0.6666666666666666
 40
0.6666666666666666
 40
0.6666666666666666
 40
0.6666666666666666
 40
1.0
 40
1.0
 40
1.0
 40
1.0
 10
-1.8870700000000002
 20
-3.4117800000000003
 30
0.0
 10
-1.7905500000000001
 20
-3.5006800000000005
 30
0.0
 10
-1.79817
 20
-3.7013400000000005
 30
0.0
 10
-1.6584700000000001
 20
-3.7800800000000003
 30
0.0
 10
-1.6584700000000001
 20
-3.7800800000000003
 30
0.0
 10
-1.6584700000000001
 20
-3.7800800000000003
 30
0.0
 10
-1.7956300000000001
 20
-3.9223200000000005
 30
0.0
 10
-1.7956300000000001
 20
-3.9223200000000005
 30
0.0
 10
-1.7956300000000001
 20
-3.9223200000000005
 30
0.0
 10
-1.9708900000000003
 20
-3.8131000000000004
 30
0.0
 10
-1.9810500000000002
 20
-3.5743400000000003
 30
0.0
 10
-1.8870700000000002
 20
-3.4117800000000003
 30
0.0
  0
SPLINE
  5
57
100
AcDbEntity
  8
Ebene 1
 62
     7
100
AcDbSpline
210
0.0
220
0.0
230
1.0
 70
     1
 71
     3
 72
    12
 73
     8
 74
     0
 42
0.0000000001
 43
0.0000000001
 40
0.0
 40
0.0
 40
0.0
 40
0.0
 40
0.5
 40
0.5
 40
0.5
 40
0.5
 40
1.0
 40
1.0
 40
1.0
 40
1.0
 10
-2.1918700000000002
 20
-3.5540200000000004
 30
0.0
 10
-2.1715500000000003
 20
-3.6784800000000004
 30
0.0
 10
-1.9734300000000002
 20
-3.8207200000000001
 30
0.0
 10
-2.0851900000000003
 20
-3.9375600000000004
 30
0.0
 10
-2.0851900000000003
 20
-3.9375600000000004
 30
0.0
 10
-2.15123
 20
-3.8359600000000005
 30
0.0
 10
-2.2198100000000003
 20
-3.6810200000000002
 30
0.0
 10
-2.1918700000000002
 20
-3.5540200000000004
 30
0.0
  0
ENDSEC
  0
SECTION
  2
OBJECTS
  0
DICTIONARY
  5
19
100
AcDbDictionary
280
     0
281
     1
  3
ACAD_GROUP
350
1A
  3
ACAD_MLINESTYLE
350
1B
  3
ACAD_LAYOUT
350
1E
  3
ACAD_PLOTSETTINGS
350
22
  3
ACAD_PLOTSTYLENAME
350
1F
  3
ACAD_WIPEOUT_VARS
350
23
  0
DICTIONARY
  5
1A
102
{ACAD_REACTORS
330
19
102
}
100
AcDbDictionary
280
     0
281
     1
  0
DICTIONARY
  5
1B
102
{ACAD_REACTORS
330
19
102
}
100
AcDbDictionary
280
     0
281
     1
  3
Standard
350
1C
  0
MLINESTYLE
  5
1C
102
{ACAD_REACTORS
330
1B
102
}
100
AcDbMlineStyle
  2
Standard
 70
     0
  3

 62
     0
 51
90.0
 52
90.0
 71
     2
 49
0.5
 62
   256
  6
BYLAYER
 49
-0.5
 62
   256
  6
BYLAYER
  0
ACDBDICTIONARYWDFLT
  5
1F
102
{ACAD_REACTORS
330
19
102
}
100
AcDbDictionary
281
     1
  3
Normal
350
1D
100
AcDbDictionaryWithDefault
340
1D
  0
ACDBPLACEHOLDER
  5
1D
102
{ACAD_REACTORS
330
1F
102
}
  0
LAYOUT
  5
20
102
{ACAD_REACTORS
330
1E
102
}
100
AcDbPlotSettings
  1

  2

  4

  6

 40
0.0
 41
0.0
 42
0.0
 43
0.0
 44
0.0
 45
0.0
 46
0.0
 47
0.0
 48
0.0
 49
0.0
140
0.0
141
0.0
142
1.0
143
1.0
 70
  1024
 72
     0
 73
     0
 74
     0
  7

 75
     0
147
1.0
148
0.0
149
0.0
100
AcDbLayout
  1
Model
 70
     0
 71
     0
 10
0.0
 20
0.0
 11
0.0
 21
0.0
 12
0.0
 22
0.0
 32
0.0
 14
0.0
 24
0.0
 34
0.0
 15
0.0
 25
0.0
 35
0.0
146
0.0
 13
0.0
 23
0.0
 33
0.0
 16
0.0
 26
0.0
 36
0.0
 17
0.0
 27
0.0
 37
0.0
 76
     0
330
A
331
0
345
0
346
0
  0
LAYOUT
  5
21
102
{ACAD_REACTORS
330
1E
102
}
100
AcDbPlotSettings
  1

  2

  4

  6

 40
0.0
 41
0.0
 42
0.0
 43
0.0
 44
0.0
 45
0.0
 46
0.0
 47
0.0
 48
0.0
 49
0.0
140
0.0
141
0.0
142
1.0
143
1.0
 70
     0
 72
     0
 73
     0
 74
     0
  7

 75
     0
147
1.0
148
0.0
149
0.0
100
AcDbLayout
  1
Layout1
 70
     0
 71
     0
 10
0.0
 20
0.0
 11
0.0
 21
0.0
 12
0.0
 22
0.0
 32
0.0
 14
0.0
 24
0.0
 34
0.0
 15
0.0
 25
0.0
 35
0.0
146
0.0
 13
0.0
 23
0.0
 33
0.0
 16
0.0
 26
0.0
 36
0.0
 17
0.0
 27
0.0
 37
0.0
 76
     0
330
B
331
0
345
0
346
0
  0
DICTIONARY
  5
1E
102
{ACAD_REACTORS
330
19
102
}
100
AcDbDictionary
280
     0
281
     1
  3
Layout1
350
21
  3
Model
350
20
  0
DICTIONARY
  5
22
102
{ACAD_REACTORS
330
19
102
}
100
AcDbDictionary
280
     0
281
     1
  0
WIPEOUTVARIABLES
  5
23
100
AcDbWipeoutVariables
 70
     1
  0
ENDSEC
  0
EOF
