  0
SECTION
  2
HEADER
  9
$ACADVER
  1
AC1015
  9
$ACADMAINTVER
 70
     6
  9
$DWGCODEPAGE
  3
DOS850
  9
$INSBASE
 10
0.0
 20
0.0
 30
0.0
  9
$EXTMIN
 10
-5.41925
 20
-5.58856
 30
1.000000E+20
  9
$EXTMAX
 10
5.42459
 20
5.58235
 30
-1.000000E+20
  9
$LIMMIN
 10
0.0
 20
0.0
  9
$LIMMAX
 10
0.0
 20
0.0
  9
$ORTHOMODE
 70
     0
  9
$REGENMODE
 70
     1
  9
$FILLMODE
 70
     1
  9
$QTEXTMODE
 70
     0
  9
$MIRRTEXT
 70
     1
  9
$LTSCALE
 40
1.0
  9
$ATTMODE
 70
     1
  9
$TEXTSIZE
 40
0.2
  9
$TRACEWID
 40
0.05
  9
$TEXTSTYLE
  7
Standard
  9
$CLAYER
  8
0
  9
$CELTYPE
  6
Continuous
  9
$CECOLOR
 62
   256
  9
$CELTSCALE
 40
1.0
  9
$DISPSILH
 70
     0
  9
$DIMSCALE
 40
1.0
  9
$DIMASZ
 40
0.18
  9
$DIMEXO
 40
0.0625
  9
$DIMDLI
 40
0.38
  9
$DIMRND
 40
0.0
  9
$DIMDLE
 40
0.0
  9
$DIMEXE
 40
0.18
  9
$DIMTP
 40
0.0
  9
$DIMTM
 40
0.0
  9
$DIMTXT
 40
0.18
  9
$DIMCEN
 40
0.09
  9
$DIMTSZ
 40
0.0
  9
$DIMTOL
 70
     0
  9
$DIMLIM
 70
     0
  9
$DIMTIH
 70
     1
  9
$DIMTOH
 70
     1
  9
$DIMSE1
 70
     0
  9
$DIMSE2
 70
     0
  9
$DIMTAD
 70
     0
  9
$DIMZIN
 70
     0
  9
$DIMBLK
  1

  9
$DIMASO
 70
     1
  9
$DIMSHO
 70
     1
  9
$DIMPOST
  1

  9
$DIMAPOST
  1

  9
$DIMALT
 70
     0
  9
$DIMALTD
 70
     2
  9
$DIMALTF
 40
25.4
  9
$DIMLFAC
 40
1.0
  9
$DIMTOFL
 70
     0
  9
$DIMTVP
 40
0.0
  9
$DIMTIX
 70
     0
  9
$DIMSOXD
 70
     0
  9
$DIMSAH
 70
     0
  9
$DIMBLK1
  1

  9
$DIMBLK2
  1

  9
$DIMSTYLE
  2
Standard
  9
$DIMCLRD
 70
     0
  9
$DIMCLRE
 70
     0
  9
$DIMCLRT
 70
     0
  9
$DIMTFAC
 40
1.0
  9
$DIMGAP
 40
0.09
  9
$DIMJUST
 70
     0
  9
$DIMSD1
 70
     0
  9
$DIMSD2
 70
     0
  9
$DIMTOLJ
 70
     1
  9
$DIMTZIN
 70
     0
  9
$DIMALTZ
 70
     0
  9
$DIMALTTZ
 70
     0
  9
$DIMUPT
 70
     0
  9
$DIMDEC
 70
     4
  9
$DIMTDEC
 70
     4
  9
$DIMALTU
 70
     2
  9
$DIMALTTD
 70
     2
  9
$DIMTXSTY
  7
Standard
  9
$DIMAUNIT
 70
     0
  9
$DIMADEC
 70
     0
  9
$DIMALTRND
 40
0.0
  9
$DIMAZIN
 70
     0
  9
$DIMDSEP
 70
     0
  9
$DIMATFIT
 70
     3
  9
$DIMFRAC
 70
     0
  9
$DIMLDRBLK
  1

  9
$DIMLUNIT
 70
     2
  9
$DIMLWD
 70
     0
  9
$DIMLWE
 70
     0
  9
$DIMTMOVE
 70
     0
  9
$LUNITS
 70
     2
  9
$LUPREC
 70
     4
  9
$SKETCHINC
 40
0.1
  9
$FILLETRAD
 40
0.0
  9
$AUNITS
 70
     0
  9
$AUPREC
 70
     0
  9
$MENU
  1
acad
  9
$ELEVATION
 40
0.0
  9
$PELEVATION
 40
0.0
  9
$THICKNESS
 40
0.0
  9
$LIMCHECK
 70
     0
  9
$CHAMFERA
 40
0.0
  9
$CHAMFERB
 40
0.0
  9
$CHAMFERC
 40
0.0
  9
$CHAMFERD
 40
0.0
  9
$SKPOLY
 70
     0
  9
$TDCREATE
 40
0.000000000
  9
$TDUCREATE
 40
0.000000000
  9
$TDUPDATE
 40
0.000000000
  9
$TDUUPDATE
 40
0.000000000
  9
$TDINDWG
 40
0.0000000000
  9
$TDUSRTIMER
 40
0.0000000000
  9
$USRTIMER
 70
     1
  9
$ANGBASE
 50
0.0
  9
$ANGDIR
 70
     0
  9
$PDMODE
 70
     0
  9
$PDSIZE
 40
0.0
  9
$PLINEWID
 40
0.0
  9
$SPLFRAME
 70
     0
  9
$SPLINETYPE
 70
     6
  9
$SPLINESEGS
 70
     8
  9
$HANDSEED
  5
3A
  9
$SURFTAB1
 70
     6
  9
$SURFTAB2
 70
     6
  9
$SURFTYPE
 70
     6
  9
$SURFU
 70
     6
  9
$SURFV
 70
     6
  9
$UCSBASE
  2

  9
$UCSNAME
  2

  9
$UCSORG
 10
0.0
 20
0.0
 30
0.0
  9
$UCSXDIR
 10
1.0
 20
0.0
 30
0.0
  9
$UCSYDIR
 10
0.0
 20
1.0
 30
0.0
  9
$UCSORTHOREF
  2

  9
$UCSORTHOVIEW
 70
     0
  9
$UCSORGTOP
 10
0.0
 20
0.0
 30
0.0
  9
$UCSORGBOTTOM
 10
0.0
 20
0.0
 30
0.0
  9
$UCSORGLEFT
 10
0.0
 20
0.0
 30
0.0
  9
$UCSORGRIGHT
 10
0.0
 20
0.0
 30
0.0
  9
$UCSORGFRONT
 10
0.0
 20
0.0
 30
0.0
  9
$UCSORGBACK
 10
0.0
 20
0.0
 30
0.0
  9
$PUCSBASE
  2

  9
$PUCSNAME
  2

  9
$PUCSORG
 10
0.0
 20
0.0
 30
0.0
  9
$PUCSXDIR
 10
1.0
 20
0.0
 30
0.0
  9
$PUCSYDIR
 10
0.0
 20
1.0
 30
0.0
  9
$PUCSORTHOREF
  2

  9
$PUCSORTHOVIEW
 70
     0
  9
$PUCSORGTOP
 10
0.0
 20
0.0
 30
0.0
  9
$PUCSORGBOTTOM
 10
0.0
 20
0.0
 30
0.0
  9
$PUCSORGLEFT
 10
0.0
 20
0.0
 30
0.0
  9
$PUCSORGRIGHT
 10
0.0
 20
0.0
 30
0.0
  9
$PUCSORGFRONT
 10
0.0
 20
0.0
 30
0.0
  9
$PUCSORGBACK
 10
0.0
 20
0.0
 30
0.0
  9
$USERI1
 70
     0
  9
$USERI2
 70
     0
  9
$USERI3
 70
     0
  9
$USERI4
 70
     0
  9
$USERI5
 70
     0
  9
$USERR1
 40
0.0
  9
$USERR2
 40
0.0
  9
$USERR3
 40
0.0
  9
$USERR4
 40
0.0
  9
$USERR5
 40
0.0
  9
$WORLDVIEW
 70
     1
  9
$SHADEDGE
 70
     3
  9
$SHADEDIF
 70
    70
  9
$TILEMODE
 70
     1
  9
$MAXACTVP
 70
    16
  9
$PINSBASE
 10
0.0
 20
0.0
 30
0.0
  9
$PLIMCHECK
 70
     0
  9
$PEXTMIN
 10
1.000000E+20
 20
1.000000E+20
 30
1.000000E+20
  9
$PEXTMAX
 10
-1.000000E+20
 20
-1.000000E+20
 30
-1.000000E+20
  9
$PLIMMIN
 10
0.0
 20
0.0
  9
$PLIMMAX
 10
12.0
 20
9.0
  9
$UNITMODE
 70
     0
  9
$VISRETAIN
 70
     0
  9
$PLINEGEN
 70
     1
  9
$PSLTSCALE
 70
     0
  9
$TREEDEPTH
 70
  3020
  9
$CMLSTYLE
  2
Standard
  9
$CMLJUST
 70
     0
  9
$CMLSCALE
 40
1.0
  9
$PROXYGRAPHICS
 70
     0
  9
$MEASUREMENT
 70
     0
  9
$CELWEIGHT
370
     0
  9
$ENDCAPS
280
     0
  9
$JOINSTYLE
280
     0
  9
$LWDISPLAY
290
     0
  9
$INSUNITS
 70
     5
  9
$HYPERLINKBASE
  1

  9
$XEDIT
290
     1
  9
$CEPSNTYPE
380
     0
  9
$PSTYLEMODE
290
     1
  9
$FINGERPRINTGUID
  2

  9
$VERSIONGUID
  2

  9
$EXTNAMES
290
     1
  9
$PSVPSCALE
 40
0.0
  0
ENDSEC
  0
SECTION
  2
CLASSES
  0
CLASS
  1
LWPOLYLINE
  2
AcDbPolyline
  3
AutoCAD 2000
 90
    32768
280
     0
281
     1
  0
CLASS
  1
IMAGE
  2
AcDbRasterImage
  3
ISM
 90
    32895
280
     0
281
     1
  0
CLASS
  1
OLE2FRAME
  2
AcDbOle2Frame
  3
AutoCAD 2000
 90
    32768
280
     0
281
     1
  0
CLASS
  1
HATCH
  2
AcDbHatch
  3
AutoCAD 2000
 90
    32768
280
     0
281
     1
  0
CLASS
  1
DICTIONARYVAR
  2
AcDbDictionaryVar
  3
AutoCAD 2000
 90
    32768
280
     0
281
     0
  0
CLASS
  1
RASTERVARIABLES
  2
AcDbRasterVariables
  3
ISM
 90
    32768
280
     0
281
     0
  0
CLASS
  1
IMAGEDEF
  2
AcDbRasterImageDef
  3
ISM
 90
    32768
280
     0
281
     0
  0
CLASS
  1
IMAGEDEF_REACTOR
  2
AcDbRasterImageDefReactor
  3
ISM
 90
    32769
280
     0
281
     0
  0
CLASS
  1
IDBUFFER
  2
AcDbIdBuffer
  3
AutoCAD 2000
 90
    32768
280
     0
281
     0
  0
CLASS
  1
SPATIAL_FILTER
  2
AcDbSpatialFilter
  3
AutoCAD 2000
 90
    32768
280
     0
281
     0
  0
CLASS
  1
XRECORD
  2
AcDbXrecord
  3
AutoCAD 2000
 90
    32768
280
     0
281
     0
  0
CLASS
  1
SORTENTSTABLE
  2
AcDbSortentsTable
  3
AutoCAD 2000
 90
    32768
280
     0
281
     0
  0
CLASS
  1
LAYER_INDEX
  2
AcDbLayerIndex
  3
AutoCAD 2000
 90
    32768
280
     0
281
     0
  0
CLASS
  1
SPATIAL_INDEX
  2
AcDbSpatialIndex
  3
AutoCAD 2000
 90
    32768
280
     0
281
     0
  0
CLASS
  1
OBJECT_PTR
  2
CAseDLPNTableRecord
  3
"ASE-LPNTableRecord"
 90
    32769
280
     0
281
     0
  0
CLASS
  1
LAYOUT
  2
AcDbLayout
  3
AutoCAD 2000
 90
        0
280
     0
281
     0
  0
CLASS
  1
PLOTSETTINGS
  2
AcDbPlotSettings
  3
AutoCAD 2000
 90
    32768
280
     0
281
     0
  0
CLASS
  1
ACDBDICTIONARYWDFLT
  2
AcDbDictionaryWithDefault
  3
AutoCAD 2000
 90
        0
280
     0
281
     0
  0
CLASS
  1
ACDBPLACEHOLDER
  2
AcDbPlaceHolder
  3
AutoCAD 2000
 90
        0
280
     0
281
     0
  0
CLASS
  1
VBA_PROJECT
  2
AcDbVbaProject
  3
acadvba
 90
    32768
280
     0
281
     0
  0
CLASS
  1
WIPEOUT
  2
AcDbWipeout
  3
WipeOut|AutoCAD Express Tool|expresstools@autodesk.com
 90
    32895
280
     0
281
     1
  0
CLASS
  1
WIPEOUTVARIABLES
  2
AcDbWipeoutVariables
  3
WipeOut|AutoCAD Express Tool|expresstools@autodesk.com
 90
        0
280
     0
281
     0
  0
CLASS
  1
RTEXT
  2
RText
  3
RText|AutoCAD Express Tool|expresstools@autodesk.com
 90
    32768
280
     0
281
     1
  0
CLASS
  1
ARCALIGNEDTEXT
  2
AcDbArcAlignedText
  3
ATEXT|AutoCAD Express Tool|expresstools@autodesk.com
 90
    32768
280
     0
281
     1
  0
ENDSEC
  0
SECTION
  2
TABLES
  0
TABLE
  2
VPORT
  5
7
100
AcDbSymbolTable
 70
     1
  0
VPORT
  5
15
100
AcDbSymbolTableRecord
100
AcDbViewportTableRecord
  2
*ACTIVE
 70
     0
 10
0.0
 20
0.0
 11
1.0
 21
1.0
 12
6.591288
 22
4.579184
 13
0.0
 23
0.0
 14
1.0
 24
1.0
 15
0.0
 25
0.0
 16
0.0
 26
0.0
 36
1.0
 17
0.0
 27
0.0
 37
0.0
 40
9.158369
 41
0.688564
 42
50.0
 43
0.0
 44
0.0
 50
0.0
 51
0.0
 71
     0
 72
   100
 73
     1
 74
     1
 75
     0
 76
     0
 77
     0
 78
     0
281
     0
 65
     0
110
0.0
120
0.0
130
0.0
111
1.0
121
0.0
131
0.0
112
0.0
122
1.0
132
0.0
345
0
346
0
 79
     0
146
0.0
  0
ENDTAB
  0
TABLE
  2
LTYPE
  5
4
100
AcDbSymbolTable
 70
     3
  0
LTYPE
  5
11
100
AcDbSymbolTableRecord
100
AcDbLinetypeTableRecord
  2
ByBlock
 70
    64
  3

 72
    65
 73
     0
 40
0.0
  0
LTYPE
  5
12
100
AcDbSymbolTableRecord
100
AcDbLinetypeTableRecord
  2
ByLayer
 70
    64
  3

 72
    65
 73
     0
 40
0.0
  0
LTYPE
  5
13
100
AcDbSymbolTableRecord
100
AcDbLinetypeTableRecord
  2
Continuous
 70
    64
  3
Solid line
 72
    65
 73
     0
 40
0.0
  0
ENDTAB
  0
TABLE
  2
LAYER
  5
2
100
AcDbSymbolTable
 70
     2
  0
LAYER
  5
14
100
AcDbSymbolTableRecord
100
AcDbLayerTableRecord
  2
0
 70
     0
 62
     7
  6
Continuous
290
     1
370
    -3
390
1D
  0
LAYER
  5
24
100
AcDbSymbolTableRecord
100
AcDbLayerTableRecord
  2
Ebene 1
 70
     0
 62
     7
  6
Continuous
290
     1
370
    -3
390
1F
  0
ENDTAB
  0
TABLE
  2
STYLE
  5
3
100
AcDbSymbolTable
 70
     1
  0
STYLE
  5
17
100
AcDbSymbolTableRecord
100
AcDbTextStyleTableRecord
  2
Standard
 70
     0
 40
0.0
 41
1.0
 50
0.0
 71
     0
 42
0.0
  3
txt
  4

  0
ENDTAB
  0
TABLE
  2
VIEW
  5
5
100
AcDbSymbolTable
 70
     0
  0
ENDTAB
  0
TABLE
  2
UCS
  5
6
100
AcDbSymbolTable
 70
     0
  0
ENDTAB
  0
TABLE
  2
APPID
  5
8
100
AcDbSymbolTable
 70
     1
  0
APPID
  5
16
100
AcDbSymbolTableRecord
100
AcDbRegAppTableRecord
  2
ACAD
 70
     0
  0
ENDTAB
  0
TABLE
  2
DIMSTYLE
  5
9
100
AcDbSymbolTable
 70
     1
100
AcDbDimStyleTable
 71
     0
  0
DIMSTYLE
105
18
100
AcDbSymbolTableRecord
100
AcDbDimStyleTableRecord
  2
Standard
 70
     0
  3

  4

 40
1.0
 41
0.18
 42
0.0625
 43
0.38
 44
0.18
 45
0.0
 46
0.0
 47
0.0
 48
0.0
 71
     0
 72
     0
 73
     1
 74
     1
 75
     0
 76
     0
 77
     0
 78
     0
 79
     0
140
0.18
141
0.09
142
0.0
143
25.4
144
1.0
145
0.0
146
1.0
147
0.09
148
0.0
170
     0
171
     2
172
     0
173
     0
174
     0
175
     0
176
     0
177
     0
178
     0
179
     0
271
     4
272
     4
273
     2
274
     2
275
     0
276
     0
277
     2
278
    46
279
     0
280
     0
281
     0
282
     0
283
     1
284
     0
285
     0
286
     0
288
     0
340
17
341
0
342
0
343
0
344
0
371
    -2
372
    -2
  0
ENDTAB
  0
TABLE
  2
BLOCK_RECORD
  5
1
100
AcDbSymbolTable
 70
     0
  0
BLOCK_RECORD
  5
A
100
AcDbSymbolTableRecord
100
AcDbBlockTableRecord
  2
*MODEL_SPACE
340
20
  0
BLOCK_RECORD
  5
B
100
AcDbSymbolTableRecord
100
AcDbBlockTableRecord
  2
*PAPER_SPACE
340
21
  0
ENDTAB
  0
ENDSEC
  0
SECTION
  2
BLOCKS
  0
BLOCK
  5
D
100
AcDbEntity
  8
0
100
AcDbBlockBegin
  2
*MODEL_SPACE
 70
     0
 10
0.0
 20
0.0
 30
0.0
  3
*MODEL_SPACE
  1

  0
ENDBLK
  5
E
100
AcDbEntity
  8
0
100
AcDbBlockEnd
  0
BLOCK
  5
F
100
AcDbEntity
 67
     1
  8
0
100
AcDbBlockBegin
  2
*PAPER_SPACE
 70
     0
 10
0.0
 20
0.0
 30
0.0
  3
*PAPER_SPACE
  1

  0
ENDBLK
  5
10
100
AcDbEntity
 67
     1
  8
0
100
AcDbBlockEnd
  0
ENDSEC
  0
SECTION
  2
ENTITIES
  0
SPLINE
  5
25
100
AcDbEntity
  8
Ebene 1
100
AcDbSpline
210
0.0
220
0.0
230
1.0
 70
     1
 71
     3
 72
   132
 73
   128
 74
     0
 42
0.0000000001
 43
0.0000000001
 40
0.0
 40
0.0
 40
0.0
 40
0.0
 40
0.03125
 40
0.03125
 40
0.03125
 40
0.03125
 40
0.0625
 40
0.0625
 40
0.0625
 40
0.0625
 40
0.09375
 40
0.09375
 40
0.09375
 40
0.09375
 40
0.125
 40
0.125
 40
0.125
 40
0.125
 40
0.15625
 40
0.15625
 40
0.15625
 40
0.15625
 40
0.1875
 40
0.1875
 40
0.1875
 40
0.1875
 40
0.21875
 40
0.21875
 40
0.21875
 40
0.21875
 40
0.25
 40
0.25
 40
0.25
 40
0.25
 40
0.28125
 40
0.28125
 40
0.28125
 40
0.28125
 40
0.3125
 40
0.3125
 40
0.3125
 40
0.3125
 40
0.34375
 40
0.34375
 40
0.34375
 40
0.34375
 40
0.375
 40
0.375
 40
0.375
 40
0.375
 40
0.40625
 40
0.40625
 40
0.40625
 40
0.40625
 40
0.4375
 40
0.4375
 40
0.4375
 40
0.4375
 40
0.46875
 40
0.46875
 40
0.46875
 40
0.46875
 40
0.5
 40
0.5
 40
0.5
 40
0.5
 40
0.53125
 40
0.53125
 40
0.53125
 40
0.53125
 40
0.5625
 40
0.5625
 40
0.5625
 40
0.5625
 40
0.59375
 40
0.59375
 40
0.59375
 40
0.59375
 40
0.625
 40
0.625
 40
0.625
 40
0.625
 40
0.65625
 40
0.65625
 40
0.65625
 40
0.65625
 40
0.6875
 40
0.6875
 40
0.6875
 40
0.6875
 40
0.71875
 40
0.71875
 40
0.71875
 40
0.71875
 40
0.75
 40
0.75
 40
0.75
 40
0.75
 40
0.78125
 40
0.78125
 40
0.78125
 40
0.78125
 40
0.8125
 40
0.8125
 40
0.8125
 40
0.8125
 40
0.84375
 40
0.84375
 40
0.84375
 40
0.84375
 40
0.875
 40
0.875
 40
0.875
 40
0.875
 40
0.90625
 40
0.90625
 40
0.90625
 40
0.90625
 40
0.9375
 40
0.9375
 40
0.9375
 40
0.9375
 40
0.96875
 40
0.96875
 40
0.96875
 40
0.96875
 40
1.0
 40
1.0
 40
1.0
 40
1.0
 10
3.8507800000000003
 20
5.5823500000000008
 30
0.0
 10
4.4908600000000005
 20
5.2623100000000003
 30
0.0
 10
4.5315000000000003
 20
4.2818700000000005
 30
0.0
 10
4.3105200000000004
 20
3.6646500000000004
 30
0.0
 10
4.3105200000000004
 20
3.6646500000000004
 30
0.0
 10
5.3290600000000001
 20
2.7451700000000003
 30
0.0
 10
5.6110000000000007
 20
1.2846700000000002
 30
0.0
 10
5.31128
 20
0.00451
 30
0.0
 10
5.31128
 20
0.00451
 30
0.0
 10
5.0903
 20
-1.2096
 30
0.0
 10
3.9523800000000002
 20
-1.9106400000000001
 30
0.0
 10
3.1319600000000003
 20
-2.6497800000000002
 30
0.0
 10
3.1319600000000003
 20
-2.6497800000000002
 30
0.0
 10
2.7535000000000003
 20
-2.69042
 30
0.0
 10
2.4131400000000003
 20
-2.5100800000000003
 30
0.0
 10
2.0727800000000003
 20
-2.4110200000000002
 30
0.0
 10
2.0727800000000003
 20
-2.4110200000000002
 30
0.0
 10
1.8924400000000001
 20
-2.4110200000000002
 30
0.0
 10
1.69432
 20
-2.3907000000000003
 30
0.0
 10
1.5139800000000001
 20
-2.4491200000000002
 30
0.0
 10
1.5139800000000001
 20
-2.4491200000000002
 30
0.0
 10
0.9932800000000001
 20
-2.9291800000000001
 30
0.0
 10
1.4530200000000002
 20
-3.7292800000000002
 30
0.0
 10
1.1329800000000001
 20
-4.2474400000000001
 30
0.0
 10
1.1329800000000001
 20
-4.2474400000000001
 30
0.0
 10
-0.17765
 20
-4.8494200000000003
 30
0.0
 10
-1.7270500000000002
 20
-4.8697400000000002
 30
0.0
 10
-3.0224500000000001
 20
-5.5885600000000002
 30
0.0
 10
-3.0224500000000001
 20
-5.5885600000000002
 30
0.0
 10
-3.6955500000000003
 20
-5.3472600000000003
 30
0.0
 10
-4.4118300000000001
 20
-5.1288200000000002
 30
0.0
 10
-5.1535100000000007
 20
-5.1085000000000003
 30
0.0
 10
-5.1535100000000007
 20
-5.1085000000000003
 30
0.0
 10
-5.8139100000000008
 20
-3.9299400000000002
 30
0.0
 10
-5.1331900000000008
 20
-2.1494
 30
0.0
 10
-4.3153100000000002
 20
-1.4305800000000002
 30
0.0
 10
-4.3153100000000002
 20
-1.4305800000000002
 30
0.0
 10
-4.5693100000000006
 20
-1.9106400000000001
 30
0.0
 10
-4.7191700000000001
 20
-2.4288000000000003
 30
0.0
 10
-4.6404300000000003
 20
-2.9901400000000002
 30
0.0
 10
-4.6404300000000003
 20
-2.9901400000000002
 30
0.0
 10
-4.9579300000000002
 20
-3.2695400000000001
 30
0.0
 10
-5.0696900000000005
 20
-3.7902400000000003
 30
0.0
 10
-4.90205
 20
-4.1483800000000004
 30
0.0
 10
-4.90205
 20
-4.1483800000000004
 30
0.0
 10
-4.8487100000000005
 20
-3.9096200000000003
 30
0.0
 10
-4.6963100000000004
 20
-3.6886400000000004
 30
0.0
 10
-4.5261300000000002
 20
-3.4905200000000001
 30
0.0
 10
-4.5261300000000002
 20
-3.4905200000000001
 30
0.0
 10
-4.4499300000000002
 20
-4.0289999999999999
 30
0.0
 10
-4.2949900000000003
 20
-3.4905200000000001
 30
0.0
 10
-4.0536900000000005
 20
-3.2289000000000003
 30
0.0
 10
-4.0536900000000005
 20
-3.2289000000000003
 30
0.0
 10
-4.0536900000000005
 20
-3.2289000000000003
 30
0.0
 10
-3.8428700000000005
 20
-3.5692600000000003
 30
0.0
 10
-3.8428700000000005
 20
-3.5692600000000003
 30
0.0
 10
-3.8428700000000005
 20
-3.5692600000000003
 30
0.0
 10
-3.7311100000000001
 20
-3.4702000000000002
 30
0.0
 10
-3.7615900000000004
 20
-3.2898600000000005
 30
0.0
 10
-3.6345900000000002
 20
-3.1882600000000001
 30
0.0
 10
-3.6345900000000002
 20
-3.1882600000000001
 30
0.0
 10
-3.4212300000000004
 20
-3.0892000000000004
 30
0.0
 10
-3.6320500000000004
 20
-3.3889200000000002
 30
0.0
 10
-3.4847300000000003
 20
-3.4498800000000003
 30
0.0
 10
-3.4847300000000003
 20
-3.4498800000000003
 30
0.0
 10
-3.3043900000000002
 20
-3.2898600000000005
 30
0.0
 10
-3.0148300000000003
 20
-2.3297400000000001
 30
0.0
 10
-3.2612100000000002
 20
-2.7310600000000003
 30
0.0
 10
-3.2612100000000002
 20
-2.7310600000000003
 30
0.0
 10
-3.3069300000000004
 20
-2.7894800000000002
 30
0.0
 10
-3.3755100000000002
 20
-2.9901400000000002
 30
0.0
 10
-3.4212300000000004
 20
-2.8301200000000004
 30
0.0
 10
-3.4212300000000004
 20
-2.8301200000000004
 30
0.0
 10
-3.2612100000000002
 20
-2.23068
 30
0.0
 10
-2.9386300000000003
 20
-1.7099800000000001
 30
0.0
 10
-2.6211300000000004
 20
-1.1892800000000001
 30
0.0
 10
-2.6211300000000004
 20
-1.1892800000000001
 30
0.0
 10
-2.61097
 20
-0.8590800000000001
 30
0.0
 10
-2.8852900000000004
 20
-0.9835400000000001
 30
0.0
 10
-2.9487900000000002
 20
-0.8540000000000001
 30
0.0
 10
-2.9487900000000002
 20
-0.8540000000000001
 30
0.0
 10
-2.9919700000000002
 20
-0.7651000000000001
 30
0.0
 10
-2.9310100000000001
 20
-0.6050800000000001
 30
0.0
 10
-2.7659100000000003
 20
-0.45014
 30
0.0
 10
-2.7659100000000003
 20
-0.45014
 30
0.0
 10
-3.4390100000000001
 20
-0.01072
 30
0.0
 10
-2.5500100000000003
 20
0.32455
 30
0.0
 10
-2.4204700000000003
 20
0.78683
 30
0.0
 10
-2.4204700000000003
 20
0.78683
 30
0.0
 10
-2.40523
 20
1.44215
 30
0.0
 10
-2.85989
 20
1.9298300000000002
 30
0.0
 10
-2.3366500000000001
 20
2.6943700000000002
 30
0.0
 10
-2.3366500000000001
 20
2.6943700000000002
 30
0.0
 10
-2.1207500000000001
 20
3.0067900000000001
 30
0.0
 10
-1.7245100000000002
 20
3.1134700000000004
 30
0.0
 10
-1.50353
 20
3.4335100000000001
 30
0.0
 10
-1.50353
 20
3.4335100000000001
 30
0.0
 10
-1.3511300000000002
 20
3.6544900000000005
 30
0.0
 10
-1.3562100000000001
 20
3.9415100000000005
 30
0.0
 10
-1.2774700000000001
 20
4.1828099999999999
 30
0.0
 10
-1.2774700000000001
 20
4.1828099999999999
 30
0.0
 10
-1.08951
 20
4.0837500000000002
 30
0.0
 10
-0.9828300000000001
 20
3.8043500000000003
 30
0.0
 10
-0.86599
 20
4.1828099999999999
 30
0.0
 10
-0.86599
 20
4.1828099999999999
 30
0.0
 10
-0.6678700000000001
 20
4.58413
 30
0.0
 10
-0.8507500000000001
 20
5.0413300000000003
 30
0.0
 10
-0.9625100000000001
 20
5.3816900000000008
 30
0.0
 10
-0.9625100000000001
 20
5.3816900000000008
 30
0.0
 10
-0.4164100000000001
 20
5.0616500000000002
 30
0.0
 10
-0.09891
 20
4.4418900000000008
 30
0.0
 10
-0.15733
 20
3.8043500000000003
 30
0.0
 10
-0.15733
 20
3.8043500000000003
 30
0.0
 10
-0.15733
 20
3.8043500000000003
 30
0.0
 10
-0.00747
 20
3.8627700000000003
 30
0.0
 10
-0.00747
 20
3.8627700000000003
 30
0.0
 10
-0.00747
 20
3.8627700000000003
 30
0.0
 10
0.7748400000000001
 20
4.3021900000000004
 30
0.0
 10
1.65368
 20
4.0431100000000004
 30
0.0
 10
2.5325200000000003
 20
4.1828099999999999
 30
0.0
 10
2.5325200000000003
 20
4.1828099999999999
 30
0.0
 10
2.7331800000000004
 20
4.2234500000000006
 30
0.0
 10
3.0506800000000003
 20
4.0431100000000004
 30
0.0
 10
3.1319600000000003
 20
4.3021900000000004
 30
0.0
 10
3.1319600000000003
 20
4.3021900000000004
 30
0.0
 10
3.7110800000000004
 20
3.7840300000000004
 30
0.0
 10
3.9320600000000003
 20
5.1226100000000008
 30
0.0
 10
3.8507800000000003
 20
5.5823500000000008
 30
0.0
  0
SPLINE
  5
26
100
AcDbEntity
  8
Ebene 1
100
AcDbSpline
210
0.0
220
0.0
230
1.0
 70
     1
 71
     3
 72
    76
 73
    72
 74
     0
 42
0.0000000001
 43
0.0000000001
 40
0.0
 40
0.0
 40
0.0
 40
0.0
 40
0.0555555555555556
 40
0.0555555555555556
 40
0.0555555555555556
 40
0.0555555555555556
 40
0.1111111111111111
 40
0.1111111111111111
 40
0.1111111111111111
 40
0.1111111111111111
 40
0.1666666666666667
 40
0.1666666666666667
 40
0.1666666666666667
 40
0.1666666666666667
 40
0.2222222222222222
 40
0.2222222222222222
 40
0.2222222222222222
 40
0.2222222222222222
 40
0.2777777777777778
 40
0.2777777777777778
 40
0.2777777777777778
 40
0.2777777777777778
 40
0.3333333333333334
 40
0.3333333333333334
 40
0.3333333333333334
 40
0.3333333333333334
 40
0.388888888888889
 40
0.388888888888889
 40
0.388888888888889
 40
0.388888888888889
 40
0.4444444444444445
 40
0.4444444444444445
 40
0.4444444444444445
 40
0.4444444444444445
 40
0.5000000000000001
 40
0.5000000000000001
 40
0.5000000000000001
 40
0.5000000000000001
 40
0.5555555555555557
 40
0.5555555555555557
 40
0.5555555555555557
 40
0.5555555555555557
 40
0.6111111111111113
 40
0.6111111111111113
 40
0.6111111111111113
 40
0.6111111111111113
 40
0.6666666666666669
 40
0.6666666666666669
 40
0.6666666666666669
 40
0.6666666666666669
 40
0.7222222222222224
 40
0.7222222222222224
 40
0.7222222222222224
 40
0.7222222222222224
 40
0.777777777777778
 40
0.777777777777778
 40
0.777777777777778
 40
0.777777777777778
 40
0.8333333333333336
 40
0.8333333333333336
 40
0.8333333333333336
 40
0.8333333333333336
 40
0.8888888888888892
 40
0.8888888888888892
 40
0.8888888888888892
 40
0.8888888888888892
 40
0.9444444444444448
 40
0.9444444444444448
 40
0.9444444444444448
 40
0.9444444444444448
 40
1.0
 40
1.0
 40
1.0
 40
1.0
 10
-0.6424700000000001
 20
-2.2103600000000001
 30
0.0
 10
-0.74407
 20
-2.3297400000000001
 30
0.0
 10
-0.7796300000000001
 20
-2.57104
 30
0.0
 10
-0.9574300000000001
 20
-2.6497800000000002
 30
0.0
 10
-0.9574300000000001
 20
-2.6497800000000002
 30
0.0
 10
-1.0107700000000002
 20
-2.5507200000000001
 30
0.0
 10
-0.9675900000000001
 20
-2.3703800000000004
 30
0.0
 10
-1.1022100000000001
 20
-2.3094200000000003
 30
0.0
 10
-1.1022100000000001
 20
-2.3094200000000003
 30
0.0
 10
-1.3562100000000001
 20
-2.3703800000000004
 30
0.0
 10
-1.3409700000000002
 20
-2.7310600000000003
 30
0.0
 10
-1.50353
 20
-2.8504400000000003
 30
0.0
 10
-1.50353
 20
-2.8504400000000003
 30
0.0
 10
-1.5365500000000001
 20
-2.7310600000000003
 30
0.0
 10
-1.5543300000000002
 20
-2.5304000000000002
 30
0.0
 10
-1.6762500000000002
 20
-2.4694400000000001
 30
0.0
 10
-1.6762500000000002
 20
-2.4694400000000001
 30
0.0
 10
-1.8134100000000002
 20
-2.8098000000000001
 30
0.0
 10
-1.9658100000000001
 20
-3.1095200000000003
 30
0.0
 10
-2.06487
 20
-3.4498800000000003
 30
0.0
 10
-2.06487
 20
-3.4498800000000003
 30
0.0
 10
-2.3747500000000001
 20
-3.5895800000000002
 30
0.0
 10
-2.7633700000000001
 20
-3.6099000000000001
 30
0.0
 10
-2.9818100000000003
 20
-3.9096200000000003
 30
0.0
 10
-2.9818100000000003
 20
-3.9096200000000003
 30
0.0
 10
-2.9818100000000003
 20
-3.9096200000000003
 30
0.0
 10
-2.7760700000000003
 20
-4.4074600000000004
 30
0.0
 10
-2.7760700000000003
 20
-4.4074600000000004
 30
0.0
 10
-2.7760700000000003
 20
-4.4074600000000004
 30
0.0
 10
-2.56779
 20
-4.3084000000000007
 30
0.0
 10
-2.51953
 20
-4.00868
 30
0.0
 10
-2.4966700000000004
 20
-3.7902400000000003
 30
0.0
 10
-2.4966700000000004
 20
-3.7902400000000003
 30
0.0
 10
-2.2883900000000001
 20
-3.7902400000000003
 30
0.0
 10
-2.3493500000000003
 20
-4.1280600000000005
 30
0.0
 10
-2.2350500000000002
 20
-4.26776
 30
0.0
 10
-2.2350500000000002
 20
-4.26776
 30
0.0
 10
-2.0343900000000001
 20
-4.0696400000000006
 30
0.0
 10
-1.9073900000000001
 20
-3.8105600000000002
 30
0.0
 10
-1.9353300000000002
 20
-3.5083000000000002
 30
0.0
 10
-1.9353300000000002
 20
-3.5083000000000002
 30
0.0
 10
-1.75753
 20
-3.5286200000000001
 30
0.0
 10
-1.7676900000000002
 20
-3.8308800000000005
 30
0.0
 10
-1.58735
 20
-3.8893000000000004
 30
0.0
 10
-1.58735
 20
-3.8893000000000004
 30
0.0
 10
-1.4120900000000001
 20
-3.6886400000000004
 30
0.0
 10
-1.3562100000000001
 20
-3.4092400000000005
 30
0.0
 10
-1.37653
 20
-3.1704800000000004
 30
0.0
 10
-1.37653
 20
-3.1704800000000004
 30
0.0
 10
-1.1555500000000001
 20
-3.2289000000000003
 30
0.0
 10
-1.1047500000000001
 20
-3.5286200000000001
 30
0.0
 10
-1.0234700000000001
 20
-3.6886400000000004
 30
0.0
 10
-1.0234700000000001
 20
-3.6886400000000004
 30
0.0
 10
-0.82535
 20
-3.4295600000000004
 30
0.0
 10
-0.7897900000000001
 20
-3.0688800000000001
 30
0.0
 10
-0.82281
 20
-2.7513800000000002
 30
0.0
 10
-0.82281
 20
-2.7513800000000002
 30
0.0
 10
-0.4926100000000001
 20
-2.8301200000000004
 30
0.0
 10
-0.57643
 20
-3.2695400000000001
 30
0.0
 10
-0.3427500000000001
 20
-3.4498800000000003
 30
0.0
 10
-0.3427500000000001
 20
-3.4498800000000003
 30
0.0
 10
0.0865
 20
-3.3482800000000004
 30
0.0
 10
0.14746
 20
-2.4491200000000002
 30
0.0
 10
-0.31735
 20
-2.4897600000000004
 30
0.0
 10
-0.31735
 20
-2.4897600000000004
 30
0.0
 10
-0.41133
 20
-2.3907000000000003
 30
0.0
 10
-0.37069
 20
-2.3297400000000001
 30
0.0
 10
-0.49769
 20
-2.4110200000000002
 30
0.0
 10
-0.49769
 20
-2.4110200000000002
 30
0.0
 10
-0.49769
 20
-2.4110200000000002
 30
0.0
 10
-0.6424700000000001
 20
-2.2103600000000001
 30
0.0
 10
-0.6424700000000001
 20
-2.2103600000000001
 30
0.0
  0
SPLINE
  5
27
100
AcDbEntity
  8
Ebene 1
 62
     7
100
AcDbSpline
210
0.0
220
0.0
230
1.0
 70
     1
 71
     3
 72
   224
 73
   220
 74
     0
 42
0.0000000001
 43
0.0000000001
 40
0.0
 40
0.0
 40
0.0
 40
0.0
 40
0.0181818181818182
 40
0.0181818181818182
 40
0.0181818181818182
 40
0.0181818181818182
 40
0.0363636363636364
 40
0.0363636363636364
 40
0.0363636363636364
 40
0.0363636363636364
 40
0.0545454545454545
 40
0.0545454545454545
 40
0.0545454545454545
 40
0.0545454545454545
 40
0.0727272727272727
 40
0.0727272727272727
 40
0.0727272727272727
 40
0.0727272727272727
 40
0.0909090909090909
 40
0.0909090909090909
 40
0.0909090909090909
 40
0.0909090909090909
 40
0.1090909090909091
 40
0.1090909090909091
 40
0.1090909090909091
 40
0.1090909090909091
 40
0.1272727272727273
 40
0.1272727272727273
 40
0.1272727272727273
 40
0.1272727272727273
 40
0.1454545454545455
 40
0.1454545454545455
 40
0.1454545454545455
 40
0.1454545454545455
 40
0.1636363636363637
 40
0.1636363636363637
 40
0.1636363636363637
 40
0.1636363636363637
 40
0.1818181818181819
 40
0.1818181818181819
 40
0.1818181818181819
 40
0.1818181818181819
 40
0.2
 40
0.2
 40
0.2
 40
0.2
 40
0.2181818181818182
 40
0.2181818181818182
 40
0.2181818181818182
 40
0.2181818181818182
 40
0.2363636363636364
 40
0.2363636363636364
 40
0.2363636363636364
 40
0.2363636363636364
 40
0.2545454545454546
 40
0.2545454545454546
 40
0.2545454545454546
 40
0.2545454545454546
 40
0.2727272727272728
 40
0.2727272727272728
 40
0.2727272727272728
 40
0.2727272727272728
 40
0.290909090909091
 40
0.290909090909091
 40
0.290909090909091
 40
0.290909090909091
 40
0.3090909090909091
 40
0.3090909090909091
 40
0.3090909090909091
 40
0.3090909090909091
 40
0.3272727272727273
 40
0.3272727272727273
 40
0.3272727272727273
 40
0.3272727272727273
 40
0.3454545454545455
 40
0.3454545454545455
 40
0.3454545454545455
 40
0.3454545454545455
 40
0.3636363636363637
 40
0.3636363636363637
 40
0.3636363636363637
 40
0.3636363636363637
 40
0.3818181818181819
 40
0.3818181818181819
 40
0.3818181818181819
 40
0.3818181818181819
 40
0.4000000000000001
 40
0.4000000000000001
 40
0.4000000000000001
 40
0.4000000000000001
 40
0.4181818181818183
 40
0.4181818181818183
 40
0.4181818181818183
 40
0.4181818181818183
 40
0.4363636363636365
 40
0.4363636363636365
 40
0.4363636363636365
 40
0.4363636363636365
 40
0.4545454545454546
 40
0.4545454545454546
 40
0.4545454545454546
 40
0.4545454545454546
 40
0.4727272727272728
 40
0.4727272727272728
 40
0.4727272727272728
 40
0.4727272727272728
 40
0.490909090909091
 40
0.490909090909091
 40
0.490909090909091
 40
0.490909090909091
 40
0.5090909090909092
 40
0.5090909090909092
 40
0.5090909090909092
 40
0.5090909090909092
 40
0.5272727272727273
 40
0.5272727272727273
 40
0.5272727272727273
 40
0.5272727272727273
 40
0.5454545454545455
 40
0.5454545454545455
 40
0.5454545454545455
 40
0.5454545454545455
 40
0.5636363636363637
 40
0.5636363636363637
 40
0.5636363636363637
 40
0.5636363636363637
 40
0.5818181818181819
 40
0.5818181818181819
 40
0.5818181818181819
 40
0.5818181818181819
 40
0.6000000000000001
 40
0.6000000000000001
 40
0.6000000000000001
 40
0.6000000000000001
 40
0.6181818181818183
 40
0.6181818181818183
 40
0.6181818181818183
 40
0.6181818181818183
 40
0.6363636363636365
 40
0.6363636363636365
 40
0.6363636363636365
 40
0.6363636363636365
 40
0.6545454545454547
 40
0.6545454545454547
 40
0.6545454545454547
 40
0.6545454545454547
 40
0.6727272727272728
 40
0.6727272727272728
 40
0.6727272727272728
 40
0.6727272727272728
 40
0.690909090909091
 40
0.690909090909091
 40
0.690909090909091
 40
0.690909090909091
 40
0.7090909090909092
 40
0.7090909090909092
 40
0.7090909090909092
 40
0.7090909090909092
 40
0.7272727272727274
 40
0.7272727272727274
 40
0.7272727272727274
 40
0.7272727272727274
 40
0.7454545454545456
 40
0.7454545454545456
 40
0.7454545454545456
 40
0.7454545454545456
 40
0.7636363636363638
 40
0.7636363636363638
 40
0.7636363636363638
 40
0.7636363636363638
 40
0.781818181818182
 40
0.781818181818182
 40
0.781818181818182
 40
0.781818181818182
 40
0.8000000000000002
 40
0.8000000000000002
 40
0.8000000000000002
 40
0.8000000000000002
 40
0.8181818181818183
 40
0.8181818181818183
 40
0.8181818181818183
 40
0.8181818181818183
 40
0.8363636363636365
 40
0.8363636363636365
 40
0.8363636363636365
 40
0.8363636363636365
 40
0.8545454545454547
 40
0.8545454545454547
 40
0.8545454545454547
 40
0.8545454545454547
 40
0.8727272727272729
 40
0.8727272727272729
 40
0.8727272727272729
 40
0.8727272727272729
 40
0.8909090909090911
 40
0.8909090909090911
 40
0.8909090909090911
 40
0.8909090909090911
 40
0.9090909090909093
 40
0.9090909090909093
 40
0.9090909090909093
 40
0.9090909090909093
 40
0.9272727272727275
 40
0.9272727272727275
 40
0.9272727272727275
 40
0.9272727272727275
 40
0.9454545454545457
 40
0.9454545454545457
 40
0.9454545454545457
 40
0.9454545454545457
 40
0.9636363636363639
 40
0.9636363636363639
 40
0.9636363636363639
 40
0.9636363636363639
 40
0.981818181818182
 40
0.981818181818182
 40
0.981818181818182
 40
0.981818181818182
 40
1.0
 40
1.0
 40
1.0
 40
1.0
 10
4.0717600000000003
 20
5.0032300000000003
 30
0.0
 10
4.6102400000000001
 20
4.3631500000000001
 30
0.0
 10
4.2495600000000007
 20
3.4233500000000001
 30
0.0
 10
3.6933000000000002
 20
2.9229700000000003
 30
0.0
 10
3.6933000000000002
 20
2.9229700000000003
 30
0.0
 10
3.8304600000000004
 20
2.8975700000000004
 30
0.0
 10
3.8812600000000002
 20
3.0067900000000001
 30
0.0
 10
3.9498400000000005
 20
3.0575900000000003
 30
0.0
 10
3.9498400000000005
 20
3.0575900000000003
 30
0.0
 10
4.0666800000000007
 20
3.1464900000000005
 30
0.0
 10
4.1327199999999999
 20
3.2455500000000002
 30
0.0
 10
4.2698800000000006
 20
3.2836500000000002
 30
0.0
 10
4.2698800000000006
 20
3.2836500000000002
 30
0.0
 10
6.2104400000000002
 20
2.0644500000000003
 30
0.0
 10
5.1309400000000007
 20
-1.7506200000000001
 30
0.0
 10
2.8728800000000003
 20
-1.8115800000000002
 30
0.0
 10
2.8728800000000003
 20
-1.8115800000000002
 30
0.0
 10
2.71286
 20
-1.5118600000000002
 30
0.0
 10
2.8932000000000002
 20
-1.1511800000000001
 30
0.0
 10
2.8728800000000003
 20
-0.8311400000000001
 30
0.0
 10
2.8728800000000003
 20
-0.8311400000000001
 30
0.0
 10
3.2716600000000002
 20
-0.43236
 30
0.0
 10
4.1505000000000001
 20
-0.3714
 30
0.0
 10
4.0895400000000004
 20
0.36519
 30
0.0
 10
4.0895400000000004
 20
0.36519
 30
0.0
 10
3.5917000000000003
 20
0.9443100000000001
 30
0.0
 10
2.8525600000000004
 20
1.6859900000000001
 30
0.0
 10
3.7110800000000004
 20
2.3438500000000002
 30
0.0
 10
3.7110800000000004
 20
2.3438500000000002
 30
0.0
 10
3.7110800000000004
 20
2.4835500000000001
 30
0.0
 10
3.7314000000000003
 20
2.6842100000000002
 30
0.0
 10
3.5510600000000001
 20
2.7045300000000001
 30
0.0
 10
3.5510600000000001
 20
2.7045300000000001
 30
0.0
 10
3.5713800000000004
 20
2.4835500000000001
 30
0.0
 10
3.3123000000000005
 20
2.2625700000000002
 30
0.0
 10
3.1700600000000003
 20
2.04413
 30
0.0
 10
3.1700600000000003
 20
2.04413
 30
0.0
 10
2.4715600000000002
 20
1.0840100000000001
 30
0.0
 10
4.2495600000000007
 20
0.76651
 30
0.0
 10
3.8711000000000002
 20
-0.01072
 30
0.0
 10
3.8711000000000002
 20
-0.01072
 30
0.0
 10
3.0329000000000002
 20
-1.2299200000000001
 30
0.0
 10
1.0136000000000001
 20
0.32455
 30
0.0
 10
0.5691000000000001
 20
-1.2705600000000001
 30
0.0
 10
0.5691000000000001
 20
-1.2705600000000001
 30
0.0
 10
0.45988
 20
-1.4305800000000002
 30
0.0
 10
0.28462
 20
-1.5118600000000002
 30
0.0
 10
0.11444
 20
-1.5906000000000002
 30
0.0
 10
0.11444
 20
-1.5906000000000002
 30
0.0
 10
-0.90917
 20
-0.7727200000000001
 30
0.0
 10
-1.3917700000000002
 20
-0.7524000000000001
 30
0.0
 10
-1.41717
 20
-1.9309600000000002
 30
0.0
 10
-1.41717
 20
-1.9309600000000002
 30
0.0
 10
-1.2317500000000001
 20
-1.7099800000000001
 30
0.0
 10
-1.1733300000000002
 20
-1.25024
 30
0.0
 10
-0.86599
 20
-1.2096
 30
0.0
 10
-0.86599
 20
-1.2096
 30
0.0
 10
-1.1860300000000001
 20
-1.6109200000000001
 30
0.0
 10
-1.2876300000000001
 20
-2.0909800000000001
 30
0.0
 10
-1.4070100000000001
 20
-2.57104
 30
0.0
 10
-1.4070100000000001
 20
-2.57104
 30
0.0
 10
-1.5670300000000001
 20
-2.5100800000000003
 30
0.0
 10
-1.4882900000000001
 20
-2.2484600000000001
 30
0.0
 10
-1.5213100000000002
 20
-1.9893800000000001
 30
0.0
 10
-1.5213100000000002
 20
-1.9893800000000001
 30
0.0
 10
-1.6584700000000001
 20
-1.7099800000000001
 30
0.0
 10
-1.7295900000000002
 20
-2.8504400000000003
 30
0.0
 10
-1.9150100000000001
 20
-2.6294600000000004
 30
0.0
 10
-1.9150100000000001
 20
-2.6294600000000004
 30
0.0
 10
-1.9632700000000001
 20
-2.5507200000000001
 30
0.0
 10
-2.0191500000000002
 20
-2.4491200000000002
 30
0.0
 10
-1.9454900000000002
 20
-2.3703800000000004
 30
0.0
 10
-1.9454900000000002
 20
-2.3703800000000004
 30
0.0
 10
-1.9175500000000001
 20
-2.3907000000000003
 30
0.0
 10
-2.2147300000000003
 20
-2.1290800000000001
 30
0.0
 10
-1.9658100000000001
 20
-1.7709400000000002
 30
0.0
 10
-1.9658100000000001
 20
-1.7709400000000002
 30
0.0
 10
-2.0343900000000001
 20
-1.7709400000000002
 30
0.0
 10
-2.1791700000000001
 20
-1.9258800000000003
 30
0.0
 10
-2.2426700000000004
 20
-2.1417800000000002
 30
0.0
 10
-2.2426700000000004
 20
-2.1417800000000002
 30
0.0
 10
-2.3214100000000002
 20
-2.4161000000000001
 30
0.0
 10
-2.3315700000000001
 20
-2.7742400000000003
 30
0.0
 10
-2.56271
 20
-2.9114000000000004
 30
0.0
 10
-2.56271
 20
-2.9114000000000004
 30
0.0
 10
-2.6770100000000001
 20
-2.2891000000000004
 30
0.0
 10
-2.23759
 20
-2.3907000000000003
 30
0.0
 10
-2.5550900000000003
 20
-2.0706600000000002
 30
0.0
 10
-2.5550900000000003
 20
-2.0706600000000002
 30
0.0
 10
-2.5550900000000003
 20
-2.0706600000000002
 30
0.0
 10
-2.6820900000000001
 20
-2.35006
 30
0.0
 10
-2.6820900000000001
 20
-2.35006
 30
0.0
 10
-2.6820900000000001
 20
-2.35006
 30
0.0
 10
-3.0224500000000001
 20
-2.4288000000000003
 30
0.0
 10
-2.3925300000000003
 20
-1.4915400000000001
 30
0.0
 10
-2.6617700000000002
 20
-1.6922000000000001
 30
0.0
 10
-2.6617700000000002
 20
-1.6922000000000001
 30
0.0
 10
-2.6617700000000002
 20
-1.6922000000000001
 30
0.0
 10
-2.8065500000000001
 20
-1.9309600000000002
 30
0.0
 10
-2.8065500000000001
 20
-1.9309600000000002
 30
0.0
 10
-2.8065500000000001
 20
-1.9309600000000002
 30
0.0
 10
-2.8065500000000001
 20
-1.9309600000000002
 30
0.0
 10
-3.0148300000000003
 20
-2.3094200000000003
 30
0.0
 10
-3.0148300000000003
 20
-2.3094200000000003
 30
0.0
 10
-3.0148300000000003
 20
-2.3094200000000003
 30
0.0
 10
-3.0503900000000002
 20
-2.0173200000000002
 30
0.0
 10
-2.6185900000000002
 20
-1.4458200000000001
 30
0.0
 10
-2.5449300000000004
 20
-1.1156200000000001
 30
0.0
 10
-2.5449300000000004
 20
-1.1156200000000001
 30
0.0
 10
-2.5144500000000001
 20
-0.9733800000000001
 30
0.0
 10
-2.4966700000000004
 20
-0.8565400000000001
 30
0.0
 10
-2.6871700000000001
 20
-0.8540000000000001
 30
0.0
 10
-2.6871700000000001
 20
-0.8540000000000001
 30
0.0
 10
-2.7227300000000003
 20
-0.8540000000000001
 30
0.0
 10
-2.7709900000000003
 20
-0.90988
 30
0.0
 10
-2.8421100000000004
 20
-0.7930400000000001
 30
0.0
 10
-2.8421100000000004
 20
-0.7930400000000001
 30
0.0
 10
-2.8370300000000004
 20
-0.6685800000000001
 30
0.0
 10
-2.6185900000000002
 20
-0.53396
 30
0.0
 10
-2.65415
 20
-0.4272800000000001
 30
0.0
 10
-2.65415
 20
-0.4272800000000001
 30
0.0
 10
-2.69733
 20
-0.28758
 30
0.0
 10
-2.9386300000000003
 20
-0.3104400000000001
 30
0.0
 10
-2.8903700000000003
 20
0.01213
 30
0.0
 10
-2.8903700000000003
 20
0.01213
 30
0.0
 10
-2.3239500000000004
 20
0.37281
 30
0.0
 10
-2.2147300000000003
 20
0.6268100000000001
 30
0.0
 10
-2.35697
 20
1.4243700000000001
 30
0.0
 10
-2.35697
 20
1.4243700000000001
 30
0.0
 10
-2.2909300000000004
 20
1.4980300000000002
 30
0.0
 10
-2.2604500000000001
 20
1.2541900000000001
 30
0.0
 10
-2.2401300000000002
 20
1.1348100000000001
 30
0.0
 10
-2.2401300000000002
 20
1.1348100000000001
 30
0.0
 10
-2.1766300000000003
 20
0.7817500000000001
 30
0.0
 10
-2.1740900000000001
 20
0.34995
 30
0.0
 10
-2.02169
 20
0.36519
 30
0.0
 10
-2.02169
 20
0.36519
 30
0.0
 10
-2.0343900000000001
 20
0.4845700000000001
 30
0.0
 10
-1.9683500000000003
 20
0.6445900000000001
 30
0.0
 10
-1.8438900000000003
 20
0.6268100000000001
 30
0.0
 10
-1.8438900000000003
 20
0.6268100000000001
 30
0.0
 10
-1.8438900000000003
 20
0.8655700000000001
 30
0.0
 10
-1.9861300000000002
 20
1.1830700000000001
 30
0.0
 10
-1.7473700000000001
 20
1.1830700000000001
 30
0.0
 10
-1.7473700000000001
 20
1.1830700000000001
 30
0.0
 10
-2.0521700000000003
 20
1.3253100000000002
 30
0.0
 10
-2.27061
 20
1.9247500000000002
 30
0.0
 10
-2.4153900000000004
 20
1.6453500000000001
 30
0.0
 10
-2.4153900000000004
 20
1.6453500000000001
 30
0.0
 10
-2.4331700000000001
 20
1.8256900000000003
 30
0.0
 10
-2.31887
 20
1.8460100000000002
 30
0.0
 10
-2.2020300000000002
 20
1.8256900000000003
 30
0.0
 10
-2.2020300000000002
 20
1.8256900000000003
 30
0.0
 10
-2.2604500000000001
 20
3.3420700000000001
 30
0.0
 10
-1.2241300000000002
 20
2.9051900000000002
 30
0.0
 10
-1.1555500000000001
 20
3.8246700000000002
 30
0.0
 10
-1.1555500000000001
 20
3.8246700000000002
 30
0.0
 10
-0.9447300000000001
 20
3.3039700000000001
 30
0.0
 10
-0.6043700000000001
 20
4.42157
 30
0.0
 10
-0.5840500000000001
 20
4.7441500000000003
 30
0.0
 10
-0.5840500000000001
 20
4.7441500000000003
 30
0.0
 10
-0.20305
 20
4.3631500000000001
 30
0.0
 10
-0.19543
 20
3.7230700000000003
 30
0.0
 10
-0.5383300000000001
 20
3.3827100000000003
 30
0.0
 10
-0.5383300000000001
 20
3.3827100000000003
 30
0.0
 10
-0.50785
 20
3.2201500000000003
 30
0.0
 10
-0.37069
 20
3.4462100000000002
 30
0.0
 10
-0.28941
 20
3.4970100000000004
 30
0.0
 10
-0.28941
 20
3.4970100000000004
 30
0.0
 10
0.21096
 20
3.8018100000000001
 30
0.0
 10
1.2041000000000002
 20
4.2285300000000001
 30
0.0
 10
0.91454
 20
3.5224100000000003
 30
0.0
 10
0.91454
 20
3.5224100000000003
 30
0.0
 10
0.9729600000000001
 20
3.5224100000000003
 30
0.0
 10
1.0339200000000002
 20
3.5224100000000003
 30
0.0
 10
1.0339200000000002
 20
3.5833700000000004
 30
0.0
 10
1.0339200000000002
 20
3.5833700000000004
 30
0.0
 10
1.0339200000000002
 20
3.5833700000000004
 30
0.0
 10
1.1329800000000001
 20
3.6646500000000004
 30
0.0
 10
1.1329800000000001
 20
3.6646500000000004
 30
0.0
 10
1.1329800000000001
 20
3.6646500000000004
 30
0.0
 10
1.4733400000000001
 20
3.9821500000000003
 30
0.0
 10
1.9330800000000001
 20
4.0634300000000003
 30
0.0
 10
2.3928200000000004
 20
4.0227900000000005
 30
0.0
 10
2.3928200000000004
 20
4.0227900000000005
 30
0.0
 10
2.3928200000000004
 20
4.0227900000000005
 30
0.0
 10
2.8525600000000004
 20
3.9034100000000005
 30
0.0
 10
2.8525600000000004
 20
3.9034100000000005
 30
0.0
 10
2.8525600000000004
 20
3.9034100000000005
 30
0.0
 10
2.29122
 20
2.7045300000000001
 30
0.0
 10
0.22874
 20
3.2430100000000004
 30
0.0
 10
-0.05573
 20
1.9044300000000001
 30
0.0
 10
-0.05573
 20
1.9044300000000001
 30
0.0
 10
0.023
 20
1.8053700000000001
 30
0.0
 10
0.15254
 20
1.8053700000000001
 30
0.0
 10
0.25922
 20
1.7850500000000002
 30
0.0
 10
0.25922
 20
1.7850500000000002
 30
0.0
 10
0.03062
 20
2.1050900000000001
 30
0.0
 10
0.3659
 20
2.5241900000000004
 30
0.0
 10
0.7545200000000001
 20
2.6232500000000001
 30
0.0
 10
0.7545200000000001
 20
2.6232500000000001
 30
0.0
 10
1.61304
 20
2.9229700000000003
 30
0.0
 10
2.6722200000000003
 20
3.1439500000000002
 30
0.0
 10
3.1319600000000003
 20
4.0431100000000004
 30
0.0
 10
3.1319600000000003
 20
4.0431100000000004
 30
0.0
 10
3.2310200000000004
 20
4.0431100000000004
 30
0.0
 10
3.2107000000000001
 20
3.7230700000000003
 30
0.0
 10
3.0710000000000002
 20
3.7027500000000004
 30
0.0
 10
3.0710000000000002
 20
3.7027500000000004
 30
0.0
 10
3.0710000000000002
 20
3.7027500000000004
 30
0.0
 10
2.8932000000000002
 20
3.5833700000000004
 30
0.0
 10
2.8932000000000002
 20
3.5833700000000004
 30
0.0
 10
2.8932000000000002
 20
3.5833700000000004
 30
0.0
 10
3.0227400000000002
 20
3.5325700000000002
 30
0.0
 10
3.13958
 20
3.6214700000000004
 30
0.0
 10
3.2208600000000001
 20
3.6722700000000001
 30
0.0
 10
3.2208600000000001
 20
3.6722700000000001
 30
0.0
 10
3.6628200000000004
 20
3.9465900000000005
 30
0.0
 10
3.9701600000000004
 20
4.4799900000000008
 30
0.0
 10
4.0717600000000003
 20
5.0032300000000003
 30
0.0
  0
SPLINE
  5
28
100
AcDbEntity
  8
Ebene 1
100
AcDbSpline
210
0.0
220
0.0
230
1.0
 70
     1
 71
     3
 72
    24
 73
    20
 74
     0
 42
0.0000000001
 43
0.0000000001
 40
0.0
 40
0.0
 40
0.0
 40
0.0
 40
0.2
 40
0.2
 40
0.2
 40
0.2
 40
0.4
 40
0.4
 40
0.4
 40
0.4
 40
0.6000000000000001
 40
0.6000000000000001
 40
0.6000000000000001
 40
0.6000000000000001
 40
0.8
 40
0.8
 40
0.8
 40
0.8
 40
1.0
 40
1.0
 40
1.0
 40
1.0
 10
-0.78471
 20
3.0626700000000002
 30
0.0
 10
-0.76439
 20
3.0626700000000002
 30
0.0
 10
-0.72375
 20
3.0829900000000001
 30
0.0
 10
-0.72375
 20
3.0423500000000003
 30
0.0
 10
-0.72375
 20
3.0423500000000003
 30
0.0
 10
-0.72375
 20
3.0423500000000003
 30
0.0
 10
-1.0666500000000001
 20
2.2625700000000002
 30
0.0
 10
-1.0666500000000001
 20
2.2625700000000002
 30
0.0
 10
-1.0666500000000001
 20
2.2625700000000002
 30
0.0
 10
-1.0666500000000001
 20
2.2625700000000002
 30
0.0
 10
-1.1428500000000001
 20
2.2625700000000002
 30
0.0
 10
-1.1428500000000001
 20
2.2625700000000002
 30
0.0
 10
-1.1428500000000001
 20
2.2625700000000002
 30
0.0
 10
-1.2012700000000001
 20
2.2828900000000001
 30
0.0
 10
-1.1987300000000001
 20
2.3438500000000002
 30
0.0
 10
-1.2215900000000002
 20
2.38449
 30
0.0
 10
-1.2215900000000002
 20
2.38449
 30
0.0
 10
-1.12507
 20
2.6232500000000001
 30
0.0
 10
-0.92949
 20
2.84423
 30
0.0
 10
-0.78471
 20
3.0626700000000002
 30
0.0
  0
SPLINE
  5
29
100
AcDbEntity
  8
Ebene 1
100
AcDbSpline
210
0.0
220
0.0
230
1.0
 70
     1
 71
     3
 72
    20
 73
    16
 74
     0
 42
0.0000000001
 43
0.0000000001
 40
0.0
 40
0.0
 40
0.0
 40
0.0
 40
0.25
 40
0.25
 40
0.25
 40
0.25
 40
0.5
 40
0.5
 40
0.5
 40
0.5
 40
0.75
 40
0.75
 40
0.75
 40
0.75
 40
1.0
 40
1.0
 40
1.0
 40
1.0
 10
-1.46289
 20
2.7248500000000004
 30
0.0
 10
-1.4451100000000001
 20
2.7248500000000004
 30
0.0
 10
-1.4044700000000001
 20
2.7451700000000003
 30
0.0
 10
-1.4019300000000001
 20
2.7045300000000001
 30
0.0
 10
-1.4019300000000001
 20
2.7045300000000001
 30
0.0
 10
-1.5289300000000001
 20
2.5241900000000004
 30
0.0
 10
-1.6533900000000001
 20
2.2447900000000001
 30
0.0
 10
-1.4476500000000001
 20
2.0644500000000003
 30
0.0
 10
-1.4476500000000001
 20
2.0644500000000003
 30
0.0
 10
-1.4476500000000001
 20
2.0644500000000003
 30
0.0
 10
-1.4476500000000001
 20
1.9831700000000001
 30
0.0
 10
-1.4476500000000001
 20
1.9831700000000001
 30
0.0
 10
-1.4476500000000001
 20
1.9831700000000001
 30
0.0
 10
-1.9023100000000002
 20
1.9247500000000002
 30
0.0
 10
-1.7118100000000001
 20
2.5851500000000001
 30
0.0
 10
-1.46289
 20
2.7248500000000004
 30
0.0
  0
SPLINE
  5
2A
100
AcDbEntity
  8
Ebene 1
100
AcDbSpline
210
0.0
220
0.0
230
1.0
 70
     1
 71
     3
 72
    20
 73
    16
 74
     0
 42
0.0000000001
 43
0.0000000001
 40
0.0
 40
0.0
 40
0.0
 40
0.0
 40
0.25
 40
0.25
 40
0.25
 40
0.25
 40
0.5
 40
0.5
 40
0.5
 40
0.5
 40
0.75
 40
0.75
 40
0.75
 40
0.75
 40
1.0
 40
1.0
 40
1.0
 40
1.0
 10
-1.3612900000000001
 20
2.0238100000000001
 30
0.0
 10
-1.33589
 20
2.0238100000000001
 30
0.0
 10
-1.3054100000000002
 20
2.0238100000000001
 30
0.0
 10
-1.2876300000000001
 20
2.0034900000000002
 30
0.0
 10
-1.2876300000000001
 20
2.0034900000000002
 30
0.0
 10
-1.4705100000000002
 20
1.7444100000000002
 30
0.0
 10
-1.4273300000000002
 20
1.4243700000000001
 30
0.0
 10
-1.50353
 20
1.14497
 30
0.0
 10
-1.50353
 20
1.14497
 30
0.0
 10
-1.50353
 20
1.14497
 30
0.0
 10
-1.6838700000000002
 20
1.44469
 30
0.0
 10
-1.6838700000000002
 20
1.44469
 30
0.0
 10
-1.6838700000000002
 20
1.44469
 30
0.0
 10
-1.6838700000000002
 20
1.44469
 30
0.0
 10
-1.3612900000000001
 20
2.0238100000000001
 30
0.0
 10
-1.3612900000000001
 20
2.0238100000000001
 30
0.0
  0
SPLINE
  5
2B
100
AcDbEntity
  8
Ebene 1
100
AcDbSpline
210
0.0
220
0.0
230
1.0
 70
     1
 71
     3
 72
    80
 73
    76
 74
     0
 42
0.0000000001
 43
0.0000000001
 40
0.0
 40
0.0
 40
0.0
 40
0.0
 40
0.0526315789473684
 40
0.0526315789473684
 40
0.0526315789473684
 40
0.0526315789473684
 40
0.1052631578947368
 40
0.1052631578947368
 40
0.1052631578947368
 40
0.1052631578947368
 40
0.1578947368421053
 40
0.1578947368421053
 40
0.1578947368421053
 40
0.1578947368421053
 40
0.2105263157894737
 40
0.2105263157894737
 40
0.2105263157894737
 40
0.2105263157894737
 40
0.2631578947368421
 40
0.2631578947368421
 40
0.2631578947368421
 40
0.2631578947368421
 40
0.3157894736842105
 40
0.3157894736842105
 40
0.3157894736842105
 40
0.3157894736842105
 40
0.3684210526315789
 40
0.3684210526315789
 40
0.3684210526315789
 40
0.3684210526315789
 40
0.4210526315789474
 40
0.4210526315789474
 40
0.4210526315789474
 40
0.4210526315789474
 40
0.4736842105263158
 40
0.4736842105263158
 40
0.4736842105263158
 40
0.4736842105263158
 40
0.5263157894736842
 40
0.5263157894736842
 40
0.5263157894736842
 40
0.5263157894736842
 40
0.5789473684210527
 40
0.5789473684210527
 40
0.5789473684210527
 40
0.5789473684210527
 40
0.631578947368421
 40
0.631578947368421
 40
0.631578947368421
 40
0.631578947368421
 40
0.6842105263157894
 40
0.6842105263157894
 40
0.6842105263157894
 40
0.6842105263157894
 40
0.7368421052631577
 40
0.7368421052631577
 40
0.7368421052631577
 40
0.7368421052631577
 40
0.7894736842105261
 40
0.7894736842105261
 40
0.7894736842105261
 40
0.7894736842105261
 40
0.8421052631578945
 40
0.8421052631578945
 40
0.8421052631578945
 40
0.8421052631578945
 40
0.8947368421052628
 40
0.8947368421052628
 40
0.8947368421052628
 40
0.8947368421052628
 40
0.9473684210526312
 40
0.9473684210526312
 40
0.9473684210526312
 40
0.9473684210526312
 40
1.0
 40
1.0
 40
1.0
 40
1.0
 10
1.69432
 20
1.9450700000000001
 30
0.0
 10
1.9534000000000002
 20
1.9450700000000001
 30
0.0
 10
2.2709000000000001
 20
1.9247500000000002
 30
0.0
 10
2.4512400000000003
 20
1.7444100000000002
 30
0.0
 10
2.4512400000000003
 20
1.7444100000000002
 30
0.0
 10
2.3928200000000004
 20
1.6656700000000002
 30
0.0
 10
2.29122
 20
1.8256900000000003
 30
0.0
 10
2.1921600000000003
 20
1.8053700000000001
 30
0.0
 10
2.1921600000000003
 20
1.8053700000000001
 30
0.0
 10
2.3928200000000004
 20
1.48533
 30
0.0
 10
2.05246
 20
1.10433
 30
0.0
 10
2.0931000000000002
 20
0.8046100000000001
 30
0.0
 10
2.0931000000000002
 20
0.8046100000000001
 30
0.0
 10
2.29122
 20
0.68523
 30
0.0
 10
2.59348
 20
0.6064900000000001
 30
0.0
 10
2.71286
 20
0.44647
 30
0.0
 10
2.71286
 20
0.44647
 30
0.0
 10
2.4918800000000001
 20
0.5252100000000001
 30
0.0
 10
2.2709000000000001
 20
0.6268100000000001
 30
0.0
 10
2.0321400000000001
 20
0.6445900000000001
 30
0.0
 10
2.0321400000000001
 20
0.6445900000000001
 30
0.0
 10
1.7146400000000002
 20
0.6268100000000001
 30
0.0
 10
1.4123800000000002
 20
0.5455300000000001
 30
0.0
 10
1.0923400000000001
 20
0.4845700000000001
 30
0.0
 10
1.0923400000000001
 20
0.4845700000000001
 30
0.0
 10
1.11266
 20
0.36519
 30
0.0
 10
1.3920600000000001
 20
0.36519
 30
0.0
 10
1.3336400000000002
 20
0.22549
 30
0.0
 10
1.3336400000000002
 20
0.22549
 30
0.0
 10
1.0136000000000001
 20
0.36011
 30
0.0
 10
0.7367400000000001
 20
0.4515500000000001
 30
0.0
 10
0.43702
 20
0.30169
 30
0.0
 10
0.43702
 20
0.30169
 30
0.0
 10
0.38114
 20
0.2737500000000001
 30
0.0
 10
0.14746
 20
-0.05898
 30
0.0
 10
0.21858
 20
0.20517
 30
0.0
 10
0.21858
 20
0.20517
 30
0.0
 10
0.5208400000000001
 20
0.4845700000000001
 30
0.0
 10
0.45734
 20
0.76651
 30
0.0
 10
0.00268
 20
0.72587
 30
0.0
 10
0.00268
 20
0.72587
 30
0.0
 10
-0.11669
 20
0.9443100000000001
 30
0.0
 10
-0.26147
 20
1.1246500000000001
 30
0.0
 10
-0.47737
 20
1.2643500000000001
 30
0.0
 10
-0.47737
 20
1.2643500000000001
 30
0.0
 10
-0.47737
 20
1.2643500000000001
 30
0.0
 10
-0.38339
 20
1.9044300000000001
 30
0.0
 10
-0.38339
 20
1.9044300000000001
 30
0.0
 10
-0.38339
 20
1.9044300000000001
 30
0.0
 10
-0.22083
 20
1.7850500000000002
 30
0.0
 10
-0.47483
 20
1.4243700000000001
 30
0.0
 10
-0.22591
 20
1.3049900000000001
 30
0.0
 10
-0.22591
 20
1.3049900000000001
 30
0.0
 10
-0.09129
 20
1.14497
 30
0.0
 10
0.1373
 20
1.1830700000000001
 30
0.0
 10
0.2897
 20
1.2846700000000002
 30
0.0
 10
0.2897
 20
1.2846700000000002
 30
0.0
 10
0.3887600000000001
 20
1.36341
 30
0.0
 10
0.4827400000000001
 20
1.5056500000000002
 30
0.0
 10
0.61482
 20
1.5056500000000002
 30
0.0
 10
0.61482
 20
1.5056500000000002
 30
0.0
 10
0.5945
 20
1.3837300000000001
 30
0.0
 10
0.4421000000000001
 20
1.2846700000000002
 30
0.0
 10
0.34812
 20
1.2033900000000002
 30
0.0
 10
0.34812
 20
1.2033900000000002
 30
0.0
 10
0.26938
 20
1.10433
 30
0.0
 10
0.15254
 20
1.06369
 30
0.0
 10
0.0611
 20
1.0052700000000001
 30
0.0
 10
0.0611
 20
1.0052700000000001
 30
0.0
 10
0.0611
 20
1.0052700000000001
 30
0.0
 10
0.2008
 20
0.8046100000000001
 30
0.0
 10
0.2008
 20
0.8046100000000001
 30
0.0
 10
0.2008
 20
0.8046100000000001
 30
0.0
 10
0.8942200000000001
 20
0.8452500000000001
 30
0.0
 10
1.1329800000000001
 20
1.7240900000000001
 30
0.0
 10
1.69432
 20
1.9450700000000001
 30
0.0
  0
SPLINE
  5
2C
100
AcDbEntity
  8
Ebene 1
 62
     7
100
AcDbSpline
210
0.0
220
0.0
230
1.0
 70
     1
 71
     3
 72
    12
 73
     8
 74
     0
 42
0.0000000001
 43
0.0000000001
 40
0.0
 40
0.0
 40
0.0
 40
0.0
 40
0.5
 40
0.5
 40
0.5
 40
0.5
 40
1.0
 40
1.0
 40
1.0
 40
1.0
 10
-2.14107
 20
1.1246500000000001
 30
0.0
 10
-2.10805
 20
1.0840100000000001
 30
0.0
 10
-2.06995
 20
1.02559
 30
0.0
 10
-2.06487
 20
0.9646300000000001
 30
0.0
 10
-2.06487
 20
0.9646300000000001
 30
0.0
 10
-2.1258300000000001
 20
0.9646300000000001
 30
0.0
 10
-2.1791700000000001
 20
1.0840100000000001
 30
0.0
 10
-2.14107
 20
1.1246500000000001
 30
0.0
  0
SPLINE
  5
2D
100
AcDbEntity
  8
Ebene 1
100
AcDbSpline
210
0.0
220
0.0
230
1.0
 70
     1
 71
     3
 72
    36
 73
    32
 74
     0
 42
0.0000000001
 43
0.0000000001
 40
0.0
 40
0.0
 40
0.0
 40
0.0
 40
0.125
 40
0.125
 40
0.125
 40
0.125
 40
0.25
 40
0.25
 40
0.25
 40
0.25
 40
0.375
 40
0.375
 40
0.375
 40
0.375
 40
0.5
 40
0.5
 40
0.5
 40
0.5
 40
0.625
 40
0.625
 40
0.625
 40
0.625
 40
0.75
 40
0.75
 40
0.75
 40
0.75
 40
0.875
 40
0.875
 40
0.875
 40
0.875
 40
1.0
 40
1.0
 40
1.0
 40
1.0
 10
-1.8819900000000001
 20
-0.55174
 30
0.0
 10
-1.8819900000000001
 20
-0.55174
 30
0.0
 10
-1.7270500000000002
 20
-0.19106
 30
0.0
 10
-1.7270500000000002
 20
-0.19106
 30
0.0
 10
-1.7270500000000002
 20
-0.19106
 30
0.0
 10
-1.9175500000000001
 20
0.24581
 30
0.0
 10
-1.5975100000000002
 20
0.66491
 30
0.0
 10
-1.5771900000000001
 20
1.0840100000000001
 30
0.0
 10
-1.5771900000000001
 20
1.0840100000000001
 30
0.0
 10
-1.4425700000000001
 20
1.0459100000000001
 30
0.0
 10
-1.42225
 20
0.9062100000000001
 30
0.0
 10
-1.3562100000000001
 20
1.10433
 30
0.0
 10
-1.3562100000000001
 20
1.10433
 30
0.0
 10
-1.3028700000000002
 20
1.06369
 30
0.0
 10
-1.3993900000000001
 20
1.0052700000000001
 30
0.0
 10
-1.33589
 20
0.9646300000000001
 30
0.0
 10
-1.33589
 20
0.9646300000000001
 30
0.0
 10
-1.0590300000000001
 20
1.14497
 30
0.0
 10
-0.6246900000000001
 20
1.2237100000000001
 30
0.0
 10
-0.40371
 20
0.9062100000000001
 30
0.0
 10
-0.40371
 20
0.9062100000000001
 30
0.0
 10
-0.7669300000000001
 20
0.72587
 30
0.0
 10
-1.29271
 20
0.5252100000000001
 30
0.0
 10
-1.4679700000000002
 20
0.06547
 30
0.0
 10
-1.4679700000000002
 20
0.06547
 30
0.0
 10
-1.5390900000000001
 20
0.00451
 30
0.0
 10
-1.58735
 20
0.12389
 30
0.0
 10
-1.6559300000000001
 20
0.10611
 30
0.0
 10
-1.6559300000000001
 20
0.10611
 30
0.0
 10
-1.6330700000000002
 20
-0.15042
 30
0.0
 10
-1.7092700000000001
 20
-0.3714
 30
0.0
 10
-1.8819900000000001
 20
-0.55174
 30
0.0
  0
SPLINE
  5
2E
100
AcDbEntity
  8
Ebene 1
 62
     7
100
AcDbSpline
210
0.0
220
0.0
230
1.0
 70
     1
 71
     3
 72
    16
 73
    12
 74
     0
 42
0.0000000001
 43
0.0000000001
 40
0.0
 40
0.0
 40
0.0
 40
0.0
 40
0.3333333333333333
 40
0.3333333333333333
 40
0.3333333333333333
 40
0.3333333333333333
 40
0.6666666666666666
 40
0.6666666666666666
 40
0.6666666666666666
 40
0.6666666666666666
 40
1.0
 40
1.0
 40
1.0
 40
1.0
 10
1.2117200000000001
 20
1.06369
 30
0.0
 10
1.4123800000000002
 20
1.10433
 30
0.0
 10
1.1914
 20
0.9062100000000001
 30
0.0
 10
1.0923400000000001
 20
0.9646300000000001
 30
0.0
 10
1.0923400000000001
 20
0.9646300000000001
 30
0.0
 10
1.0923400000000001
 20
0.9646300000000001
 30
0.0
 10
1.1329800000000001
 20
1.0052700000000001
 30
0.0
 10
1.1329800000000001
 20
1.0052700000000001
 30
0.0
 10
1.1329800000000001
 20
1.0052700000000001
 30
0.0
 10
1.1329800000000001
 20
1.0052700000000001
 30
0.0
 10
1.2117200000000001
 20
1.06369
 30
0.0
 10
1.2117200000000001
 20
1.06369
 30
0.0
  0
SPLINE
  5
2F
100
AcDbEntity
  8
Ebene 1
100
AcDbSpline
210
0.0
220
0.0
230
1.0
 70
     1
 71
     3
 72
    20
 73
    16
 74
     0
 42
0.0000000001
 43
0.0000000001
 40
0.0
 40
0.0
 40
0.0
 40
0.0
 40
0.25
 40
0.25
 40
0.25
 40
0.25
 40
0.5
 40
0.5
 40
0.5
 40
0.5
 40
0.75
 40
0.75
 40
0.75
 40
0.75
 40
1.0
 40
1.0
 40
1.0
 40
1.0
 10
-0.8837700000000001
 20
0.20517
 30
0.0
 10
-0.7999500000000001
 20
0.18485
 30
0.0
 10
-0.5789700000000001
 20
0.26613
 30
0.0
 10
-0.6069100000000001
 20
0.12389
 30
0.0
 10
-0.6069100000000001
 20
0.12389
 30
0.0
 10
-0.82789
 20
0.08579
 30
0.0
 10
-0.9904500000000001
 20
-0.05136
 30
0.0
 10
-1.1352300000000002
 20
-0.21138
 30
0.0
 10
-1.1352300000000002
 20
-0.21138
 30
0.0
 10
-1.20635
 20
-0.11232
 30
0.0
 10
-1.0945900000000002
 20
-0.01072
 30
0.0
 10
-1.0564900000000002
 20
0.06547
 30
0.0
 10
-1.0564900000000002
 20
0.06547
 30
0.0
 10
-1.0564900000000002
 20
0.06547
 30
0.0
 10
-0.8837700000000001
 20
0.20517
 30
0.0
 10
-0.8837700000000001
 20
0.20517
 30
0.0
  0
SPLINE
  5
30
100
AcDbEntity
  8
Ebene 1
100
AcDbSpline
210
0.0
220
0.0
230
1.0
 70
     1
 71
     3
 72
    12
 73
     8
 74
     0
 42
0.0000000001
 43
0.0000000001
 40
0.0
 40
0.0
 40
0.0
 40
0.0
 40
0.5
 40
0.5
 40
0.5
 40
0.5
 40
1.0
 40
1.0
 40
1.0
 40
1.0
 10
-2.0420100000000003
 20
0.16453
 30
0.0
 10
-1.92517
 20
0.08579
 30
0.0
 10
-1.9531100000000001
 20
-0.19106
 30
0.0
 10
-2.05471
 20
-0.29012
 30
0.0
 10
-2.05471
 20
-0.29012
 30
0.0
 10
-2.05471
 20
-0.29012
 30
0.0
 10
-2.0420100000000003
 20
0.16453
 30
0.0
 10
-2.0420100000000003
 20
0.16453
 30
0.0
  0
SPLINE
  5
31
100
AcDbEntity
  8
Ebene 1
100
AcDbSpline
210
0.0
220
0.0
230
1.0
 70
     1
 71
     3
 72
    24
 73
    20
 74
     0
 42
0.0000000001
 43
0.0000000001
 40
0.0
 40
0.0
 40
0.0
 40
0.0
 40
0.2
 40
0.2
 40
0.2
 40
0.2
 40
0.4
 40
0.4
 40
0.4
 40
0.4
 40
0.6000000000000001
 40
0.6000000000000001
 40
0.6000000000000001
 40
0.6000000000000001
 40
0.8
 40
0.8
 40
0.8
 40
0.8
 40
1.0
 40
1.0
 40
1.0
 40
1.0
 10
0.23382
 20
-0.5111
 30
0.0
 10
0.31764
 20
-0.5111
 30
0.0
 10
0.40654
 20
-0.4907800000000001
 30
0.0
 10
0.4725800000000001
 20
-0.55174
 30
0.0
 10
0.4725800000000001
 20
-0.55174
 30
0.0
 10
0.5487800000000001
 20
-0.59238
 30
0.0
 10
0.6529200000000001
 20
-0.6127
 30
0.0
 10
0.7138800000000001
 20
-0.6711200000000001
 30
0.0
 10
0.7138800000000001
 20
-0.6711200000000001
 30
0.0
 10
0.5233800000000001
 20
-0.63048
 30
0.0
 10
0.2897
 20
-0.57206
 30
0.0
 10
0.15
 20
-0.7320800000000001
 30
0.0
 10
0.15
 20
-0.7320800000000001
 30
0.0
 10
0.15
 20
-0.7320800000000001
 30
0.0
 10
0.0992
 20
-0.7320800000000001
 30
0.0
 10
0.0992
 20
-0.7320800000000001
 30
0.0
 10
0.0992
 20
-0.7320800000000001
 30
0.0
 10
0.07634
 20
-0.63048
 30
0.0
 10
0.1627
 20
-0.55174
 30
0.0
 10
0.23382
 20
-0.5111
 30
0.0
  0
SPLINE
  5
32
100
AcDbEntity
  8
Ebene 1
 62
     7
100
AcDbSpline
210
0.0
220
0.0
230
1.0
 70
     1
 71
     3
 72
   200
 73
   196
 74
     0
 42
0.0000000001
 43
0.0000000001
 40
0.0
 40
0.0
 40
0.0
 40
0.0
 40
0.0204081632653061
 40
0.0204081632653061
 40
0.0204081632653061
 40
0.0204081632653061
 40
0.0408163265306122
 40
0.0408163265306122
 40
0.0408163265306122
 40
0.0408163265306122
 40
0.0612244897959184
 40
0.0612244897959184
 40
0.0612244897959184
 40
0.0612244897959184
 40
0.0816326530612245
 40
0.0816326530612245
 40
0.0816326530612245
 40
0.0816326530612245
 40
0.1020408163265306
 40
0.1020408163265306
 40
0.1020408163265306
 40
0.1020408163265306
 40
0.1224489795918367
 40
0.1224489795918367
 40
0.1224489795918367
 40
0.1224489795918367
 40
0.1428571428571429
 40
0.1428571428571429
 40
0.1428571428571429
 40
0.1428571428571429
 40
0.163265306122449
 40
0.163265306122449
 40
0.163265306122449
 40
0.163265306122449
 40
0.1836734693877551
 40
0.1836734693877551
 40
0.1836734693877551
 40
0.1836734693877551
 40
0.2040816326530612
 40
0.2040816326530612
 40
0.2040816326530612
 40
0.2040816326530612
 40
0.2244897959183673
 40
0.2244897959183673
 40
0.2244897959183673
 40
0.2244897959183673
 40
0.2448979591836734
 40
0.2448979591836734
 40
0.2448979591836734
 40
0.2448979591836734
 40
0.2653061224489796
 40
0.2653061224489796
 40
0.2653061224489796
 40
0.2653061224489796
 40
0.2857142857142857
 40
0.2857142857142857
 40
0.2857142857142857
 40
0.2857142857142857
 40
0.3061224489795918
 40
0.3061224489795918
 40
0.3061224489795918
 40
0.3061224489795918
 40
0.326530612244898
 40
0.326530612244898
 40
0.326530612244898
 40
0.326530612244898
 40
0.3469387755102041
 40
0.3469387755102041
 40
0.3469387755102041
 40
0.3469387755102041
 40
0.3673469387755103
 40
0.3673469387755103
 40
0.3673469387755103
 40
0.3673469387755103
 40
0.3877551020408164
 40
0.3877551020408164
 40
0.3877551020408164
 40
0.3877551020408164
 40
0.4081632653061226
 40
0.4081632653061226
 40
0.4081632653061226
 40
0.4081632653061226
 40
0.4285714285714287
 40
0.4285714285714287
 40
0.4285714285714287
 40
0.4285714285714287
 40
0.4489795918367349
 40
0.4489795918367349
 40
0.4489795918367349
 40
0.4489795918367349
 40
0.469387755102041
 40
0.469387755102041
 40
0.469387755102041
 40
0.469387755102041
 40
0.4897959183673472
 40
0.4897959183673472
 40
0.4897959183673472
 40
0.4897959183673472
 40
0.5102040816326533
 40
0.5102040816326533
 40
0.5102040816326533
 40
0.5102040816326533
 40
0.5306122448979594
 40
0.5306122448979594
 40
0.5306122448979594
 40
0.5306122448979594
 40
0.5510204081632656
 40
0.5510204081632656
 40
0.5510204081632656
 40
0.5510204081632656
 40
0.5714285714285717
 40
0.5714285714285717
 40
0.5714285714285717
 40
0.5714285714285717
 40
0.5918367346938779
 40
0.5918367346938779
 40
0.5918367346938779
 40
0.5918367346938779
 40
0.612244897959184
 40
0.612244897959184
 40
0.612244897959184
 40
0.612244897959184
 40
0.6326530612244902
 40
0.6326530612244902
 40
0.6326530612244902
 40
0.6326530612244902
 40
0.6530612244897963
 40
0.6530612244897963
 40
0.6530612244897963
 40
0.6530612244897963
 40
0.6734693877551025
 40
0.6734693877551025
 40
0.6734693877551025
 40
0.6734693877551025
 40
0.6938775510204086
 40
0.6938775510204086
 40
0.6938775510204086
 40
0.6938775510204086
 40
0.7142857142857148
 40
0.7142857142857148
 40
0.7142857142857148
 40
0.7142857142857148
 40
0.7346938775510209
 40
0.7346938775510209
 40
0.7346938775510209
 40
0.7346938775510209
 40
0.755102040816327
 40
0.755102040816327
 40
0.755102040816327
 40
0.755102040816327
 40
0.7755102040816332
 40
0.7755102040816332
 40
0.7755102040816332
 40
0.7755102040816332
 40
0.7959183673469393
 40
0.7959183673469393
 40
0.7959183673469393
 40
0.7959183673469393
 40
0.8163265306122455
 40
0.8163265306122455
 40
0.8163265306122455
 40
0.8163265306122455
 40
0.8367346938775516
 40
0.8367346938775516
 40
0.8367346938775516
 40
0.8367346938775516
 40
0.8571428571428578
 40
0.8571428571428578
 40
0.8571428571428578
 40
0.8571428571428578
 40
0.8775510204081639
 40
0.8775510204081639
 40
0.8775510204081639
 40
0.8775510204081639
 40
0.8979591836734701
 40
0.8979591836734701
 40
0.8979591836734701
 40
0.8979591836734701
 40
0.9183673469387762
 40
0.9183673469387762
 40
0.9183673469387762
 40
0.9183673469387762
 40
0.9387755102040823
 40
0.9387755102040823
 40
0.9387755102040823
 40
0.9387755102040823
 40
0.9591836734693885
 40
0.9591836734693885
 40
0.9591836734693885
 40
0.9591836734693885
 40
0.9795918367346946
 40
0.9795918367346946
 40
0.9795918367346946
 40
0.9795918367346946
 40
1.0
 40
1.0
 40
1.0
 40
1.0
 10
-0.6297700000000001
 20
-3.9985200000000005
 30
0.0
 10
-0.66025
 20
-3.9985200000000005
 30
0.0
 10
-0.6297700000000001
 20
-4.2931600000000003
 30
0.0
 10
-0.3960900000000001
 20
-3.5489400000000004
 30
0.0
 10
-0.3960900000000001
 20
-3.5489400000000004
 30
0.0
 10
-0.27925
 20
-3.5895800000000002
 30
0.0
 10
-0.04557
 20
-3.3686000000000003
 30
0.0
 10
-0.08367
 20
-3.6099000000000001
 30
0.0
 10
-0.08367
 20
-3.6099000000000001
 30
0.0
 10
-0.08367
 20
-3.6099000000000001
 30
0.0
 10
-0.13701
 20
-3.8689800000000005
 30
0.0
 10
-0.13701
 20
-3.8689800000000005
 30
0.0
 10
-0.13701
 20
-3.8689800000000005
 30
0.0
 10
0.43448
 20
-3.2492200000000002
 30
0.0
 10
-0.13193
 20
-2.3907000000000003
 30
0.0
 10
-0.09637
 20
-1.7099800000000001
 30
0.0
 10
-0.09637
 20
-1.7099800000000001
 30
0.0
 10
0.24144
 20
-1.6922000000000001
 30
0.0
 10
0.10936
 20
-2.5304000000000002
 30
0.0
 10
0.2135
 20
-2.8910800000000001
 30
0.0
 10
0.2135
 20
-2.8910800000000001
 30
0.0
 10
0.37606
 20
-3.03078
 30
0.0
 10
0.3151000000000001
 20
-2.5634200000000003
 30
0.0
 10
0.33288
 20
-2.4211800000000001
 30
0.0
 10
0.33288
 20
-2.4211800000000001
 30
0.0
 10
0.3989200000000001
 20
-1.9106400000000001
 30
0.0
 10
0.55386
 20
-1.4686800000000002
 30
0.0
 10
0.8739000000000001
 20
-1.0318000000000001
 30
0.0
 10
0.8739000000000001
 20
-1.0318000000000001
 30
0.0
 10
1.11266
 20
-1.2096
 30
0.0
 10
1.2117200000000001
 20
-1.5499600000000002
 30
0.0
 10
1.2523600000000001
 20
-1.7709400000000002
 30
0.0
 10
1.2523600000000001
 20
-1.7709400000000002
 30
0.0
 10
1.3260200000000002
 20
-1.6160000000000001
 30
0.0
 10
1.23712
 20
-1.4001000000000001
 30
0.0
 10
1.1812400000000001
 20
-1.2197600000000002
 30
0.0
 10
1.1812400000000001
 20
-1.2197600000000002
 30
0.0
 10
1.1279000000000001
 20
-1.0521200000000002
 30
0.0
 10
1.0110600000000001
 20
-0.84638
 30
0.0
 10
1.0923400000000001
 20
-0.8108200000000001
 30
0.0
 10
1.0923400000000001
 20
-0.8108200000000001
 30
0.0
 10
1.39714
 20
-1.6160000000000001
 30
0.0
 10
1.4936600000000002
 20
-1.1588000000000001
 30
0.0
 10
1.8238600000000003
 20
-0.7930400000000001
 30
0.0
 10
1.8238600000000003
 20
-0.7930400000000001
 30
0.0
 10
1.9026000000000001
 20
-0.7041400000000001
 30
0.0
 10
2.0245200000000003
 20
-0.6050800000000001
 30
0.0
 10
2.1743800000000002
 20
-0.61524
 30
0.0
 10
2.1743800000000002
 20
-0.61524
 30
0.0
 10
1.9127600000000002
 20
-0.8133600000000001
 30
0.0
 10
1.23204
 20
-2.0706600000000002
 30
0.0
 10
1.7527400000000002
 20
-1.4712200000000002
 30
0.0
 10
1.7527400000000002
 20
-1.4712200000000002
 30
0.0
 10
1.8721200000000002
 20
-1.1892800000000001
 30
0.0
 10
2.0931000000000002
 20
-0.9327400000000001
 30
0.0
 10
2.3725000000000001
 20
-0.7930400000000001
 30
0.0
 10
2.3725000000000001
 20
-0.7930400000000001
 30
0.0
 10
2.59348
 20
-0.8311400000000001
 30
0.0
 10
2.6722200000000003
 20
-1.1892800000000001
 30
0.0
 10
2.6138000000000003
 20
-1.3899400000000002
 30
0.0
 10
2.6138000000000003
 20
-1.3899400000000002
 30
0.0
 10
1.8340200000000002
 20
-1.9716000000000002
 30
0.0
 10
0.9729600000000001
 20
-2.6701000000000001
 30
0.0
 10
0.61482
 20
-3.6505400000000003
 30
0.0
 10
0.61482
 20
-3.6505400000000003
 30
0.0
 10
0.8129400000000001
 20
-3.6099000000000001
 30
0.0
 10
0.93232
 20
-3.1095200000000003
 30
0.0
 10
1.0720200000000002
 20
-3.2289000000000003
 30
0.0
 10
1.0720200000000002
 20
-3.2289000000000003
 30
0.0
 10
1.1736200000000001
 20
-3.4702000000000002
 30
0.0
 10
1.23204
 20
-3.7902400000000003
 30
0.0
 10
1.1329800000000001
 20
-4.0493200000000007
 30
0.0
 10
1.1329800000000001
 20
-4.0493200000000007
 30
0.0
 10
0.9932800000000001
 20
-4.4481000000000002
 30
0.0
 10
-0.3325900000000001
 20
-4.6690800000000001
 30
0.0
 10
0.2008
 20
-4.4277800000000003
 30
0.0
 10
0.2008
 20
-4.4277800000000003
 30
0.0
 10
0.27192
 20
-4.4277800000000003
 30
0.0
 10
0.48782
 20
-4.2880800000000008
 30
0.0
 10
0.33288
 20
-4.26776
 30
0.0
 10
0.33288
 20
-4.26776
 30
0.0
 10
-0.7542300000000001
 20
-4.5878000000000005
 30
0.0
 10
-1.8286500000000001
 20
-4.9688000000000008
 30
0.0
 10
-2.8827500000000001
 20
-5.4285400000000008
 30
0.0
 10
-2.8827500000000001
 20
-5.4285400000000008
 30
0.0
 10
-3.8022300000000002
 20
-5.3066200000000006
 30
0.0
 10
-4.4651700000000005
 20
-4.9281600000000001
 30
0.0
 10
-5.1941500000000005
 20
-4.7681400000000007
 30
0.0
 10
-5.1941500000000005
 20
-4.7681400000000007
 30
0.0
 10
-5.4075100000000003
 20
-3.9883600000000001
 30
0.0
 10
-5.3135300000000001
 20
-3.1095200000000003
 30
0.0
 10
-4.85379
 20
-2.4288000000000003
 30
0.0
 10
-4.85379
 20
-2.4288000000000003
 30
0.0
 10
-4.8664900000000006
 20
-2.6294600000000004
 30
0.0
 10
-4.6607500000000002
 20
-2.8707600000000002
 30
0.0
 10
-4.8233100000000002
 20
-3.0485600000000002
 30
0.0
 10
-4.8233100000000002
 20
-3.0485600000000002
 30
0.0
 10
-5.0823900000000002
 20
-3.3889200000000002
 30
0.0
 10
-5.24749
 20
-3.8893000000000004
 30
0.0
 10
-5.1408100000000001
 20
-4.2880800000000008
 30
0.0
 10
-5.1408100000000001
 20
-4.2880800000000008
 30
0.0
 10
-5.1408100000000001
 20
-4.2880800000000008
 30
0.0
 10
-5.1204900000000002
 20
-4.0899600000000005
 30
0.0
 10
-5.1204900000000002
 20
-4.0899600000000005
 30
0.0
 10
-5.1204900000000002
 20
-4.0899600000000005
 30
0.0
 10
-5.1382700000000003
 20
-3.8689800000000005
 30
0.0
 10
-4.9833300000000005
 20
-4.00868
 30
0.0
 10
-5.0011100000000006
 20
-4.1483800000000004
 30
0.0
 10
-5.0011100000000006
 20
-4.1483800000000004
 30
0.0
 10
-4.7318700000000007
 20
-4.7097200000000008
 30
0.0
 10
-4.8741100000000008
 20
-4.5090600000000007
 30
0.0
 10
-4.7140900000000006
 20
-3.9883600000000001
 30
0.0
 10
-4.7140900000000006
 20
-3.9883600000000001
 30
0.0
 10
-4.3203900000000006
 20
-3.4498800000000003
 30
0.0
 10
-4.8360100000000008
 20
-4.6487600000000002
 30
0.0
 10
-4.3991300000000004
 20
-4.6487600000000002
 30
0.0
 10
-4.3991300000000004
 20
-4.6487600000000002
 30
0.0
 10
-4.2340300000000006
 20
-4.8087800000000005
 30
0.0
 10
-4.31785
 20
-4.4277800000000003
 30
0.0
 10
-4.3051500000000003
 20
-4.3287200000000006
 30
0.0
 10
-4.3051500000000003
 20
-4.3287200000000006
 30
0.0
 10
-4.3051500000000003
 20
-4.3287200000000006
 30
0.0
 10
-4.1806900000000002
 20
-3.9299400000000002
 30
0.0
 10
-4.1806900000000002
 20
-3.9299400000000002
 30
0.0
 10
-4.1806900000000002
 20
-3.9299400000000002
 30
0.0
 10
-3.8022300000000002
 20
-3.4702000000000002
 30
0.0
 10
-4.2238700000000007
 20
-4.5497000000000005
 30
0.0
 10
-3.9622500000000005
 20
-4.7300400000000007
 30
0.0
 10
-3.9622500000000005
 20
-4.7300400000000007
 30
0.0
 10
-3.7819100000000003
 20
-4.6284400000000003
 30
0.0
 10
-3.7666700000000004
 20
-3.5286200000000001
 30
0.0
 10
-3.5812500000000003
 20
-3.9705800000000004
 30
0.0
 10
-3.5812500000000003
 20
-3.9705800000000004
 30
0.0
 10
-3.6599900000000005
 20
-4.1483800000000004
 30
0.0
 10
-3.8555700000000002
 20
-4.6284400000000003
 30
0.0
 10
-3.4948900000000003
 20
-4.6487600000000002
 30
0.0
 10
-3.4948900000000003
 20
-4.6487600000000002
 30
0.0
 10
-3.2688300000000003
 20
-4.5090600000000007
 30
0.0
 10
-3.3755100000000002
 20
-5.0475400000000006
 30
0.0
 10
-3.3399500000000004
 20
-5.0881800000000004
 30
0.0
 10
-3.3399500000000004
 20
-5.0881800000000004
 30
0.0
 10
-3.1900900000000001
 20
-5.1262800000000004
 30
0.0
 10
-3.2713700000000001
 20
-4.7935400000000001
 30
0.0
 10
-3.2713700000000001
 20
-4.6259000000000006
 30
0.0
 10
-3.2713700000000001
 20
-4.6259000000000006
 30
0.0
 10
-3.2688300000000003
 20
-3.9096200000000003
 30
0.0
 10
-3.2586700000000004
 20
-3.1171400000000005
 30
0.0
 10
-2.9208500000000002
 20
-2.4491200000000002
 30
0.0
 10
-2.9208500000000002
 20
-2.4491200000000002
 30
0.0
 10
-2.7836900000000004
 20
-3.2289000000000003
 30
0.0
 10
-3.3704300000000003
 20
-3.9883600000000001
 30
0.0
 10
-2.7252700000000001
 20
-4.7097200000000008
 30
0.0
 10
-2.7252700000000001
 20
-4.7097200000000008
 30
0.0
 10
-2.6516100000000002
 20
-4.6284400000000003
 30
0.0
 10
-2.8192500000000003
 20
-4.48874
 30
0.0
 10
-2.6465300000000003
 20
-4.48874
 30
0.0
 10
-2.6465300000000003
 20
-4.48874
 30
0.0
 10
-2.5855700000000001
 20
-4.6081200000000004
 30
0.0
 10
-2.4712700000000001
 20
-4.7503600000000006
 30
0.0
 10
-2.3264900000000002
 20
-4.7300400000000007
 30
0.0
 10
-2.3264900000000002
 20
-4.7300400000000007
 30
0.0
 10
-2.1994900000000004
 20
-4.5878000000000005
 30
0.0
 10
-2.3163300000000002
 20
-4.3490400000000005
 30
0.0
 10
-2.1156700000000002
 20
-4.26776
 30
0.0
 10
-2.1156700000000002
 20
-4.26776
 30
0.0
 10
-1.9378700000000002
 20
-4.2880800000000008
 30
0.0
 10
-2.0013700000000001
 20
-4.5497000000000005
 30
0.0
 10
-1.9429500000000002
 20
-4.6487600000000002
 30
0.0
 10
-1.9429500000000002
 20
-4.6487600000000002
 30
0.0
 10
-1.7778500000000002
 20
-4.4684200000000001
 30
0.0
 10
-1.6610100000000001
 20
-3.8486600000000002
 30
0.0
 10
-1.3460500000000002
 20
-4.1280600000000005
 30
0.0
 10
-1.3460500000000002
 20
-4.1280600000000005
 30
0.0
 10
-1.4146300000000001
 20
-3.8689800000000005
 30
0.0
 10
-1.2723900000000001
 20
-3.6099000000000001
 30
0.0
 10
-1.2622300000000002
 20
-3.3686000000000003
 30
0.0
 10
-1.2622300000000002
 20
-3.3686000000000003
 30
0.0
 10
-0.90917
 20
-3.6886400000000004
 30
0.0
 10
-1.2774700000000001
 20
-4.1483800000000004
 30
0.0
 10
-1.4070100000000001
 20
-4.4684200000000001
 30
0.0
 10
-1.4070100000000001
 20
-4.4684200000000001
 30
0.0
 10
-1.3409700000000002
 20
-4.5293800000000006
 30
0.0
 10
-1.3054100000000002
 20
-4.3084000000000007
 30
0.0
 10
-1.2165100000000002
 20
-4.2474400000000001
 30
0.0
 10
-1.2165100000000002
 20
-4.2474400000000001
 30
0.0
 10
-1.0641100000000001
 20
-3.9096200000000003
 30
0.0
 10
-0.9980700000000001
 20
-3.6962600000000001
 30
0.0
 10
-0.68057
 20
-3.8766000000000003
 30
0.0
 10
-0.68057
 20
-3.8766000000000003
 30
0.0
 10
-0.8736100000000001
 20
-3.5946600000000002
 30
0.0
 10
-0.7694700000000001
 20
-3.3889200000000002
 30
0.0
 10
-0.65771
 20
-3.1704800000000004
 30
0.0
 10
-0.65771
 20
-3.1704800000000004
 30
0.0
 10
-0.49515
 20
-3.4092400000000005
 30
0.0
 10
-0.58913
 20
-3.7165800000000004
 30
0.0
 10
-0.6297700000000001
 20
-3.9985200000000005
 30
0.0
  0
SPLINE
  5
33
100
AcDbEntity
  8
Ebene 1
100
AcDbSpline
210
0.0
220
0.0
230
1.0
 70
     1
 71
     3
 72
    12
 73
     8
 74
     0
 42
0.0000000001
 43
0.0000000001
 40
0.0
 40
0.0
 40
0.0
 40
0.0
 40
0.5
 40
0.5
 40
0.5
 40
0.5
 40
1.0
 40
1.0
 40
1.0
 40
1.0
 10
-2.36205
 20
-0.6711200000000001
 30
0.0
 10
-2.26553
 20
-0.8717800000000001
 30
0.0
 10
-2.3645900000000002
 20
-1.1715
 30
0.0
 10
-2.4966700000000004
 20
-1.3493000000000002
 30
0.0
 10
-2.4966700000000004
 20
-1.3493000000000002
 30
0.0
 10
-2.4966700000000004
 20
-1.3493000000000002
 30
0.0
 10
-2.36205
 20
-0.6711200000000001
 30
0.0
 10
-2.36205
 20
-0.6711200000000001
 30
0.0
  0
SPLINE
  5
34
100
AcDbEntity
  8
Ebene 1
 62
     7
100
AcDbSpline
210
0.0
220
0.0
230
1.0
 70
     1
 71
     3
 72
    28
 73
    24
 74
     0
 42
0.0000000001
 43
0.0000000001
 40
0.0
 40
0.0
 40
0.0
 40
0.0
 40
0.1666666666666667
 40
0.1666666666666667
 40
0.1666666666666667
 40
0.1666666666666667
 40
0.3333333333333333
 40
0.3333333333333333
 40
0.3333333333333333
 40
0.3333333333333333
 40
0.5
 40
0.5
 40
0.5
 40
0.5
 40
0.6666666666666666
 40
0.6666666666666666
 40
0.6666666666666666
 40
0.6666666666666666
 40
0.8333333333333333
 40
0.8333333333333333
 40
0.8333333333333333
 40
0.8333333333333333
 40
1.0
 40
1.0
 40
1.0
 40
1.0
 10
-0.74407
 20
-1.33152
 30
0.0
 10
-0.6653300000000001
 20
-1.3112000000000001
 30
0.0
 10
-0.6272300000000001
 20
-1.3899400000000002
 30
0.0
 10
-0.5865900000000001
 20
-1.4305800000000002
 30
0.0
 10
-0.5865900000000001
 20
-1.4305800000000002
 30
0.0
 10
-0.6881900000000001
 20
-1.6922000000000001
 30
0.0
 10
-0.9193300000000001
 20
-1.9512800000000001
 30
0.0
 10
-0.80249
 20
-2.23068
 30
0.0
 10
-0.80249
 20
-2.23068
 30
0.0
 10
-0.80249
 20
-2.23068
 30
0.0
 10
-0.9244100000000001
 20
-2.4897600000000004
 30
0.0
 10
-0.9244100000000001
 20
-2.4897600000000004
 30
0.0
 10
-0.9244100000000001
 20
-2.4897600000000004
 30
0.0
 10
-0.8761500000000001
 20
-2.3094200000000003
 30
0.0
 10
-1.2165100000000002
 20
-2.2484600000000001
 30
0.0
 10
-0.9853700000000001
 20
-2.1494
 30
0.0
 10
-0.9853700000000001
 20
-2.1494
 30
0.0
 10
-1.0691900000000001
 20
-2.1290800000000001
 30
0.0
 10
-1.16571
 20
-2.1697200000000003
 30
0.0
 10
-1.1758700000000002
 20
-2.2484600000000001
 30
0.0
 10
-1.1758700000000002
 20
-2.2484600000000001
 30
0.0
 10
-1.1504700000000001
 20
-1.9106400000000001
 30
0.0
 10
-0.94981
 20
-1.6109200000000001
 30
0.0
 10
-0.74407
 20
-1.33152
 30
0.0
  0
SPLINE
  5
35
100
AcDbEntity
  8
Ebene 1
 62
     7
100
AcDbSpline
210
0.0
220
0.0
230
1.0
 70
     1
 71
     3
 72
    28
 73
    24
 74
     0
 42
0.0000000001
 43
0.0000000001
 40
0.0
 40
0.0
 40
0.0
 40
0.0
 40
0.1666666666666667
 40
0.1666666666666667
 40
0.1666666666666667
 40
0.1666666666666667
 40
0.3333333333333333
 40
0.3333333333333333
 40
0.3333333333333333
 40
0.3333333333333333
 40
0.5
 40
0.5
 40
0.5
 40
0.5
 40
0.6666666666666666
 40
0.6666666666666666
 40
0.6666666666666666
 40
0.6666666666666666
 40
0.8333333333333333
 40
0.8333333333333333
 40
0.8333333333333333
 40
0.8333333333333333
 40
1.0
 40
1.0
 40
1.0
 40
1.0
 10
-0.4824500000000001
 20
-1.6109200000000001
 30
0.0
 10
-0.4824500000000001
 20
-1.6109200000000001
 30
0.0
 10
-0.38847
 20
-1.63124
 30
0.0
 10
-0.38847
 20
-1.63124
 30
0.0
 10
-0.38847
 20
-1.63124
 30
0.0
 10
-0.4291100000000001
 20
-1.7912600000000001
 30
0.0
 10
-0.66025
 20
-2.1113
 30
0.0
 10
-0.42403
 20
-2.1900400000000002
 30
0.0
 10
-0.42403
 20
-2.1900400000000002
 30
0.0
 10
-0.42403
 20
-2.1900400000000002
 30
0.0
 10
-0.46721
 20
-2.2891000000000004
 30
0.0
 10
-0.46721
 20
-2.2891000000000004
 30
0.0
 10
-0.46721
 20
-2.2891000000000004
 30
0.0
 10
-0.46721
 20
-2.2891000000000004
 30
0.0
 10
-0.52817
 20
-2.1697200000000003
 30
0.0
 10
-0.52817
 20
-2.1697200000000003
 30
0.0
 10
-0.52817
 20
-2.1697200000000003
 30
0.0
 10
-0.52817
 20
-2.1697200000000003
 30
0.0
 10
-0.69835
 20
-2.1494
 30
0.0
 10
-0.69835
 20
-2.1494
 30
0.0
 10
-0.69835
 20
-2.1494
 30
0.0
 10
-0.7085100000000001
 20
-1.9512800000000001
 30
0.0
 10
-0.6653300000000001
 20
-1.7303000000000002
 30
0.0
 10
-0.4824500000000001
 20
-1.6109200000000001
 30
0.0
  0
SPLINE
  5
36
100
AcDbEntity
  8
Ebene 1
 62
     7
100
AcDbSpline
210
0.0
220
0.0
230
1.0
 70
     1
 71
     3
 72
    12
 73
     8
 74
     0
 42
0.0000000001
 43
0.0000000001
 40
0.0
 40
0.0
 40
0.0
 40
0.0
 40
0.5
 40
0.5
 40
0.5
 40
0.5
 40
1.0
 40
1.0
 40
1.0
 40
1.0
 10
-3.1215100000000002
 20
-2.26878
 30
0.0
 10
-2.9970500000000002
 20
-2.3094200000000003
 30
0.0
 10
-3.1240500000000004
 20
-2.4491200000000002
 30
0.0
 10
-3.1951700000000001
 20
-2.4897600000000004
 30
0.0
 10
-3.1951700000000001
 20
-2.4897600000000004
 30
0.0
 10
-3.1951700000000001
 20
-2.4897600000000004
 30
0.0
 10
-3.1215100000000002
 20
-2.26878
 30
0.0
 10
-3.1215100000000002
 20
-2.26878
 30
0.0
  0
SPLINE
  5
37
100
AcDbEntity
  8
Ebene 1
 62
     7
100
AcDbSpline
210
0.0
220
0.0
230
1.0
 70
     1
 71
     3
 72
    12
 73
     8
 74
     0
 42
0.0000000001
 43
0.0000000001
 40
0.0
 40
0.0
 40
0.0
 40
0.0
 40
0.5
 40
0.5
 40
0.5
 40
0.5
 40
1.0
 40
1.0
 40
1.0
 40
1.0
 10
-1.8819900000000001
 20
-3.7292800000000002
 30
0.0
 10
-1.7016500000000001
 20
-3.8486600000000002
 30
0.0
 10
-1.6533900000000001
 20
-4.1890200000000002
 30
0.0
 10
-1.8642100000000001
 20
-4.3084000000000007
 30
0.0
 10
-1.8642100000000001
 20
-4.3084000000000007
 30
0.0
 10
-1.9734300000000002
 20
-4.1280600000000005
 30
0.0
 10
-1.8769100000000001
 20
-3.9299400000000002
 30
0.0
 10
-1.8819900000000001
 20
-3.7292800000000002
 30
0.0
  0
SPLINE
  5
38
100
AcDbEntity
  8
Ebene 1
 62
     7
100
AcDbSpline
210
0.0
220
0.0
230
1.0
 70
     1
 71
     3
 72
    16
 73
    12
 74
     0
 42
0.0000000001
 43
0.0000000001
 40
0.0
 40
0.0
 40
0.0
 40
0.0
 40
0.3333333333333333
 40
0.3333333333333333
 40
0.3333333333333333
 40
0.3333333333333333
 40
0.6666666666666666
 40
0.6666666666666666
 40
0.6666666666666666
 40
0.6666666666666666
 40
1.0
 40
1.0
 40
1.0
 40
1.0
 10
-2.4407900000000002
 20
-3.9705800000000004
 30
0.0
 10
-2.4179300000000001
 20
-3.9705800000000004
 30
0.0
 10
-2.40015
 20
-3.9705800000000004
 30
0.0
 10
-2.3849100000000001
 20
-3.9883600000000001
 30
0.0
 10
-2.3849100000000001
 20
-3.9883600000000001
 30
0.0
 10
-2.3366500000000001
 20
-4.2093400000000001
 30
0.0
 10
-2.2045700000000004
 20
-4.4684200000000001
 30
0.0
 10
-2.3671300000000004
 20
-4.6690800000000001
 30
0.0
 10
-2.3671300000000004
 20
-4.6690800000000001
 30
0.0
 10
-2.65415
 20
-4.5293800000000006
 30
0.0
 10
-2.4636500000000003
 20
-4.2093400000000001
 30
0.0
 10
-2.4407900000000002
 20
-3.9705800000000004
 30
0.0
  0
SPLINE
  5
39
100
AcDbEntity
  8
Ebene 1
 62
     7
100
AcDbSpline
210
0.0
220
0.0
230
1.0
 70
     1
 71
     3
 72
    12
 73
     8
 74
     0
 42
0.0000000001
 43
0.0000000001
 40
0.0
 40
0.0
 40
0.0
 40
0.0
 40
0.5
 40
0.5
 40
0.5
 40
0.5
 40
1.0
 40
1.0
 40
1.0
 40
1.0
 10
-3.4821900000000001
 20
-4.1687000000000003
 30
0.0
 10
-3.3907500000000002
 20
-4.2474400000000001
 30
0.0
 10
-3.3374100000000002
 20
-4.5700200000000004
 30
0.0
 10
-3.5355300000000005
 20
-4.5878000000000005
 30
0.0
 10
-3.5355300000000005
 20
-4.5878000000000005
 30
0.0
 10
-3.7057100000000003
 20
-4.48874
 30
0.0
 10
-3.5888700000000004
 20
-4.26776
 30
0.0
 10
-3.4821900000000001
 20
-4.1687000000000003
 30
0.0
  0
ENDSEC
  0
SECTION
  2
OBJECTS
  0
DICTIONARY
  5
19
100
AcDbDictionary
280
     0
281
     1
  3
ACAD_GROUP
350
1A
  3
ACAD_MLINESTYLE
350
1B
  3
ACAD_LAYOUT
350
1E
  3
ACAD_PLOTSETTINGS
350
22
  3
ACAD_PLOTSTYLENAME
350
1F
  3
ACAD_WIPEOUT_VARS
350
23
  0
DICTIONARY
  5
1A
102
{ACAD_REACTORS
330
19
102
}
100
AcDbDictionary
280
     0
281
     1
  0
DICTIONARY
  5
1B
102
{ACAD_REACTORS
330
19
102
}
100
AcDbDictionary
280
     0
281
     1
  3
Standard
350
1C
  0
MLINESTYLE
  5
1C
102
{ACAD_REACTORS
330
1B
102
}
100
AcDbMlineStyle
  2
Standard
 70
     0
  3

 62
     0
 51
90.0
 52
90.0
 71
     2
 49
0.5
 62
   256
  6
BYLAYER
 49
-0.5
 62
   256
  6
BYLAYER
  0
ACDBDICTIONARYWDFLT
  5
1F
102
{ACAD_REACTORS
330
19
102
}
100
AcDbDictionary
281
     1
  3
Normal
350
1D
100
AcDbDictionaryWithDefault
340
1D
  0
ACDBPLACEHOLDER
  5
1D
102
{ACAD_REACTORS
330
1F
102
}
  0
LAYOUT
  5
20
102
{ACAD_REACTORS
330
1E
102
}
100
AcDbPlotSettings
  1

  2

  4

  6

 40
0.0
 41
0.0
 42
0.0
 43
0.0
 44
0.0
 45
0.0
 46
0.0
 47
0.0
 48
0.0
 49
0.0
140
0.0
141
0.0
142
1.0
143
1.0
 70
  1024
 72
     0
 73
     0
 74
     0
  7

 75
     0
147
1.0
148
0.0
149
0.0
100
AcDbLayout
  1
Model
 70
     0
 71
     0
 10
0.0
 20
0.0
 11
0.0
 21
0.0
 12
0.0
 22
0.0
 32
0.0
 14
0.0
 24
0.0
 34
0.0
 15
0.0
 25
0.0
 35
0.0
146
0.0
 13
0.0
 23
0.0
 33
0.0
 16
0.0
 26
0.0
 36
0.0
 17
0.0
 27
0.0
 37
0.0
 76
     0
330
A
331
0
345
0
346
0
  0
LAYOUT
  5
21
102
{ACAD_REACTORS
330
1E
102
}
100
AcDbPlotSettings
  1

  2

  4

  6

 40
0.0
 41
0.0
 42
0.0
 43
0.0
 44
0.0
 45
0.0
 46
0.0
 47
0.0
 48
0.0
 49
0.0
140
0.0
141
0.0
142
1.0
143
1.0
 70
     0
 72
     0
 73
     0
 74
     0
  7

 75
     0
147
1.0
148
0.0
149
0.0
100
AcDbLayout
  1
Layout1
 70
     0
 71
     0
 10
0.0
 20
0.0
 11
0.0
 21
0.0
 12
0.0
 22
0.0
 32
0.0
 14
0.0
 24
0.0
 34
0.0
 15
0.0
 25
0.0
 35
0.0
146
0.0
 13
0.0
 23
0.0
 33
0.0
 16
0.0
 26
0.0
 36
0.0
 17
0.0
 27
0.0
 37
0.0
 76
     0
330
B
331
0
345
0
346
0
  0
DICTIONARY
  5
1E
102
{ACAD_REACTORS
330
19
102
}
100
AcDbDictionary
280
     0
281
     1
  3
Layout1
350
21
  3
Model
350
20
  0
DICTIONARY
  5
22
102
{ACAD_REACTORS
330
19
102
}
100
AcDbDictionary
280
     0
281
     1
  0
WIPEOUTVARIABLES
  5
23
100
AcDbWipeoutVariables
 70
     1
  0
ENDSEC
  0
EOF
