  0
SECTION
  2
HEADER
  9
$ACADVER
  1
AC1015
  9
$ACADMAINTVER
 70
     6
  9
$DWGCODEPAGE
  3
DOS850
  9
$INSBASE
 10
0.0
 20
0.0
 30
0.0
  9
$EXTMIN
 10
-3.1332
 20
-6.38104
 30
1.000000E+20
  9
$EXTMAX
 10
3.14001
 20
6.37515
 30
-1.000000E+20
  9
$LIMMIN
 10
0.0
 20
0.0
  9
$LIMMAX
 10
0.0
 20
0.0
  9
$ORTHOMODE
 70
     0
  9
$REGENMODE
 70
     1
  9
$FILLMODE
 70
     1
  9
$QTEXTMODE
 70
     0
  9
$MIRRTEXT
 70
     1
  9
$LTSCALE
 40
1.0
  9
$ATTMODE
 70
     1
  9
$TEXTSIZE
 40
0.2
  9
$TRACEWID
 40
0.05
  9
$TEXTSTYLE
  7
Standard
  9
$CLAYER
  8
0
  9
$CELTYPE
  6
Continuous
  9
$CECOLOR
 62
   256
  9
$CELTSCALE
 40
1.0
  9
$DISPSILH
 70
     0
  9
$DIMSCALE
 40
1.0
  9
$DIMASZ
 40
0.18
  9
$DIMEXO
 40
0.0625
  9
$DIMDLI
 40
0.38
  9
$DIMRND
 40
0.0
  9
$DIMDLE
 40
0.0
  9
$DIMEXE
 40
0.18
  9
$DIMTP
 40
0.0
  9
$DIMTM
 40
0.0
  9
$DIMTXT
 40
0.18
  9
$DIMCEN
 40
0.09
  9
$DIMTSZ
 40
0.0
  9
$DIMTOL
 70
     0
  9
$DIMLIM
 70
     0
  9
$DIMTIH
 70
     1
  9
$DIMTOH
 70
     1
  9
$DIMSE1
 70
     0
  9
$DIMSE2
 70
     0
  9
$DIMTAD
 70
     0
  9
$DIMZIN
 70
     0
  9
$DIMBLK
  1

  9
$DIMASO
 70
     1
  9
$DIMSHO
 70
     1
  9
$DIMPOST
  1

  9
$DIMAPOST
  1

  9
$DIMALT
 70
     0
  9
$DIMALTD
 70
     2
  9
$DIMALTF
 40
25.4
  9
$DIMLFAC
 40
1.0
  9
$DIMTOFL
 70
     0
  9
$DIMTVP
 40
0.0
  9
$DIMTIX
 70
     0
  9
$DIMSOXD
 70
     0
  9
$DIMSAH
 70
     0
  9
$DIMBLK1
  1

  9
$DIMBLK2
  1

  9
$DIMSTYLE
  2
Standard
  9
$DIMCLRD
 70
     0
  9
$DIMCLRE
 70
     0
  9
$DIMCLRT
 70
     0
  9
$DIMTFAC
 40
1.0
  9
$DIMGAP
 40
0.09
  9
$DIMJUST
 70
     0
  9
$DIMSD1
 70
     0
  9
$DIMSD2
 70
     0
  9
$DIMTOLJ
 70
     1
  9
$DIMTZIN
 70
     0
  9
$DIMALTZ
 70
     0
  9
$DIMALTTZ
 70
     0
  9
$DIMUPT
 70
     0
  9
$DIMDEC
 70
     4
  9
$DIMTDEC
 70
     4
  9
$DIMALTU
 70
     2
  9
$DIMALTTD
 70
     2
  9
$DIMTXSTY
  7
Standard
  9
$DIMAUNIT
 70
     0
  9
$DIMADEC
 70
     0
  9
$DIMALTRND
 40
0.0
  9
$DIMAZIN
 70
     0
  9
$DIMDSEP
 70
     0
  9
$DIMATFIT
 70
     3
  9
$DIMFRAC
 70
     0
  9
$DIMLDRBLK
  1

  9
$DIMLUNIT
 70
     2
  9
$DIMLWD
 70
     0
  9
$DIMLWE
 70
     0
  9
$DIMTMOVE
 70
     0
  9
$LUNITS
 70
     2
  9
$LUPREC
 70
     4
  9
$SKETCHINC
 40
0.1
  9
$FILLETRAD
 40
0.0
  9
$AUNITS
 70
     0
  9
$AUPREC
 70
     0
  9
$MENU
  1
acad
  9
$ELEVATION
 40
0.0
  9
$PELEVATION
 40
0.0
  9
$THICKNESS
 40
0.0
  9
$LIMCHECK
 70
     0
  9
$CHAMFERA
 40
0.0
  9
$CHAMFERB
 40
0.0
  9
$CHAMFERC
 40
0.0
  9
$CHAMFERD
 40
0.0
  9
$SKPOLY
 70
     0
  9
$TDCREATE
 40
0.000000000
  9
$TDUCREATE
 40
0.000000000
  9
$TDUPDATE
 40
0.000000000
  9
$TDUUPDATE
 40
0.000000000
  9
$TDINDWG
 40
0.0000000000
  9
$TDUSRTIMER
 40
0.0000000000
  9
$USRTIMER
 70
     1
  9
$ANGBASE
 50
0.0
  9
$ANGDIR
 70
     0
  9
$PDMODE
 70
     0
  9
$PDSIZE
 40
0.0
  9
$PLINEWID
 40
0.0
  9
$SPLFRAME
 70
     0
  9
$SPLINETYPE
 70
     6
  9
$SPLINESEGS
 70
     8
  9
$HANDSEED
  5
72
  9
$SURFTAB1
 70
     6
  9
$SURFTAB2
 70
     6
  9
$SURFTYPE
 70
     6
  9
$SURFU
 70
     6
  9
$SURFV
 70
     6
  9
$UCSBASE
  2

  9
$UCSNAME
  2

  9
$UCSORG
 10
0.0
 20
0.0
 30
0.0
  9
$UCSXDIR
 10
1.0
 20
0.0
 30
0.0
  9
$UCSYDIR
 10
0.0
 20
1.0
 30
0.0
  9
$UCSORTHOREF
  2

  9
$UCSORTHOVIEW
 70
     0
  9
$UCSORGTOP
 10
0.0
 20
0.0
 30
0.0
  9
$UCSORGBOTTOM
 10
0.0
 20
0.0
 30
0.0
  9
$UCSORGLEFT
 10
0.0
 20
0.0
 30
0.0
  9
$UCSORGRIGHT
 10
0.0
 20
0.0
 30
0.0
  9
$UCSORGFRONT
 10
0.0
 20
0.0
 30
0.0
  9
$UCSORGBACK
 10
0.0
 20
0.0
 30
0.0
  9
$PUCSBASE
  2

  9
$PUCSNAME
  2

  9
$PUCSORG
 10
0.0
 20
0.0
 30
0.0
  9
$PUCSXDIR
 10
1.0
 20
0.0
 30
0.0
  9
$PUCSYDIR
 10
0.0
 20
1.0
 30
0.0
  9
$PUCSORTHOREF
  2

  9
$PUCSORTHOVIEW
 70
     0
  9
$PUCSORGTOP
 10
0.0
 20
0.0
 30
0.0
  9
$PUCSORGBOTTOM
 10
0.0
 20
0.0
 30
0.0
  9
$PUCSORGLEFT
 10
0.0
 20
0.0
 30
0.0
  9
$PUCSORGRIGHT
 10
0.0
 20
0.0
 30
0.0
  9
$PUCSORGFRONT
 10
0.0
 20
0.0
 30
0.0
  9
$PUCSORGBACK
 10
0.0
 20
0.0
 30
0.0
  9
$USERI1
 70
     0
  9
$USERI2
 70
     0
  9
$USERI3
 70
     0
  9
$USERI4
 70
     0
  9
$USERI5
 70
     0
  9
$USERR1
 40
0.0
  9
$USERR2
 40
0.0
  9
$USERR3
 40
0.0
  9
$USERR4
 40
0.0
  9
$USERR5
 40
0.0
  9
$WORLDVIEW
 70
     1
  9
$SHADEDGE
 70
     3
  9
$SHADEDIF
 70
    70
  9
$TILEMODE
 70
     1
  9
$MAXACTVP
 70
    16
  9
$PINSBASE
 10
0.0
 20
0.0
 30
0.0
  9
$PLIMCHECK
 70
     0
  9
$PEXTMIN
 10
1.000000E+20
 20
1.000000E+20
 30
1.000000E+20
  9
$PEXTMAX
 10
-1.000000E+20
 20
-1.000000E+20
 30
-1.000000E+20
  9
$PLIMMIN
 10
0.0
 20
0.0
  9
$PLIMMAX
 10
12.0
 20
9.0
  9
$UNITMODE
 70
     0
  9
$VISRETAIN
 70
     0
  9
$PLINEGEN
 70
     1
  9
$PSLTSCALE
 70
     0
  9
$TREEDEPTH
 70
  3020
  9
$CMLSTYLE
  2
Standard
  9
$CMLJUST
 70
     0
  9
$CMLSCALE
 40
1.0
  9
$PROXYGRAPHICS
 70
     0
  9
$MEASUREMENT
 70
     0
  9
$CELWEIGHT
370
     0
  9
$ENDCAPS
280
     0
  9
$JOINSTYLE
280
     0
  9
$LWDISPLAY
290
     0
  9
$INSUNITS
 70
     5
  9
$HYPERLINKBASE
  1

  9
$XEDIT
290
     1
  9
$CEPSNTYPE
380
     0
  9
$PSTYLEMODE
290
     1
  9
$FINGERPRINTGUID
  2

  9
$VERSIONGUID
  2

  9
$EXTNAMES
290
     1
  9
$PSVPSCALE
 40
0.0
  0
ENDSEC
  0
SECTION
  2
CLASSES
  0
CLASS
  1
LWPOLYLINE
  2
AcDbPolyline
  3
AutoCAD 2000
 90
    32768
280
     0
281
     1
  0
CLASS
  1
IMAGE
  2
AcDbRasterImage
  3
ISM
 90
    32895
280
     0
281
     1
  0
CLASS
  1
OLE2FRAME
  2
AcDbOle2Frame
  3
AutoCAD 2000
 90
    32768
280
     0
281
     1
  0
CLASS
  1
HATCH
  2
AcDbHatch
  3
AutoCAD 2000
 90
    32768
280
     0
281
     1
  0
CLASS
  1
DICTIONARYVAR
  2
AcDbDictionaryVar
  3
AutoCAD 2000
 90
    32768
280
     0
281
     0
  0
CLASS
  1
RASTERVARIABLES
  2
AcDbRasterVariables
  3
ISM
 90
    32768
280
     0
281
     0
  0
CLASS
  1
IMAGEDEF
  2
AcDbRasterImageDef
  3
ISM
 90
    32768
280
     0
281
     0
  0
CLASS
  1
IMAGEDEF_REACTOR
  2
AcDbRasterImageDefReactor
  3
ISM
 90
    32769
280
     0
281
     0
  0
CLASS
  1
IDBUFFER
  2
AcDbIdBuffer
  3
AutoCAD 2000
 90
    32768
280
     0
281
     0
  0
CLASS
  1
SPATIAL_FILTER
  2
AcDbSpatialFilter
  3
AutoCAD 2000
 90
    32768
280
     0
281
     0
  0
CLASS
  1
XRECORD
  2
AcDbXrecord
  3
AutoCAD 2000
 90
    32768
280
     0
281
     0
  0
CLASS
  1
SORTENTSTABLE
  2
AcDbSortentsTable
  3
AutoCAD 2000
 90
    32768
280
     0
281
     0
  0
CLASS
  1
LAYER_INDEX
  2
AcDbLayerIndex
  3
AutoCAD 2000
 90
    32768
280
     0
281
     0
  0
CLASS
  1
SPATIAL_INDEX
  2
AcDbSpatialIndex
  3
AutoCAD 2000
 90
    32768
280
     0
281
     0
  0
CLASS
  1
OBJECT_PTR
  2
CAseDLPNTableRecord
  3
"ASE-LPNTableRecord"
 90
    32769
280
     0
281
     0
  0
CLASS
  1
LAYOUT
  2
AcDbLayout
  3
AutoCAD 2000
 90
        0
280
     0
281
     0
  0
CLASS
  1
PLOTSETTINGS
  2
AcDbPlotSettings
  3
AutoCAD 2000
 90
    32768
280
     0
281
     0
  0
CLASS
  1
ACDBDICTIONARYWDFLT
  2
AcDbDictionaryWithDefault
  3
AutoCAD 2000
 90
        0
280
     0
281
     0
  0
CLASS
  1
ACDBPLACEHOLDER
  2
AcDbPlaceHolder
  3
AutoCAD 2000
 90
        0
280
     0
281
     0
  0
CLASS
  1
VBA_PROJECT
  2
AcDbVbaProject
  3
acadvba
 90
    32768
280
     0
281
     0
  0
CLASS
  1
WIPEOUT
  2
AcDbWipeout
  3
WipeOut|AutoCAD Express Tool|expresstools@autodesk.com
 90
    32895
280
     0
281
     1
  0
CLASS
  1
WIPEOUTVARIABLES
  2
AcDbWipeoutVariables
  3
WipeOut|AutoCAD Express Tool|expresstools@autodesk.com
 90
        0
280
     0
281
     0
  0
CLASS
  1
RTEXT
  2
RText
  3
RText|AutoCAD Express Tool|expresstools@autodesk.com
 90
    32768
280
     0
281
     1
  0
CLASS
  1
ARCALIGNEDTEXT
  2
AcDbArcAlignedText
  3
ATEXT|AutoCAD Express Tool|expresstools@autodesk.com
 90
    32768
280
     0
281
     1
  0
ENDSEC
  0
SECTION
  2
TABLES
  0
TABLE
  2
VPORT
  5
7
100
AcDbSymbolTable
 70
     1
  0
VPORT
  5
15
100
AcDbSymbolTableRecord
100
AcDbViewportTableRecord
  2
*ACTIVE
 70
     0
 10
0.0
 20
0.0
 11
1.0
 21
1.0
 12
6.591288
 22
4.579184
 13
0.0
 23
0.0
 14
1.0
 24
1.0
 15
0.0
 25
0.0
 16
0.0
 26
0.0
 36
1.0
 17
0.0
 27
0.0
 37
0.0
 40
9.158369
 41
0.688564
 42
50.0
 43
0.0
 44
0.0
 50
0.0
 51
0.0
 71
     0
 72
   100
 73
     1
 74
     1
 75
     0
 76
     0
 77
     0
 78
     0
281
     0
 65
     0
110
0.0
120
0.0
130
0.0
111
1.0
121
0.0
131
0.0
112
0.0
122
1.0
132
0.0
345
0
346
0
 79
     0
146
0.0
  0
ENDTAB
  0
TABLE
  2
LTYPE
  5
4
100
AcDbSymbolTable
 70
     3
  0
LTYPE
  5
11
100
AcDbSymbolTableRecord
100
AcDbLinetypeTableRecord
  2
ByBlock
 70
    64
  3

 72
    65
 73
     0
 40
0.0
  0
LTYPE
  5
12
100
AcDbSymbolTableRecord
100
AcDbLinetypeTableRecord
  2
ByLayer
 70
    64
  3

 72
    65
 73
     0
 40
0.0
  0
LTYPE
  5
13
100
AcDbSymbolTableRecord
100
AcDbLinetypeTableRecord
  2
Continuous
 70
    64
  3
Solid line
 72
    65
 73
     0
 40
0.0
  0
ENDTAB
  0
TABLE
  2
LAYER
  5
2
100
AcDbSymbolTable
 70
     2
  0
LAYER
  5
14
100
AcDbSymbolTableRecord
100
AcDbLayerTableRecord
  2
0
 70
     0
 62
     7
  6
Continuous
290
     1
370
    -3
390
1D
  0
LAYER
  5
24
100
AcDbSymbolTableRecord
100
AcDbLayerTableRecord
  2
Ebene 1
 70
     0
 62
     7
  6
Continuous
290
     1
370
    -3
390
1F
  0
ENDTAB
  0
TABLE
  2
STYLE
  5
3
100
AcDbSymbolTable
 70
     1
  0
STYLE
  5
17
100
AcDbSymbolTableRecord
100
AcDbTextStyleTableRecord
  2
Standard
 70
     0
 40
0.0
 41
1.0
 50
0.0
 71
     0
 42
0.0
  3
txt
  4

  0
ENDTAB
  0
TABLE
  2
VIEW
  5
5
100
AcDbSymbolTable
 70
     0
  0
ENDTAB
  0
TABLE
  2
UCS
  5
6
100
AcDbSymbolTable
 70
     0
  0
ENDTAB
  0
TABLE
  2
APPID
  5
8
100
AcDbSymbolTable
 70
     1
  0
APPID
  5
16
100
AcDbSymbolTableRecord
100
AcDbRegAppTableRecord
  2
ACAD
 70
     0
  0
ENDTAB
  0
TABLE
  2
DIMSTYLE
  5
9
100
AcDbSymbolTable
 70
     1
100
AcDbDimStyleTable
 71
     0
  0
DIMSTYLE
105
18
100
AcDbSymbolTableRecord
100
AcDbDimStyleTableRecord
  2
Standard
 70
     0
  3

  4

 40
1.0
 41
0.18
 42
0.0625
 43
0.38
 44
0.18
 45
0.0
 46
0.0
 47
0.0
 48
0.0
 71
     0
 72
     0
 73
     1
 74
     1
 75
     0
 76
     0
 77
     0
 78
     0
 79
     0
140
0.18
141
0.09
142
0.0
143
25.4
144
1.0
145
0.0
146
1.0
147
0.09
148
0.0
170
     0
171
     2
172
     0
173
     0
174
     0
175
     0
176
     0
177
     0
178
     0
179
     0
271
     4
272
     4
273
     2
274
     2
275
     0
276
     0
277
     2
278
    46
279
     0
280
     0
281
     0
282
     0
283
     1
284
     0
285
     0
286
     0
288
     0
340
17
341
0
342
0
343
0
344
0
371
    -2
372
    -2
  0
ENDTAB
  0
TABLE
  2
BLOCK_RECORD
  5
1
100
AcDbSymbolTable
 70
     0
  0
BLOCK_RECORD
  5
A
100
AcDbSymbolTableRecord
100
AcDbBlockTableRecord
  2
*MODEL_SPACE
340
20
  0
BLOCK_RECORD
  5
B
100
AcDbSymbolTableRecord
100
AcDbBlockTableRecord
  2
*PAPER_SPACE
340
21
  0
ENDTAB
  0
ENDSEC
  0
SECTION
  2
BLOCKS
  0
BLOCK
  5
D
100
AcDbEntity
  8
0
100
AcDbBlockBegin
  2
*MODEL_SPACE
 70
     0
 10
0.0
 20
0.0
 30
0.0
  3
*MODEL_SPACE
  1

  0
ENDBLK
  5
E
100
AcDbEntity
  8
0
100
AcDbBlockEnd
  0
BLOCK
  5
F
100
AcDbEntity
 67
     1
  8
0
100
AcDbBlockBegin
  2
*PAPER_SPACE
 70
     0
 10
0.0
 20
0.0
 30
0.0
  3
*PAPER_SPACE
  1

  0
ENDBLK
  5
10
100
AcDbEntity
 67
     1
  8
0
100
AcDbBlockEnd
  0
ENDSEC
  0
SECTION
  2
ENTITIES
  0
SPLINE
  5
25
100
AcDbEntity
  8
Ebene 1
100
AcDbSpline
210
0.0
220
0.0
230
1.0
 70
     1
 71
     3
 72
   172
 73
   168
 74
     0
 42
0.0000000001
 43
0.0000000001
 40
0.0
 40
0.0
 40
0.0
 40
0.0
 40
0.0238095238095238
 40
0.0238095238095238
 40
0.0238095238095238
 40
0.0238095238095238
 40
0.0476190476190476
 40
0.0476190476190476
 40
0.0476190476190476
 40
0.0476190476190476
 40
0.0714285714285714
 40
0.0714285714285714
 40
0.0714285714285714
 40
0.0714285714285714
 40
0.0952380952380952
 40
0.0952380952380952
 40
0.0952380952380952
 40
0.0952380952380952
 40
0.119047619047619
 40
0.119047619047619
 40
0.119047619047619
 40
0.119047619047619
 40
0.1428571428571429
 40
0.1428571428571429
 40
0.1428571428571429
 40
0.1428571428571429
 40
0.1666666666666667
 40
0.1666666666666667
 40
0.1666666666666667
 40
0.1666666666666667
 40
0.1904761904761905
 40
0.1904761904761905
 40
0.1904761904761905
 40
0.1904761904761905
 40
0.2142857142857143
 40
0.2142857142857143
 40
0.2142857142857143
 40
0.2142857142857143
 40
0.2380952380952381
 40
0.2380952380952381
 40
0.2380952380952381
 40
0.2380952380952381
 40
0.2619047619047619
 40
0.2619047619047619
 40
0.2619047619047619
 40
0.2619047619047619
 40
0.2857142857142857
 40
0.2857142857142857
 40
0.2857142857142857
 40
0.2857142857142857
 40
0.3095238095238095
 40
0.3095238095238095
 40
0.3095238095238095
 40
0.3095238095238095
 40
0.3333333333333334
 40
0.3333333333333334
 40
0.3333333333333334
 40
0.3333333333333334
 40
0.3571428571428572
 40
0.3571428571428572
 40
0.3571428571428572
 40
0.3571428571428572
 40
0.380952380952381
 40
0.380952380952381
 40
0.380952380952381
 40
0.380952380952381
 40
0.4047619047619049
 40
0.4047619047619049
 40
0.4047619047619049
 40
0.4047619047619049
 40
0.4285714285714287
 40
0.4285714285714287
 40
0.4285714285714287
 40
0.4285714285714287
 40
0.4523809523809526
 40
0.4523809523809526
 40
0.4523809523809526
 40
0.4523809523809526
 40
0.4761904761904764
 40
0.4761904761904764
 40
0.4761904761904764
 40
0.4761904761904764
 40
0.5000000000000002
 40
0.5000000000000002
 40
0.5000000000000002
 40
0.5000000000000002
 40
0.5238095238095241
 40
0.5238095238095241
 40
0.5238095238095241
 40
0.5238095238095241
 40
0.5476190476190479
 40
0.5476190476190479
 40
0.5476190476190479
 40
0.5476190476190479
 40
0.5714285714285717
 40
0.5714285714285717
 40
0.5714285714285717
 40
0.5714285714285717
 40
0.5952380952380956
 40
0.5952380952380956
 40
0.5952380952380956
 40
0.5952380952380956
 40
0.6190476190476194
 40
0.6190476190476194
 40
0.6190476190476194
 40
0.6190476190476194
 40
0.6428571428571432
 40
0.6428571428571432
 40
0.6428571428571432
 40
0.6428571428571432
 40
0.6666666666666671
 40
0.6666666666666671
 40
0.6666666666666671
 40
0.6666666666666671
 40
0.6904761904761909
 40
0.6904761904761909
 40
0.6904761904761909
 40
0.6904761904761909
 40
0.7142857142857148
 40
0.7142857142857148
 40
0.7142857142857148
 40
0.7142857142857148
 40
0.7380952380952386
 40
0.7380952380952386
 40
0.7380952380952386
 40
0.7380952380952386
 40
0.7619047619047624
 40
0.7619047619047624
 40
0.7619047619047624
 40
0.7619047619047624
 40
0.7857142857142863
 40
0.7857142857142863
 40
0.7857142857142863
 40
0.7857142857142863
 40
0.8095238095238101
 40
0.8095238095238101
 40
0.8095238095238101
 40
0.8095238095238101
 40
0.8333333333333339
 40
0.8333333333333339
 40
0.8333333333333339
 40
0.8333333333333339
 40
0.8571428571428578
 40
0.8571428571428578
 40
0.8571428571428578
 40
0.8571428571428578
 40
0.8809523809523816
 40
0.8809523809523816
 40
0.8809523809523816
 40
0.8809523809523816
 40
0.9047619047619054
 40
0.9047619047619054
 40
0.9047619047619054
 40
0.9047619047619054
 40
0.9285714285714293
 40
0.9285714285714293
 40
0.9285714285714293
 40
0.9285714285714293
 40
0.9523809523809531
 40
0.9523809523809531
 40
0.9523809523809531
 40
0.9523809523809531
 40
0.9761904761904769
 40
0.9761904761904769
 40
0.9761904761904769
 40
0.9761904761904769
 40
1.0
 40
1.0
 40
1.0
 40
1.0
 10
-0.12685
 20
6.1944900000000009
 30
0.0
 10
1.27014
 20
6.7812300000000008
 30
0.0
 10
1.8137000000000001
 20
5.7703100000000003
 30
0.0
 10
2.4563200000000003
 20
5.5467900000000006
 30
0.0
 10
2.4563200000000003
 20
5.5467900000000006
 30
0.0
 10
2.7865200000000003
 20
4.92957
 30
0.0
 10
3.0278200000000002
 20
4.2666300000000001
 30
0.0
 10
3.0811600000000001
 20
3.5884500000000004
 30
0.0
 10
3.0811600000000001
 20
3.5884500000000004
 30
0.0
 10
3.1345000000000001
 20
2.9051900000000002
 30
0.0
 10
3.2792800000000004
 20
2.6918300000000004
 30
0.0
 10
2.7484200000000003
 20
1.4726300000000001
 30
0.0
 10
2.7484200000000003
 20
1.4726300000000001
 30
0.0
 10
2.63666
 20
1.2186300000000001
 30
0.0
 10
2.9389200000000004
 20
1.0586100000000001
 30
0.0
 10
2.9236800000000001
 20
0.7106300000000001
 30
0.0
 10
2.9236800000000001
 20
0.7106300000000001
 30
0.0
 10
2.7001600000000003
 20
0.37281
 30
0.0
 10
2.5503
 20
0.10103
 30
0.0
 10
2.3953600000000002
 20
-0.2952
 30
0.0
 10
2.3953600000000002
 20
-0.2952
 30
0.0
 10
2.3953600000000002
 20
-0.2952
 30
0.0
 10
2.5553800000000004
 20
-0.5847600000000001
 30
0.0
 10
2.5553800000000004
 20
-0.5847600000000001
 30
0.0
 10
2.5553800000000004
 20
-0.5847600000000001
 30
0.0
 10
2.4563200000000003
 20
-2.5532600000000003
 30
0.0
 10
2.5807800000000003
 20
-4.4430200000000006
 30
0.0
 10
2.3140800000000001
 20
-6.3810400000000005
 30
0.0
 10
2.3140800000000001
 20
-6.3810400000000005
 30
0.0
 10
2.1413600000000002
 20
-6.3658000000000001
 30
0.0
 10
2.37758
 20
-5.8755800000000002
 30
0.0
 10
2.1845400000000001
 20
-5.8120800000000008
 30
0.0
 10
2.1845400000000001
 20
-5.8120800000000008
 30
0.0
 10
1.9178400000000002
 20
-5.7816000000000001
 30
0.0
 10
2.2759800000000001
 20
-6.2362600000000006
 30
0.0
 10
2.0600800000000001
 20
-6.2540400000000007
 30
0.0
 10
2.0600800000000001
 20
-6.2540400000000007
 30
0.0
 10
1.8772000000000002
 20
-4.8748200000000006
 30
0.0
 10
1.9508600000000003
 20
-3.5159200000000004
 30
0.0
 10
1.9762600000000001
 20
-2.1367000000000003
 30
0.0
 10
1.9762600000000001
 20
-2.1367000000000003
 30
0.0
 10
2.0067400000000002
 20
-2.0732000000000004
 30
0.0
 10
2.0245200000000003
 20
-1.9919200000000001
 30
0.0
 10
1.9635600000000002
 20
-1.9462000000000002
 30
0.0
 10
1.9635600000000002
 20
-1.9462000000000002
 30
0.0
 10
1.9635600000000002
 20
-1.9462000000000002
 30
0.0
 10
1.3438000000000001
 20
-2.39324
 30
0.0
 10
1.3438000000000001
 20
-2.39324
 30
0.0
 10
1.3438000000000001
 20
-2.39324
 30
0.0
 10
1.3488800000000001
 20
-2.5862800000000004
 30
0.0
 10
1.36158
 20
-2.7818600000000004
 30
0.0
 10
1.23712
 20
-3.03078
 30
0.0
 10
1.23712
 20
-3.03078
 30
0.0
 10
1.4784200000000001
 20
-3.2568400000000004
 30
0.0
 10
1.5546200000000001
 20
-3.4727400000000004
 30
0.0
 10
1.4555600000000002
 20
-3.7242000000000002
 30
0.0
 10
1.4555600000000002
 20
-3.7242000000000002
 30
0.0
 10
1.5800200000000002
 20
-3.9502600000000001
 30
0.0
 10
1.5647800000000001
 20
-4.1661600000000005
 30
0.0
 10
1.4987400000000002
 20
-4.3795200000000003
 30
0.0
 10
1.4987400000000002
 20
-4.3795200000000003
 30
0.0
 10
1.65622
 20
-4.6741600000000005
 30
0.0
 10
1.6257400000000002
 20
-5.02468
 30
0.0
 10
1.5444600000000002
 20
-5.2913800000000002
 30
0.0
 10
1.5444600000000002
 20
-5.2913800000000002
 30
0.0
 10
1.4149200000000002
 20
-5.3396400000000002
 30
0.0
 10
1.3031600000000001
 20
-5.1948600000000003
 30
0.0
 10
1.3031600000000001
 20
-5.0831000000000008
 30
0.0
 10
1.3031600000000001
 20
-5.0831000000000008
 30
0.0
 10
1.23712
 20
-5.1008800000000001
 30
0.0
 10
1.18632
 20
-5.3015400000000001
 30
0.0
 10
1.0542400000000001
 20
-5.2532800000000002
 30
0.0
 10
1.0542400000000001
 20
-5.2532800000000002
 30
0.0
 10
0.9374000000000001
 20
-4.9992800000000006
 30
0.0
 10
0.7697600000000001
 20
-4.8164000000000007
 30
0.0
 10
0.9780400000000001
 20
-4.4836600000000004
 30
0.0
 10
0.9780400000000001
 20
-4.4836600000000004
 30
0.0
 10
0.7977000000000001
 20
-4.13314
 30
0.0
 10
0.88914
 20
-3.8842200000000005
 30
0.0
 10
1.01868
 20
-3.6048200000000001
 30
0.0
 10
1.01868
 20
-3.6048200000000001
 30
0.0
 10
0.8129400000000001
 20
-3.3990800000000001
 30
0.0
 10
0.7494400000000001
 20
-3.0638000000000001
 30
0.0
 10
0.7748400000000001
 20
-2.7793200000000002
 30
0.0
 10
0.7748400000000001
 20
-2.7793200000000002
 30
0.0
 10
0.23128
 20
-3.1146000000000003
 30
0.0
 10
-0.74153
 20
-3.2111200000000002
 30
0.0
 10
-1.1885700000000001
 20
-2.6828000000000003
 30
0.0
 10
-1.1885700000000001
 20
-2.6828000000000003
 30
0.0
 10
-1.12507
 20
-3.1933400000000001
 30
0.0
 10
-1.4273300000000002
 20
-3.4829000000000003
 30
0.0
 10
-1.4755900000000002
 20
-2.8733000000000004
 30
0.0
 10
-1.4755900000000002
 20
-2.8733000000000004
 30
0.0
 10
-1.5619500000000002
 20
-2.9850600000000003
 30
0.0
 10
-1.4908300000000001
 20
-3.1781000000000001
 30
0.0
 10
-1.54417
 20
-3.3076400000000001
 30
0.0
 10
-1.54417
 20
-3.3076400000000001
 30
0.0
 10
-1.8388100000000001
 20
-2.8275800000000002
 30
0.0
 10
-1.33843
 20
-1.8496800000000002
 30
0.0
 10
-2.1766300000000003
 20
-1.62616
 30
0.0
 10
-2.1766300000000003
 20
-1.62616
 30
0.0
 10
-2.31887
 20
-2.0732000000000004
 30
0.0
 10
-1.9531100000000001
 20
-2.4034
 30
0.0
 10
-2.3417300000000001
 20
-3.0079200000000004
 30
0.0
 10
-2.3417300000000001
 20
-3.0079200000000004
 30
0.0
 10
-2.1486900000000002
 20
-3.5260800000000003
 30
0.0
 10
-2.18933
 20
-3.6886400000000004
 30
0.0
 10
-2.23251
 20
-3.9934400000000005
 30
0.0
 10
-2.23251
 20
-3.9934400000000005
 30
0.0
 10
-2.2883900000000001
 20
-4.0594800000000006
 30
0.0
 10
-2.3823700000000003
 20
-4.0594800000000006
 30
0.0
 10
-2.4636500000000003
 20
-4.0594800000000006
 30
0.0
 10
-2.4636500000000003
 20
-4.0594800000000006
 30
0.0
 10
-2.48651
 20
-3.9147000000000003
 30
0.0
 10
-2.36205
 20
-3.5946600000000002
 30
0.0
 10
-2.6084300000000002
 20
-3.6429200000000002
 30
0.0
 10
-2.6084300000000002
 20
-3.6429200000000002
 30
0.0
 10
-2.7024100000000004
 20
-3.8029400000000004
 30
0.0
 10
-2.61097
 20
-4.1712400000000001
 30
0.0
 10
-2.8827500000000001
 20
-4.1229800000000001
 30
0.0
 10
-2.8827500000000001
 20
-4.1229800000000001
 30
0.0
 10
-2.8929100000000001
 20
-3.9375600000000004
 30
0.0
 10
-2.8852900000000004
 20
-3.6784800000000004
 30
0.0
 10
-2.7684500000000001
 20
-3.5438600000000005
 30
0.0
 10
-2.7684500000000001
 20
-3.5438600000000005
 30
0.0
 10
-3.0503900000000002
 20
-3.0815800000000002
 30
0.0
 10
-2.8446500000000001
 20
-2.7031200000000002
 30
0.0
 10
-2.6617700000000002
 20
-2.3678400000000002
 30
0.0
 10
-2.6617700000000002
 20
-2.3678400000000002
 30
0.0
 10
-3.0681700000000003
 20
-1.5677400000000001
 30
0.0
 10
-2.7989300000000004
 20
-1.29088
 30
0.0
 10
-2.56779
 20
-0.9784600000000001
 30
0.0
 10
-2.56779
 20
-0.9784600000000001
 30
0.0
 10
-2.8751300000000004
 20
-0.26726
 30
0.0
 10
-2.7328900000000003
 20
0.15437
 30
0.0
 10
-2.4204700000000003
 20
0.37281
 30
0.0
 10
-2.4204700000000003
 20
0.37281
 30
0.0
 10
-2.48651
 20
0.5658500000000001
 30
0.0
 10
-2.8471900000000003
 20
0.59379
 30
0.0
 10
-2.9614900000000004
 20
0.7385700000000001
 30
0.0
 10
-2.9614900000000004
 20
0.7385700000000001
 30
0.0
 10
-2.9716500000000003
 20
0.9163700000000001
 30
0.0
 10
-2.7328900000000003
 20
1.1678300000000001
 30
0.0
 10
-2.7557500000000004
 20
1.35833
 30
0.0
 10
-2.7557500000000004
 20
1.35833
 30
0.0
 10
-2.7938500000000004
 20
1.6732900000000002
 30
0.0
 10
-3.2154900000000004
 20
1.5666100000000001
 30
0.0
 10
-3.1189700000000005
 20
2.1660500000000003
 30
0.0
 10
-3.1189700000000005
 20
2.1660500000000003
 30
0.0
 10
-2.9538700000000002
 20
3.2023700000000002
 30
0.0
 10
-3.2154900000000004
 20
3.5351100000000004
 30
0.0
 10
-3.0935700000000002
 20
4.1574100000000005
 30
0.0
 10
-3.0935700000000002
 20
4.1574100000000005
 30
0.0
 10
-2.9716500000000003
 20
4.7619300000000004
 30
0.0
 10
-2.5703300000000002
 20
5.2572300000000007
 30
0.0
 10
-1.9912100000000001
 20
5.6585500000000009
 30
0.0
 10
-1.9912100000000001
 20
5.6585500000000009
 30
0.0
 10
-2.0242300000000002
 20
5.8185700000000002
 30
0.0
 10
-2.0470900000000003
 20
5.9938300000000009
 30
0.0
 10
-1.9200900000000001
 20
6.1233700000000004
 30
0.0
 10
-1.9200900000000001
 20
6.1233700000000004
 30
0.0
 10
-1.7600700000000002
 20
6.2503700000000002
 30
0.0
 10
-1.5797300000000001
 20
6.0751100000000005
 30
0.0
 10
-1.5086100000000002
 20
5.9303300000000005
 30
0.0
 10
-1.5086100000000002
 20
5.9303300000000005
 30
0.0
 10
-0.9269500000000001
 20
6.3621300000000005
 30
0.0
 10
-0.7745500000000001
 20
6.3062500000000004
 30
0.0
 10
-0.12685
 20
6.1944900000000009
 30
0.0
  0
SPLINE
  5
26
100
AcDbEntity
  8
Ebene 1
100
AcDbSpline
210
0.0
220
0.0
230
1.0
 70
     1
 71
     3
 72
    12
 73
     8
 74
     0
 42
0.0000000001
 43
0.0000000001
 40
0.0
 40
0.0
 40
0.0
 40
0.0
 40
0.5
 40
0.5
 40
0.5
 40
0.5
 40
1.0
 40
1.0
 40
1.0
 40
1.0
 10
2.17184
 20
-5.2278800000000007
 30
0.0
 10
2.04738
 20
-5.3396400000000002
 30
0.0
 10
2.0626200000000003
 20
-5.6596800000000007
 30
0.0
 10
2.2963
 20
-5.5479200000000004
 30
0.0
 10
2.2963
 20
-5.5479200000000004
 30
0.0
 10
2.3318600000000003
 20
-5.4361600000000001
 30
0.0
 10
2.3572600000000001
 20
-5.1796200000000008
 30
0.0
 10
2.17184
 20
-5.2278800000000007
 30
0.0
  0
SPLINE
  5
27
100
AcDbEntity
  8
Ebene 1
100
AcDbSpline
210
0.0
220
0.0
230
1.0
 70
     1
 71
     3
 72
    16
 73
    12
 74
     0
 42
0.0000000001
 43
0.0000000001
 40
0.0
 40
0.0
 40
0.0
 40
0.0
 40
0.3333333333333333
 40
0.3333333333333333
 40
0.3333333333333333
 40
0.3333333333333333
 40
0.6666666666666666
 40
0.6666666666666666
 40
0.6666666666666666
 40
0.6666666666666666
 40
1.0
 40
1.0
 40
1.0
 40
1.0
 10
2.1566000000000001
 20
-4.6843200000000005
 30
0.0
 10
2.1083400000000001
 20
-4.8113200000000003
 30
0.0
 10
2.1134200000000001
 20
-4.9891200000000007
 30
0.0
 10
2.2963
 20
-4.9561000000000002
 30
0.0
 10
2.2963
 20
-4.9561000000000002
 30
0.0
 10
2.3648800000000003
 20
-4.8748200000000006
 30
0.0
 10
2.3623400000000001
 20
-4.6208200000000001
 30
0.0
 10
2.2023200000000003
 20
-4.69956
 30
0.0
 10
2.2023200000000003
 20
-4.69956
 30
0.0
 10
2.2023200000000003
 20
-4.69956
 30
0.0
 10
2.1566000000000001
 20
-4.6843200000000005
 30
0.0
 10
2.1566000000000001
 20
-4.6843200000000005
 30
0.0
  0
SPLINE
  5
28
100
AcDbEntity
  8
Ebene 1
100
AcDbSpline
210
0.0
220
0.0
230
1.0
 70
     1
 71
     3
 72
    12
 73
     8
 74
     0
 42
0.0000000001
 43
0.0000000001
 40
0.0
 40
0.0
 40
0.0
 40
0.0
 40
0.5
 40
0.5
 40
0.5
 40
0.5
 40
1.0
 40
1.0
 40
1.0
 40
1.0
 10
2.12358
 20
-4.0264600000000002
 30
0.0
 10
2.0270600000000001
 20
-4.1560000000000006
 30
0.0
 10
2.0651600000000001
 20
-4.4912800000000006
 30
0.0
 10
2.2963
 20
-4.4125400000000008
 30
0.0
 10
2.2963
 20
-4.4125400000000008
 30
0.0
 10
2.3648800000000003
 20
-4.26776
 30
0.0
 10
2.37758
 20
-3.9477200000000003
 30
0.0
 10
2.12358
 20
-4.0264600000000002
 30
0.0
  0
SPLINE
  5
29
100
AcDbEntity
  8
Ebene 1
100
AcDbSpline
210
0.0
220
0.0
230
1.0
 70
     1
 71
     3
 72
    16
 73
    12
 74
     0
 42
0.0000000001
 43
0.0000000001
 40
0.0
 40
0.0
 40
0.0
 40
0.0
 40
0.3333333333333333
 40
0.3333333333333333
 40
0.3333333333333333
 40
0.3333333333333333
 40
0.6666666666666666
 40
0.6666666666666666
 40
0.6666666666666666
 40
0.6666666666666666
 40
1.0
 40
1.0
 40
1.0
 40
1.0
 10
2.1083400000000001
 20
-3.4981400000000002
 30
0.0
 10
2.0575400000000004
 20
-3.6429200000000002
 30
0.0
 10
2.1108800000000003
 20
-3.8512000000000004
 30
0.0
 10
2.2963
 20
-3.8029400000000004
 30
0.0
 10
2.2963
 20
-3.8029400000000004
 30
0.0
 10
2.3471000000000002
 20
-3.7216600000000004
 30
0.0
 10
2.3318600000000003
 20
-3.5946600000000002
 30
0.0
 10
2.3293200000000001
 20
-3.4981400000000002
 30
0.0
 10
2.3293200000000001
 20
-3.4981400000000002
 30
0.0
 10
2.3293200000000001
 20
-3.4981400000000002
 30
0.0
 10
2.1083400000000001
 20
-3.4981400000000002
 30
0.0
 10
2.1083400000000001
 20
-3.4981400000000002
 30
0.0
  0
SPLINE
  5
2A
100
AcDbEntity
  8
Ebene 1
100
AcDbSpline
210
0.0
220
0.0
230
1.0
 70
     1
 71
     3
 72
    20
 73
    16
 74
     0
 42
0.0000000001
 43
0.0000000001
 40
0.0
 40
0.0
 40
0.0
 40
0.0
 40
0.25
 40
0.25
 40
0.25
 40
0.25
 40
0.5
 40
0.5
 40
0.5
 40
0.5
 40
0.75
 40
0.75
 40
0.75
 40
0.75
 40
1.0
 40
1.0
 40
1.0
 40
1.0
 10
2.1388200000000004
 20
-2.8275800000000002
 30
0.0
 10
2.0778600000000003
 20
-2.9545800000000004
 30
0.0
 10
2.05246
 20
-3.2111200000000002
 30
0.0
 10
2.2683600000000004
 20
-3.1298400000000002
 30
0.0
 10
2.2683600000000004
 20
-3.1298400000000002
 30
0.0
 10
2.2683600000000004
 20
-3.1298400000000002
 30
0.0
 10
2.3293200000000001
 20
-3.1628600000000002
 30
0.0
 10
2.3293200000000001
 20
-3.1628600000000002
 30
0.0
 10
2.3293200000000001
 20
-3.1628600000000002
 30
0.0
 10
2.4131400000000003
 20
-3.0663400000000003
 30
0.0
 10
2.3674200000000001
 20
-2.9393400000000001
 30
0.0
 10
2.34456
 20
-2.8275800000000002
 30
0.0
 10
2.34456
 20
-2.8275800000000002
 30
0.0
 10
2.34456
 20
-2.8275800000000002
 30
0.0
 10
2.1388200000000004
 20
-2.8275800000000002
 30
0.0
 10
2.1388200000000004
 20
-2.8275800000000002
 30
0.0
  0
SPLINE
  5
2B
100
AcDbEntity
  8
Ebene 1
100
AcDbSpline
210
0.0
220
0.0
230
1.0
 70
     1
 71
     3
 72
    20
 73
    16
 74
     0
 42
0.0000000001
 43
0.0000000001
 40
0.0
 40
0.0
 40
0.0
 40
0.0
 40
0.25
 40
0.25
 40
0.25
 40
0.25
 40
0.5
 40
0.5
 40
0.5
 40
0.5
 40
0.75
 40
0.75
 40
0.75
 40
0.75
 40
1.0
 40
1.0
 40
1.0
 40
1.0
 10
2.1388200000000004
 20
-2.1697200000000003
 30
0.0
 10
2.1489800000000003
 20
-2.2662400000000003
 30
0.0
 10
2.0448400000000002
 20
-2.5532600000000003
 30
0.0
 10
2.2201
 20
-2.4745200000000001
 30
0.0
 10
2.2201
 20
-2.4745200000000001
 30
0.0
 10
2.2201
 20
-2.4745200000000001
 30
0.0
 10
2.2963
 20
-2.4745200000000001
 30
0.0
 10
2.2963
 20
-2.4745200000000001
 30
0.0
 10
2.2963
 20
-2.4745200000000001
 30
0.0
 10
2.33948
 20
-2.3780000000000001
 30
0.0
 10
2.3140800000000001
 20
-2.2662400000000003
 30
0.0
 10
2.2963
 20
-2.1697200000000003
 30
0.0
 10
2.2963
 20
-2.1697200000000003
 30
0.0
 10
2.2963
 20
-2.1697200000000003
 30
0.0
 10
2.1388200000000004
 20
-2.1697200000000003
 30
0.0
 10
2.1388200000000004
 20
-2.1697200000000003
 30
0.0
  0
SPLINE
  5
2C
100
AcDbEntity
  8
Ebene 1
100
AcDbSpline
210
0.0
220
0.0
230
1.0
 70
     1
 71
     3
 72
    16
 73
    12
 74
     0
 42
0.0000000001
 43
0.0000000001
 40
0.0
 40
0.0
 40
0.0
 40
0.0
 40
0.3333333333333333
 40
0.3333333333333333
 40
0.3333333333333333
 40
0.3333333333333333
 40
0.6666666666666666
 40
0.6666666666666666
 40
0.6666666666666666
 40
0.6666666666666666
 40
1.0
 40
1.0
 40
1.0
 40
1.0
 10
2.2683600000000004
 20
-1.2731000000000001
 30
0.0
 10
2.16168
 20
-1.4483600000000001
 30
0.0
 10
2.0956400000000004
 20
-1.6744200000000002
 30
0.0
 10
2.17692
 20
-1.8649200000000001
 30
0.0
 10
2.17692
 20
-1.8649200000000001
 30
0.0
 10
2.3547200000000004
 20
-1.9131800000000001
 30
0.0
 10
2.4385400000000002
 20
-1.6744200000000002
 30
0.0
 10
2.3801200000000002
 20
-1.5296400000000001
 30
0.0
 10
2.3801200000000002
 20
-1.5296400000000001
 30
0.0
 10
2.41568
 20
-1.4331200000000002
 30
0.0
 10
2.3674200000000001
 20
-1.3213600000000001
 30
0.0
 10
2.2683600000000004
 20
-1.2731000000000001
 30
0.0
  0
SPLINE
  5
2D
100
AcDbEntity
  8
Ebene 1
100
AcDbSpline
210
0.0
220
0.0
230
1.0
 70
     1
 71
     3
 72
    16
 73
    12
 74
     0
 42
0.0000000001
 43
0.0000000001
 40
0.0
 40
0.0
 40
0.0
 40
0.0
 40
0.3333333333333333
 40
0.3333333333333333
 40
0.3333333333333333
 40
0.3333333333333333
 40
0.6666666666666666
 40
0.6666666666666666
 40
0.6666666666666666
 40
0.6666666666666666
 40
1.0
 40
1.0
 40
1.0
 40
1.0
 10
2.2683600000000004
 20
-0.5365000000000001
 30
0.0
 10
2.1870800000000004
 20
-0.67874
 30
0.0
 10
2.1820000000000004
 20
-0.8413000000000001
 30
0.0
 10
2.1439000000000004
 20
-1.00132
 30
0.0
 10
2.1439000000000004
 20
-1.00132
 30
0.0
 10
2.1439000000000004
 20
-1.00132
 30
0.0
 10
2.34456
 20
-1.00132
 30
0.0
 10
2.34456
 20
-1.00132
 30
0.0
 10
2.34456
 20
-1.00132
 30
0.0
 10
2.3547200000000004
 20
-0.8413000000000001
 30
0.0
 10
2.42584
 20
-0.63302
 30
0.0
 10
2.2683600000000004
 20
-0.5365000000000001
 30
0.0
  0
SPLINE
  5
2E
100
AcDbEntity
  8
Ebene 1
100
AcDbSpline
210
0.0
220
0.0
230
1.0
 70
     1
 71
     3
 72
    16
 73
    12
 74
     0
 42
0.0000000001
 43
0.0000000001
 40
0.0
 40
0.0
 40
0.0
 40
0.0
 40
0.3333333333333333
 40
0.3333333333333333
 40
0.3333333333333333
 40
0.3333333333333333
 40
0.6666666666666666
 40
0.6666666666666666
 40
0.6666666666666666
 40
0.6666666666666666
 40
1.0
 40
1.0
 40
1.0
 40
1.0
 10
1.2117200000000001
 20
-4.6360600000000005
 30
0.0
 10
1.1228200000000002
 20
-4.7630600000000003
 30
0.0
 10
1.1202800000000002
 20
-4.9891200000000007
 30
0.0
 10
1.2904600000000002
 20
-5.0526200000000001
 30
0.0
 10
1.2904600000000002
 20
-5.0526200000000001
 30
0.0
 10
1.4631800000000001
 20
-4.9891200000000007
 30
0.0
 10
1.4174600000000002
 20
-4.7808400000000004
 30
0.0
 10
1.3666600000000002
 20
-4.6360600000000005
 30
0.0
 10
1.3666600000000002
 20
-4.6360600000000005
 30
0.0
 10
1.3666600000000002
 20
-4.6360600000000005
 30
0.0
 10
1.2117200000000001
 20
-4.6360600000000005
 30
0.0
 10
1.2117200000000001
 20
-4.6360600000000005
 30
0.0
  0
SPLINE
  5
2F
100
AcDbEntity
  8
Ebene 1
100
AcDbSpline
210
0.0
220
0.0
230
1.0
 70
     1
 71
     3
 72
    16
 73
    12
 74
     0
 42
0.0000000001
 43
0.0000000001
 40
0.0
 40
0.0
 40
0.0
 40
0.0
 40
0.3333333333333333
 40
0.3333333333333333
 40
0.3333333333333333
 40
0.3333333333333333
 40
0.6666666666666666
 40
0.6666666666666666
 40
0.6666666666666666
 40
0.6666666666666666
 40
1.0
 40
1.0
 40
1.0
 40
1.0
 10
1.1304400000000001
 20
-3.9934400000000005
 30
0.0
 10
1.1025
 20
-4.1077400000000006
 30
0.0
 10
1.1304400000000001
 20
-4.2347400000000004
 30
0.0
 10
1.1787000000000001
 20
-4.3312600000000003
 30
0.0
 10
1.1787000000000001
 20
-4.3312600000000003
 30
0.0
 10
1.3565
 20
-4.3642799999999999
 30
0.0
 10
1.3946000000000001
 20
-4.0112200000000007
 30
0.0
 10
1.2117200000000001
 20
-4.0264600000000002
 30
0.0
 10
1.2117200000000001
 20
-4.0264600000000002
 30
0.0
 10
1.2117200000000001
 20
-4.0264600000000002
 30
0.0
 10
1.1304400000000001
 20
-3.9934400000000005
 30
0.0
 10
1.1304400000000001
 20
-3.9934400000000005
 30
0.0
  0
SPLINE
  5
30
100
AcDbEntity
  8
Ebene 1
100
AcDbSpline
210
0.0
220
0.0
230
1.0
 70
     1
 71
     3
 72
    12
 73
     8
 74
     0
 42
0.0000000001
 43
0.0000000001
 40
0.0
 40
0.0
 40
0.0
 40
0.0
 40
0.5
 40
0.5
 40
0.5
 40
0.5
 40
1.0
 40
1.0
 40
1.0
 40
1.0
 10
1.1152000000000002
 20
-3.4498800000000003
 30
0.0
 10
1.0644
 20
-3.5311600000000003
 30
0.0
 10
1.11012
 20
-3.6099000000000001
 30
0.0
 10
1.2091800000000001
 20
-3.5794200000000003
 30
0.0
 10
1.2091800000000001
 20
-3.5794200000000003
 30
0.0
 10
1.1990200000000002
 20
-3.5311600000000003
 30
0.0
 10
1.18632
 20
-3.4346400000000004
 30
0.0
 10
1.1152000000000002
 20
-3.4498800000000003
 30
0.0
  0
SPLINE
  5
31
100
AcDbEntity
  8
Ebene 1
100
AcDbSpline
210
0.0
220
0.0
230
1.0
 70
     1
 71
     3
 72
    20
 73
    16
 74
     0
 42
0.0000000001
 43
0.0000000001
 40
0.0
 40
0.0
 40
0.0
 40
0.0
 40
0.25
 40
0.25
 40
0.25
 40
0.25
 40
0.5
 40
0.5
 40
0.5
 40
0.5
 40
0.75
 40
0.75
 40
0.75
 40
0.75
 40
1.0
 40
1.0
 40
1.0
 40
1.0
 10
1.1152000000000002
 20
-2.8275800000000002
 30
0.0
 10
1.1152000000000002
 20
-2.8275800000000002
 30
0.0
 10
0.9755
 20
-2.8428200000000001
 30
0.0
 10
0.9755
 20
-2.8428200000000001
 30
0.0
 10
0.9755
 20
-2.8428200000000001
 30
0.0
 10
0.9628000000000001
 20
-2.9393400000000001
 30
0.0
 10
0.9856600000000001
 20
-3.0180800000000003
 30
0.0
 10
1.02376
 20
-3.0993600000000003
 30
0.0
 10
1.02376
 20
-3.0993600000000003
 30
0.0
 10
1.19394
 20
-3.1298400000000002
 30
0.0
 10
1.1736200000000001
 20
-2.9545800000000004
 30
0.0
 10
1.1609200000000002
 20
-2.8275800000000002
 30
0.0
 10
1.1609200000000002
 20
-2.8275800000000002
 30
0.0
 10
1.1609200000000002
 20
-2.8275800000000002
 30
0.0
 10
1.1152000000000002
 20
-2.8275800000000002
 30
0.0
 10
1.1152000000000002
 20
-2.8275800000000002
 30
0.0
  0
SPLINE
  5
32
100
AcDbEntity
  8
Ebene 1
100
AcDbSpline
210
0.0
220
0.0
230
1.0
 70
     1
 71
     3
 72
    16
 73
    12
 74
     0
 42
0.0000000001
 43
0.0000000001
 40
0.0
 40
0.0
 40
0.0
 40
0.0
 40
0.3333333333333333
 40
0.3333333333333333
 40
0.3333333333333333
 40
0.3333333333333333
 40
0.6666666666666666
 40
0.6666666666666666
 40
0.6666666666666666
 40
0.6666666666666666
 40
1.0
 40
1.0
 40
1.0
 40
1.0
 10
-1.4933700000000001
 20
-2.3297400000000001
 30
0.0
 10
-1.5314700000000001
 20
-2.4084800000000004
 30
0.0
 10
-1.4984500000000001
 20
-2.52278
 30
0.0
 10
-1.4730500000000002
 20
-2.6015200000000003
 30
0.0
 10
-1.4730500000000002
 20
-2.6015200000000003
 30
0.0
 10
-1.4730500000000002
 20
-2.6015200000000003
 30
0.0
 10
-1.3206500000000001
 20
-2.5862800000000004
 30
0.0
 10
-1.3206500000000001
 20
-2.5862800000000004
 30
0.0
 10
-1.3206500000000001
 20
-2.5862800000000004
 30
0.0
 10
-1.3054100000000002
 20
-2.4745200000000001
 30
0.0
 10
-1.4146300000000001
 20
-2.3780000000000001
 30
0.0
 10
-1.4933700000000001
 20
-2.3297400000000001
 30
0.0
  0
SPLINE
  5
33
100
AcDbEntity
  8
Ebene 1
100
AcDbSpline
210
0.0
220
0.0
230
1.0
 70
     1
 71
     3
 72
    12
 73
     8
 74
     0
 42
0.0000000001
 43
0.0000000001
 40
0.0
 40
0.0
 40
0.0
 40
0.0
 40
0.5
 40
0.5
 40
0.5
 40
0.5
 40
1.0
 40
1.0
 40
1.0
 40
1.0
 10
-2.3747500000000001
 20
-0.21646
 30
0.0
 10
-2.4026900000000002
 20
-0.27996
 30
0.0
 10
-2.4839700000000002
 20
-0.39172
 30
0.0
 10
-2.3899900000000001
 20
-0.43998
 30
0.0
 10
-2.3899900000000001
 20
-0.43998
 30
0.0
 10
-2.2426700000000004
 20
-0.45522
 30
0.0
 10
-2.31379
 20
-0.24694
 30
0.0
 10
-2.3747500000000001
 20
-0.21646
 30
0.0
  0
SPLINE
  5
34
100
AcDbEntity
  8
Ebene 1
100
AcDbSpline
210
0.0
220
0.0
230
1.0
 70
     1
 71
     3
 72
    20
 73
    16
 74
     0
 42
0.0000000001
 43
0.0000000001
 40
0.0
 40
0.0
 40
0.0
 40
0.0
 40
0.25
 40
0.25
 40
0.25
 40
0.25
 40
0.5
 40
0.5
 40
0.5
 40
0.5
 40
0.75
 40
0.75
 40
0.75
 40
0.75
 40
1.0
 40
1.0
 40
1.0
 40
1.0
 10
-2.43825
 20
-0.7117600000000001
 30
0.0
 10
-2.43825
 20
-0.7117600000000001
 30
0.0
 10
-2.4484100000000004
 20
-1.0495800000000002
 30
0.0
 10
-2.4484100000000004
 20
-1.0495800000000002
 30
0.0
 10
-2.4484100000000004
 20
-1.0495800000000002
 30
0.0
 10
-2.4484100000000004
 20
-1.0495800000000002
 30
0.0
 10
-2.3442700000000003
 20
-1.0495800000000002
 30
0.0
 10
-2.3442700000000003
 20
-1.0495800000000002
 30
0.0
 10
-2.3442700000000003
 20
-1.0495800000000002
 30
0.0
 10
-2.3442700000000003
 20
-1.0495800000000002
 30
0.0
 10
-2.3417300000000001
 20
-1.00132
 30
0.0
 10
-2.3417300000000001
 20
-1.00132
 30
0.0
 10
-2.3417300000000001
 20
-1.00132
 30
0.0
 10
-2.4255500000000003
 20
-0.9378200000000001
 30
0.0
 10
-2.27569
 20
-0.7295400000000001
 30
0.0
 10
-2.43825
 20
-0.7117600000000001
 30
0.0
  0
SPLINE
  5
35
100
AcDbEntity
  8
Ebene 1
100
AcDbSpline
210
0.0
220
0.0
230
1.0
 70
     1
 71
     3
 72
    20
 73
    16
 74
     0
 42
0.0000000001
 43
0.0000000001
 40
0.0
 40
0.0
 40
0.0
 40
0.0
 40
0.25
 40
0.25
 40
0.25
 40
0.25
 40
0.5
 40
0.5
 40
0.5
 40
0.5
 40
0.75
 40
0.75
 40
0.75
 40
0.75
 40
1.0
 40
1.0
 40
1.0
 40
1.0
 10
-2.4204700000000003
 20
-1.4661400000000002
 30
0.0
 10
-2.4204700000000003
 20
-1.4661400000000002
 30
0.0
 10
-2.5931900000000003
 20
-1.4813800000000001
 30
0.0
 10
-2.5931900000000003
 20
-1.4813800000000001
 30
0.0
 10
-2.5931900000000003
 20
-1.4813800000000001
 30
0.0
 10
-2.5881100000000004
 20
-1.5931400000000002
 30
0.0
 10
-2.6719300000000001
 20
-1.7201400000000002
 30
0.0
 10
-2.5931900000000003
 20
-1.8014200000000002
 30
0.0
 10
-2.5931900000000003
 20
-1.8014200000000002
 30
0.0
 10
-2.40523
 20
-1.8496800000000002
 30
0.0
 10
-2.3823700000000003
 20
-1.6414000000000002
 30
0.0
 10
-2.3772900000000003
 20
-1.4813800000000001
 30
0.0
 10
-2.3772900000000003
 20
-1.4813800000000001
 30
0.0
 10
-2.3874500000000003
 20
-1.4661400000000002
 30
0.0
 10
-2.4026900000000002
 20
-1.4661400000000002
 30
0.0
 10
-2.4204700000000003
 20
-1.4661400000000002
 30
0.0
  0
SPLINE
  5
36
100
AcDbEntity
  8
Ebene 1
100
AcDbSpline
210
0.0
220
0.0
230
1.0
 70
     1
 71
     3
 72
    16
 73
    12
 74
     0
 42
0.0000000001
 43
0.0000000001
 40
0.0
 40
0.0
 40
0.0
 40
0.0
 40
0.3333333333333333
 40
0.3333333333333333
 40
0.3333333333333333
 40
0.3333333333333333
 40
0.6666666666666666
 40
0.6666666666666666
 40
0.6666666666666666
 40
0.6666666666666666
 40
1.0
 40
1.0
 40
1.0
 40
1.0
 10
-2.5652500000000003
 20
-2.0909800000000001
 30
0.0
 10
-2.5652500000000003
 20
-2.0909800000000001
 30
0.0
 10
-2.6084300000000002
 20
-2.5050000000000003
 30
0.0
 10
-2.6084300000000002
 20
-2.5050000000000003
 30
0.0
 10
-2.6084300000000002
 20
-2.5050000000000003
 30
0.0
 10
-2.48651
 20
-2.5050000000000003
 30
0.0
 10
-2.48143
 20
-2.4084800000000004
 30
0.0
 10
-2.5017500000000004
 20
-2.3145000000000002
 30
0.0
 10
-2.5017500000000004
 20
-2.3145000000000002
 30
0.0
 10
-2.4763500000000001
 20
-2.2510000000000003
 30
0.0
 10
-2.4585700000000004
 20
-2.0909800000000001
 30
0.0
 10
-2.5652500000000003
 20
-2.0909800000000001
 30
0.0
  0
SPLINE
  5
37
100
AcDbEntity
  8
Ebene 1
100
AcDbSpline
210
0.0
220
0.0
230
1.0
 70
     1
 71
     3
 72
    12
 73
     8
 74
     0
 42
0.0000000001
 43
0.0000000001
 40
0.0
 40
0.0
 40
0.0
 40
0.0
 40
0.5
 40
0.5
 40
0.5
 40
0.5
 40
1.0
 40
1.0
 40
1.0
 40
1.0
 10
-2.5500100000000003
 20
-2.7945600000000002
 30
0.0
 10
-2.6338300000000001
 20
-2.9393400000000001
 30
0.0
 10
-2.6770100000000001
 20
-3.2898600000000005
 30
0.0
 10
-2.4255500000000003
 20
-3.2593800000000002
 30
0.0
 10
-2.4255500000000003
 20
-3.2593800000000002
 30
0.0
 10
-2.44333
 20
-3.1146000000000003
 30
0.0
 10
-2.3468100000000001
 20
-2.8098000000000001
 30
0.0
 10
-2.5500100000000003
 20
-2.7945600000000002
 30
0.0
  0
SPLINE
  5
38
100
AcDbEntity
  8
Ebene 1
 62
     7
100
AcDbSpline
210
0.0
220
0.0
230
1.0
 70
     1
 71
     3
 72
   264
 73
   260
 74
     0
 42
0.0000000001
 43
0.0000000001
 40
0.0
 40
0.0
 40
0.0
 40
0.0
 40
0.0153846153846154
 40
0.0153846153846154
 40
0.0153846153846154
 40
0.0153846153846154
 40
0.0307692307692308
 40
0.0307692307692308
 40
0.0307692307692308
 40
0.0307692307692308
 40
0.0461538461538462
 40
0.0461538461538462
 40
0.0461538461538462
 40
0.0461538461538462
 40
0.0615384615384615
 40
0.0615384615384615
 40
0.0615384615384615
 40
0.0615384615384615
 40
0.0769230769230769
 40
0.0769230769230769
 40
0.0769230769230769
 40
0.0769230769230769
 40
0.0923076923076923
 40
0.0923076923076923
 40
0.0923076923076923
 40
0.0923076923076923
 40
0.1076923076923077
 40
0.1076923076923077
 40
0.1076923076923077
 40
0.1076923076923077
 40
0.1230769230769231
 40
0.1230769230769231
 40
0.1230769230769231
 40
0.1230769230769231
 40
0.1384615384615385
 40
0.1384615384615385
 40
0.1384615384615385
 40
0.1384615384615385
 40
0.1538461538461539
 40
0.1538461538461539
 40
0.1538461538461539
 40
0.1538461538461539
 40
0.1692307692307692
 40
0.1692307692307692
 40
0.1692307692307692
 40
0.1692307692307692
 40
0.1846153846153846
 40
0.1846153846153846
 40
0.1846153846153846
 40
0.1846153846153846
 40
0.2
 40
0.2
 40
0.2
 40
0.2
 40
0.2153846153846154
 40
0.2153846153846154
 40
0.2153846153846154
 40
0.2153846153846154
 40
0.2307692307692308
 40
0.2307692307692308
 40
0.2307692307692308
 40
0.2307692307692308
 40
0.2461538461538462
 40
0.2461538461538462
 40
0.2461538461538462
 40
0.2461538461538462
 40
0.2615384615384616
 40
0.2615384615384616
 40
0.2615384615384616
 40
0.2615384615384616
 40
0.2769230769230769
 40
0.2769230769230769
 40
0.2769230769230769
 40
0.2769230769230769
 40
0.2923076923076923
 40
0.2923076923076923
 40
0.2923076923076923
 40
0.2923076923076923
 40
0.3076923076923077
 40
0.3076923076923077
 40
0.3076923076923077
 40
0.3076923076923077
 40
0.3230769230769231
 40
0.3230769230769231
 40
0.3230769230769231
 40
0.3230769230769231
 40
0.3384615384615385
 40
0.3384615384615385
 40
0.3384615384615385
 40
0.3384615384615385
 40
0.3538461538461539
 40
0.3538461538461539
 40
0.3538461538461539
 40
0.3538461538461539
 40
0.3692307692307693
 40
0.3692307692307693
 40
0.3692307692307693
 40
0.3692307692307693
 40
0.3846153846153846
 40
0.3846153846153846
 40
0.3846153846153846
 40
0.3846153846153846
 40
0.4
 40
0.4
 40
0.4
 40
0.4
 40
0.4153846153846154
 40
0.4153846153846154
 40
0.4153846153846154
 40
0.4153846153846154
 40
0.4307692307692308
 40
0.4307692307692308
 40
0.4307692307692308
 40
0.4307692307692308
 40
0.4461538461538462
 40
0.4461538461538462
 40
0.4461538461538462
 40
0.4461538461538462
 40
0.4615384615384616
 40
0.4615384615384616
 40
0.4615384615384616
 40
0.4615384615384616
 40
0.476923076923077
 40
0.476923076923077
 40
0.476923076923077
 40
0.476923076923077
 40
0.4923076923076923
 40
0.4923076923076923
 40
0.4923076923076923
 40
0.4923076923076923
 40
0.5076923076923077
 40
0.5076923076923077
 40
0.5076923076923077
 40
0.5076923076923077
 40
0.523076923076923
 40
0.523076923076923
 40
0.523076923076923
 40
0.523076923076923
 40
0.5384615384615383
 40
0.5384615384615383
 40
0.5384615384615383
 40
0.5384615384615383
 40
0.5538461538461537
 40
0.5538461538461537
 40
0.5538461538461537
 40
0.5538461538461537
 40
0.569230769230769
 40
0.569230769230769
 40
0.569230769230769
 40
0.569230769230769
 40
0.5846153846153843
 40
0.5846153846153843
 40
0.5846153846153843
 40
0.5846153846153843
 40
0.5999999999999996
 40
0.5999999999999996
 40
0.5999999999999996
 40
0.5999999999999996
 40
0.615384615384615
 40
0.615384615384615
 40
0.615384615384615
 40
0.615384615384615
 40
0.6307692307692303
 40
0.6307692307692303
 40
0.6307692307692303
 40
0.6307692307692303
 40
0.6461538461538456
 40
0.6461538461538456
 40
0.6461538461538456
 40
0.6461538461538456
 40
0.661538461538461
 40
0.661538461538461
 40
0.661538461538461
 40
0.661538461538461
 40
0.6769230769230763
 40
0.6769230769230763
 40
0.6769230769230763
 40
0.6769230769230763
 40
0.6923076923076916
 40
0.6923076923076916
 40
0.6923076923076916
 40
0.6923076923076916
 40
0.707692307692307
 40
0.707692307692307
 40
0.707692307692307
 40
0.707692307692307
 40
0.7230769230769223
 40
0.7230769230769223
 40
0.7230769230769223
 40
0.7230769230769223
 40
0.7384615384615376
 40
0.7384615384615376
 40
0.7384615384615376
 40
0.7384615384615376
 40
0.7538461538461529
 40
0.7538461538461529
 40
0.7538461538461529
 40
0.7538461538461529
 40
0.7692307692307683
 40
0.7692307692307683
 40
0.7692307692307683
 40
0.7692307692307683
 40
0.7846153846153836
 40
0.7846153846153836
 40
0.7846153846153836
 40
0.7846153846153836
 40
0.7999999999999989
 40
0.7999999999999989
 40
0.7999999999999989
 40
0.7999999999999989
 40
0.8153846153846143
 40
0.8153846153846143
 40
0.8153846153846143
 40
0.8153846153846143
 40
0.8307692307692296
 40
0.8307692307692296
 40
0.8307692307692296
 40
0.8307692307692296
 40
0.8461538461538449
 40
0.8461538461538449
 40
0.8461538461538449
 40
0.8461538461538449
 40
0.8615384615384603
 40
0.8615384615384603
 40
0.8615384615384603
 40
0.8615384615384603
 40
0.8769230769230756
 40
0.8769230769230756
 40
0.8769230769230756
 40
0.8769230769230756
 40
0.8923076923076909
 40
0.8923076923076909
 40
0.8923076923076909
 40
0.8923076923076909
 40
0.9076923076923062
 40
0.9076923076923062
 40
0.9076923076923062
 40
0.9076923076923062
 40
0.9230769230769216
 40
0.9230769230769216
 40
0.9230769230769216
 40
0.9230769230769216
 40
0.9384615384615369
 40
0.9384615384615369
 40
0.9384615384615369
 40
0.9384615384615369
 40
0.9538461538461522
 40
0.9538461538461522
 40
0.9538461538461522
 40
0.9538461538461522
 40
0.9692307692307676
 40
0.9692307692307676
 40
0.9692307692307676
 40
0.9692307692307676
 40
0.9846153846153829
 40
0.9846153846153829
 40
0.9846153846153829
 40
0.9846153846153829
 40
1.0
 40
1.0
 40
1.0
 40
1.0
 10
0.33034
 20
0.5023500000000001
 30
0.0
 10
0.32272
 20
0.40583
 30
0.0
 10
0.277
 20
0.3270900000000001
 30
0.0
 10
0.24906
 20
0.24581
 30
0.0
 10
0.24906
 20
0.24581
 30
0.0
 10
0.22874
 20
0.21279
 30
0.0
 10
0.18556
 20
0.18231
 30
0.0
 10
0.2008
 20
0.13405
 30
0.0
 10
0.2008
 20
0.13405
 30
0.0
 10
0.17794
 20
-0.10216
 30
0.0
 10
0.47004
 20
0.61411
 30
0.0
 10
0.5056000000000001
 20
0.37281
 30
0.0
 10
0.5056000000000001
 20
0.37281
 30
0.0
 10
0.3913
 20
0.02229
 30
0.0
 10
0.4497200000000001
 20
-0.10216
 30
0.0
 10
0.63514
 20
0.26105
 30
0.0
 10
0.63514
 20
0.26105
 30
0.0
 10
0.7697600000000001
 20
0.40583
 30
0.0
 10
0.5818000000000001
 20
-0.20122
 30
0.0
 10
0.6503800000000001
 20
-0.32822
 30
0.0
 10
0.6503800000000001
 20
-0.32822
 30
0.0
 10
0.6910200000000001
 20
-0.20122
 30
0.0
 10
0.8485
 20
0.23057
 30
0.0
 10
0.89168
 20
0.18231
 30
0.0
 10
0.89168
 20
0.18231
 30
0.0
 10
0.89168
 20
0.18231
 30
0.0
 10
0.9069200000000001
 20
-0.11994
 30
0.0
 10
0.9069200000000001
 20
-0.11994
 30
0.0
 10
0.9069200000000001
 20
-0.11994
 30
0.0
 10
1.0009000000000001
 20
-0.27996
 30
0.0
 10
0.9755
 20
0.16707
 30
0.0
 10
1.0796400000000002
 20
0.24581
 30
0.0
 10
1.0796400000000002
 20
0.24581
 30
0.0
 10
1.2015600000000002
 20
-0.37648
 30
0.0
 10
0.5818000000000001
 20
-0.26472
 30
0.0
 10
0.36082
 20
-0.67874
 30
0.0
 10
0.36082
 20
-0.67874
 30
0.0
 10
0.32272
 20
-0.56698
 30
0.0
 10
0.41162
 20
-0.31298
 30
0.0
 10
0.28716
 20
-0.21646
 30
0.0
 10
0.28716
 20
-0.21646
 30
0.0
 10
0.43448
 20
-0.53142
 30
0.0
 10
-0.04557
 20
-1.0114800000000002
 30
0.0
 10
0.05094
 20
-0.43998
 30
0.0
 10
0.05094
 20
-0.43998
 30
0.0
 10
-0.24623
 20
0.18231
 30
0.0
 10
0.023
 20
-1.2654800000000002
 30
0.0
 10
-0.14971
 20
-0.7676400000000001
 30
0.0
 10
-0.14971
 20
-0.7676400000000001
 30
0.0
 10
-0.19543
 20
-0.71938
 30
0.0
 10
-0.21321
 20
-0.67874
 30
0.0
 10
-0.27417
 20
-0.69652
 30
0.0
 10
-0.27417
 20
-0.69652
 30
0.0
 10
-0.4164100000000001
 20
-0.88956
 30
0.0
 10
-0.38847
 20
-0.80066
 30
0.0
 10
-0.37069
 20
-0.5593600000000001
 30
0.0
 10
-0.37069
 20
-0.5593600000000001
 30
0.0
 10
-0.3859300000000001
 20
-0.49586
 30
0.0
 10
-0.43419
 20
-0.36124
 30
0.0
 10
-0.5002300000000001
 20
-0.36124
 30
0.0
 10
-0.5002300000000001
 20
-0.36124
 30
0.0
 10
-0.29957
 20
-0.9530600000000001
 30
0.0
 10
-0.86853
 20
-0.8311400000000001
 30
0.0
 10
-0.7720100000000001
 20
-0.30282
 30
0.0
 10
-0.7720100000000001
 20
-0.30282
 30
0.0
 10
-0.8380500000000001
 20
-0.3206000000000001
 30
0.0
 10
-0.8507500000000001
 20
-0.39934
 30
0.0
 10
-0.86853
 20
-0.46538
 30
0.0
 10
-0.86853
 20
-0.46538
 30
0.0
 10
-0.7669300000000001
 20
-0.7041400000000001
 30
0.0
 10
-0.9879100000000001
 20
-0.7117600000000001
 30
0.0
 10
-0.9244100000000001
 20
-0.6660400000000001
 30
0.0
 10
-0.9244100000000001
 20
-0.6660400000000001
 30
0.0
 10
-0.9015500000000001
 20
-0.6000000000000001
 30
0.0
 10
-0.9879100000000001
 20
-0.2952
 30
0.0
 10
-1.0082300000000002
 20
-0.4882400000000001
 30
0.0
 10
-1.0082300000000002
 20
-0.4882400000000001
 30
0.0
 10
-0.9904500000000001
 20
-0.55174
 30
0.0
 10
-0.9828300000000001
 20
-0.6660400000000001
 30
0.0
 10
-1.0133100000000002
 20
-0.7295400000000001
 30
0.0
 10
-1.0133100000000002
 20
-0.7295400000000001
 30
0.0
 10
-1.3206500000000001
 20
-0.31298
 30
0.0
 10
-0.9879100000000001
 20
0.10103
 30
0.0
 10
-1.1504700000000001
 20
0.53283
 30
0.0
 10
-1.1504700000000001
 20
0.53283
 30
0.0
 10
-1.0590300000000001
 20
0.55061
 30
0.0
 10
-1.0234700000000001
 20
0.3575700000000001
 30
0.0
 10
-0.94981
 20
0.3905900000000001
 30
0.0
 10
-0.94981
 20
0.3905900000000001
 30
0.0
 10
-1.08951
 20
1.0459100000000001
 30
0.0
 10
-1.5594100000000002
 20
0.3905900000000001
 30
0.0
 10
-1.9404100000000002
 20
0.4210700000000001
 30
0.0
 10
-1.9404100000000002
 20
0.4210700000000001
 30
0.0
 10
-2.2629900000000003
 20
0.4540900000000001
 30
0.0
 10
-2.5550900000000003
 20
0.5836300000000001
 30
0.0
 10
-2.8014700000000001
 20
0.78937
 30
0.0
 10
-2.8014700000000001
 20
0.78937
 30
0.0
 10
-2.7887700000000004
 20
1.2059300000000002
 30
0.0
 10
-2.48651
 20
1.23895
 30
0.0
 10
-2.9665700000000004
 20
1.78251
 30
0.0
 10
-2.9665700000000004
 20
1.78251
 30
0.0
 10
-2.9132300000000004
 20
2.4403700000000002
 30
0.0
 10
-2.82179
 20
3.1439500000000002
 30
0.0
 10
-2.2147300000000003
 20
3.5274900000000002
 30
0.0
 10
-2.2147300000000003
 20
3.5274900000000002
 30
0.0
 10
-2.3341100000000004
 20
3.6087700000000003
 30
0.0
 10
-2.5804900000000002
 20
3.1922100000000002
 30
0.0
 10
-2.8065500000000001
 20
3.1922100000000002
 30
0.0
 10
-2.8065500000000001
 20
3.1922100000000002
 30
0.0
 10
-3.4440900000000001
 20
4.0888300000000006
 30
0.0
 10
-2.5347700000000004
 20
5.1607100000000008
 30
0.0
 10
-1.7676900000000002
 20
5.6255300000000004
 30
0.0
 10
-1.7676900000000002
 20
5.6255300000000004
 30
0.0
 10
-1.8159500000000002
 20
5.4172500000000001
 30
0.0
 10
-1.9785100000000002
 20
5.2572300000000007
 30
0.0
 10
-2.11313
 20
5.0819700000000001
 30
0.0
 10
-2.11313
 20
5.0819700000000001
 30
0.0
 10
-2.0572500000000002
 20
5.0184700000000007
 30
0.0
 10
-1.8870700000000002
 20
5.22675
 30
0.0
 10
-1.9734300000000002
 20
5.0667300000000006
 30
0.0
 10
-1.9734300000000002
 20
5.0667300000000006
 30
0.0
 10
-2.0953500000000003
 20
4.3758500000000007
 30
0.0
 10
-1.7473700000000001
 20
5.9303300000000005
 30
0.0
 10
-1.4959100000000001
 20
5.3715300000000008
 30
0.0
 10
-1.4959100000000001
 20
5.3715300000000008
 30
0.0
 10
-1.54671
 20
5.6255300000000004
 30
0.0
 10
-1.1885700000000001
 20
5.5137700000000001
 30
0.0
 10
-1.3917700000000002
 20
5.7068100000000008
 30
0.0
 10
-1.3917700000000002
 20
5.7068100000000008
 30
0.0
 10
-1.54417
 20
6.0751100000000005
 30
0.0
 10
-0.6069100000000001
 20
6.2503700000000002
 30
0.0
 10
-0.29449
 20
6.0751100000000005
 30
0.0
 10
-0.29449
 20
6.0751100000000005
 30
0.0
 10
-0.3122700000000001
 20
5.6255300000000004
 30
0.0
 10
-0.40879
 20
5.3867700000000003
 30
0.0
 10
-0.32751
 20
4.8584500000000004
 30
0.0
 10
-0.32751
 20
4.8584500000000004
 30
0.0
 10
-0.59675
 20
4.68065
 30
0.0
 10
-0.9244100000000001
 20
4.5053900000000002
 30
0.0
 10
-1.08697
 20
4.7771700000000008
 30
0.0
 10
-1.08697
 20
4.7771700000000008
 30
0.0
 10
-1.3104900000000002
 20
4.20059
 30
0.0
 10
-1.79817
 20
4.24885
 30
0.0
 10
-2.0013700000000001
 20
3.8983300000000005
 30
0.0
 10
-2.0013700000000001
 20
3.8983300000000005
 30
0.0
 10
-2.1182100000000004
 20
3.4157300000000004
 30
0.0
 10
-2.0623300000000002
 20
3.5122500000000003
 30
0.0
 10
-1.8769100000000001
 20
3.8983300000000005
 30
0.0
 10
-1.8769100000000001
 20
3.8983300000000005
 30
0.0
 10
-1.4425700000000001
 20
4.12439
 30
0.0
 10
-0.7948700000000001
 20
4.9016300000000008
 30
0.0
 10
0.0103
 20
4.4241100000000007
 30
0.0
 10
0.0103
 20
4.4241100000000007
 30
0.0
 10
0.10428
 20
4.4444300000000005
 30
0.0
 10
0.13222
 20
4.4952300000000003
 30
0.0
 10
0.1881
 20
4.5511100000000004
 30
0.0
 10
0.1881
 20
4.5511100000000004
 30
0.0
 10
0.23128
 20
4.5968300000000006
 30
0.0
 10
0.3024
 20
4.7136700000000005
 30
0.0
 10
0.3455800000000001
 20
4.6984300000000001
 30
0.0
 10
0.3455800000000001
 20
4.6984300000000001
 30
0.0
 10
0.25414
 20
4.4088700000000003
 30
0.0
 10
0.43702
 20
4.4825300000000006
 30
0.0
 10
0.7367400000000001
 20
4.4088700000000003
 30
0.0
 10
0.7367400000000001
 20
4.4088700000000003
 30
0.0
 10
0.76468
 20
4.1701100000000002
 30
0.0
 10
1.2244200000000001
 20
4.1370900000000006
 30
0.0
 10
1.3514200000000001
 20
3.7865700000000002
 30
0.0
 10
1.3514200000000001
 20
3.7865700000000002
 30
0.0
 10
1.19394
 20
3.8805500000000004
 30
0.0
 10
0.7265800000000001
 20
3.7535500000000002
 30
0.0
 10
0.8104000000000001
 20
3.6240100000000002
 30
0.0
 10
0.8104000000000001
 20
3.6240100000000002
 30
0.0
 10
1.1558400000000002
 20
3.8983300000000005
 30
0.0
 10
1.5317600000000002
 20
3.4970100000000004
 30
0.0
 10
1.8645
 20
3.4970100000000004
 30
0.0
 10
1.8645
 20
3.4970100000000004
 30
0.0
 10
1.1812400000000001
 20
3.8805500000000004
 30
0.0
 10
0.9704200000000001
 20
4.6501700000000001
 30
0.0
 10
0.38368
 20
4.5536500000000002
 30
0.0
 10
0.38368
 20
4.5536500000000002
 30
0.0
 10
0.38368
 20
4.6349300000000007
 30
0.0
 10
0.4725800000000001
 20
4.7289099999999999
 30
0.0
 10
0.39384
 20
4.8101900000000004
 30
0.0
 10
0.39384
 20
4.8101900000000004
 30
0.0
 10
0.16016
 20
4.79495
 30
0.0
 10
0.04332
 20
4.3783900000000004
 30
0.0
 10
-0.04811
 20
4.6019100000000002
 30
0.0
 10
-0.04811
 20
4.6019100000000002
 30
0.0
 10
-0.45705
 20
4.9702100000000007
 30
0.0
 10
-0.19797
 20
5.5950500000000005
 30
0.0
 10
-0.14209
 20
6.0268500000000005
 30
0.0
 10
-0.14209
 20
6.0268500000000005
 30
0.0
 10
0.55386
 20
6.4103900000000005
 30
0.0
 10
1.5063600000000001
 20
6.1055900000000003
 30
0.0
 10
2.0600800000000001
 20
5.56203
 30
0.0
 10
2.0600800000000001
 20
5.56203
 30
0.0
 10
1.9940400000000003
 20
5.4172500000000001
 30
0.0
 10
1.9051400000000001
 20
5.56203
 30
0.0
 10
1.8086200000000001
 20
5.5290100000000004
 30
0.0
 10
1.8086200000000001
 20
5.5290100000000004
 30
0.0
 10
1.8086200000000001
 20
5.5290100000000004
 30
0.0
 10
1.8873600000000001
 20
5.4832900000000002
 30
0.0
 10
1.8873600000000001
 20
5.4832900000000002
 30
0.0
 10
1.8873600000000001
 20
5.4832900000000002
 30
0.0
 10
1.9559400000000002
 20
5.3537500000000007
 30
0.0
 10
1.5749400000000002
 20
5.4985300000000006
 30
0.0
 10
1.6765400000000001
 20
5.3867700000000003
 30
0.0
 10
1.6765400000000001
 20
5.3867700000000003
 30
0.0
 10
2.0169000000000001
 20
5.4020100000000006
 30
0.0
 10
1.48858
 20
5.3715300000000008
 30
0.0
 10
1.5038200000000002
 20
5.2572300000000007
 30
0.0
 10
1.5038200000000002
 20
5.2572300000000007
 30
0.0
 10
2.12866
 20
5.4172500000000001
 30
0.0
 10
1.6663800000000002
 20
4.8254300000000008
 30
0.0
 10
1.9356200000000001
 20
4.8660700000000006
 30
0.0
 10
1.9356200000000001
 20
4.8660700000000006
 30
0.0
 10
1.7679800000000001
 20
5.47567
 30
0.0
 10
2.4106000000000001
 20
4.9219500000000007
 30
0.0
 10
2.2632800000000004
 20
5.1937300000000004
 30
0.0
 10
2.2632800000000004
 20
5.1937300000000004
 30
0.0
 10
2.1896200000000001
 20
5.22675
 30
0.0
 10
2.2226400000000002
 20
5.3054900000000007
 30
0.0
 10
2.2963
 20
5.3232700000000008
 30
0.0
 10
2.2963
 20
5.3232700000000008
 30
0.0
 10
2.7941400000000001
 20
4.9702100000000007
 30
0.0
 10
2.9389200000000004
 20
4.2183700000000002
 30
0.0
 10
2.6519000000000004
 20
3.6875100000000005
 30
0.0
 10
2.6519000000000004
 20
3.6875100000000005
 30
0.0
 10
3.3021400000000001
 20
3.4817700000000005
 30
0.0
 10
2.9262200000000003
 20
2.13557
 30
0.0
 10
2.6671400000000003
 20
1.5920100000000001
 30
0.0
 10
2.6671400000000003
 20
1.5920100000000001
 30
0.0
 10
2.4791800000000004
 20
1.78251
 30
0.0
 10
2.6392000000000002
 20
2.2473300000000003
 30
0.0
 10
2.4334600000000002
 20
2.3743300000000001
 30
0.0
 10
2.4334600000000002
 20
2.3743300000000001
 30
0.0
 10
2.4512400000000003
 20
1.8155300000000001
 30
0.0
 10
2.1642200000000003
 20
1.10941
 30
0.0
 10
2.8271600000000001
 20
0.8376300000000001
 30
0.0
 10
2.8271600000000001
 20
0.8376300000000001
 30
0.0
 10
2.8297000000000003
 20
0.72587
 30
0.0
 10
2.7738200000000002
 20
0.6293500000000001
 30
0.0
 10
2.71286
 20
0.53283
 30
0.0
 10
2.71286
 20
0.53283
 30
0.0
 10
2.3623400000000001
 20
0.34233
 30
0.0
 10
1.8695800000000002
 20
0.30931
 30
0.0
 10
1.4733400000000001
 20
0.3575700000000001
 30
0.0
 10
1.4733400000000001
 20
0.3575700000000001
 30
0.0
 10
1.6587600000000002
 20
0.37281
 30
0.0
 10
1.9711800000000002
 20
0.46933
 30
0.0
 10
1.9305400000000001
 20
0.7106300000000001
 30
0.0
 10
1.9305400000000001
 20
0.7106300000000001
 30
0.0
 10
1.4733400000000001
 20
-0.00818
 30
0.0
 10
0.42686
 20
1.06115
 30
0.0
 10
0.20842
 20
0.40583
 30
0.0
 10
0.20842
 20
0.40583
 30
0.0
 10
0.20842
 20
0.40583
 30
0.0
 10
0.33034
 20
0.5023500000000001
 30
0.0
 10
0.33034
 20
0.5023500000000001
 30
0.0
  0
SPLINE
  5
39
100
AcDbEntity
  8
Ebene 1
 62
     7
100
AcDbSpline
210
0.0
220
0.0
230
1.0
 70
     1
 71
     3
 72
    20
 73
    16
 74
     0
 42
0.0000000001
 43
0.0000000001
 40
0.0
 40
0.0
 40
0.0
 40
0.0
 40
0.25
 40
0.25
 40
0.25
 40
0.25
 40
0.5
 40
0.5
 40
0.5
 40
0.5
 40
0.75
 40
0.75
 40
0.75
 40
0.75
 40
1.0
 40
1.0
 40
1.0
 40
1.0
 10
-1.8134100000000002
 20
6.1055900000000003
 30
0.0
 10
-1.6432300000000002
 20
6.0751100000000005
 30
0.0
 10
-1.4247900000000002
 20
5.7880900000000004
 30
0.0
 10
-1.5721100000000001
 20
5.6433100000000005
 30
0.0
 10
-1.5721100000000001
 20
5.6433100000000005
 30
0.0
 10
-1.6102100000000001
 20
5.6433100000000005
 30
0.0
 10
-1.6432300000000002
 20
5.6433100000000005
 30
0.0
 10
-1.6635500000000001
 20
5.6737900000000003
 30
0.0
 10
-1.6635500000000001
 20
5.6737900000000003
 30
0.0
 10
-1.6406900000000002
 20
5.8490500000000001
 30
0.0
 10
-1.8769100000000001
 20
6.0268500000000005
 30
0.0
 10
-1.8921500000000002
 20
5.7880900000000004
 30
0.0
 10
-1.8921500000000002
 20
5.7880900000000004
 30
0.0
 10
-1.9708900000000003
 20
5.8820700000000006
 30
0.0
 10
-1.9175500000000001
 20
6.0598700000000001
 30
0.0
 10
-1.8134100000000002
 20
6.1055900000000003
 30
0.0
  0
SPLINE
  5
3A
100
AcDbEntity
  8
Ebene 1
 62
     7
100
AcDbSpline
210
0.0
220
0.0
230
1.0
 70
     1
 71
     3
 72
    20
 73
    16
 74
     0
 42
0.0000000001
 43
0.0000000001
 40
0.0
 40
0.0
 40
0.0
 40
0.0
 40
0.25
 40
0.25
 40
0.25
 40
0.25
 40
0.5
 40
0.5
 40
0.5
 40
0.5
 40
0.75
 40
0.75
 40
0.75
 40
0.75
 40
1.0
 40
1.0
 40
1.0
 40
1.0
 10
2.2023200000000003
 20
5.5467900000000006
 30
0.0
 10
2.2607400000000002
 20
5.5290100000000004
 30
0.0
 10
2.3674200000000001
 20
5.5137700000000001
 30
0.0
 10
2.3750400000000003
 20
5.4502700000000006
 30
0.0
 10
2.3750400000000003
 20
5.4502700000000006
 30
0.0
 10
2.25312
 20
5.4985300000000006
 30
0.0
 10
2.1083400000000001
 20
5.2419900000000004
 30
0.0
 10
2.0499200000000002
 20
5.4172500000000001
 30
0.0
 10
2.0499200000000002
 20
5.4172500000000001
 30
0.0
 10
2.0499200000000002
 20
5.4172500000000001
 30
0.0
 10
2.0753200000000001
 20
5.4502700000000006
 30
0.0
 10
2.0753200000000001
 20
5.4502700000000006
 30
0.0
 10
2.0753200000000001
 20
5.4502700000000006
 30
0.0
 10
2.1083400000000001
 20
5.5290100000000004
 30
0.0
 10
2.2023200000000003
 20
5.4502700000000006
 30
0.0
 10
2.2023200000000003
 20
5.5467900000000006
 30
0.0
  0
SPLINE
  5
3B
100
AcDbEntity
  8
Ebene 1
 62
     7
100
AcDbSpline
210
0.0
220
0.0
230
1.0
 70
     1
 71
     3
 72
    12
 73
     8
 74
     0
 42
0.0000000001
 43
0.0000000001
 40
0.0
 40
0.0
 40
0.0
 40
0.0
 40
0.5
 40
0.5
 40
0.5
 40
0.5
 40
1.0
 40
1.0
 40
1.0
 40
1.0
 10
1.9635600000000002
 20
5.2902500000000003
 30
0.0
 10
1.9915000000000003
 20
5.3054900000000007
 30
0.0
 10
2.0042
 20
5.2750100000000009
 30
0.0
 10
1.9915000000000003
 20
5.2419900000000004
 30
0.0
 10
1.9915000000000003
 20
5.2419900000000004
 30
0.0
 10
1.9635600000000002
 20
5.22675
 30
0.0
 10
1.9381600000000001
 20
5.2750100000000009
 30
0.0
 10
1.9635600000000002
 20
5.2902500000000003
 30
0.0
  0
SPLINE
  5
3C
100
AcDbEntity
  8
Ebene 1
100
AcDbSpline
210
0.0
220
0.0
230
1.0
 70
     1
 71
     3
 72
    24
 73
    20
 74
     0
 42
0.0000000001
 43
0.0000000001
 40
0.0
 40
0.0
 40
0.0
 40
0.0
 40
0.2
 40
0.2
 40
0.2
 40
0.2
 40
0.4
 40
0.4
 40
0.4
 40
0.4
 40
0.6000000000000001
 40
0.6000000000000001
 40
0.6000000000000001
 40
0.6000000000000001
 40
0.8
 40
0.8
 40
0.8
 40
0.8
 40
1.0
 40
1.0
 40
1.0
 40
1.0
 10
2.5884
 20
4.0405700000000007
 30
0.0
 10
2.6011000000000002
 20
4.0405700000000007
 30
0.0
 10
2.6341200000000002
 20
4.0583499999999999
 30
0.0
 10
2.63666
 20
4.0253300000000003
 30
0.0
 10
2.63666
 20
4.0253300000000003
 30
0.0
 10
2.6265000000000001
 20
3.5757500000000002
 30
0.0
 10
2.1413600000000002
 20
3.1769700000000003
 30
0.0
 10
2.4741000000000004
 20
2.7451700000000003
 30
0.0
 10
2.4741000000000004
 20
2.7451700000000003
 30
0.0
 10
2.4741000000000004
 20
2.7451700000000003
 30
0.0
 10
2.4741000000000004
 20
2.63341
 30
0.0
 10
2.4741000000000004
 20
2.63341
 30
0.0
 10
2.4741000000000004
 20
2.63341
 30
0.0
 10
2.2810600000000001
 20
2.8391500000000001
 30
0.0
 10
2.2607400000000002
 20
3.1287100000000003
 30
0.0
 10
2.0804
 20
3.3369900000000001
 30
0.0
 10
2.0804
 20
3.3369900000000001
 30
0.0
 10
2.3572600000000001
 20
3.4487500000000004
 30
0.0
 10
2.5376000000000003
 20
3.7535500000000002
 30
0.0
 10
2.5884
 20
4.0405700000000007
 30
0.0
  0
SPLINE
  5
3D
100
AcDbEntity
  8
Ebene 1
100
AcDbSpline
210
0.0
220
0.0
230
1.0
 70
     1
 71
     3
 72
    20
 73
    16
 74
     0
 42
0.0000000001
 43
0.0000000001
 40
0.0
 40
0.0
 40
0.0
 40
0.0
 40
0.25
 40
0.25
 40
0.25
 40
0.25
 40
0.5
 40
0.5
 40
0.5
 40
0.5
 40
0.75
 40
0.75
 40
0.75
 40
0.75
 40
1.0
 40
1.0
 40
1.0
 40
1.0
 10
0.3151000000000001
 20
3.5122500000000003
 30
0.0
 10
0.3455800000000001
 20
3.5274900000000002
 30
0.0
 10
0.38622
 20
3.4970100000000004
 30
0.0
 10
0.3786000000000001
 20
3.4639900000000003
 30
0.0
 10
0.3786000000000001
 20
3.4639900000000003
 30
0.0
 10
0.1246
 20
3.3217500000000002
 30
0.0
 10
-0.13701
 20
3.0652100000000004
 30
0.0
 10
-0.03795
 20
2.7451700000000003
 30
0.0
 10
-0.03795
 20
2.7451700000000003
 30
0.0
 10
-0.05319
 20
2.6969100000000004
 30
0.0
 10
-0.10907
 20
2.7121500000000003
 30
0.0
 10
-0.14717
 20
2.6969100000000004
 30
0.0
 10
-0.14717
 20
2.6969100000000004
 30
0.0
 10
-0.33767
 20
3.0169500000000005
 30
0.0
 10
0.0103
 20
3.4004900000000005
 30
0.0
 10
0.3151000000000001
 20
3.5122500000000003
 30
0.0
  0
SPLINE
  5
3E
100
AcDbEntity
  8
Ebene 1
100
AcDbSpline
210
0.0
220
0.0
230
1.0
 70
     1
 71
     3
 72
    16
 73
    12
 74
     0
 42
0.0000000001
 43
0.0000000001
 40
0.0
 40
0.0
 40
0.0
 40
0.0
 40
0.3333333333333333
 40
0.3333333333333333
 40
0.3333333333333333
 40
0.3333333333333333
 40
0.6666666666666666
 40
0.6666666666666666
 40
0.6666666666666666
 40
0.6666666666666666
 40
1.0
 40
1.0
 40
1.0
 40
1.0
 10
-1.8769100000000001
 20
3.3852500000000001
 30
0.0
 10
-1.8769100000000001
 20
3.3852500000000001
 30
0.0
 10
-1.2215900000000002
 20
3.2887300000000002
 30
0.0
 10
-1.2215900000000002
 20
3.2887300000000002
 30
0.0
 10
-1.2215900000000002
 20
3.2887300000000002
 30
0.0
 10
-1.4374900000000002
 20
3.2226900000000001
 30
0.0
 10
-1.6533900000000001
 20
3.3522300000000005
 30
0.0
 10
-1.8718300000000001
 20
3.3522300000000005
 30
0.0
 10
-1.8718300000000001
 20
3.3522300000000005
 30
0.0
 10
-1.8718300000000001
 20
3.3522300000000005
 30
0.0
 10
-1.8769100000000001
 20
3.3852500000000001
 30
0.0
 10
-1.8769100000000001
 20
3.3852500000000001
 30
0.0
  0
SPLINE
  5
3F
100
AcDbEntity
  8
Ebene 1
100
AcDbSpline
210
0.0
220
0.0
230
1.0
 70
     1
 71
     3
 72
    20
 73
    16
 74
     0
 42
0.0000000001
 43
0.0000000001
 40
0.0
 40
0.0
 40
0.0
 40
0.0
 40
0.25
 40
0.25
 40
0.25
 40
0.25
 40
0.5
 40
0.5
 40
0.5
 40
0.5
 40
0.75
 40
0.75
 40
0.75
 40
0.75
 40
1.0
 40
1.0
 40
1.0
 40
1.0
 10
-0.80503
 20
3.1439500000000002
 30
0.0
 10
-0.5992900000000001
 20
3.1109300000000002
 30
0.0
 10
-0.6196100000000001
 20
2.8391500000000001
 30
0.0
 10
-0.63231
 20
2.6638900000000003
 30
0.0
 10
-0.63231
 20
2.6638900000000003
 30
0.0
 10
-0.63231
 20
2.6638900000000003
 30
0.0
 10
-0.78471
 20
2.6638900000000003
 30
0.0
 10
-0.78471
 20
2.6638900000000003
 30
0.0
 10
-0.78471
 20
2.6638900000000003
 30
0.0
 10
-0.78471
 20
2.6638900000000003
 30
0.0
 10
-0.7872500000000001
 20
2.7121500000000003
 30
0.0
 10
-0.7872500000000001
 20
2.7121500000000003
 30
0.0
 10
-0.7872500000000001
 20
2.7121500000000003
 30
0.0
 10
-0.67803
 20
2.8391500000000001
 30
0.0
 10
-0.7897900000000001
 20
2.9991700000000003
 30
0.0
 10
-0.80503
 20
3.1439500000000002
 30
0.0
  0
SPLINE
  5
40
100
AcDbEntity
  8
Ebene 1
100
AcDbSpline
210
0.0
220
0.0
230
1.0
 70
     1
 71
     3
 72
    80
 73
    76
 74
     0
 42
0.0000000001
 43
0.0000000001
 40
0.0
 40
0.0
 40
0.0
 40
0.0
 40
0.0526315789473684
 40
0.0526315789473684
 40
0.0526315789473684
 40
0.0526315789473684
 40
0.1052631578947368
 40
0.1052631578947368
 40
0.1052631578947368
 40
0.1052631578947368
 40
0.1578947368421053
 40
0.1578947368421053
 40
0.1578947368421053
 40
0.1578947368421053
 40
0.2105263157894737
 40
0.2105263157894737
 40
0.2105263157894737
 40
0.2105263157894737
 40
0.2631578947368421
 40
0.2631578947368421
 40
0.2631578947368421
 40
0.2631578947368421
 40
0.3157894736842105
 40
0.3157894736842105
 40
0.3157894736842105
 40
0.3157894736842105
 40
0.3684210526315789
 40
0.3684210526315789
 40
0.3684210526315789
 40
0.3684210526315789
 40
0.4210526315789474
 40
0.4210526315789474
 40
0.4210526315789474
 40
0.4210526315789474
 40
0.4736842105263158
 40
0.4736842105263158
 40
0.4736842105263158
 40
0.4736842105263158
 40
0.5263157894736842
 40
0.5263157894736842
 40
0.5263157894736842
 40
0.5263157894736842
 40
0.5789473684210527
 40
0.5789473684210527
 40
0.5789473684210527
 40
0.5789473684210527
 40
0.631578947368421
 40
0.631578947368421
 40
0.631578947368421
 40
0.631578947368421
 40
0.6842105263157894
 40
0.6842105263157894
 40
0.6842105263157894
 40
0.6842105263157894
 40
0.7368421052631577
 40
0.7368421052631577
 40
0.7368421052631577
 40
0.7368421052631577
 40
0.7894736842105261
 40
0.7894736842105261
 40
0.7894736842105261
 40
0.7894736842105261
 40
0.8421052631578945
 40
0.8421052631578945
 40
0.8421052631578945
 40
0.8421052631578945
 40
0.8947368421052628
 40
0.8947368421052628
 40
0.8947368421052628
 40
0.8947368421052628
 40
0.9473684210526312
 40
0.9473684210526312
 40
0.9473684210526312
 40
0.9473684210526312
 40
1.0
 40
1.0
 40
1.0
 40
1.0
 10
1.27522
 20
3.1109300000000002
 30
0.0
 10
1.4149200000000002
 20
3.0804500000000004
 30
0.0
 10
1.18632
 20
2.9686900000000001
 30
0.0
 10
1.2168000000000001
 20
2.88741
 30
0.0
 10
1.2168000000000001
 20
2.88741
 30
0.0
 10
1.3387200000000001
 20
2.8086700000000002
 30
0.0
 10
1.5419200000000002
 20
3.0956900000000003
 30
0.0
 10
1.5597000000000001
 20
2.9839300000000004
 30
0.0
 10
1.5597000000000001
 20
2.9839300000000004
 30
0.0
 10
1.2193400000000001
 20
2.7121500000000003
 30
0.0
 10
1.7222600000000001
 20
2.8391500000000001
 30
0.0
 10
1.8492600000000001
 20
2.9356700000000004
 30
0.0
 10
1.8492600000000001
 20
2.9356700000000004
 30
0.0
 10
1.8238600000000003
 20
2.8391500000000001
 30
0.0
 10
1.7273400000000001
 20
2.8239100000000001
 30
0.0
 10
1.6638400000000002
 20
2.7756500000000002
 30
0.0
 10
1.6638400000000002
 20
2.7756500000000002
 30
0.0
 10
1.56986
 20
2.7273900000000002
 30
0.0
 10
1.7273400000000001
 20
2.6969100000000004
 30
0.0
 10
1.7705200000000001
 20
2.7121500000000003
 30
0.0
 10
1.7705200000000001
 20
2.7121500000000003
 30
0.0
 10
1.9407000000000001
 20
2.6156300000000003
 30
0.0
 10
2.04738
 20
2.3743300000000001
 30
0.0
 10
2.1362800000000002
 20
2.2143100000000002
 30
0.0
 10
2.1362800000000002
 20
2.2143100000000002
 30
0.0
 10
2.1362800000000002
 20
2.2143100000000002
 30
0.0
 10
1.8645
 20
2.47085
 30
0.0
 10
1.8645
 20
2.47085
 30
0.0
 10
1.8645
 20
2.47085
 30
0.0
 10
1.8391000000000002
 20
2.50387
 30
0.0
 10
1.7933800000000002
 20
2.4886300000000001
 30
0.0
 10
1.7756000000000001
 20
2.4556100000000001
 30
0.0
 10
1.7756000000000001
 20
2.4556100000000001
 30
0.0
 10
1.8518000000000001
 20
2.1025500000000004
 30
0.0
 10
1.7705200000000001
 20
1.6224900000000002
 30
0.0
 10
1.3285600000000002
 20
1.65551
 30
0.0
 10
1.3285600000000002
 20
1.65551
 30
0.0
 10
1.3285600000000002
 20
1.65551
 30
0.0
 10
1.19394
 20
1.5920100000000001
 30
0.0
 10
1.19394
 20
1.5920100000000001
 30
0.0
 10
1.19394
 20
1.5920100000000001
 30
0.0
 10
1.4276200000000001
 20
1.4319900000000001
 30
0.0
 10
1.7273400000000001
 20
1.4142100000000002
 30
0.0
 10
1.9635600000000002
 20
1.52597
 30
0.0
 10
1.9635600000000002
 20
1.52597
 30
0.0
 10
1.9635600000000002
 20
1.52597
 30
0.0
 10
1.6765400000000001
 20
1.3659500000000002
 30
0.0
 10
1.6765400000000001
 20
1.3659500000000002
 30
0.0
 10
1.6765400000000001
 20
1.3659500000000002
 30
0.0
 10
1.3463400000000001
 20
1.4802500000000001
 30
0.0
 10
1.01614
 20
1.4802500000000001
 30
0.0
 10
0.6707000000000001
 20
1.5107300000000001
 30
0.0
 10
0.6707000000000001
 20
1.5107300000000001
 30
0.0
 10
0.6707000000000001
 20
1.5107300000000001
 30
0.0
 10
0.19064
 20
2.0238100000000001
 30
0.0
 10
0.19064
 20
2.0238100000000001
 30
0.0
 10
0.19064
 20
2.0238100000000001
 30
0.0
 10
0.19064
 20
2.0238100000000001
 30
0.0
 10
0.03062
 20
1.7520300000000002
 30
0.0
 10
0.03062
 20
1.7520300000000002
 30
0.0
 10
0.03062
 20
1.7520300000000002
 30
0.0
 10
0.09666
 20
1.9907900000000001
 30
0.0
 10
0.277
 20
2.6638900000000003
 30
0.0
 10
-0.12685
 20
2.3590900000000001
 30
0.0
 10
-0.12685
 20
2.3590900000000001
 30
0.0
 10
-0.04811
 20
2.50387
 30
0.0
 10
-0.14717
 20
2.4886300000000001
 30
0.0
 10
-0.17511
 20
2.6003900000000004
 30
0.0
 10
-0.17511
 20
2.6003900000000004
 30
0.0
 10
-0.07605
 20
2.6461100000000002
 30
0.0
 10
-0.03287
 20
2.5191100000000004
 30
0.0
 10
0.05856
 20
2.5343500000000003
 30
0.0
 10
0.05856
 20
2.5343500000000003
 30
0.0
 10
0.43702
 20
2.8086700000000002
 30
0.0
 10
0.9247000000000001
 20
2.8239100000000001
 30
0.0
 10
1.27522
 20
3.1109300000000002
 30
0.0
  0
SPLINE
  5
41
100
AcDbEntity
  8
Ebene 1
100
AcDbSpline
210
0.0
220
0.0
230
1.0
 70
     1
 71
     3
 72
    60
 73
    56
 74
     0
 42
0.0000000001
 43
0.0000000001
 40
0.0
 40
0.0
 40
0.0
 40
0.0
 40
0.0714285714285714
 40
0.0714285714285714
 40
0.0714285714285714
 40
0.0714285714285714
 40
0.1428571428571429
 40
0.1428571428571429
 40
0.1428571428571429
 40
0.1428571428571429
 40
0.2142857142857143
 40
0.2142857142857143
 40
0.2142857142857143
 40
0.2142857142857143
 40
0.2857142857142857
 40
0.2857142857142857
 40
0.2857142857142857
 40
0.2857142857142857
 40
0.3571428571428571
 40
0.3571428571428571
 40
0.3571428571428571
 40
0.3571428571428571
 40
0.4285714285714285
 40
0.4285714285714285
 40
0.4285714285714285
 40
0.4285714285714285
 40
0.4999999999999999
 40
0.4999999999999999
 40
0.4999999999999999
 40
0.4999999999999999
 40
0.5714285714285713
 40
0.5714285714285713
 40
0.5714285714285713
 40
0.5714285714285713
 40
0.6428571428571427
 40
0.6428571428571427
 40
0.6428571428571427
 40
0.6428571428571427
 40
0.7142857142857141
 40
0.7142857142857141
 40
0.7142857142857141
 40
0.7142857142857141
 40
0.7857142857142855
 40
0.7857142857142855
 40
0.7857142857142855
 40
0.7857142857142855
 40
0.8571428571428569
 40
0.8571428571428569
 40
0.8571428571428569
 40
0.8571428571428569
 40
0.9285714285714283
 40
0.9285714285714283
 40
0.9285714285714283
 40
0.9285714285714283
 40
1.0
 40
1.0
 40
1.0
 40
1.0
 10
-2.0521700000000003
 20
3.0956900000000003
 30
0.0
 10
-2.1359900000000001
 20
2.8391500000000001
 30
0.0
 10
-1.7600700000000002
 20
2.6003900000000004
 30
0.0
 10
-1.5924300000000002
 20
2.8391500000000001
 30
0.0
 10
-1.5924300000000002
 20
2.8391500000000001
 30
0.0
 10
-1.3993900000000001
 20
2.5851500000000001
 30
0.0
 10
-1.0082300000000002
 20
2.42259
 30
0.0
 10
-0.7110500000000001
 20
2.47085
 30
0.0
 10
-0.7110500000000001
 20
2.47085
 30
0.0
 10
-0.7974100000000001
 20
2.3743300000000001
 30
0.0
 10
-0.7770900000000001
 20
2.2803500000000003
 30
0.0
 10
-0.7923300000000001
 20
2.1508100000000003
 30
0.0
 10
-0.7923300000000001
 20
2.1508100000000003
 30
0.0
 10
-0.9066300000000001
 20
2.12033
 30
0.0
 10
-0.82789
 20
2.3438500000000002
 30
0.0
 10
-0.9447300000000001
 20
2.3286100000000003
 30
0.0
 10
-0.9447300000000001
 20
2.3286100000000003
 30
0.0
 10
-0.93203
 20
1.7342500000000001
 30
0.0
 10
-1.5136900000000002
 20
1.2211700000000001
 30
0.0
 10
-2.0953500000000003
 20
1.3659500000000002
 30
0.0
 10
-2.0953500000000003
 20
1.3659500000000002
 30
0.0
 10
-2.0623300000000002
 20
1.4624700000000002
 30
0.0
 10
-1.92517
 20
1.3837300000000001
 30
0.0
 10
-1.8794500000000001
 20
1.4624700000000002
 30
0.0
 10
-1.8794500000000001
 20
1.4624700000000002
 30
0.0
 10
-1.8794500000000001
 20
1.4624700000000002
 30
0.0
 10
-1.9759700000000002
 20
1.5107300000000001
 30
0.0
 10
-1.9759700000000002
 20
1.5107300000000001
 30
0.0
 10
-1.9759700000000002
 20
1.5107300000000001
 30
0.0
 10
-2.06487
 20
1.5589900000000001
 30
0.0
 10
-2.1105900000000002
 20
1.4319900000000001
 30
0.0
 10
-2.1918700000000002
 20
1.4624700000000002
 30
0.0
 10
-2.1918700000000002
 20
1.4624700000000002
 30
0.0
 10
-2.1588500000000002
 20
1.65551
 30
0.0
 10
-2.51953
 20
1.7672700000000001
 30
0.0
 10
-2.4560300000000002
 20
2.0238100000000001
 30
0.0
 10
-2.4560300000000002
 20
2.0238100000000001
 30
0.0
 10
-2.5144500000000001
 20
2.0238100000000001
 30
0.0
 10
-2.4992100000000002
 20
1.8307700000000002
 30
0.0
 10
-2.5804900000000002
 20
1.8968100000000001
 30
0.0
 10
-2.5804900000000002
 20
1.8968100000000001
 30
0.0
 10
-2.5449300000000004
 20
2.13557
 30
0.0
 10
-2.4890500000000002
 20
2.3921100000000002
 30
0.0
 10
-2.3264900000000002
 20
2.5851500000000001
 30
0.0
 10
-2.3264900000000002
 20
2.5851500000000001
 30
0.0
 10
-2.3417300000000001
 20
2.6461100000000002
 30
0.0
 10
-2.4890500000000002
 20
2.6791300000000002
 30
0.0
 10
-2.48143
 20
2.7604100000000003
 30
0.0
 10
-2.48143
 20
2.7604100000000003
 30
0.0
 10
-2.35697
 20
2.7273900000000002
 30
0.0
 10
-2.2172700000000001
 20
2.6969100000000004
 30
0.0
 10
-2.0877300000000001
 20
2.7451700000000003
 30
0.0
 10
-2.0877300000000001
 20
2.7451700000000003
 30
0.0
 10
-2.1055100000000002
 20
2.8569300000000002
 30
0.0
 10
-2.1232900000000003
 20
2.9991700000000003
 30
0.0
 10
-2.0521700000000003
 20
3.0956900000000003
 30
0.0
  0
SPLINE
  5
42
100
AcDbEntity
  8
Ebene 1
 62
     7
100
AcDbSpline
210
0.0
220
0.0
230
1.0
 70
     1
 71
     3
 72
    92
 73
    88
 74
     0
 42
0.0000000001
 43
0.0000000001
 40
0.0
 40
0.0
 40
0.0
 40
0.0
 40
0.0454545454545455
 40
0.0454545454545455
 40
0.0454545454545455
 40
0.0454545454545455
 40
0.0909090909090909
 40
0.0909090909090909
 40
0.0909090909090909
 40
0.0909090909090909
 40
0.1363636363636364
 40
0.1363636363636364
 40
0.1363636363636364
 40
0.1363636363636364
 40
0.1818181818181818
 40
0.1818181818181818
 40
0.1818181818181818
 40
0.1818181818181818
 40
0.2272727272727273
 40
0.2272727272727273
 40
0.2272727272727273
 40
0.2272727272727273
 40
0.2727272727272728
 40
0.2727272727272728
 40
0.2727272727272728
 40
0.2727272727272728
 40
0.3181818181818182
 40
0.3181818181818182
 40
0.3181818181818182
 40
0.3181818181818182
 40
0.3636363636363637
 40
0.3636363636363637
 40
0.3636363636363637
 40
0.3636363636363637
 40
0.4090909090909092
 40
0.4090909090909092
 40
0.4090909090909092
 40
0.4090909090909092
 40
0.4545454545454546
 40
0.4545454545454546
 40
0.4545454545454546
 40
0.4545454545454546
 40
0.5000000000000001
 40
0.5000000000000001
 40
0.5000000000000001
 40
0.5000000000000001
 40
0.5454545454545455
 40
0.5454545454545455
 40
0.5454545454545455
 40
0.5454545454545455
 40
0.5909090909090909
 40
0.5909090909090909
 40
0.5909090909090909
 40
0.5909090909090909
 40
0.6363636363636364
 40
0.6363636363636364
 40
0.6363636363636364
 40
0.6363636363636364
 40
0.6818181818181818
 40
0.6818181818181818
 40
0.6818181818181818
 40
0.6818181818181818
 40
0.7272727272727272
 40
0.7272727272727272
 40
0.7272727272727272
 40
0.7272727272727272
 40
0.7727272727272726
 40
0.7727272727272726
 40
0.7727272727272726
 40
0.7727272727272726
 40
0.818181818181818
 40
0.818181818181818
 40
0.818181818181818
 40
0.818181818181818
 40
0.8636363636363634
 40
0.8636363636363634
 40
0.8636363636363634
 40
0.8636363636363634
 40
0.9090909090909088
 40
0.9090909090909088
 40
0.9090909090909088
 40
0.9090909090909088
 40
0.9545454545454543
 40
0.9545454545454543
 40
0.9545454545454543
 40
0.9545454545454543
 40
1.0
 40
1.0
 40
1.0
 40
1.0
 10
0.5056000000000001
 20
2.3438500000000002
 30
0.0
 10
0.5056000000000001
 20
2.3438500000000002
 30
0.0
 10
0.5868800000000001
 20
2.4886300000000001
 30
0.0
 10
0.5868800000000001
 20
2.4886300000000001
 30
0.0
 10
0.5868800000000001
 20
2.4886300000000001
 30
0.0
 10
0.32018
 20
2.7273900000000002
 30
0.0
 10
1.3514200000000001
 20
3.0474300000000003
 30
0.0
 10
1.2269600000000001
 20
2.6003900000000004
 30
0.0
 10
1.2269600000000001
 20
2.6003900000000004
 30
0.0
 10
1.2117200000000001
 20
2.55213
 30
0.0
 10
1.2422000000000002
 20
2.5191100000000004
 30
0.0
 10
1.2879200000000002
 20
2.5191100000000004
 30
0.0
 10
1.2879200000000002
 20
2.5191100000000004
 30
0.0
 10
1.3412600000000001
 20
2.6969100000000004
 30
0.0
 10
1.4530200000000002
 20
2.7908900000000001
 30
0.0
 10
1.3717400000000002
 20
2.55213
 30
0.0
 10
1.3717400000000002
 20
2.55213
 30
0.0
 10
1.4276200000000001
 20
2.3743300000000001
 30
0.0
 10
1.4682600000000001
 20
2.6156300000000003
 30
0.0
 10
1.5444600000000002
 20
2.63341
 30
0.0
 10
1.5444600000000002
 20
2.63341
 30
0.0
 10
1.8111600000000001
 20
2.3286100000000003
 30
0.0
 10
1.6790800000000001
 20
1.7190100000000001
 30
0.0
 10
1.23204
 20
1.7037700000000002
 30
0.0
 10
1.23204
 20
1.7037700000000002
 30
0.0
 10
1.23204
 20
1.7037700000000002
 30
0.0
 10
1.2269600000000001
 20
1.7672700000000001
 30
0.0
 10
1.2269600000000001
 20
1.7672700000000001
 30
0.0
 10
1.2269600000000001
 20
1.7672700000000001
 30
0.0
 10
0.7977000000000001
 20
1.3659500000000002
 30
0.0
 10
0.0865
 20
1.9907900000000001
 30
0.0
 10
0.32018
 20
2.4886300000000001
 30
0.0
 10
0.32018
 20
2.4886300000000001
 30
0.0
 10
0.36082
 20
2.55213
 30
0.0
 10
0.47512
 20
2.63341
 30
0.0
 10
0.47512
 20
2.50387
 30
0.0
 10
0.47512
 20
2.50387
 30
0.0
 10
0.51322
 20
2.3921100000000002
 30
0.0
 10
0.3557400000000001
 20
2.3286100000000003
 30
0.0
 10
0.3659
 20
2.2143100000000002
 30
0.0
 10
0.3659
 20
2.2143100000000002
 30
0.0
 10
0.61482
 20
2.1990700000000003
 30
0.0
 10
0.658
 20
2.16859
 30
0.0
 10
0.9374000000000001
 20
1.9120500000000002
 30
0.0
 10
0.9374000000000001
 20
1.9120500000000002
 30
0.0
 10
0.9856600000000001
 20
2.0238100000000001
 30
0.0
 10
0.8434200000000001
 20
2.13557
 30
0.0
 10
0.8002400000000001
 20
2.2320900000000004
 30
0.0
 10
0.8002400000000001
 20
2.2320900000000004
 30
0.0
 10
0.8789800000000001
 20
2.1990700000000003
 30
0.0
 10
0.9475600000000001
 20
2.1025500000000004
 30
0.0
 10
0.9882000000000001
 20
2.0238100000000001
 30
0.0
 10
0.9882000000000001
 20
2.0238100000000001
 30
0.0
 10
0.9755
 20
1.9907900000000001
 30
0.0
 10
1.0085200000000001
 20
1.9755500000000001
 30
0.0
 10
1.0313800000000002
 20
1.9907900000000001
 30
0.0
 10
1.0313800000000002
 20
1.9907900000000001
 30
0.0
 10
0.9018400000000001
 20
2.2320900000000004
 30
0.0
 10
1.3539600000000001
 20
2.4403700000000002
 30
0.0
 10
1.2168000000000001
 20
2.1025500000000004
 30
0.0
 10
1.2168000000000001
 20
2.1025500000000004
 30
0.0
 10
1.2422000000000002
 20
1.9831700000000001
 30
0.0
 10
1.27014
 20
2.1482700000000001
 30
0.0
 10
1.2980800000000001
 20
2.1762100000000002
 30
0.0
 10
1.2980800000000001
 20
2.1762100000000002
 30
0.0
 10
1.3844400000000001
 20
2.2524100000000002
 30
0.0
 10
1.5012800000000002
 20
2.3311500000000001
 30
0.0
 10
1.4327000000000001
 20
2.3438500000000002
 30
0.0
 10
1.4327000000000001
 20
2.3438500000000002
 30
0.0
 10
1.4327000000000001
 20
2.3438500000000002
 30
0.0
 10
1.0364600000000002
 20
2.3921100000000002
 30
0.0
 10
1.0364600000000002
 20
2.3921100000000002
 30
0.0
 10
1.0364600000000002
 20
2.3921100000000002
 30
0.0
 10
0.9628000000000001
 20
2.4403700000000002
 30
0.0
 10
1.1152000000000002
 20
2.50387
 30
0.0
 10
1.0948800000000001
 20
2.5673700000000004
 30
0.0
 10
1.0948800000000001
 20
2.5673700000000004
 30
0.0
 10
1.0009000000000001
 20
2.5343500000000003
 30
0.0
 10
0.9501000000000001
 20
2.4073500000000001
 30
0.0
 10
0.8434200000000001
 20
2.4073500000000001
 30
0.0
 10
0.8434200000000001
 20
2.4073500000000001
 30
0.0
 10
0.6503800000000001
 20
2.3743300000000001
 30
0.0
 10
0.9424800000000001
 20
2.50387
 30
0.0
 10
0.9196200000000001
 20
2.6003900000000004
 30
0.0
 10
0.9196200000000001
 20
2.6003900000000004
 30
0.0
 10
0.76722
 20
2.55213
 30
0.0
 10
0.67832
 20
2.3590900000000001
 30
0.0
 10
0.5056000000000001
 20
2.3438500000000002
 30
0.0
  0
SPLINE
  5
43
100
AcDbEntity
  8
Ebene 1
 62
     7
100
AcDbSpline
210
0.0
220
0.0
230
1.0
 70
     1
 71
     3
 72
    48
 73
    44
 74
     0
 42
0.0000000001
 43
0.0000000001
 40
0.0
 40
0.0
 40
0.0
 40
0.0
 40
0.0909090909090909
 40
0.0909090909090909
 40
0.0909090909090909
 40
0.0909090909090909
 40
0.1818181818181818
 40
0.1818181818181818
 40
0.1818181818181818
 40
0.1818181818181818
 40
0.2727272727272727
 40
0.2727272727272727
 40
0.2727272727272727
 40
0.2727272727272727
 40
0.3636363636363637
 40
0.3636363636363637
 40
0.3636363636363637
 40
0.3636363636363637
 40
0.4545454545454546
 40
0.4545454545454546
 40
0.4545454545454546
 40
0.4545454545454546
 40
0.5454545454545455
 40
0.5454545454545455
 40
0.5454545454545455
 40
0.5454545454545455
 40
0.6363636363636365
 40
0.6363636363636365
 40
0.6363636363636365
 40
0.6363636363636365
 40
0.7272727272727274
 40
0.7272727272727274
 40
0.7272727272727274
 40
0.7272727272727274
 40
0.8181818181818183
 40
0.8181818181818183
 40
0.8181818181818183
 40
0.8181818181818183
 40
0.9090909090909093
 40
0.9090909090909093
 40
0.9090909090909093
 40
0.9090909090909093
 40
1.0
 40
1.0
 40
1.0
 40
1.0
 10
-1.8616700000000002
 20
2.6461100000000002
 30
0.0
 10
-1.6000500000000002
 20
2.6461100000000002
 30
0.0
 10
-1.5187700000000002
 20
2.12033
 30
0.0
 10
-1.25207
 20
2.2473300000000003
 30
0.0
 10
-1.25207
 20
2.2473300000000003
 30
0.0
 10
-1.3079500000000002
 20
2.2955900000000002
 30
0.0
 10
-1.3638300000000001
 20
2.3590900000000001
 30
0.0
 10
-1.4400300000000001
 20
2.3921100000000002
 30
0.0
 10
-1.4400300000000001
 20
2.3921100000000002
 30
0.0
 10
-1.5924300000000002
 20
2.6461100000000002
 30
0.0
 10
-1.3155700000000001
 20
2.47085
 30
0.0
 10
-1.2850900000000001
 20
2.3286100000000003
 30
0.0
 10
-1.2850900000000001
 20
2.3286100000000003
 30
0.0
 10
-1.20889
 20
2.2955900000000002
 30
0.0
 10
-1.2368300000000001
 20
2.3921100000000002
 30
0.0
 10
-1.1733300000000002
 20
2.3921100000000002
 30
0.0
 10
-1.1733300000000002
 20
2.3921100000000002
 30
0.0
 10
-1.0971300000000002
 20
2.3438500000000002
 30
0.0
 10
-1.04379
 20
2.2625700000000002
 30
0.0
 10
-1.0158500000000001
 20
2.1838300000000004
 30
0.0
 10
-1.0158500000000001
 20
2.1838300000000004
 30
0.0
 10
-1.1606300000000001
 20
1.8637900000000001
 30
0.0
 10
-1.4755900000000002
 20
1.39897
 30
0.0
 10
-1.8921500000000002
 20
1.5920100000000001
 30
0.0
 10
-1.8921500000000002
 20
1.5920100000000001
 30
0.0
 10
-1.8921500000000002
 20
1.5920100000000001
 30
0.0
 10
-2.11313
 20
1.57423
 30
0.0
 10
-2.11313
 20
1.57423
 30
0.0
 10
-2.11313
 20
1.57423
 30
0.0
 10
-2.52969
 20
1.7672700000000001
 30
0.0
 10
-2.48143
 20
2.5191100000000004
 30
0.0
 10
-2.02169
 20
2.6003900000000004
 30
0.0
 10
-2.02169
 20
2.6003900000000004
 30
0.0
 10
-1.9581900000000001
 20
2.5851500000000001
 30
0.0
 10
-1.9226300000000001
 20
2.5191100000000004
 30
0.0
 10
-1.8718300000000001
 20
2.47085
 30
0.0
 10
-1.8718300000000001
 20
2.47085
 30
0.0
 10
-1.7600700000000002
 20
2.3743300000000001
 30
0.0
 10
-1.7473700000000001
 20
2.1990700000000003
 30
0.0
 10
-1.5594100000000002
 20
2.2955900000000002
 30
0.0
 10
-1.5594100000000002
 20
2.2955900000000002
 30
0.0
 10
-1.5594100000000002
 20
2.2955900000000002
 30
0.0
 10
-1.8616700000000002
 20
2.6461100000000002
 30
0.0
 10
-1.8616700000000002
 20
2.6461100000000002
 30
0.0
  0
SPLINE
  5
44
100
AcDbEntity
  8
Ebene 1
100
AcDbSpline
210
0.0
220
0.0
230
1.0
 70
     1
 71
     3
 72
    16
 73
    12
 74
     0
 42
0.0000000001
 43
0.0000000001
 40
0.0
 40
0.0
 40
0.0
 40
0.0
 40
0.3333333333333333
 40
0.3333333333333333
 40
0.3333333333333333
 40
0.3333333333333333
 40
0.6666666666666666
 40
0.6666666666666666
 40
0.6666666666666666
 40
0.6666666666666666
 40
1.0
 40
1.0
 40
1.0
 40
1.0
 10
-0.61199
 20
2.55213
 30
0.0
 10
-0.61199
 20
2.55213
 30
0.0
 10
-0.55103
 20
2.55213
 30
0.0
 10
-0.55103
 20
2.55213
 30
0.0
 10
-0.55103
 20
2.55213
 30
0.0
 10
-0.5586500000000001
 20
2.47085
 30
0.0
 10
-0.5154700000000001
 20
2.3438500000000002
 30
0.0
 10
-0.57389
 20
2.2803500000000003
 30
0.0
 10
-0.57389
 20
2.2803500000000003
 30
0.0
 10
-0.5815100000000001
 20
2.3743300000000001
 30
0.0
 10
-0.57389
 20
2.47085
 30
0.0
 10
-0.61199
 20
2.55213
 30
0.0
  0
SPLINE
  5
45
100
AcDbEntity
  8
Ebene 1
100
AcDbSpline
210
0.0
220
0.0
230
1.0
 70
     1
 71
     3
 72
    48
 73
    44
 74
     0
 42
0.0000000001
 43
0.0000000001
 40
0.0
 40
0.0
 40
0.0
 40
0.0
 40
0.0909090909090909
 40
0.0909090909090909
 40
0.0909090909090909
 40
0.0909090909090909
 40
0.1818181818181818
 40
0.1818181818181818
 40
0.1818181818181818
 40
0.1818181818181818
 40
0.2727272727272727
 40
0.2727272727272727
 40
0.2727272727272727
 40
0.2727272727272727
 40
0.3636363636363637
 40
0.3636363636363637
 40
0.3636363636363637
 40
0.3636363636363637
 40
0.4545454545454546
 40
0.4545454545454546
 40
0.4545454545454546
 40
0.4545454545454546
 40
0.5454545454545455
 40
0.5454545454545455
 40
0.5454545454545455
 40
0.5454545454545455
 40
0.6363636363636365
 40
0.6363636363636365
 40
0.6363636363636365
 40
0.6363636363636365
 40
0.7272727272727274
 40
0.7272727272727274
 40
0.7272727272727274
 40
0.7272727272727274
 40
0.8181818181818183
 40
0.8181818181818183
 40
0.8181818181818183
 40
0.8181818181818183
 40
0.9090909090909093
 40
0.9090909090909093
 40
0.9090909090909093
 40
0.9090909090909093
 40
1.0
 40
1.0
 40
1.0
 40
1.0
 10
-1.9404100000000002
 20
2.3438500000000002
 30
0.0
 10
-1.9404100000000002
 20
2.3438500000000002
 30
0.0
 10
-1.8489700000000002
 20
2.3438500000000002
 30
0.0
 10
-1.8489700000000002
 20
2.3438500000000002
 30
0.0
 10
-1.8489700000000002
 20
2.3438500000000002
 30
0.0
 10
-1.8489700000000002
 20
2.3438500000000002
 30
0.0
 10
-1.9505700000000001
 20
2.1508100000000003
 30
0.0
 10
-1.9505700000000001
 20
2.1508100000000003
 30
0.0
 10
-1.9505700000000001
 20
2.1508100000000003
 30
0.0
 10
-1.9505700000000001
 20
2.1508100000000003
 30
0.0
 10
-1.7168900000000002
 20
2.1990700000000003
 30
0.0
 10
-1.7168900000000002
 20
2.1990700000000003
 30
0.0
 10
-1.7168900000000002
 20
2.1990700000000003
 30
0.0
 10
-1.5263900000000001
 20
2.2473300000000003
 30
0.0
 10
-1.3028700000000002
 20
2.2143100000000002
 30
0.0
 10
-1.1733300000000002
 20
2.08731
 30
0.0
 10
-1.1733300000000002
 20
2.08731
 30
0.0
 10
-1.1733300000000002
 20
2.08731
 30
0.0
 10
-1.4070100000000001
 20
1.9120500000000002
 30
0.0
 10
-1.4070100000000001
 20
1.9120500000000002
 30
0.0
 10
-1.4070100000000001
 20
1.9120500000000002
 30
0.0
 10
-1.5543300000000002
 20
1.9120500000000002
 30
0.0
 10
-1.3028700000000002
 20
2.0085700000000002
 30
0.0
 10
-1.3206500000000001
 20
2.08731
 30
0.0
 10
-1.3206500000000001
 20
2.08731
 30
0.0
 10
-1.5187700000000002
 20
2.08731
 30
0.0
 10
-1.8184900000000002
 20
2.0568300000000002
 30
0.0
 10
-1.9835900000000002
 20
2.0238100000000001
 30
0.0
 10
-1.9835900000000002
 20
2.0238100000000001
 30
0.0
 10
-1.9835900000000002
 20
2.0238100000000001
 30
0.0
 10
-1.8311900000000001
 20
1.8968100000000001
 30
0.0
 10
-1.8311900000000001
 20
1.8968100000000001
 30
0.0
 10
-1.8311900000000001
 20
1.8968100000000001
 30
0.0
 10
-1.9658100000000001
 20
1.8155300000000001
 30
0.0
 10
-2.0343900000000001
 20
2.03905
 30
0.0
 10
-2.1613900000000004
 20
2.0238100000000001
 30
0.0
 10
-2.1613900000000004
 20
2.0238100000000001
 30
0.0
 10
-2.1613900000000004
 20
2.0238100000000001
 30
0.0
 10
-2.1639300000000001
 20
2.0720700000000001
 30
0.0
 10
-2.1639300000000001
 20
2.0720700000000001
 30
0.0
 10
-2.1639300000000001
 20
2.0720700000000001
 30
0.0
 10
-2.0826500000000001
 20
2.1508100000000003
 30
0.0
 10
-2.0089900000000003
 20
2.2473300000000003
 30
0.0
 10
-1.9404100000000002
 20
2.3438500000000002
 30
0.0
  0
SPLINE
  5
46
100
AcDbEntity
  8
Ebene 1
100
AcDbSpline
210
0.0
220
0.0
230
1.0
 70
     1
 71
     3
 72
     8
 73
     4
 74
     0
 42
0.0000000001
 43
0.0000000001
 40
0.0
 40
0.0
 40
0.0
 40
0.0
 40
1.0
 40
1.0
 40
1.0
 40
1.0
 10
0.5056000000000001
 20
2.3438500000000002
 30
0.0
 10
0.50814
 20
2.3108300000000002
 30
0.0
 10
0.47512
 20
2.3438500000000002
 30
0.0
 10
0.5056000000000001
 20
2.3438500000000002
 30
0.0
  0
SPLINE
  5
47
100
AcDbEntity
  8
Ebene 1
100
AcDbSpline
210
0.0
220
0.0
230
1.0
 70
     1
 71
     3
 72
    24
 73
    20
 74
     0
 42
0.0000000001
 43
0.0000000001
 40
0.0
 40
0.0
 40
0.0
 40
0.0
 40
0.2
 40
0.2
 40
0.2
 40
0.2
 40
0.4
 40
0.4
 40
0.4
 40
0.4
 40
0.6000000000000001
 40
0.6000000000000001
 40
0.6000000000000001
 40
0.6000000000000001
 40
0.8
 40
0.8
 40
0.8
 40
0.8
 40
1.0
 40
1.0
 40
1.0
 40
1.0
 10
-0.59675
 20
2.03905
 30
0.0
 10
-0.4900700000000001
 20
2.03905
 30
0.0
 10
-0.6043700000000001
 20
1.9425300000000001
 30
0.0
 10
-0.57389
 20
1.8790300000000002
 30
0.0
 10
-0.57389
 20
1.8790300000000002
 30
0.0
 10
-0.08621
 20
1.7977500000000002
 30
0.0
 10
0.06618
 20
1.10941
 30
0.0
 10
0.023
 20
0.6953900000000001
 30
0.0
 10
0.023
 20
0.6953900000000001
 30
0.0
 10
-0.10653
 20
0.5836300000000001
 30
0.0
 10
-0.3325900000000001
 20
0.55061
 30
0.0
 10
-0.45451
 20
0.7106300000000001
 30
0.0
 10
-0.45451
 20
0.7106300000000001
 30
0.0
 10
-0.5230900000000001
 20
0.61411
 30
0.0
 10
-0.65263
 20
0.59887
 30
0.0
 10
-0.7669300000000001
 20
0.59887
 30
0.0
 10
-0.7669300000000001
 20
0.59887
 30
0.0
 10
-0.9345700000000001
 20
1.06115
 30
0.0
 10
-0.74407
 20
1.5920100000000001
 30
0.0
 10
-0.59675
 20
2.03905
 30
0.0
  0
SPLINE
  5
48
100
AcDbEntity
  8
Ebene 1
100
AcDbSpline
210
0.0
220
0.0
230
1.0
 70
     1
 71
     3
 72
    16
 73
    12
 74
     0
 42
0.0000000001
 43
0.0000000001
 40
0.0
 40
0.0
 40
0.0
 40
0.0
 40
0.3333333333333333
 40
0.3333333333333333
 40
0.3333333333333333
 40
0.3333333333333333
 40
0.6666666666666666
 40
0.6666666666666666
 40
0.6666666666666666
 40
0.6666666666666666
 40
1.0
 40
1.0
 40
1.0
 40
1.0
 10
-0.9650500000000001
 20
1.9120500000000002
 30
0.0
 10
-0.9650500000000001
 20
1.9120500000000002
 30
0.0
 10
-0.8558300000000001
 20
1.9120500000000002
 30
0.0
 10
-0.8558300000000001
 20
1.9120500000000002
 30
0.0
 10
-0.8558300000000001
 20
1.9120500000000002
 30
0.0
 10
-0.9040900000000001
 20
1.7190100000000001
 30
0.0
 10
-0.9599700000000001
 20
1.4954900000000002
 30
0.0
 10
-1.08697
 20
1.3354700000000002
 30
0.0
 10
-1.08697
 20
1.3354700000000002
 30
0.0
 10
-1.08697
 20
1.3354700000000002
 30
0.0
 10
-0.9650500000000001
 20
1.9120500000000002
 30
0.0
 10
-0.9650500000000001
 20
1.9120500000000002
 30
0.0
  0
SPLINE
  5
49
100
AcDbEntity
  8
Ebene 1
100
AcDbSpline
210
0.0
220
0.0
230
1.0
 70
     1
 71
     3
 72
    24
 73
    20
 74
     0
 42
0.0000000001
 43
0.0000000001
 40
0.0
 40
0.0
 40
0.0
 40
0.0
 40
0.2
 40
0.2
 40
0.2
 40
0.2
 40
0.4
 40
0.4
 40
0.4
 40
0.4
 40
0.6000000000000001
 40
0.6000000000000001
 40
0.6000000000000001
 40
0.6000000000000001
 40
0.8
 40
0.8
 40
0.8
 40
0.8
 40
1.0
 40
1.0
 40
1.0
 40
1.0
 10
-2.4534900000000004
 20
1.6859900000000001
 30
0.0
 10
-2.36205
 20
1.6377300000000001
 30
0.0
 10
-2.4255500000000003
 20
1.39897
 30
0.0
 10
-2.2452100000000002
 20
1.4319900000000001
 30
0.0
 10
-2.2452100000000002
 20
1.4319900000000001
 30
0.0
 10
-2.2452100000000002
 20
1.4319900000000001
 30
0.0
 10
-2.2020300000000002
 20
1.4142100000000002
 30
0.0
 10
-2.2020300000000002
 20
1.4142100000000002
 30
0.0
 10
-2.2020300000000002
 20
1.4142100000000002
 30
0.0
 10
-2.2020300000000002
 20
1.4142100000000002
 30
0.0
 10
-2.2020300000000002
 20
1.3507100000000001
 30
0.0
 10
-2.2020300000000002
 20
1.3507100000000001
 30
0.0
 10
-2.2020300000000002
 20
1.3507100000000001
 30
0.0
 10
-2.27569
 20
1.3354700000000002
 30
0.0
 10
-2.3468100000000001
 20
1.3659500000000002
 30
0.0
 10
-2.4153900000000004
 20
1.3837300000000001
 30
0.0
 10
-2.4153900000000004
 20
1.3837300000000001
 30
0.0
 10
-2.4407900000000002
 20
1.4802500000000001
 30
0.0
 10
-2.4941300000000002
 20
1.57423
 30
0.0
 10
-2.4534900000000004
 20
1.6859900000000001
 30
0.0
  0
SPLINE
  5
4A
100
AcDbEntity
  8
Ebene 1
100
AcDbSpline
210
0.0
220
0.0
230
1.0
 70
     1
 71
     3
 72
    28
 73
    24
 74
     0
 42
0.0000000001
 43
0.0000000001
 40
0.0
 40
0.0
 40
0.0
 40
0.0
 40
0.1666666666666667
 40
0.1666666666666667
 40
0.1666666666666667
 40
0.1666666666666667
 40
0.3333333333333333
 40
0.3333333333333333
 40
0.3333333333333333
 40
0.3333333333333333
 40
0.5
 40
0.5
 40
0.5
 40
0.5
 40
0.6666666666666666
 40
0.6666666666666666
 40
0.6666666666666666
 40
0.6666666666666666
 40
0.8333333333333333
 40
0.8333333333333333
 40
0.8333333333333333
 40
0.8333333333333333
 40
1.0
 40
1.0
 40
1.0
 40
1.0
 10
2.2836000000000003
 20
1.32023
 30
0.0
 10
2.2836000000000003
 20
1.32023
 30
0.0
 10
2.34456
 20
1.32023
 30
0.0
 10
2.34456
 20
1.32023
 30
0.0
 10
2.34456
 20
1.32023
 30
0.0
 10
2.3344
 20
1.0459100000000001
 30
0.0
 10
2.5376000000000003
 20
0.8858900000000001
 30
0.0
 10
2.7484200000000003
 20
0.7741300000000001
 30
0.0
 10
2.7484200000000003
 20
0.7741300000000001
 30
0.0
 10
2.7255600000000002
 20
0.72587
 30
0.0
 10
2.6722200000000003
 20
0.80715
 30
0.0
 10
2.6417400000000004
 20
0.7588900000000001
 30
0.0
 10
2.6417400000000004
 20
0.7588900000000001
 30
0.0
 10
2.3928200000000004
 20
0.87065
 30
0.0
 10
2.2226400000000002
 20
0.5023500000000001
 30
0.0
 10
1.9838800000000001
 20
0.46933
 30
0.0
 10
1.9838800000000001
 20
0.46933
 30
0.0
 10
1.9661000000000002
 20
0.4845700000000001
 30
0.0
 10
1.9584800000000002
 20
0.5023500000000001
 30
0.0
 10
1.9686400000000002
 20
0.53283
 30
0.0
 10
1.9686400000000002
 20
0.53283
 30
0.0
 10
2.1820000000000004
 20
0.74365
 30
0.0
 10
2.3293200000000001
 20
1.0154300000000001
 30
0.0
 10
2.2836000000000003
 20
1.32023
 30
0.0
  0
SPLINE
  5
4B
100
AcDbEntity
  8
Ebene 1
 62
     7
100
AcDbSpline
210
0.0
220
0.0
230
1.0
 70
     1
 71
     3
 72
    12
 73
     8
 74
     0
 42
0.0000000001
 43
0.0000000001
 40
0.0
 40
0.0
 40
0.0
 40
0.0
 40
0.5
 40
0.5
 40
0.5
 40
0.5
 40
1.0
 40
1.0
 40
1.0
 40
1.0
 10
-1.3968500000000001
 20
0.51759
 30
0.0
 10
-1.3231900000000001
 20
0.4845700000000001
 30
0.0
 10
-1.3409700000000002
 20
0.3270900000000001
 30
0.0
 10
-1.3638300000000001
 20
0.26105
 30
0.0
 10
-1.3638300000000001
 20
0.26105
 30
0.0
 10
-1.3892300000000002
 20
0.3270900000000001
 30
0.0
 10
-1.46289
 20
0.43885
 30
0.0
 10
-1.3968500000000001
 20
0.51759
 30
0.0
  0
SPLINE
  5
4C
100
AcDbEntity
  8
Ebene 1
 62
     7
100
AcDbSpline
210
0.0
220
0.0
230
1.0
 70
     1
 71
     3
 72
   200
 73
   196
 74
     0
 42
0.0000000001
 43
0.0000000001
 40
0.0
 40
0.0
 40
0.0
 40
0.0
 40
0.0204081632653061
 40
0.0204081632653061
 40
0.0204081632653061
 40
0.0204081632653061
 40
0.0408163265306122
 40
0.0408163265306122
 40
0.0408163265306122
 40
0.0408163265306122
 40
0.0612244897959184
 40
0.0612244897959184
 40
0.0612244897959184
 40
0.0612244897959184
 40
0.0816326530612245
 40
0.0816326530612245
 40
0.0816326530612245
 40
0.0816326530612245
 40
0.1020408163265306
 40
0.1020408163265306
 40
0.1020408163265306
 40
0.1020408163265306
 40
0.1224489795918367
 40
0.1224489795918367
 40
0.1224489795918367
 40
0.1224489795918367
 40
0.1428571428571429
 40
0.1428571428571429
 40
0.1428571428571429
 40
0.1428571428571429
 40
0.163265306122449
 40
0.163265306122449
 40
0.163265306122449
 40
0.163265306122449
 40
0.1836734693877551
 40
0.1836734693877551
 40
0.1836734693877551
 40
0.1836734693877551
 40
0.2040816326530612
 40
0.2040816326530612
 40
0.2040816326530612
 40
0.2040816326530612
 40
0.2244897959183673
 40
0.2244897959183673
 40
0.2244897959183673
 40
0.2244897959183673
 40
0.2448979591836734
 40
0.2448979591836734
 40
0.2448979591836734
 40
0.2448979591836734
 40
0.2653061224489796
 40
0.2653061224489796
 40
0.2653061224489796
 40
0.2653061224489796
 40
0.2857142857142857
 40
0.2857142857142857
 40
0.2857142857142857
 40
0.2857142857142857
 40
0.3061224489795918
 40
0.3061224489795918
 40
0.3061224489795918
 40
0.3061224489795918
 40
0.326530612244898
 40
0.326530612244898
 40
0.326530612244898
 40
0.326530612244898
 40
0.3469387755102041
 40
0.3469387755102041
 40
0.3469387755102041
 40
0.3469387755102041
 40
0.3673469387755103
 40
0.3673469387755103
 40
0.3673469387755103
 40
0.3673469387755103
 40
0.3877551020408164
 40
0.3877551020408164
 40
0.3877551020408164
 40
0.3877551020408164
 40
0.4081632653061226
 40
0.4081632653061226
 40
0.4081632653061226
 40
0.4081632653061226
 40
0.4285714285714287
 40
0.4285714285714287
 40
0.4285714285714287
 40
0.4285714285714287
 40
0.4489795918367349
 40
0.4489795918367349
 40
0.4489795918367349
 40
0.4489795918367349
 40
0.469387755102041
 40
0.469387755102041
 40
0.469387755102041
 40
0.469387755102041
 40
0.4897959183673472
 40
0.4897959183673472
 40
0.4897959183673472
 40
0.4897959183673472
 40
0.5102040816326533
 40
0.5102040816326533
 40
0.5102040816326533
 40
0.5102040816326533
 40
0.5306122448979594
 40
0.5306122448979594
 40
0.5306122448979594
 40
0.5306122448979594
 40
0.5510204081632656
 40
0.5510204081632656
 40
0.5510204081632656
 40
0.5510204081632656
 40
0.5714285714285717
 40
0.5714285714285717
 40
0.5714285714285717
 40
0.5714285714285717
 40
0.5918367346938779
 40
0.5918367346938779
 40
0.5918367346938779
 40
0.5918367346938779
 40
0.612244897959184
 40
0.612244897959184
 40
0.612244897959184
 40
0.612244897959184
 40
0.6326530612244902
 40
0.6326530612244902
 40
0.6326530612244902
 40
0.6326530612244902
 40
0.6530612244897963
 40
0.6530612244897963
 40
0.6530612244897963
 40
0.6530612244897963
 40
0.6734693877551025
 40
0.6734693877551025
 40
0.6734693877551025
 40
0.6734693877551025
 40
0.6938775510204086
 40
0.6938775510204086
 40
0.6938775510204086
 40
0.6938775510204086
 40
0.7142857142857148
 40
0.7142857142857148
 40
0.7142857142857148
 40
0.7142857142857148
 40
0.7346938775510209
 40
0.7346938775510209
 40
0.7346938775510209
 40
0.7346938775510209
 40
0.755102040816327
 40
0.755102040816327
 40
0.755102040816327
 40
0.755102040816327
 40
0.7755102040816332
 40
0.7755102040816332
 40
0.7755102040816332
 40
0.7755102040816332
 40
0.7959183673469393
 40
0.7959183673469393
 40
0.7959183673469393
 40
0.7959183673469393
 40
0.8163265306122455
 40
0.8163265306122455
 40
0.8163265306122455
 40
0.8163265306122455
 40
0.8367346938775516
 40
0.8367346938775516
 40
0.8367346938775516
 40
0.8367346938775516
 40
0.8571428571428578
 40
0.8571428571428578
 40
0.8571428571428578
 40
0.8571428571428578
 40
0.8775510204081639
 40
0.8775510204081639
 40
0.8775510204081639
 40
0.8775510204081639
 40
0.8979591836734701
 40
0.8979591836734701
 40
0.8979591836734701
 40
0.8979591836734701
 40
0.9183673469387762
 40
0.9183673469387762
 40
0.9183673469387762
 40
0.9183673469387762
 40
0.9387755102040823
 40
0.9387755102040823
 40
0.9387755102040823
 40
0.9387755102040823
 40
0.9591836734693885
 40
0.9591836734693885
 40
0.9591836734693885
 40
0.9591836734693885
 40
0.9795918367346946
 40
0.9795918367346946
 40
0.9795918367346946
 40
0.9795918367346946
 40
1.0
 40
1.0
 40
1.0
 40
1.0
 10
-0.59675
 20
-1.8801600000000001
 30
0.0
 10
-0.3325900000000001
 20
-1.8166600000000002
 30
0.0
 10
-0.4062500000000001
 20
-2.0935200000000003
 30
0.0
 10
-0.38085
 20
-2.26878
 30
0.0
 10
-0.38085
 20
-2.26878
 30
0.0
 10
-0.33767
 20
-2.3018000000000001
 30
0.0
 10
-0.30973
 20
-2.1976600000000004
 30
0.0
 10
-0.32497
 20
-2.02494
 30
0.0
 10
-0.32497
 20
-2.02494
 30
0.0
 10
-0.33767
 20
-1.8623800000000001
 30
0.0
 10
-0.17003
 20
-1.7582400000000002
 30
0.0
 10
-0.18019
 20
-1.9919200000000001
 30
0.0
 10
-0.18019
 20
-1.9919200000000001
 30
0.0
 10
-0.19797
 20
-2.1849600000000002
 30
0.0
 10
-0.14971
 20
-2.39324
 30
0.0
 10
-0.14209
 20
-2.0909800000000001
 30
0.0
 10
-0.14209
 20
-2.0909800000000001
 30
0.0
 10
-0.24623
 20
-1.8319000000000001
 30
0.0
 10
0.07126
 20
-1.6566400000000001
 30
0.0
 10
0.15508
 20
-1.8979400000000002
 30
0.0
 10
0.15508
 20
-1.8979400000000002
 30
0.0
 10
0.07126
 20
-2.2814800000000002
 30
0.0
 10
0.21858
 20
-2.0427200000000001
 30
0.0
 10
0.18556
 20
-1.7861800000000001
 30
0.0
 10
0.18556
 20
-1.7861800000000001
 30
0.0
 10
0.5818000000000001
 20
-1.6083800000000001
 30
0.0
 10
0.8535800000000001
 20
-1.0978400000000001
 30
0.0
 10
1.3514200000000001
 20
-1.1765800000000002
 30
0.0
 10
1.3514200000000001
 20
-1.1765800000000002
 30
0.0
 10
1.5597000000000001
 20
-0.76002
 30
0.0
 10
1.5241400000000001
 20
-0.18344
 30
0.0
 10
1.5038200000000002
 20
0.26105
 30
0.0
 10
1.5038200000000002
 20
0.26105
 30
0.0
 10
1.8391000000000002
 20
0.18231
 30
0.0
 10
1.52668
 20
-0.3206000000000001
 30
0.0
 10
1.5876400000000002
 20
-0.5771400000000001
 30
0.0
 10
1.5876400000000002
 20
-0.5771400000000001
 30
0.0
 10
1.6181200000000002
 20
-0.67366
 30
0.0
 10
1.5190600000000001
 20
-1.1156200000000001
 30
0.0
 10
1.6333600000000001
 20
-0.8565400000000001
 30
0.0
 10
1.6333600000000001
 20
-0.8565400000000001
 30
0.0
 10
1.6867000000000001
 20
-0.5212600000000001
 30
0.0
 10
1.7400400000000003
 20
-0.1682
 30
0.0
 10
1.9000600000000001
 20
0.13405
 30
0.0
 10
1.9000600000000001
 20
0.13405
 30
0.0
 10
1.9407000000000001
 20
0.08579
 30
0.0
 10
1.9635600000000002
 20
0.00705
 30
0.0
 10
1.9483200000000001
 20
-0.05644
 30
0.0
 10
1.9483200000000001
 20
-0.05644
 30
0.0
 10
1.9483200000000001
 20
-0.05644
 30
0.0
 10
1.9153000000000002
 20
-0.31298
 30
0.0
 10
1.9153000000000002
 20
-0.31298
 30
0.0
 10
1.9153000000000002
 20
-0.31298
 30
0.0
 10
1.8975200000000001
 20
-0.39172
 30
0.0
 10
1.8721200000000002
 20
-0.4882400000000001
 30
0.0
 10
1.8873600000000001
 20
-0.5847600000000001
 30
0.0
 10
1.8873600000000001
 20
-0.5847600000000001
 30
0.0
 10
2.2759800000000001
 20
-0.5847600000000001
 30
0.0
 10
1.9915000000000003
 20
0.07055
 30
0.0
 10
2.2963
 20
0.23057
 30
0.0
 10
2.2963
 20
0.23057
 30
0.0
 10
2.3521800000000002
 20
0.16707
 30
0.0
 10
2.4131400000000003
 20
0.10103
 30
0.0
 10
2.4436200000000001
 20
0.02229
 30
0.0
 10
2.4436200000000001
 20
0.02229
 30
0.0
 10
1.8213200000000001
 20
-0.6482600000000001
 30
0.0
 10
2.38266
 20
-1.9766800000000002
 30
0.0
 10
1.31332
 20
-2.2027400000000004
 30
0.0
 10
1.31332
 20
-2.2027400000000004
 30
0.0
 10
1.1202800000000002
 20
-1.9766800000000002
 30
0.0
 10
1.3463400000000001
 20
-1.7684000000000002
 30
0.0
 10
1.2422000000000002
 20
-1.5296400000000001
 30
0.0
 10
1.2422000000000002
 20
-1.5296400000000001
 30
0.0
 10
1.2650600000000001
 20
-1.3696200000000001
 30
0.0
 10
1.4784200000000001
 20
-1.1130800000000001
 30
0.0
 10
1.2244200000000001
 20
-1.3848600000000002
 30
0.0
 10
1.2244200000000001
 20
-1.3848600000000002
 30
0.0
 10
1.1609200000000002
 20
-1.5779000000000001
 30
0.0
 10
1.32094
 20
-1.8496800000000002
 30
0.0
 10
0.9907400000000001
 20
-1.8801600000000001
 30
0.0
 10
0.9907400000000001
 20
-1.8801600000000001
 30
0.0
 10
0.9755
 20
-1.7684000000000002
 30
0.0
 10
1.0720200000000002
 20
-1.5601200000000002
 30
0.0
 10
0.912
 20
-1.5144000000000002
 30
0.0
 10
0.912
 20
-1.5144000000000002
 30
0.0
 10
1.1329800000000001
 20
-1.9919200000000001
 30
0.0
 10
0.1881
 20
-2.1544800000000004
 30
0.0
 10
0.19064
 20
-2.4084800000000004
 30
0.0
 10
0.19064
 20
-2.4084800000000004
 30
0.0
 10
0.36082
 20
-2.2179800000000003
 30
0.0
 10
0.61482
 20
-2.2179800000000003
 30
0.0
 10
0.80786
 20
-2.05796
 30
0.0
 10
0.80786
 20
-2.05796
 30
0.0
 10
0.80532
 20
-2.2510000000000003
 30
0.0
 10
0.5665600000000001
 20
-2.3449800000000001
 30
0.0
 10
0.4624200000000001
 20
-2.5050000000000003
 30
0.0
 10
0.4624200000000001
 20
-2.5050000000000003
 30
0.0
 10
0.41162
 20
-2.6675600000000004
 30
0.0
 10
0.5233800000000001
 20
-2.5050000000000003
 30
0.0
 10
0.5843400000000001
 20
-2.5050000000000003
 30
0.0
 10
0.5843400000000001
 20
-2.5050000000000003
 30
0.0
 10
0.5640200000000001
 20
-3.2593800000000002
 30
0.0
 10
-0.13447
 20
-2.6751800000000001
 30
0.0
 10
-0.53071
 20
-2.9317200000000003
 30
0.0
 10
-0.53071
 20
-2.9317200000000003
 30
0.0
 10
-0.6018300000000001
 20
-2.9469600000000002
 30
0.0
 10
-0.8177300000000001
 20
-2.8656800000000002
 30
0.0
 10
-0.8786900000000001
 20
-2.8504400000000003
 30
0.0
 10
-0.8786900000000001
 20
-2.8504400000000003
 30
0.0
 10
-1.25461
 20
-2.4821400000000002
 30
0.0
 10
-1.5390900000000001
 20
-2.05796
 30
0.0
 10
-1.8438900000000003
 20
-1.6566400000000001
 30
0.0
 10
-1.8438900000000003
 20
-1.6566400000000001
 30
0.0
 10
-1.7651500000000002
 20
-1.7049000000000001
 30
0.0
 10
-1.6787900000000002
 20
-1.7531600000000001
 30
0.0
 10
-1.6203700000000001
 20
-1.8319000000000001
 30
0.0
 10
-1.6203700000000001
 20
-1.8319000000000001
 30
0.0
 10
-1.54925
 20
-1.9309600000000002
 30
0.0
 10
-1.4451100000000001
 20
-1.9919200000000001
 30
0.0
 10
-1.3511300000000002
 20
-2.0732000000000004
 30
0.0
 10
-1.3511300000000002
 20
-2.0732000000000004
 30
0.0
 10
-1.3536700000000002
 20
-1.9766800000000002
 30
0.0
 10
-1.46289
 20
-1.9131800000000001
 30
0.0
 10
-1.5187700000000002
 20
-1.8496800000000002
 30
0.0
 10
-1.5187700000000002
 20
-1.8496800000000002
 30
0.0
 10
-1.5187700000000002
 20
-1.8496800000000002
 30
0.0
 10
-2.1436100000000002
 20
-1.2553200000000002
 30
0.0
 10
-2.1436100000000002
 20
-1.2553200000000002
 30
0.0
 10
-2.1436100000000002
 20
-1.2553200000000002
 30
0.0
 10
-2.11313
 20
-0.88956
 30
0.0
 10
-2.1283700000000003
 20
-0.55174
 30
0.0
 10
-2.1918700000000002
 20
-0.21646
 30
0.0
 10
-2.1918700000000002
 20
-0.21646
 30
0.0
 10
-2.1918700000000002
 20
-0.21646
 30
0.0
 10
-2.0572500000000002
 20
-0.2317
 30
0.0
 10
-2.0572500000000002
 20
-0.2317
 30
0.0
 10
-2.0572500000000002
 20
-0.2317
 30
0.0
 10
-2.0572500000000002
 20
-0.2317
 30
0.0
 10
-2.0089900000000003
 20
-0.02342
 30
0.0
 10
-2.0089900000000003
 20
-0.02342
 30
0.0
 10
-2.0089900000000003
 20
-0.02342
 30
0.0
 10
-2.1207500000000001
 20
0.02229
 30
0.0
 10
-2.23759
 20
0.05277
 30
0.0
 10
-2.3366500000000001
 20
0.11881
 30
0.0
 10
-2.3366500000000001
 20
0.11881
 30
0.0
 10
-2.3366500000000001
 20
0.11881
 30
0.0
 10
-2.3036300000000001
 20
0.3575700000000001
 30
0.0
 10
-2.3036300000000001
 20
0.3575700000000001
 30
0.0
 10
-2.3036300000000001
 20
0.3575700000000001
 30
0.0
 10
-2.0674100000000002
 20
0.43885
 30
0.0
 10
-1.9835900000000002
 20
0.23057
 30
0.0
 10
-1.92517
 20
0.05277
 30
0.0
 10
-1.92517
 20
0.05277
 30
0.0
 10
-1.9023100000000002
 20
-0.15296
 30
0.0
 10
-1.8464300000000002
 20
-0.473
 30
0.0
 10
-1.7499100000000001
 20
-0.10216
 30
0.0
 10
-1.7499100000000001
 20
-0.10216
 30
0.0
 10
-1.7372100000000001
 20
-0.02342
 30
0.0
 10
-1.7270500000000002
 20
0.05277
 30
0.0
 10
-1.7321300000000002
 20
0.14929
 30
0.0
 10
-1.7321300000000002
 20
0.14929
 30
0.0
 10
-1.7270500000000002
 20
0.23057
 30
0.0
 10
-1.8261100000000001
 20
0.4210700000000001
 30
0.0
 10
-1.67117
 20
0.40583
 30
0.0
 10
-1.67117
 20
0.40583
 30
0.0
 10
-1.6076700000000002
 20
-0.0412
 30
0.0
 10
-1.6127500000000001
 20
-0.4882400000000001
 30
0.0
 10
-1.6203700000000001
 20
-0.9378200000000001
 30
0.0
 10
-1.6203700000000001
 20
-0.9378200000000001
 30
0.0
 10
-1.46289
 20
-1.0648200000000001
 30
0.0
 10
-1.33081
 20
-1.2096
 30
0.0
 10
-1.3130300000000001
 20
-1.4661400000000002
 30
0.0
 10
-1.3130300000000001
 20
-1.4661400000000002
 30
0.0
 10
-1.1504700000000001
 20
-1.5296400000000001
 30
0.0
 10
-0.99553
 20
-1.7201400000000002
 30
0.0
 10
-0.99553
 20
-1.8979400000000002
 30
0.0
 10
-0.99553
 20
-1.8979400000000002
 30
0.0
 10
-0.9167900000000001
 20
-1.8319000000000001
 30
0.0
 10
-1.0514100000000002
 20
-1.5931400000000002
 30
0.0
 10
-0.88631
 20
-1.7531600000000001
 30
0.0
 10
-0.88631
 20
-1.7531600000000001
 30
0.0
 10
-0.88631
 20
-1.7531600000000001
 30
0.0
 10
-0.7872500000000001
 20
-1.9766800000000002
 30
0.0
 10
-0.7872500000000001
 20
-1.9766800000000002
 30
0.0
 10
-0.7872500000000001
 20
-1.9766800000000002
 30
0.0
 10
-0.7034300000000001
 20
-1.9131800000000001
 30
0.0
 10
-0.90917
 20
-1.7201400000000002
 30
0.0
 10
-0.74407
 20
-1.7861800000000001
 30
0.0
 10
-0.74407
 20
-1.7861800000000001
 30
0.0
 10
-0.63231
 20
-1.8979400000000002
 30
0.0
 10
-0.5789700000000001
 20
-2.0427200000000001
 30
0.0
 10
-0.5180100000000001
 20
-2.1697200000000003
 30
0.0
 10
-0.5180100000000001
 20
-2.1697200000000003
 30
0.0
 10
-0.51039
 20
-2.05796
 30
0.0
 10
-0.5408700000000001
 20
-1.9614400000000001
 30
0.0
 10
-0.59675
 20
-1.8801600000000001
 30
0.0
  0
SPLINE
  5
4D
100
AcDbEntity
  8
Ebene 1
 62
     7
100
AcDbSpline
210
0.0
220
0.0
230
1.0
 70
     1
 71
     3
 72
    20
 73
    16
 74
     0
 42
0.0000000001
 43
0.0000000001
 40
0.0
 40
0.0
 40
0.0
 40
0.0
 40
0.25
 40
0.25
 40
0.25
 40
0.25
 40
0.5
 40
0.5
 40
0.5
 40
0.5
 40
0.75
 40
0.75
 40
0.75
 40
0.75
 40
1.0
 40
1.0
 40
1.0
 40
1.0
 10
-1.2215900000000002
 20
0.3270900000000001
 30
0.0
 10
-1.1352300000000002
 20
0.05277
 30
0.0
 10
-1.20889
 20
-0.27996
 30
0.0
 10
-1.1885700000000001
 20
-0.5847600000000001
 30
0.0
 10
-1.1885700000000001
 20
-0.5847600000000001
 30
0.0
 10
-1.1961900000000001
 20
-0.6000000000000001
 30
0.0
 10
-1.2165100000000002
 20
-0.63302
 30
0.0
 10
-1.2368300000000001
 20
-0.63302
 30
0.0
 10
-1.2368300000000001
 20
-0.63302
 30
0.0
 10
-1.2368300000000001
 20
-0.63302
 30
0.0
 10
-1.3638300000000001
 20
-0.37648
 30
0.0
 10
-1.3638300000000001
 20
-0.37648
 30
0.0
 10
-1.3638300000000001
 20
-0.37648
 30
0.0
 10
-1.2647700000000002
 20
-0.15296
 30
0.0
 10
-1.3079500000000002
 20
0.10103
 30
0.0
 10
-1.2215900000000002
 20
0.3270900000000001
 30
0.0
  0
SPLINE
  5
4E
100
AcDbEntity
  8
Ebene 1
 62
     7
100
AcDbSpline
210
0.0
220
0.0
230
1.0
 70
     1
 71
     3
 72
    12
 73
     8
 74
     0
 42
0.0000000001
 43
0.0000000001
 40
0.0
 40
0.0
 40
0.0
 40
0.0
 40
0.5
 40
0.5
 40
0.5
 40
0.5
 40
1.0
 40
1.0
 40
1.0
 40
1.0
 10
-2.4534900000000004
 20
-0.61524
 30
0.0
 10
-2.7328900000000003
 20
-0.473
 30
0.0
 10
-2.5500100000000003
 20
0.11881
 30
0.0
 10
-2.23251
 20
-0.02342
 30
0.0
 10
-2.23251
 20
-0.02342
 30
0.0
 10
-2.4890500000000002
 20
-0.07168
 30
0.0
 10
-2.5423900000000001
 20
-0.39172
 30
0.0
 10
-2.4534900000000004
 20
-0.61524
 30
0.0
  0
SPLINE
  5
4F
100
AcDbEntity
  8
Ebene 1
 62
     7
100
AcDbSpline
210
0.0
220
0.0
230
1.0
 70
     1
 71
     3
 72
    20
 73
    16
 74
     0
 42
0.0000000001
 43
0.0000000001
 40
0.0
 40
0.0
 40
0.0
 40
0.0
 40
0.25
 40
0.25
 40
0.25
 40
0.25
 40
0.5
 40
0.5
 40
0.5
 40
0.5
 40
0.75
 40
0.75
 40
0.75
 40
0.75
 40
1.0
 40
1.0
 40
1.0
 40
1.0
 10
1.0491600000000001
 20
-0.24694
 30
0.0
 10
1.0491600000000001
 20
-0.24694
 30
0.0
 10
1.0948800000000001
 20
-0.24694
 30
0.0
 10
1.0948800000000001
 20
-0.24694
 30
0.0
 10
1.0948800000000001
 20
-0.24694
 30
0.0
 10
1.1304400000000001
 20
-0.36124
 30
0.0
 10
1.1736200000000001
 20
-0.473
 30
0.0
 10
1.06694
 20
-0.5365000000000001
 30
0.0
 10
1.06694
 20
-0.5365000000000001
 30
0.0
 10
1.06694
 20
-0.5365000000000001
 30
0.0
 10
1.0390000000000001
 20
-0.5212600000000001
 30
0.0
 10
1.0390000000000001
 20
-0.5212600000000001
 30
0.0
 10
1.0390000000000001
 20
-0.5212600000000001
 30
0.0
 10
1.0567800000000001
 20
-0.40696
 30
0.0
 10
0.9297800000000001
 20
-0.31298
 30
0.0
 10
1.0491600000000001
 20
-0.24694
 30
0.0
  0
SPLINE
  5
50
100
AcDbEntity
  8
Ebene 1
 62
     7
100
AcDbSpline
210
0.0
220
0.0
230
1.0
 70
     1
 71
     3
 72
    16
 73
    12
 74
     0
 42
0.0000000001
 43
0.0000000001
 40
0.0
 40
0.0
 40
0.0
 40
0.0
 40
0.3333333333333333
 40
0.3333333333333333
 40
0.3333333333333333
 40
0.3333333333333333
 40
0.6666666666666666
 40
0.6666666666666666
 40
0.6666666666666666
 40
0.6666666666666666
 40
1.0
 40
1.0
 40
1.0
 40
1.0
 10
0.82564
 20
-0.34346
 30
0.0
 10
0.9475600000000001
 20
-0.4247400000000001
 30
0.0
 10
0.8993000000000001
 20
-0.63302
 30
0.0
 10
0.9882000000000001
 20
-0.76002
 30
0.0
 10
0.9882000000000001
 20
-0.76002
 30
0.0
 10
0.9882000000000001
 20
-0.76002
 30
0.0
 10
0.82564
 20
-0.88956
 30
0.0
 10
0.82564
 20
-0.88956
 30
0.0
 10
0.82564
 20
-0.88956
 30
0.0
 10
0.8027800000000001
 20
-0.7295400000000001
 30
0.0
 10
0.70118
 20
-0.4882400000000001
 30
0.0
 10
0.82564
 20
-0.34346
 30
0.0
  0
SPLINE
  5
51
100
AcDbEntity
  8
Ebene 1
 62
     7
100
AcDbSpline
210
0.0
220
0.0
230
1.0
 70
     1
 71
     3
 72
    16
 73
    12
 74
     0
 42
0.0000000001
 43
0.0000000001
 40
0.0
 40
0.0
 40
0.0
 40
0.0
 40
0.3333333333333333
 40
0.3333333333333333
 40
0.3333333333333333
 40
0.3333333333333333
 40
0.6666666666666666
 40
0.6666666666666666
 40
0.6666666666666666
 40
0.6666666666666666
 40
1.0
 40
1.0
 40
1.0
 40
1.0
 10
-1.3638300000000001
 20
-0.50348
 30
0.0
 10
-1.2444500000000001
 20
-0.61524
 30
0.0
 10
-1.29779
 20
-0.8413000000000001
 30
0.0
 10
-1.3206500000000001
 20
-1.0165600000000001
 30
0.0
 10
-1.3206500000000001
 20
-1.0165600000000001
 30
0.0
 10
-1.3206500000000001
 20
-1.0165600000000001
 30
0.0
 10
-1.4730500000000002
 20
-0.9530600000000001
 30
0.0
 10
-1.4730500000000002
 20
-0.9530600000000001
 30
0.0
 10
-1.4730500000000002
 20
-0.9530600000000001
 30
0.0
 10
-1.4730500000000002
 20
-0.9530600000000001
 30
0.0
 10
-1.3638300000000001
 20
-0.50348
 30
0.0
 10
-1.3638300000000001
 20
-0.50348
 30
0.0
  0
SPLINE
  5
52
100
AcDbEntity
  8
Ebene 1
 62
     7
100
AcDbSpline
210
0.0
220
0.0
230
1.0
 70
     1
 71
     3
 72
    12
 73
     8
 74
     0
 42
0.0000000001
 43
0.0000000001
 40
0.0
 40
0.0
 40
0.0
 40
0.0
 40
0.5
 40
0.5
 40
0.5
 40
0.5
 40
1.0
 40
1.0
 40
1.0
 40
1.0
 10
0.5233800000000001
 20
-0.55174
 30
0.0
 10
0.7164200000000001
 20
-0.63302
 30
0.0
 10
0.78754
 20
-1.16134
 30
0.0
 10
0.4624200000000001
 20
-1.1130800000000001
 30
0.0
 10
0.4624200000000001
 20
-1.1130800000000001
 30
0.0
 10
0.4675
 20
-0.9200400000000001
 30
0.0
 10
0.3989200000000001
 20
-0.69652
 30
0.0
 10
0.5233800000000001
 20
-0.55174
 30
0.0
  0
SPLINE
  5
53
100
AcDbEntity
  8
Ebene 1
 62
     7
100
AcDbSpline
210
0.0
220
0.0
230
1.0
 70
     1
 71
     3
 72
    12
 73
     8
 74
     0
 42
0.0000000001
 43
0.0000000001
 40
0.0
 40
0.0
 40
0.0
 40
0.0
 40
0.5
 40
0.5
 40
0.5
 40
0.5
 40
1.0
 40
1.0
 40
1.0
 40
1.0
 10
-2.5017500000000004
 20
-1.3366
 30
0.0
 10
-2.22235
 20
-1.2426200000000001
 30
0.0
 10
-2.2858500000000004
 20
-0.8565400000000001
 30
0.0
 10
-2.2629900000000003
 20
-0.63302
 30
0.0
 10
-2.2629900000000003
 20
-0.63302
 30
0.0
 10
-2.18425
 20
-0.8565400000000001
 30
0.0
 10
-2.1334500000000003
 20
-1.3848600000000002
 30
0.0
 10
-2.5017500000000004
 20
-1.3366
 30
0.0
  0
SPLINE
  5
54
100
AcDbEntity
  8
Ebene 1
 62
     7
100
AcDbSpline
210
0.0
220
0.0
230
1.0
 70
     1
 71
     3
 72
    12
 73
     8
 74
     0
 42
0.0000000001
 43
0.0000000001
 40
0.0
 40
0.0
 40
0.0
 40
0.0
 40
0.5
 40
0.5
 40
0.5
 40
0.5
 40
1.0
 40
1.0
 40
1.0
 40
1.0
 10
-1.1403100000000002
 20
-0.6660400000000001
 30
0.0
 10
-1.00061
 20
-0.7930400000000001
 30
0.0
 10
-0.9752100000000001
 20
-1.0495800000000002
 30
0.0
 10
-1.07681
 20
-1.2096
 30
0.0
 10
-1.07681
 20
-1.2096
 30
0.0
 10
-1.3181100000000001
 20
-1.1435600000000001
 30
0.0
 10
-1.1911100000000001
 20
-0.82352
 30
0.0
 10
-1.1403100000000002
 20
-0.6660400000000001
 30
0.0
  0
SPLINE
  5
55
100
AcDbEntity
  8
Ebene 1
 62
     7
100
AcDbSpline
210
0.0
220
0.0
230
1.0
 70
     1
 71
     3
 72
    16
 73
    12
 74
     0
 42
0.0000000001
 43
0.0000000001
 40
0.0
 40
0.0
 40
0.0
 40
0.0
 40
0.3333333333333333
 40
0.3333333333333333
 40
0.3333333333333333
 40
0.3333333333333333
 40
0.6666666666666666
 40
0.6666666666666666
 40
0.6666666666666666
 40
0.6666666666666666
 40
1.0
 40
1.0
 40
1.0
 40
1.0
 10
1.0821800000000001
 20
-0.67874
 30
0.0
 10
1.09996
 20
-0.67874
 30
0.0
 10
1.11266
 20
-0.69652
 30
0.0
 10
1.1152000000000002
 20
-0.7117600000000001
 30
0.0
 10
1.1152000000000002
 20
-0.7117600000000001
 30
0.0
 10
1.0821800000000001
 20
-0.8565400000000001
 30
0.0
 10
1.05932
 20
-1.0318000000000001
 30
0.0
 10
0.9602600000000001
 20
-1.1435600000000001
 30
0.0
 10
0.9602600000000001
 20
-1.1435600000000001
 30
0.0
 10
0.88914
 20
-0.9683000000000001
 30
0.0
 10
1.0872600000000001
 20
-0.8565400000000001
 30
0.0
 10
1.0821800000000001
 20
-0.67874
 30
0.0
  0
SPLINE
  5
56
100
AcDbEntity
  8
Ebene 1
 62
     7
100
AcDbSpline
210
0.0
220
0.0
230
1.0
 70
     1
 71
     3
 72
    20
 73
    16
 74
     0
 42
0.0000000001
 43
0.0000000001
 40
0.0
 40
0.0
 40
0.0
 40
0.0
 40
0.25
 40
0.25
 40
0.25
 40
0.25
 40
0.5
 40
0.5
 40
0.5
 40
0.5
 40
0.75
 40
0.75
 40
0.75
 40
0.75
 40
1.0
 40
1.0
 40
1.0
 40
1.0
 10
0.15508
 20
-0.7117600000000001
 30
0.0
 10
0.37352
 20
-0.7778000000000001
 30
0.0
 10
0.37352
 20
-1.0495800000000002
 30
0.0
 10
0.35828
 20
-1.2426200000000001
 30
0.0
 10
0.35828
 20
-1.2426200000000001
 30
0.0
 10
0.35828
 20
-1.2426200000000001
 30
0.0
 10
0.10682
 20
-1.3543800000000001
 30
0.0
 10
0.10682
 20
-1.3543800000000001
 30
0.0
 10
0.10682
 20
-1.3543800000000001
 30
0.0
 10
0.10682
 20
-1.3543800000000001
 30
0.0
 10
0.06364
 20
-1.3213600000000001
 30
0.0
 10
0.06364
 20
-1.3213600000000001
 30
0.0
 10
0.06364
 20
-1.3213600000000001
 30
0.0
 10
0.05856
 20
-1.1130800000000001
 30
0.0
 10
0.08142
 20
-0.9048000000000001
 30
0.0
 10
0.15508
 20
-0.7117600000000001
 30
0.0
  0
SPLINE
  5
57
100
AcDbEntity
  8
Ebene 1
 62
     7
100
AcDbSpline
210
0.0
220
0.0
230
1.0
 70
     1
 71
     3
 72
    16
 73
    12
 74
     0
 42
0.0000000001
 43
0.0000000001
 40
0.0
 40
0.0
 40
0.0
 40
0.0
 40
0.3333333333333333
 40
0.3333333333333333
 40
0.3333333333333333
 40
0.3333333333333333
 40
0.6666666666666666
 40
0.6666666666666666
 40
0.6666666666666666
 40
0.6666666666666666
 40
1.0
 40
1.0
 40
1.0
 40
1.0
 10
-0.8837700000000001
 20
-0.7295400000000001
 30
0.0
 10
-0.67803
 20
-0.8565400000000001
 30
0.0
 10
-0.82535
 20
-1.1130800000000001
 30
0.0
 10
-0.82281
 20
-1.3213600000000001
 30
0.0
 10
-0.82281
 20
-1.3213600000000001
 30
0.0
 10
-0.8786900000000001
 20
-1.3213600000000001
 30
0.0
 10
-0.9396500000000001
 20
-1.3035800000000002
 30
0.0
 10
-0.9752100000000001
 20
-1.2553200000000002
 30
0.0
 10
-0.9752100000000001
 20
-1.2553200000000002
 30
0.0
 10
-0.9752100000000001
 20
-1.2553200000000002
 30
0.0
 10
-0.8837700000000001
 20
-0.7295400000000001
 30
0.0
 10
-0.8837700000000001
 20
-0.7295400000000001
 30
0.0
  0
SPLINE
  5
58
100
AcDbEntity
  8
Ebene 1
 62
     7
100
AcDbSpline
210
0.0
220
0.0
230
1.0
 70
     1
 71
     3
 72
    20
 73
    16
 74
     0
 42
0.0000000001
 43
0.0000000001
 40
0.0
 40
0.0
 40
0.0
 40
0.0
 40
0.25
 40
0.25
 40
0.25
 40
0.25
 40
0.5
 40
0.5
 40
0.5
 40
0.5
 40
0.75
 40
0.75
 40
0.75
 40
0.75
 40
1.0
 40
1.0
 40
1.0
 40
1.0
 10
-0.6450100000000001
 20
-0.7930400000000001
 30
0.0
 10
-0.5383300000000001
 20
-0.8082800000000001
 30
0.0
 10
-0.48753
 20
-0.9530600000000001
 30
0.0
 10
-0.5002300000000001
 20
-1.0495800000000002
 30
0.0
 10
-0.5002300000000001
 20
-1.0495800000000002
 30
0.0
 10
-0.40371
 20
-1.1435600000000001
 30
0.0
 10
-0.43165
 20
-1.3213600000000001
 30
0.0
 10
-0.47229
 20
-1.4331200000000002
 30
0.0
 10
-0.47229
 20
-1.4331200000000002
 30
0.0
 10
-0.47229
 20
-1.4331200000000002
 30
0.0
 10
-0.7669300000000001
 20
-1.3366
 30
0.0
 10
-0.7669300000000001
 20
-1.3366
 30
0.0
 10
-0.7669300000000001
 20
-1.3366
 30
0.0
 10
-0.72121
 20
-1.16134
 30
0.0
 10
-0.75931
 20
-0.9530600000000001
 30
0.0
 10
-0.6450100000000001
 20
-0.7930400000000001
 30
0.0
  0
SPLINE
  5
59
100
AcDbEntity
  8
Ebene 1
 62
     7
100
AcDbSpline
210
0.0
220
0.0
230
1.0
 70
     1
 71
     3
 72
    16
 73
    12
 74
     0
 42
0.0000000001
 43
0.0000000001
 40
0.0
 40
0.0
 40
0.0
 40
0.0
 40
0.3333333333333333
 40
0.3333333333333333
 40
0.3333333333333333
 40
0.3333333333333333
 40
0.6666666666666666
 40
0.6666666666666666
 40
0.6666666666666666
 40
0.6666666666666666
 40
1.0
 40
1.0
 40
1.0
 40
1.0
 10
-0.27417
 20
-0.8082800000000001
 30
0.0
 10
-0.06335
 20
-0.8717800000000001
 30
0.0
 10
-0.11161
 20
-1.1435600000000001
 30
0.0
 10
-0.03795
 20
-1.3035800000000002
 30
0.0
 10
-0.03795
 20
-1.3035800000000002
 30
0.0
 10
-0.12939
 20
-1.3543800000000001
 30
0.0
 10
-0.24115
 20
-1.41788
 30
0.0
 10
-0.35037
 20
-1.41788
 30
0.0
 10
-0.35037
 20
-1.41788
 30
0.0
 10
-0.34021
 20
-1.2096
 30
0.0
 10
-0.4265700000000001
 20
-0.9683000000000001
 30
0.0
 10
-0.27417
 20
-0.8082800000000001
 30
0.0
  0
SPLINE
  5
5A
100
AcDbEntity
  8
Ebene 1
 62
     7
100
AcDbSpline
210
0.0
220
0.0
230
1.0
 70
     1
 71
     3
 72
    16
 73
    12
 74
     0
 42
0.0000000001
 43
0.0000000001
 40
0.0
 40
0.0
 40
0.0
 40
0.0
 40
0.3333333333333333
 40
0.3333333333333333
 40
0.3333333333333333
 40
0.3333333333333333
 40
0.6666666666666666
 40
0.6666666666666666
 40
0.6666666666666666
 40
0.6666666666666666
 40
1.0
 40
1.0
 40
1.0
 40
1.0
 10
0.8739000000000001
 20
-0.9683000000000001
 30
0.0
 10
0.8739000000000001
 20
-1.0648200000000001
 30
0.0
 10
0.8815200000000001
 20
-1.3035800000000002
 30
0.0
 10
0.7367400000000001
 20
-1.3366
 30
0.0
 10
0.7367400000000001
 20
-1.3366
 30
0.0
 10
0.7367400000000001
 20
-1.3366
 30
0.0
 10
0.7138800000000001
 20
-1.3035800000000002
 30
0.0
 10
0.7138800000000001
 20
-1.3035800000000002
 30
0.0
 10
0.7138800000000001
 20
-1.3035800000000002
 30
0.0
 10
0.76722
 20
-1.1918200000000001
 30
0.0
 10
0.7519800000000001
 20
-1.0318000000000001
 30
0.0
 10
0.8739000000000001
 20
-0.9683000000000001
 30
0.0
  0
SPLINE
  5
5B
100
AcDbEntity
  8
Ebene 1
 62
     7
100
AcDbSpline
210
0.0
220
0.0
230
1.0
 70
     1
 71
     3
 72
    12
 73
     8
 74
     0
 42
0.0000000001
 43
0.0000000001
 40
0.0
 40
0.0
 40
0.0
 40
0.0
 40
0.5
 40
0.5
 40
0.5
 40
0.5
 40
1.0
 40
1.0
 40
1.0
 40
1.0
 10
-1.1403100000000002
 20
-1.4813800000000001
 30
0.0
 10
-1.3181100000000001
 20
-1.4483600000000001
 30
0.0
 10
-1.2774700000000001
 20
-1.2248400000000002
 30
0.0
 10
-1.3282700000000001
 20
-1.0978400000000001
 30
0.0
 10
-1.3282700000000001
 20
-1.0978400000000001
 30
0.0
 10
-1.24953
 20
-1.1918200000000001
 30
0.0
 10
-1.1733300000000002
 20
-1.3366
 30
0.0
 10
-1.1403100000000002
 20
-1.4813800000000001
 30
0.0
  0
SPLINE
  5
5C
100
AcDbEntity
  8
Ebene 1
 62
     7
100
AcDbSpline
210
0.0
220
0.0
230
1.0
 70
     1
 71
     3
 72
    16
 73
    12
 74
     0
 42
0.0000000001
 43
0.0000000001
 40
0.0
 40
0.0
 40
0.0
 40
0.0
 40
0.3333333333333333
 40
0.3333333333333333
 40
0.3333333333333333
 40
0.3333333333333333
 40
0.6666666666666666
 40
0.6666666666666666
 40
0.6666666666666666
 40
0.6666666666666666
 40
1.0
 40
1.0
 40
1.0
 40
1.0
 10
0.6503800000000001
 20
-1.1435600000000001
 30
0.0
 10
0.6503800000000001
 20
-1.1435600000000001
 30
0.0
 10
0.6961000000000001
 20
-1.1435600000000001
 30
0.0
 10
0.6961000000000001
 20
-1.1435600000000001
 30
0.0
 10
0.6961000000000001
 20
-1.1435600000000001
 30
0.0
 10
0.6453000000000001
 20
-1.2553200000000002
 30
0.0
 10
0.6453000000000001
 20
-1.4331200000000002
 30
0.0
 10
0.51068
 20
-1.4966200000000001
 30
0.0
 10
0.51068
 20
-1.4966200000000001
 30
0.0
 10
0.5386200000000001
 20
-1.3696200000000001
 30
0.0
 10
0.5030600000000001
 20
-1.1918200000000001
 30
0.0
 10
0.6503800000000001
 20
-1.1435600000000001
 30
0.0
  0
SPLINE
  5
5D
100
AcDbEntity
  8
Ebene 1
 62
     7
100
AcDbSpline
210
0.0
220
0.0
230
1.0
 70
     1
 71
     3
 72
    16
 73
    12
 74
     0
 42
0.0000000001
 43
0.0000000001
 40
0.0
 40
0.0
 40
0.0
 40
0.0
 40
0.3333333333333333
 40
0.3333333333333333
 40
0.3333333333333333
 40
0.3333333333333333
 40
0.6666666666666666
 40
0.6666666666666666
 40
0.6666666666666666
 40
0.6666666666666666
 40
1.0
 40
1.0
 40
1.0
 40
1.0
 10
-2.5347700000000004
 20
-1.16134
 30
0.0
 10
-2.5144500000000001
 20
-1.16134
 30
0.0
 10
-2.4890500000000002
 20
-1.1765800000000002
 30
0.0
 10
-2.5042900000000001
 20
-1.1918200000000001
 30
0.0
 10
-2.5042900000000001
 20
-1.1918200000000001
 30
0.0
 10
-2.7227300000000003
 20
-1.4001000000000001
 30
0.0
 10
-2.7633700000000001
 20
-1.8649200000000001
 30
0.0
 10
-2.5042900000000001
 20
-2.05796
 30
0.0
 10
-2.5042900000000001
 20
-2.05796
 30
0.0
 10
-2.9208500000000002
 20
-1.9462000000000002
 30
0.0
 10
-2.7862300000000002
 20
-1.3696200000000001
 30
0.0
 10
-2.5347700000000004
 20
-1.16134
 30
0.0
  0
SPLINE
  5
5E
100
AcDbEntity
  8
Ebene 1
 62
     7
100
AcDbSpline
210
0.0
220
0.0
230
1.0
 70
     1
 71
     3
 72
    16
 73
    12
 74
     0
 42
0.0000000001
 43
0.0000000001
 40
0.0
 40
0.0
 40
0.0
 40
0.0
 40
0.3333333333333333
 40
0.3333333333333333
 40
0.3333333333333333
 40
0.3333333333333333
 40
0.6666666666666666
 40
0.6666666666666666
 40
0.6666666666666666
 40
0.6666666666666666
 40
1.0
 40
1.0
 40
1.0
 40
1.0
 10
-1.12507
 20
-1.2553200000000002
 30
0.0
 10
-0.9904500000000001
 20
-1.3035800000000002
 30
0.0
 10
-0.94981
 20
-1.4813800000000001
 30
0.0
 10
-0.88631
 20
-1.5931400000000002
 30
0.0
 10
-0.88631
 20
-1.5931400000000002
 30
0.0
 10
-0.88631
 20
-1.5931400000000002
 30
0.0
 10
-0.9193300000000001
 20
-1.62616
 30
0.0
 10
-0.9193300000000001
 20
-1.62616
 30
0.0
 10
-0.9193300000000001
 20
-1.62616
 30
0.0
 10
-1.08189
 20
-1.62616
 30
0.0
 10
-1.0691900000000001
 20
-1.3696200000000001
 30
0.0
 10
-1.12507
 20
-1.2553200000000002
 30
0.0
  0
SPLINE
  5
5F
100
AcDbEntity
  8
Ebene 1
 62
     7
100
AcDbSpline
210
0.0
220
0.0
230
1.0
 70
     1
 71
     3
 72
    16
 73
    12
 74
     0
 42
0.0000000001
 43
0.0000000001
 40
0.0
 40
0.0
 40
0.0
 40
0.0
 40
0.3333333333333333
 40
0.3333333333333333
 40
0.3333333333333333
 40
0.3333333333333333
 40
0.6666666666666666
 40
0.6666666666666666
 40
0.6666666666666666
 40
0.6666666666666666
 40
1.0
 40
1.0
 40
1.0
 40
1.0
 10
0.41162
 20
-1.28834
 30
0.0
 10
0.41162
 20
-1.28834
 30
0.0
 10
0.4395600000000001
 20
-1.28834
 30
0.0
 10
0.4395600000000001
 20
-1.28834
 30
0.0
 10
0.4395600000000001
 20
-1.28834
 30
0.0
 10
0.42686
 20
-1.4331200000000002
 30
0.0
 10
0.37606
 20
-1.6414000000000002
 30
0.0
 10
0.2389
 20
-1.6896600000000002
 30
0.0
 10
0.2389
 20
-1.6896600000000002
 30
0.0
 10
0.27192
 20
-1.54488
 30
0.0
 10
0.25668
 20
-1.3543800000000001
 30
0.0
 10
0.41162
 20
-1.28834
 30
0.0
  0
SPLINE
  5
60
100
AcDbEntity
  8
Ebene 1
 62
     7
100
AcDbSpline
210
0.0
220
0.0
230
1.0
 70
     1
 71
     3
 72
    16
 73
    12
 74
     0
 42
0.0000000001
 43
0.0000000001
 40
0.0
 40
0.0
 40
0.0
 40
0.0
 40
0.3333333333333333
 40
0.3333333333333333
 40
0.3333333333333333
 40
0.3333333333333333
 40
0.6666666666666666
 40
0.6666666666666666
 40
0.6666666666666666
 40
0.6666666666666666
 40
1.0
 40
1.0
 40
1.0
 40
1.0
 10
0.10682
 20
-1.41788
 30
0.0
 10
0.13476
 20
-1.41788
 30
0.0
 10
0.16524
 20
-1.41788
 30
0.0
 10
0.18302
 20
-1.4331200000000002
 30
0.0
 10
0.18302
 20
-1.4331200000000002
 30
0.0
 10
0.15508
 20
-1.5601200000000002
 30
0.0
 10
0.19318
 20
-1.8166600000000002
 30
0.0
 10
-0.01509
 20
-1.7531600000000001
 30
0.0
 10
-0.01509
 20
-1.7531600000000001
 30
0.0
 10
-0.04811
 20
-1.6414000000000002
 30
0.0
 10
-0.03541
 20
-1.4483600000000001
 30
0.0
 10
0.10682
 20
-1.41788
 30
0.0
  0
SPLINE
  5
61
100
AcDbEntity
  8
Ebene 1
 62
     7
100
AcDbSpline
210
0.0
220
0.0
230
1.0
 70
     1
 71
     3
 72
    12
 73
     8
 74
     0
 42
0.0000000001
 43
0.0000000001
 40
0.0
 40
0.0
 40
0.0
 40
0.0
 40
0.5
 40
0.5
 40
0.5
 40
0.5
 40
1.0
 40
1.0
 40
1.0
 40
1.0
 10
-0.80503
 20
-1.4813800000000001
 30
0.0
 10
-0.7542300000000001
 20
-1.4966200000000001
 30
0.0
 10
-0.7491500000000001
 20
-1.5779000000000001
 30
0.0
 10
-0.75931
 20
-1.62616
 30
0.0
 10
-0.75931
 20
-1.62616
 30
0.0
 10
-0.80503
 20
-1.5931400000000002
 30
0.0
 10
-0.8558300000000001
 20
-1.5296400000000001
 30
0.0
 10
-0.80503
 20
-1.4813800000000001
 30
0.0
  0
SPLINE
  5
62
100
AcDbEntity
  8
Ebene 1
 62
     7
100
AcDbSpline
210
0.0
220
0.0
230
1.0
 70
     1
 71
     3
 72
    12
 73
     8
 74
     0
 42
0.0000000001
 43
0.0000000001
 40
0.0
 40
0.0
 40
0.0
 40
0.0
 40
0.5
 40
0.5
 40
0.5
 40
0.5
 40
1.0
 40
1.0
 40
1.0
 40
1.0
 10
-0.67549
 20
-1.4966200000000001
 30
0.0
 10
-0.46721
 20
-1.4483600000000001
 30
0.0
 10
-0.37323
 20
-1.6566400000000001
 30
0.0
 10
-0.45451
 20
-1.8319000000000001
 30
0.0
 10
-0.45451
 20
-1.8319000000000001
 30
0.0
 10
-0.63231
 20
-1.8801600000000001
 30
0.0
 10
-0.63485
 20
-1.6083800000000001
 30
0.0
 10
-0.67549
 20
-1.4966200000000001
 30
0.0
  0
SPLINE
  5
63
100
AcDbEntity
  8
Ebene 1
 62
     7
100
AcDbSpline
210
0.0
220
0.0
230
1.0
 70
     1
 71
     3
 72
    20
 73
    16
 74
     0
 42
0.0000000001
 43
0.0000000001
 40
0.0
 40
0.0
 40
0.0
 40
0.0
 40
0.25
 40
0.25
 40
0.25
 40
0.25
 40
0.5
 40
0.5
 40
0.5
 40
0.5
 40
0.75
 40
0.75
 40
0.75
 40
0.75
 40
1.0
 40
1.0
 40
1.0
 40
1.0
 10
-0.21067
 20
-1.4966200000000001
 30
0.0
 10
-0.21067
 20
-1.4966200000000001
 30
0.0
 10
-0.13447
 20
-1.4966200000000001
 30
0.0
 10
-0.13447
 20
-1.4966200000000001
 30
0.0
 10
-0.13447
 20
-1.4966200000000001
 30
0.0
 10
-0.13447
 20
-1.6414000000000002
 30
0.0
 10
-0.14717
 20
-1.8496800000000002
 30
0.0
 10
-0.33513
 20
-1.8319000000000001
 30
0.0
 10
-0.33513
 20
-1.8319000000000001
 30
0.0
 10
-0.33513
 20
-1.8319000000000001
 30
0.0
 10
-0.35037
 20
-1.54488
 30
0.0
 10
-0.35037
 20
-1.54488
 30
0.0
 10
-0.35037
 20
-1.54488
 30
0.0
 10
-0.35037
 20
-1.54488
 30
0.0
 10
-0.21067
 20
-1.4966200000000001
 30
0.0
 10
-0.21067
 20
-1.4966200000000001
 30
0.0
  0
SPLINE
  5
64
100
AcDbEntity
  8
Ebene 1
 62
     7
100
AcDbSpline
210
0.0
220
0.0
230
1.0
 70
     1
 71
     3
 72
    24
 73
    20
 74
     0
 42
0.0000000001
 43
0.0000000001
 40
0.0
 40
0.0
 40
0.0
 40
0.0
 40
0.2
 40
0.2
 40
0.2
 40
0.2
 40
0.4
 40
0.4
 40
0.4
 40
0.4
 40
0.6000000000000001
 40
0.6000000000000001
 40
0.6000000000000001
 40
0.6000000000000001
 40
0.8
 40
0.8
 40
0.8
 40
0.8
 40
1.0
 40
1.0
 40
1.0
 40
1.0
 10
-2.5652500000000003
 20
-1.8319000000000001
 30
0.0
 10
-2.2147300000000003
 20
-1.8979400000000002
 30
0.0
 10
-2.3061700000000003
 20
-2.4262600000000001
 30
0.0
 10
-2.3772900000000003
 20
-2.6828000000000003
 30
0.0
 10
-2.3772900000000003
 20
-2.6828000000000003
 30
0.0
 10
-2.4128500000000002
 20
-2.7132800000000001
 30
0.0
 10
-2.4636500000000003
 20
-2.7463000000000002
 30
0.0
 10
-2.5144500000000001
 20
-2.7463000000000002
 30
0.0
 10
-2.5144500000000001
 20
-2.7463000000000002
 30
0.0
 10
-2.4026900000000002
 20
-2.52278
 30
0.0
 10
-2.4687300000000003
 20
-2.2332200000000002
 30
0.0
 10
-2.4560300000000002
 20
-1.9766800000000002
 30
0.0
 10
-2.4560300000000002
 20
-1.9766800000000002
 30
0.0
 10
-2.4560300000000002
 20
-1.9766800000000002
 30
0.0
 10
-2.5754100000000002
 20
-1.8801600000000001
 30
0.0
 10
-2.5754100000000002
 20
-1.8801600000000001
 30
0.0
 10
-2.5754100000000002
 20
-1.8801600000000001
 30
0.0
 10
-2.5754100000000002
 20
-1.8801600000000001
 30
0.0
 10
-2.5652500000000003
 20
-1.8319000000000001
 30
0.0
 10
-2.5652500000000003
 20
-1.8319000000000001
 30
0.0
  0
SPLINE
  5
65
100
AcDbEntity
  8
Ebene 1
 62
     7
100
AcDbSpline
210
0.0
220
0.0
230
1.0
 70
     1
 71
     3
 72
    24
 73
    20
 74
     0
 42
0.0000000001
 43
0.0000000001
 40
0.0
 40
0.0
 40
0.0
 40
0.0
 40
0.2
 40
0.2
 40
0.2
 40
0.2
 40
0.4
 40
0.4
 40
0.4
 40
0.4
 40
0.6000000000000001
 40
0.6000000000000001
 40
0.6000000000000001
 40
0.6000000000000001
 40
0.8
 40
0.8
 40
0.8
 40
0.8
 40
1.0
 40
1.0
 40
1.0
 40
1.0
 10
1.01868
 20
-1.9919200000000001
 30
0.0
 10
1.01868
 20
-1.9919200000000001
 30
0.0
 10
1.11266
 20
-1.9919200000000001
 30
0.0
 10
1.11266
 20
-1.9919200000000001
 30
0.0
 10
1.11266
 20
-1.9919200000000001
 30
0.0
 10
1.2396600000000002
 20
-2.2179800000000003
 30
0.0
 10
1.35904
 20
-2.6828000000000003
 30
0.0
 10
1.02376
 20
-2.7793200000000002
 30
0.0
 10
1.02376
 20
-2.7793200000000002
 30
0.0
 10
1.0085200000000001
 20
-2.7463000000000002
 30
0.0
 10
1.0440800000000001
 20
-2.7310600000000003
 30
0.0
 10
1.0567800000000001
 20
-2.7132800000000001
 30
0.0
 10
1.0567800000000001
 20
-2.7132800000000001
 30
0.0
 10
1.2879200000000002
 20
-2.6015200000000003
 30
0.0
 10
1.19394
 20
-2.2027400000000004
 30
0.0
 10
0.9907400000000001
 20
-2.0732000000000004
 30
0.0
 10
0.9907400000000001
 20
-2.0732000000000004
 30
0.0
 10
0.9907400000000001
 20
-2.0732000000000004
 30
0.0
 10
1.01868
 20
-1.9919200000000001
 30
0.0
 10
1.01868
 20
-1.9919200000000001
 30
0.0
  0
SPLINE
  5
66
100
AcDbEntity
  8
Ebene 1
 62
     7
100
AcDbSpline
210
0.0
220
0.0
230
1.0
 70
     1
 71
     3
 72
    24
 73
    20
 74
     0
 42
0.0000000001
 43
0.0000000001
 40
0.0
 40
0.0
 40
0.0
 40
0.0
 40
0.2
 40
0.2
 40
0.2
 40
0.2
 40
0.4
 40
0.4
 40
0.4
 40
0.4
 40
0.6000000000000001
 40
0.6000000000000001
 40
0.6000000000000001
 40
0.6000000000000001
 40
0.8
 40
0.8
 40
0.8
 40
0.8
 40
1.0
 40
1.0
 40
1.0
 40
1.0
 10
0.89168
 20
-2.1697200000000003
 30
0.0
 10
1.0009000000000001
 20
-2.2179800000000003
 30
0.0
 10
1.0923400000000001
 20
-2.3297400000000001
 30
0.0
 10
1.0948800000000001
 20
-2.4567400000000004
 30
0.0
 10
1.0948800000000001
 20
-2.4567400000000004
 30
0.0
 10
0.9247000000000001
 20
-2.5050000000000003
 30
0.0
 10
0.8002400000000001
 20
-2.6828000000000003
 30
0.0
 10
0.6249800000000001
 20
-2.7310600000000003
 30
0.0
 10
0.6249800000000001
 20
-2.7310600000000003
 30
0.0
 10
0.6249800000000001
 20
-2.7310600000000003
 30
0.0
 10
0.6859400000000001
 20
-2.3449800000000001
 30
0.0
 10
0.6859400000000001
 20
-2.3449800000000001
 30
0.0
 10
0.6859400000000001
 20
-2.3449800000000001
 30
0.0
 10
0.7316600000000001
 20
-2.3627600000000002
 30
0.0
 10
0.66054
 20
-2.5380200000000004
 30
0.0
 10
0.7596000000000001
 20
-2.4567400000000004
 30
0.0
 10
0.7596000000000001
 20
-2.4567400000000004
 30
0.0
 10
0.7088000000000001
 20
-2.3449800000000001
 30
0.0
 10
0.82564
 20
-2.2510000000000003
 30
0.0
 10
0.89168
 20
-2.1697200000000003
 30
0.0
  0
SPLINE
  5
67
100
AcDbEntity
  8
Ebene 1
 62
     7
100
AcDbSpline
210
0.0
220
0.0
230
1.0
 70
     1
 71
     3
 72
    20
 73
    16
 74
     0
 42
0.0000000001
 43
0.0000000001
 40
0.0
 40
0.0
 40
0.0
 40
0.0
 40
0.25
 40
0.25
 40
0.25
 40
0.25
 40
0.5
 40
0.5
 40
0.5
 40
0.5
 40
0.75
 40
0.75
 40
0.75
 40
0.75
 40
1.0
 40
1.0
 40
1.0
 40
1.0
 10
-2.5652500000000003
 20
-2.5380200000000004
 30
0.0
 10
-2.5423900000000001
 20
-2.5380200000000004
 30
0.0
 10
-2.5271500000000002
 20
-2.5532600000000003
 30
0.0
 10
-2.5347700000000004
 20
-2.5685000000000002
 30
0.0
 10
-2.5347700000000004
 20
-2.5685000000000002
 30
0.0
 10
-2.7201900000000001
 20
-2.8098000000000001
 30
0.0
 10
-2.8395700000000001
 20
-3.3381200000000004
 30
0.0
 10
-2.5220700000000003
 20
-3.4981400000000002
 30
0.0
 10
-2.5220700000000003
 20
-3.4981400000000002
 30
0.0
 10
-2.4966700000000004
 20
-3.5159200000000004
 30
0.0
 10
-2.4966700000000004
 20
-3.5464000000000002
 30
0.0
 10
-2.5042900000000001
 20
-3.5794200000000003
 30
0.0
 10
-2.5042900000000001
 20
-3.5794200000000003
 30
0.0
 10
-2.9564100000000004
 20
-3.4676600000000004
 30
0.0
 10
-2.8929100000000001
 20
-2.7945600000000002
 30
0.0
 10
-2.5652500000000003
 20
-2.5380200000000004
 30
0.0
  0
SPLINE
  5
68
100
AcDbEntity
  8
Ebene 1
 62
     7
100
AcDbSpline
210
0.0
220
0.0
230
1.0
 70
     1
 71
     3
 72
    12
 73
     8
 74
     0
 42
0.0000000001
 43
0.0000000001
 40
0.0
 40
0.0
 40
0.0
 40
0.0
 40
0.5
 40
0.5
 40
0.5
 40
0.5
 40
1.0
 40
1.0
 40
1.0
 40
1.0
 10
0.95518
 20
-2.6980400000000002
 30
0.0
 10
0.88914
 20
-2.8098000000000001
 30
0.0
 10
0.95518
 20
-2.9545800000000004
 30
0.0
 10
0.9043800000000001
 20
-3.0663400000000003
 30
0.0
 10
0.9043800000000001
 20
-3.0663400000000003
 30
0.0
 10
0.8459600000000001
 20
-2.9545800000000004
 30
0.0
 10
0.8612000000000001
 20
-2.7793200000000002
 30
0.0
 10
0.95518
 20
-2.6980400000000002
 30
0.0
  0
SPLINE
  5
69
100
AcDbEntity
  8
Ebene 1
100
AcDbSpline
210
0.0
220
0.0
230
1.0
 70
     1
 71
     3
 72
    20
 73
    16
 74
     0
 42
0.0000000001
 43
0.0000000001
 40
0.0
 40
0.0
 40
0.0
 40
0.0
 40
0.25
 40
0.25
 40
0.25
 40
0.25
 40
0.5
 40
0.5
 40
0.5
 40
0.5
 40
0.75
 40
0.75
 40
0.75
 40
0.75
 40
1.0
 40
1.0
 40
1.0
 40
1.0
 10
-0.53325
 20
-2.7132800000000001
 30
0.0
 10
-0.53325
 20
-2.7132800000000001
 30
0.0
 10
-0.24369
 20
-2.7132800000000001
 30
0.0
 10
-0.24369
 20
-2.7132800000000001
 30
0.0
 10
-0.24369
 20
-2.7132800000000001
 30
0.0
 10
-0.18273
 20
-2.7132800000000001
 30
0.0
 10
-0.06081
 20
-2.7132800000000001
 30
0.0
 10
-0.08621
 20
-2.8098000000000001
 30
0.0
 10
-0.08621
 20
-2.8098000000000001
 30
0.0
 10
-0.08621
 20
-2.8098000000000001
 30
0.0
 10
-0.57389
 20
-2.7793200000000002
 30
0.0
 10
-0.57389
 20
-2.7793200000000002
 30
0.0
 10
-0.57389
 20
-2.7793200000000002
 30
0.0
 10
-0.57389
 20
-2.7793200000000002
 30
0.0
 10
-0.53325
 20
-2.7132800000000001
 30
0.0
 10
-0.53325
 20
-2.7132800000000001
 30
0.0
  0
SPLINE
  5
6A
100
AcDbEntity
  8
Ebene 1
 62
     7
100
AcDbSpline
210
0.0
220
0.0
230
1.0
 70
     1
 71
     3
 72
    16
 73
    12
 74
     0
 42
0.0000000001
 43
0.0000000001
 40
0.0
 40
0.0
 40
0.0
 40
0.0
 40
0.3333333333333333
 40
0.3333333333333333
 40
0.3333333333333333
 40
0.3333333333333333
 40
0.6666666666666666
 40
0.6666666666666666
 40
0.6666666666666666
 40
0.6666666666666666
 40
1.0
 40
1.0
 40
1.0
 40
1.0
 10
0.89168
 20
-3.1298400000000002
 30
0.0
 10
0.89168
 20
-3.1298400000000002
 30
0.0
 10
0.9196200000000001
 20
-3.1298400000000002
 30
0.0
 10
0.9196200000000001
 20
-3.1298400000000002
 30
0.0
 10
0.9196200000000001
 20
-3.1298400000000002
 30
0.0
 10
0.9094600000000001
 20
-3.2898600000000005
 30
0.0
 10
1.1177400000000002
 20
-3.2746200000000001
 30
0.0
 10
1.1279000000000001
 20
-3.3863800000000004
 30
0.0
 10
1.1279000000000001
 20
-3.3863800000000004
 30
0.0
 10
1.0136000000000001
 20
-3.4041600000000001
 30
0.0
 10
0.8967600000000001
 20
-3.2441400000000002
 30
0.0
 10
0.89168
 20
-3.1298400000000002
 30
0.0
  0
SPLINE
  5
6B
100
AcDbEntity
  8
Ebene 1
 62
     7
100
AcDbSpline
210
0.0
220
0.0
230
1.0
 70
     1
 71
     3
 72
    16
 73
    12
 74
     0
 42
0.0000000001
 43
0.0000000001
 40
0.0
 40
0.0
 40
0.0
 40
0.0
 40
0.3333333333333333
 40
0.3333333333333333
 40
0.3333333333333333
 40
0.3333333333333333
 40
0.6666666666666666
 40
0.6666666666666666
 40
0.6666666666666666
 40
0.6666666666666666
 40
1.0
 40
1.0
 40
1.0
 40
1.0
 10
1.2269600000000001
 20
-3.1933400000000001
 30
0.0
 10
1.4657200000000001
 20
-3.3381200000000004
 30
0.0
 10
1.4073000000000002
 20
-3.6099000000000001
 30
0.0
 10
1.3514200000000001
 20
-3.8359600000000005
 30
0.0
 10
1.3514200000000001
 20
-3.8359600000000005
 30
0.0
 10
1.3514200000000001
 20
-3.8359600000000005
 30
0.0
 10
1.2803000000000002
 20
-3.8816800000000002
 30
0.0
 10
1.2803000000000002
 20
-3.8816800000000002
 30
0.0
 10
1.2803000000000002
 20
-3.8816800000000002
 30
0.0
 10
1.3539600000000001
 20
-3.6581600000000001
 30
0.0
 10
1.2549000000000001
 20
-3.4041600000000001
 30
0.0
 10
1.2269600000000001
 20
-3.1933400000000001
 30
0.0
  0
SPLINE
  5
6C
100
AcDbEntity
  8
Ebene 1
 62
     7
100
AcDbSpline
210
0.0
220
0.0
230
1.0
 70
     1
 71
     3
 72
    16
 73
    12
 74
     0
 42
0.0000000001
 43
0.0000000001
 40
0.0
 40
0.0
 40
0.0
 40
0.0
 40
0.3333333333333333
 40
0.3333333333333333
 40
0.3333333333333333
 40
0.3333333333333333
 40
0.6666666666666666
 40
0.6666666666666666
 40
0.6666666666666666
 40
0.6666666666666666
 40
1.0
 40
1.0
 40
1.0
 40
1.0
 10
-2.5652500000000003
 20
-3.2898600000000005
 30
0.0
 10
-2.2807700000000004
 20
-3.3381200000000004
 30
0.0
 10
-2.1817100000000003
 20
-3.7877000000000005
 30
0.0
 10
-2.35697
 20
-3.9807400000000004
 30
0.0
 10
-2.35697
 20
-3.9807400000000004
 30
0.0
 10
-2.4407900000000002
 20
-3.7877000000000005
 30
0.0
 10
-2.3341100000000004
 20
-3.4676600000000004
 30
0.0
 10
-2.5601700000000003
 20
-3.3381200000000004
 30
0.0
 10
-2.5601700000000003
 20
-3.3381200000000004
 30
0.0
 10
-2.5601700000000003
 20
-3.3381200000000004
 30
0.0
 10
-2.5652500000000003
 20
-3.2898600000000005
 30
0.0
 10
-2.5652500000000003
 20
-3.2898600000000005
 30
0.0
  0
SPLINE
  5
6D
100
AcDbEntity
  8
Ebene 1
 62
     7
100
AcDbSpline
210
0.0
220
0.0
230
1.0
 70
     1
 71
     3
 72
    12
 73
     8
 74
     0
 42
0.0000000001
 43
0.0000000001
 40
0.0
 40
0.0
 40
0.0
 40
0.0
 40
0.5
 40
0.5
 40
0.5
 40
0.5
 40
1.0
 40
1.0
 40
1.0
 40
1.0
 10
-2.7811500000000002
 20
-3.6276800000000002
 30
0.0
 10
-2.6719300000000001
 20
-3.6835600000000004
 30
0.0
 10
-2.7709900000000003
 20
-3.9147000000000003
 30
0.0
 10
-2.7887700000000004
 20
-4.0112200000000007
 30
0.0
 10
-2.7887700000000004
 20
-4.0112200000000007
 30
0.0
 10
-2.7887700000000004
 20
-4.0112200000000007
 30
0.0
 10
-2.7811500000000002
 20
-3.6276800000000002
 30
0.0
 10
-2.7811500000000002
 20
-3.6276800000000002
 30
0.0
  0
SPLINE
  5
6E
100
AcDbEntity
  8
Ebene 1
 62
     7
100
AcDbSpline
210
0.0
220
0.0
230
1.0
 70
     1
 71
     3
 72
    12
 73
     8
 74
     0
 42
0.0000000001
 43
0.0000000001
 40
0.0
 40
0.0
 40
0.0
 40
0.0
 40
0.5
 40
0.5
 40
0.5
 40
0.5
 40
1.0
 40
1.0
 40
1.0
 40
1.0
 10
1.1304400000000001
 20
-3.8029400000000004
 30
0.0
 10
0.9374000000000001
 20
-4.0442400000000003
 30
0.0
 10
1.0720200000000002
 20
-4.3795200000000003
 30
0.0
 10
1.2396600000000002
 20
-4.5878000000000005
 30
0.0
 10
1.2396600000000002
 20
-4.5878000000000005
 30
0.0
 10
0.9221600000000001
 20
-4.5065200000000001
 30
0.0
 10
0.85104
 20
-3.9477200000000003
 30
0.0
 10
1.1304400000000001
 20
-3.8029400000000004
 30
0.0
  0
SPLINE
  5
6F
100
AcDbEntity
  8
Ebene 1
 62
     7
100
AcDbSpline
210
0.0
220
0.0
230
1.0
 70
     1
 71
     3
 72
    12
 73
     8
 74
     0
 42
0.0000000001
 43
0.0000000001
 40
0.0
 40
0.0
 40
0.0
 40
0.0
 40
0.5
 40
0.5
 40
0.5
 40
0.5
 40
1.0
 40
1.0
 40
1.0
 40
1.0
 10
1.40222
 20
-3.9629600000000003
 30
0.0
 10
1.4784200000000001
 20
-3.9934400000000005
 30
0.0
 10
1.4936600000000002
 20
-4.1864800000000004
 30
0.0
 10
1.44032
 20
-4.2525200000000005
 30
0.0
 10
1.44032
 20
-4.2525200000000005
 30
0.0
 10
1.44032
 20
-4.1560000000000006
 30
0.0
 10
1.4250800000000001
 20
-4.0594800000000006
 30
0.0
 10
1.40222
 20
-3.9629600000000003
 30
0.0
  0
SPLINE
  5
70
100
AcDbEntity
  8
Ebene 1
 62
     7
100
AcDbSpline
210
0.0
220
0.0
230
1.0
 70
     1
 71
     3
 72
    20
 73
    16
 74
     0
 42
0.0000000001
 43
0.0000000001
 40
0.0
 40
0.0
 40
0.0
 40
0.0
 40
0.25
 40
0.25
 40
0.25
 40
0.25
 40
0.5
 40
0.5
 40
0.5
 40
0.5
 40
0.75
 40
0.75
 40
0.75
 40
0.75
 40
1.0
 40
1.0
 40
1.0
 40
1.0
 10
1.27522
 20
-4.3465000000000007
 30
0.0
 10
1.4530200000000002
 20
-4.3642799999999999
 30
0.0
 10
1.5114400000000001
 20
-4.5573200000000007
 30
0.0
 10
1.5139800000000001
 20
-4.7148000000000003
 30
0.0
 10
1.5139800000000001
 20
-4.7148000000000003
 30
0.0
 10
1.5495400000000001
 20
-4.8443400000000008
 30
0.0
 10
1.6079600000000001
 20
-5.03484
 30
0.0
 10
1.4987400000000002
 20
-5.1339000000000006
 30
0.0
 10
1.4987400000000002
 20
-5.1339000000000006
 30
0.0
 10
1.4123800000000002
 20
-4.9230800000000006
 30
0.0
 10
1.5622400000000001
 20
-4.4582600000000001
 30
0.0
 10
1.23204
 20
-4.4277800000000003
 30
0.0
 10
1.23204
 20
-4.4277800000000003
 30
0.0
 10
1.23204
 20
-4.4277800000000003
 30
0.0
 10
1.27522
 20
-4.3465000000000007
 30
0.0
 10
1.27522
 20
-4.3465000000000007
 30
0.0
  0
SPLINE
  5
71
100
AcDbEntity
  8
Ebene 1
 62
     7
100
AcDbSpline
210
0.0
220
0.0
230
1.0
 70
     1
 71
     3
 72
    16
 73
    12
 74
     0
 42
0.0000000001
 43
0.0000000001
 40
0.0
 40
0.0
 40
0.0
 40
0.0
 40
0.3333333333333333
 40
0.3333333333333333
 40
0.3333333333333333
 40
0.3333333333333333
 40
0.6666666666666666
 40
0.6666666666666666
 40
0.6666666666666666
 40
0.6666666666666666
 40
1.0
 40
1.0
 40
1.0
 40
1.0
 10
1.0491600000000001
 20
-4.5700200000000004
 30
0.0
 10
1.0491600000000001
 20
-4.5700200000000004
 30
0.0
 10
1.11266
 20
-4.5878000000000005
 30
0.0
 10
1.11266
 20
-4.5878000000000005
 30
0.0
 10
1.11266
 20
-4.5878000000000005
 30
0.0
 10
1.0898000000000001
 20
-4.7325800000000005
 30
0.0
 10
1.0364600000000002
 20
-4.9078400000000002
 30
0.0
 10
1.0491600000000001
 20
-5.03484
 30
0.0
 10
1.0491600000000001
 20
-5.03484
 30
0.0
 10
0.9856600000000001
 20
-4.9078400000000002
 30
0.0
 10
0.9755
 20
-4.69956
 30
0.0
 10
1.0491600000000001
 20
-4.5700200000000004
 30
0.0
  0
ENDSEC
  0
SECTION
  2
OBJECTS
  0
DICTIONARY
  5
19
100
AcDbDictionary
280
     0
281
     1
  3
ACAD_GROUP
350
1A
  3
ACAD_MLINESTYLE
350
1B
  3
ACAD_LAYOUT
350
1E
  3
ACAD_PLOTSETTINGS
350
22
  3
ACAD_PLOTSTYLENAME
350
1F
  3
ACAD_WIPEOUT_VARS
350
23
  0
DICTIONARY
  5
1A
102
{ACAD_REACTORS
330
19
102
}
100
AcDbDictionary
280
     0
281
     1
  0
DICTIONARY
  5
1B
102
{ACAD_REACTORS
330
19
102
}
100
AcDbDictionary
280
     0
281
     1
  3
Standard
350
1C
  0
MLINESTYLE
  5
1C
102
{ACAD_REACTORS
330
1B
102
}
100
AcDbMlineStyle
  2
Standard
 70
     0
  3

 62
     0
 51
90.0
 52
90.0
 71
     2
 49
0.5
 62
   256
  6
BYLAYER
 49
-0.5
 62
   256
  6
BYLAYER
  0
ACDBDICTIONARYWDFLT
  5
1F
102
{ACAD_REACTORS
330
19
102
}
100
AcDbDictionary
281
     1
  3
Normal
350
1D
100
AcDbDictionaryWithDefault
340
1D
  0
ACDBPLACEHOLDER
  5
1D
102
{ACAD_REACTORS
330
1F
102
}
  0
LAYOUT
  5
20
102
{ACAD_REACTORS
330
1E
102
}
100
AcDbPlotSettings
  1

  2

  4

  6

 40
0.0
 41
0.0
 42
0.0
 43
0.0
 44
0.0
 45
0.0
 46
0.0
 47
0.0
 48
0.0
 49
0.0
140
0.0
141
0.0
142
1.0
143
1.0
 70
  1024
 72
     0
 73
     0
 74
     0
  7

 75
     0
147
1.0
148
0.0
149
0.0
100
AcDbLayout
  1
Model
 70
     0
 71
     0
 10
0.0
 20
0.0
 11
0.0
 21
0.0
 12
0.0
 22
0.0
 32
0.0
 14
0.0
 24
0.0
 34
0.0
 15
0.0
 25
0.0
 35
0.0
146
0.0
 13
0.0
 23
0.0
 33
0.0
 16
0.0
 26
0.0
 36
0.0
 17
0.0
 27
0.0
 37
0.0
 76
     0
330
A
331
0
345
0
346
0
  0
LAYOUT
  5
21
102
{ACAD_REACTORS
330
1E
102
}
100
AcDbPlotSettings
  1

  2

  4

  6

 40
0.0
 41
0.0
 42
0.0
 43
0.0
 44
0.0
 45
0.0
 46
0.0
 47
0.0
 48
0.0
 49
0.0
140
0.0
141
0.0
142
1.0
143
1.0
 70
     0
 72
     0
 73
     0
 74
     0
  7

 75
     0
147
1.0
148
0.0
149
0.0
100
AcDbLayout
  1
Layout1
 70
     0
 71
     0
 10
0.0
 20
0.0
 11
0.0
 21
0.0
 12
0.0
 22
0.0
 32
0.0
 14
0.0
 24
0.0
 34
0.0
 15
0.0
 25
0.0
 35
0.0
146
0.0
 13
0.0
 23
0.0
 33
0.0
 16
0.0
 26
0.0
 36
0.0
 17
0.0
 27
0.0
 37
0.0
 76
     0
330
B
331
0
345
0
346
0
  0
DICTIONARY
  5
1E
102
{ACAD_REACTORS
330
19
102
}
100
AcDbDictionary
280
     0
281
     1
  3
Layout1
350
21
  3
Model
350
20
  0
DICTIONARY
  5
22
102
{ACAD_REACTORS
330
19
102
}
100
AcDbDictionary
280
     0
281
     1
  0
WIPEOUTVARIABLES
  5
23
100
AcDbWipeoutVariables
 70
     1
  0
ENDSEC
  0
EOF
