  0
SECTION
  2
HEADER
  9
$ACADVER
  1
AC1015
  9
$ACADMAINTVER
 70
     6
  9
$DWGCODEPAGE
  3
DOS850
  9
$INSBASE
 10
0.0
 20
0.0
 30
0.0
  9
$EXTMIN
 10
-4.17667
 20
-6.47756
 30
1.000000E+20
  9
$EXTMAX
 10
4.18189
 20
6.47047
 30
-1.000000E+20
  9
$LIMMIN
 10
0.0
 20
0.0
  9
$LIMMAX
 10
0.0
 20
0.0
  9
$ORTHOMODE
 70
     0
  9
$REGENMODE
 70
     1
  9
$FILLMODE
 70
     1
  9
$QTEXTMODE
 70
     0
  9
$MIRRTEXT
 70
     1
  9
$LTSCALE
 40
1.0
  9
$ATTMODE
 70
     1
  9
$TEXTSIZE
 40
0.2
  9
$TRACEWID
 40
0.05
  9
$TEXTSTYLE
  7
Standard
  9
$CLAYER
  8
0
  9
$CELTYPE
  6
Continuous
  9
$CECOLOR
 62
   256
  9
$CELTSCALE
 40
1.0
  9
$DISPSILH
 70
     0
  9
$DIMSCALE
 40
1.0
  9
$DIMASZ
 40
0.18
  9
$DIMEXO
 40
0.0625
  9
$DIMDLI
 40
0.38
  9
$DIMRND
 40
0.0
  9
$DIMDLE
 40
0.0
  9
$DIMEXE
 40
0.18
  9
$DIMTP
 40
0.0
  9
$DIMTM
 40
0.0
  9
$DIMTXT
 40
0.18
  9
$DIMCEN
 40
0.09
  9
$DIMTSZ
 40
0.0
  9
$DIMTOL
 70
     0
  9
$DIMLIM
 70
     0
  9
$DIMTIH
 70
     1
  9
$DIMTOH
 70
     1
  9
$DIMSE1
 70
     0
  9
$DIMSE2
 70
     0
  9
$DIMTAD
 70
     0
  9
$DIMZIN
 70
     0
  9
$DIMBLK
  1

  9
$DIMASO
 70
     1
  9
$DIMSHO
 70
     1
  9
$DIMPOST
  1

  9
$DIMAPOST
  1

  9
$DIMALT
 70
     0
  9
$DIMALTD
 70
     2
  9
$DIMALTF
 40
25.4
  9
$DIMLFAC
 40
1.0
  9
$DIMTOFL
 70
     0
  9
$DIMTVP
 40
0.0
  9
$DIMTIX
 70
     0
  9
$DIMSOXD
 70
     0
  9
$DIMSAH
 70
     0
  9
$DIMBLK1
  1

  9
$DIMBLK2
  1

  9
$DIMSTYLE
  2
Standard
  9
$DIMCLRD
 70
     0
  9
$DIMCLRE
 70
     0
  9
$DIMCLRT
 70
     0
  9
$DIMTFAC
 40
1.0
  9
$DIMGAP
 40
0.09
  9
$DIMJUST
 70
     0
  9
$DIMSD1
 70
     0
  9
$DIMSD2
 70
     0
  9
$DIMTOLJ
 70
     1
  9
$DIMTZIN
 70
     0
  9
$DIMALTZ
 70
     0
  9
$DIMALTTZ
 70
     0
  9
$DIMUPT
 70
     0
  9
$DIMDEC
 70
     4
  9
$DIMTDEC
 70
     4
  9
$DIMALTU
 70
     2
  9
$DIMALTTD
 70
     2
  9
$DIMTXSTY
  7
Standard
  9
$DIMAUNIT
 70
     0
  9
$DIMADEC
 70
     0
  9
$DIMALTRND
 40
0.0
  9
$DIMAZIN
 70
     0
  9
$DIMDSEP
 70
     0
  9
$DIMATFIT
 70
     3
  9
$DIMFRAC
 70
     0
  9
$DIMLDRBLK
  1

  9
$DIMLUNIT
 70
     2
  9
$DIMLWD
 70
     0
  9
$DIMLWE
 70
     0
  9
$DIMTMOVE
 70
     0
  9
$LUNITS
 70
     2
  9
$LUPREC
 70
     4
  9
$SKETCHINC
 40
0.1
  9
$FILLETRAD
 40
0.0
  9
$AUNITS
 70
     0
  9
$AUPREC
 70
     0
  9
$MENU
  1
acad
  9
$ELEVATION
 40
0.0
  9
$PELEVATION
 40
0.0
  9
$THICKNESS
 40
0.0
  9
$LIMCHECK
 70
     0
  9
$CHAMFERA
 40
0.0
  9
$CHAMFERB
 40
0.0
  9
$CHAMFERC
 40
0.0
  9
$CHAMFERD
 40
0.0
  9
$SKPOLY
 70
     0
  9
$TDCREATE
 40
0.000000000
  9
$TDUCREATE
 40
0.000000000
  9
$TDUPDATE
 40
0.000000000
  9
$TDUUPDATE
 40
0.000000000
  9
$TDINDWG
 40
0.0000000000
  9
$TDUSRTIMER
 40
0.0000000000
  9
$USRTIMER
 70
     1
  9
$ANGBASE
 50
0.0
  9
$ANGDIR
 70
     0
  9
$PDMODE
 70
     0
  9
$PDSIZE
 40
0.0
  9
$PLINEWID
 40
0.0
  9
$SPLFRAME
 70
     0
  9
$SPLINETYPE
 70
     6
  9
$SPLINESEGS
 70
     8
  9
$HANDSEED
  5
4A
  9
$SURFTAB1
 70
     6
  9
$SURFTAB2
 70
     6
  9
$SURFTYPE
 70
     6
  9
$SURFU
 70
     6
  9
$SURFV
 70
     6
  9
$UCSBASE
  2

  9
$UCSNAME
  2

  9
$UCSORG
 10
0.0
 20
0.0
 30
0.0
  9
$UCSXDIR
 10
1.0
 20
0.0
 30
0.0
  9
$UCSYDIR
 10
0.0
 20
1.0
 30
0.0
  9
$UCSORTHOREF
  2

  9
$UCSORTHOVIEW
 70
     0
  9
$UCSORGTOP
 10
0.0
 20
0.0
 30
0.0
  9
$UCSORGBOTTOM
 10
0.0
 20
0.0
 30
0.0
  9
$UCSORGLEFT
 10
0.0
 20
0.0
 30
0.0
  9
$UCSORGRIGHT
 10
0.0
 20
0.0
 30
0.0
  9
$UCSORGFRONT
 10
0.0
 20
0.0
 30
0.0
  9
$UCSORGBACK
 10
0.0
 20
0.0
 30
0.0
  9
$PUCSBASE
  2

  9
$PUCSNAME
  2

  9
$PUCSORG
 10
0.0
 20
0.0
 30
0.0
  9
$PUCSXDIR
 10
1.0
 20
0.0
 30
0.0
  9
$PUCSYDIR
 10
0.0
 20
1.0
 30
0.0
  9
$PUCSORTHOREF
  2

  9
$PUCSORTHOVIEW
 70
     0
  9
$PUCSORGTOP
 10
0.0
 20
0.0
 30
0.0
  9
$PUCSORGBOTTOM
 10
0.0
 20
0.0
 30
0.0
  9
$PUCSORGLEFT
 10
0.0
 20
0.0
 30
0.0
  9
$PUCSORGRIGHT
 10
0.0
 20
0.0
 30
0.0
  9
$PUCSORGFRONT
 10
0.0
 20
0.0
 30
0.0
  9
$PUCSORGBACK
 10
0.0
 20
0.0
 30
0.0
  9
$USERI1
 70
     0
  9
$USERI2
 70
     0
  9
$USERI3
 70
     0
  9
$USERI4
 70
     0
  9
$USERI5
 70
     0
  9
$USERR1
 40
0.0
  9
$USERR2
 40
0.0
  9
$USERR3
 40
0.0
  9
$USERR4
 40
0.0
  9
$USERR5
 40
0.0
  9
$WORLDVIEW
 70
     1
  9
$SHADEDGE
 70
     3
  9
$SHADEDIF
 70
    70
  9
$TILEMODE
 70
     1
  9
$MAXACTVP
 70
    16
  9
$PINSBASE
 10
0.0
 20
0.0
 30
0.0
  9
$PLIMCHECK
 70
     0
  9
$PEXTMIN
 10
1.000000E+20
 20
1.000000E+20
 30
1.000000E+20
  9
$PEXTMAX
 10
-1.000000E+20
 20
-1.000000E+20
 30
-1.000000E+20
  9
$PLIMMIN
 10
0.0
 20
0.0
  9
$PLIMMAX
 10
12.0
 20
9.0
  9
$UNITMODE
 70
     0
  9
$VISRETAIN
 70
     0
  9
$PLINEGEN
 70
     1
  9
$PSLTSCALE
 70
     0
  9
$TREEDEPTH
 70
  3020
  9
$CMLSTYLE
  2
Standard
  9
$CMLJUST
 70
     0
  9
$CMLSCALE
 40
1.0
  9
$PROXYGRAPHICS
 70
     0
  9
$MEASUREMENT
 70
     0
  9
$CELWEIGHT
370
     0
  9
$ENDCAPS
280
     0
  9
$JOINSTYLE
280
     0
  9
$LWDISPLAY
290
     0
  9
$INSUNITS
 70
     5
  9
$HYPERLINKBASE
  1

  9
$XEDIT
290
     1
  9
$CEPSNTYPE
380
     0
  9
$PSTYLEMODE
290
     1
  9
$FINGERPRINTGUID
  2

  9
$VERSIONGUID
  2

  9
$EXTNAMES
290
     1
  9
$PSVPSCALE
 40
0.0
  0
ENDSEC
  0
SECTION
  2
CLASSES
  0
CLASS
  1
LWPOLYLINE
  2
AcDbPolyline
  3
AutoCAD 2000
 90
    32768
280
     0
281
     1
  0
CLASS
  1
IMAGE
  2
AcDbRasterImage
  3
ISM
 90
    32895
280
     0
281
     1
  0
CLASS
  1
OLE2FRAME
  2
AcDbOle2Frame
  3
AutoCAD 2000
 90
    32768
280
     0
281
     1
  0
CLASS
  1
HATCH
  2
AcDbHatch
  3
AutoCAD 2000
 90
    32768
280
     0
281
     1
  0
CLASS
  1
DICTIONARYVAR
  2
AcDbDictionaryVar
  3
AutoCAD 2000
 90
    32768
280
     0
281
     0
  0
CLASS
  1
RASTERVARIABLES
  2
AcDbRasterVariables
  3
ISM
 90
    32768
280
     0
281
     0
  0
CLASS
  1
IMAGEDEF
  2
AcDbRasterImageDef
  3
ISM
 90
    32768
280
     0
281
     0
  0
CLASS
  1
IMAGEDEF_REACTOR
  2
AcDbRasterImageDefReactor
  3
ISM
 90
    32769
280
     0
281
     0
  0
CLASS
  1
IDBUFFER
  2
AcDbIdBuffer
  3
AutoCAD 2000
 90
    32768
280
     0
281
     0
  0
CLASS
  1
SPATIAL_FILTER
  2
AcDbSpatialFilter
  3
AutoCAD 2000
 90
    32768
280
     0
281
     0
  0
CLASS
  1
XRECORD
  2
AcDbXrecord
  3
AutoCAD 2000
 90
    32768
280
     0
281
     0
  0
CLASS
  1
SORTENTSTABLE
  2
AcDbSortentsTable
  3
AutoCAD 2000
 90
    32768
280
     0
281
     0
  0
CLASS
  1
LAYER_INDEX
  2
AcDbLayerIndex
  3
AutoCAD 2000
 90
    32768
280
     0
281
     0
  0
CLASS
  1
SPATIAL_INDEX
  2
AcDbSpatialIndex
  3
AutoCAD 2000
 90
    32768
280
     0
281
     0
  0
CLASS
  1
OBJECT_PTR
  2
CAseDLPNTableRecord
  3
"ASE-LPNTableRecord"
 90
    32769
280
     0
281
     0
  0
CLASS
  1
LAYOUT
  2
AcDbLayout
  3
AutoCAD 2000
 90
        0
280
     0
281
     0
  0
CLASS
  1
PLOTSETTINGS
  2
AcDbPlotSettings
  3
AutoCAD 2000
 90
    32768
280
     0
281
     0
  0
CLASS
  1
ACDBDICTIONARYWDFLT
  2
AcDbDictionaryWithDefault
  3
AutoCAD 2000
 90
        0
280
     0
281
     0
  0
CLASS
  1
ACDBPLACEHOLDER
  2
AcDbPlaceHolder
  3
AutoCAD 2000
 90
        0
280
     0
281
     0
  0
CLASS
  1
VBA_PROJECT
  2
AcDbVbaProject
  3
acadvba
 90
    32768
280
     0
281
     0
  0
CLASS
  1
WIPEOUT
  2
AcDbWipeout
  3
WipeOut|AutoCAD Express Tool|expresstools@autodesk.com
 90
    32895
280
     0
281
     1
  0
CLASS
  1
WIPEOUTVARIABLES
  2
AcDbWipeoutVariables
  3
WipeOut|AutoCAD Express Tool|expresstools@autodesk.com
 90
        0
280
     0
281
     0
  0
CLASS
  1
RTEXT
  2
RText
  3
RText|AutoCAD Express Tool|expresstools@autodesk.com
 90
    32768
280
     0
281
     1
  0
CLASS
  1
ARCALIGNEDTEXT
  2
AcDbArcAlignedText
  3
ATEXT|AutoCAD Express Tool|expresstools@autodesk.com
 90
    32768
280
     0
281
     1
  0
ENDSEC
  0
SECTION
  2
TABLES
  0
TABLE
  2
VPORT
  5
7
100
AcDbSymbolTable
 70
     1
  0
VPORT
  5
15
100
AcDbSymbolTableRecord
100
AcDbViewportTableRecord
  2
*ACTIVE
 70
     0
 10
0.0
 20
0.0
 11
1.0
 21
1.0
 12
6.591288
 22
4.579184
 13
0.0
 23
0.0
 14
1.0
 24
1.0
 15
0.0
 25
0.0
 16
0.0
 26
0.0
 36
1.0
 17
0.0
 27
0.0
 37
0.0
 40
9.158369
 41
0.688564
 42
50.0
 43
0.0
 44
0.0
 50
0.0
 51
0.0
 71
     0
 72
   100
 73
     1
 74
     1
 75
     0
 76
     0
 77
     0
 78
     0
281
     0
 65
     0
110
0.0
120
0.0
130
0.0
111
1.0
121
0.0
131
0.0
112
0.0
122
1.0
132
0.0
345
0
346
0
 79
     0
146
0.0
  0
ENDTAB
  0
TABLE
  2
LTYPE
  5
4
100
AcDbSymbolTable
 70
     3
  0
LTYPE
  5
11
100
AcDbSymbolTableRecord
100
AcDbLinetypeTableRecord
  2
ByBlock
 70
    64
  3

 72
    65
 73
     0
 40
0.0
  0
LTYPE
  5
12
100
AcDbSymbolTableRecord
100
AcDbLinetypeTableRecord
  2
ByLayer
 70
    64
  3

 72
    65
 73
     0
 40
0.0
  0
LTYPE
  5
13
100
AcDbSymbolTableRecord
100
AcDbLinetypeTableRecord
  2
Continuous
 70
    64
  3
Solid line
 72
    65
 73
     0
 40
0.0
  0
ENDTAB
  0
TABLE
  2
LAYER
  5
2
100
AcDbSymbolTable
 70
     2
  0
LAYER
  5
14
100
AcDbSymbolTableRecord
100
AcDbLayerTableRecord
  2
0
 70
     0
 62
     7
  6
Continuous
290
     1
370
    -3
390
1D
  0
LAYER
  5
24
100
AcDbSymbolTableRecord
100
AcDbLayerTableRecord
  2
Ebene 1
 70
     0
 62
     7
  6
Continuous
290
     1
370
    -3
390
1F
  0
ENDTAB
  0
TABLE
  2
STYLE
  5
3
100
AcDbSymbolTable
 70
     1
  0
STYLE
  5
17
100
AcDbSymbolTableRecord
100
AcDbTextStyleTableRecord
  2
Standard
 70
     0
 40
0.0
 41
1.0
 50
0.0
 71
     0
 42
0.0
  3
txt
  4

  0
ENDTAB
  0
TABLE
  2
VIEW
  5
5
100
AcDbSymbolTable
 70
     0
  0
ENDTAB
  0
TABLE
  2
UCS
  5
6
100
AcDbSymbolTable
 70
     0
  0
ENDTAB
  0
TABLE
  2
APPID
  5
8
100
AcDbSymbolTable
 70
     1
  0
APPID
  5
16
100
AcDbSymbolTableRecord
100
AcDbRegAppTableRecord
  2
ACAD
 70
     0
  0
ENDTAB
  0
TABLE
  2
DIMSTYLE
  5
9
100
AcDbSymbolTable
 70
     1
100
AcDbDimStyleTable
 71
     0
  0
DIMSTYLE
105
18
100
AcDbSymbolTableRecord
100
AcDbDimStyleTableRecord
  2
Standard
 70
     0
  3

  4

 40
1.0
 41
0.18
 42
0.0625
 43
0.38
 44
0.18
 45
0.0
 46
0.0
 47
0.0
 48
0.0
 71
     0
 72
     0
 73
     1
 74
     1
 75
     0
 76
     0
 77
     0
 78
     0
 79
     0
140
0.18
141
0.09
142
0.0
143
25.4
144
1.0
145
0.0
146
1.0
147
0.09
148
0.0
170
     0
171
     2
172
     0
173
     0
174
     0
175
     0
176
     0
177
     0
178
     0
179
     0
271
     4
272
     4
273
     2
274
     2
275
     0
276
     0
277
     2
278
    46
279
     0
280
     0
281
     0
282
     0
283
     1
284
     0
285
     0
286
     0
288
     0
340
17
341
0
342
0
343
0
344
0
371
    -2
372
    -2
  0
ENDTAB
  0
TABLE
  2
BLOCK_RECORD
  5
1
100
AcDbSymbolTable
 70
     0
  0
BLOCK_RECORD
  5
A
100
AcDbSymbolTableRecord
100
AcDbBlockTableRecord
  2
*MODEL_SPACE
340
20
  0
BLOCK_RECORD
  5
B
100
AcDbSymbolTableRecord
100
AcDbBlockTableRecord
  2
*PAPER_SPACE
340
21
  0
ENDTAB
  0
ENDSEC
  0
SECTION
  2
BLOCKS
  0
BLOCK
  5
D
100
AcDbEntity
  8
0
100
AcDbBlockBegin
  2
*MODEL_SPACE
 70
     0
 10
0.0
 20
0.0
 30
0.0
  3
*MODEL_SPACE
  1

  0
ENDBLK
  5
E
100
AcDbEntity
  8
0
100
AcDbBlockEnd
  0
BLOCK
  5
F
100
AcDbEntity
 67
     1
  8
0
100
AcDbBlockBegin
  2
*PAPER_SPACE
 70
     0
 10
0.0
 20
0.0
 30
0.0
  3
*PAPER_SPACE
  1

  0
ENDBLK
  5
10
100
AcDbEntity
 67
     1
  8
0
100
AcDbBlockEnd
  0
ENDSEC
  0
SECTION
  2
ENTITIES
  0
SPLINE
  5
25
100
AcDbEntity
  8
Ebene 1
100
AcDbSpline
210
0.0
220
0.0
230
1.0
 70
     1
 71
     3
 72
   140
 73
   136
 74
     0
 42
0.0000000001
 43
0.0000000001
 40
0.0
 40
0.0
 40
0.0
 40
0.0
 40
0.0294117647058824
 40
0.0294117647058824
 40
0.0294117647058824
 40
0.0294117647058824
 40
0.0588235294117647
 40
0.0588235294117647
 40
0.0588235294117647
 40
0.0588235294117647
 40
0.0882352941176471
 40
0.0882352941176471
 40
0.0882352941176471
 40
0.0882352941176471
 40
0.1176470588235294
 40
0.1176470588235294
 40
0.1176470588235294
 40
0.1176470588235294
 40
0.1470588235294118
 40
0.1470588235294118
 40
0.1470588235294118
 40
0.1470588235294118
 40
0.1764705882352941
 40
0.1764705882352941
 40
0.1764705882352941
 40
0.1764705882352941
 40
0.2058823529411765
 40
0.2058823529411765
 40
0.2058823529411765
 40
0.2058823529411765
 40
0.2352941176470589
 40
0.2352941176470589
 40
0.2352941176470589
 40
0.2352941176470589
 40
0.2647058823529412
 40
0.2647058823529412
 40
0.2647058823529412
 40
0.2647058823529412
 40
0.2941176470588235
 40
0.2941176470588235
 40
0.2941176470588235
 40
0.2941176470588235
 40
0.3235294117647059
 40
0.3235294117647059
 40
0.3235294117647059
 40
0.3235294117647059
 40
0.3529411764705883
 40
0.3529411764705883
 40
0.3529411764705883
 40
0.3529411764705883
 40
0.3823529411764706
 40
0.3823529411764706
 40
0.3823529411764706
 40
0.3823529411764706
 40
0.411764705882353
 40
0.411764705882353
 40
0.411764705882353
 40
0.411764705882353
 40
0.4411764705882353
 40
0.4411764705882353
 40
0.4411764705882353
 40
0.4411764705882353
 40
0.4705882352941177
 40
0.4705882352941177
 40
0.4705882352941177
 40
0.4705882352941177
 40
0.5
 40
0.5
 40
0.5
 40
0.5
 40
0.5294117647058824
 40
0.5294117647058824
 40
0.5294117647058824
 40
0.5294117647058824
 40
0.5588235294117647
 40
0.5588235294117647
 40
0.5588235294117647
 40
0.5588235294117647
 40
0.5882352941176471
 40
0.5882352941176471
 40
0.5882352941176471
 40
0.5882352941176471
 40
0.6176470588235294
 40
0.6176470588235294
 40
0.6176470588235294
 40
0.6176470588235294
 40
0.6470588235294118
 40
0.6470588235294118
 40
0.6470588235294118
 40
0.6470588235294118
 40
0.6764705882352942
 40
0.6764705882352942
 40
0.6764705882352942
 40
0.6764705882352942
 40
0.7058823529411765
 40
0.7058823529411765
 40
0.7058823529411765
 40
0.7058823529411765
 40
0.7352941176470589
 40
0.7352941176470589
 40
0.7352941176470589
 40
0.7352941176470589
 40
0.7647058823529412
 40
0.7647058823529412
 40
0.7647058823529412
 40
0.7647058823529412
 40
0.7941176470588236
 40
0.7941176470588236
 40
0.7941176470588236
 40
0.7941176470588236
 40
0.823529411764706
 40
0.823529411764706
 40
0.823529411764706
 40
0.823529411764706
 40
0.8529411764705883
 40
0.8529411764705883
 40
0.8529411764705883
 40
0.8529411764705883
 40
0.8823529411764707
 40
0.8823529411764707
 40
0.8823529411764707
 40
0.8823529411764707
 40
0.911764705882353
 40
0.911764705882353
 40
0.911764705882353
 40
0.911764705882353
 40
0.9411764705882354
 40
0.9411764705882354
 40
0.9411764705882354
 40
0.9411764705882354
 40
0.9705882352941178
 40
0.9705882352941178
 40
0.9705882352941178
 40
0.9705882352941178
 40
1.0
 40
1.0
 40
1.0
 40
1.0
 10
2.9973400000000003
 20
-0.4349
 30
0.0
 10
2.9262200000000003
 20
-0.4349
 30
0.0
 10
2.8678000000000003
 20
-0.71938
 30
0.0
 10
2.8500200000000002
 20
-0.7701800000000001
 30
0.0
 10
2.8500200000000002
 20
-0.7701800000000001
 30
0.0
 10
2.9033600000000002
 20
-0.73716
 30
0.0
 10
2.9922600000000004
 20
-0.6254000000000001
 30
0.0
 10
3.01004
 20
-0.5746
 30
0.0
 10
3.01004
 20
-0.5746
 30
0.0
 10
3.2361000000000004
 20
-0.26218
 30
0.0
 10
3.4748600000000005
 20
0.11373
 30
0.0
 10
3.8761800000000002
 20
0.18231
 30
0.0
 10
3.8761800000000002
 20
0.18231
 30
0.0
 10
4.5213400000000004
 20
-0.4577600000000001
 30
0.0
 10
3.9981000000000004
 20
-1.6414000000000002
 30
0.0
 10
3.6501200000000003
 20
-2.3373600000000003
 30
0.0
 10
3.6501200000000003
 20
-2.3373600000000003
 30
0.0
 10
3.3732600000000001
 20
-2.4770600000000003
 30
0.0
 10
3.2157800000000001
 20
-2.0935200000000003
 30
0.0
 10
3.0760800000000001
 20
-1.9893800000000001
 30
0.0
 10
3.0760800000000001
 20
-1.9893800000000001
 30
0.0
 10
3.1116400000000004
 20
-2.7539200000000004
 30
0.0
 10
2.3801200000000002
 20
-3.3965400000000003
 30
0.0
 10
2.5884
 20
-4.1636200000000008
 30
0.0
 10
2.5884
 20
-4.1636200000000008
 30
0.0
 10
2.5884
 20
-4.1636200000000008
 30
0.0
 10
2.7636600000000002
 20
-4.4227000000000007
 30
0.0
 10
2.7636600000000002
 20
-4.4227000000000007
 30
0.0
 10
2.7636600000000002
 20
-4.4227000000000007
 30
0.0
 10
3.2335600000000002
 20
-4.5471600000000008
 30
0.0
 10
3.9117400000000004
 20
-5.1542200000000005
 30
0.0
 10
3.5459800000000001
 20
-5.6419000000000006
 30
0.0
 10
3.5459800000000001
 20
-5.6419000000000006
 30
0.0
 10
3.3377000000000003
 20
-5.8857400000000002
 30
0.0
 10
3.3554800000000005
 20
-6.1803800000000004
 30
0.0
 10
3.4062800000000002
 20
-6.4775600000000004
 30
0.0
 10
3.4062800000000002
 20
-6.4775600000000004
 30
0.0
 10
3.1980000000000004
 20
-6.3378600000000009
 30
0.0
 10
3.1624400000000001
 20
-5.9390800000000006
 30
0.0
 10
3.3021400000000001
 20
-5.7104800000000004
 30
0.0
 10
3.3021400000000001
 20
-5.7104800000000004
 30
0.0
 10
3.5231200000000005
 20
-5.3142400000000007
 30
0.0
 10
3.0989400000000002
 20
-5.1796200000000008
 30
0.0
 10
2.7839800000000001
 20
-5.0627800000000001
 30
0.0
 10
2.7839800000000001
 20
-5.0627800000000001
 30
0.0
 10
2.6214200000000001
 20
-5.0043600000000001
 30
0.0
 10
2.4969600000000001
 20
-5.0170600000000007
 30
0.0
 10
2.3572600000000001
 20
-4.9281600000000001
 30
0.0
 10
2.3572600000000001
 20
-4.9281600000000001
 30
0.0
 10
2.0575400000000004
 20
-4.73766
 30
0.0
 10
1.7019400000000002
 20
-4.2449000000000003
 30
0.0
 10
1.6486000000000001
 20
-3.9197800000000003
 30
0.0
 10
1.6486000000000001
 20
-3.9197800000000003
 30
0.0
 10
1.5800200000000002
 20
-4.0061400000000003
 30
0.0
 10
1.7197200000000001
 20
-4.1458400000000006
 30
0.0
 10
1.7019400000000002
 20
-4.2499800000000008
 30
0.0
 10
1.7019400000000002
 20
-4.2499800000000008
 30
0.0
 10
1.0898000000000001
 20
-3.6759400000000002
 30
0.0
 10
1.2447400000000002
 20
-2.5964400000000003
 30
0.0
 10
1.6333600000000001
 20
-1.9004800000000002
 30
0.0
 10
1.6333600000000001
 20
-1.9004800000000002
 30
0.0
 10
1.3361800000000001
 20
-1.9893800000000001
 30
0.0
 10
0.9755
 20
-0.5619000000000001
 30
0.0
 10
1.52922
 20
-0.6838200000000001
 30
0.0
 10
1.52922
 20
-0.6838200000000001
 30
0.0
 10
1.52922
 20
-0.6838200000000001
 30
0.0
 10
1.52922
 20
-0.4907800000000001
 30
0.0
 10
1.52922
 20
-0.4907800000000001
 30
0.0
 10
1.52922
 20
-0.4907800000000001
 30
0.0
 10
1.5978000000000001
 20
-0.14534
 30
0.0
 10
1.44032
 20
-0.092
 30
0.0
 10
1.2549000000000001
 20
-0.3714
 30
0.0
 10
1.2549000000000001
 20
-0.3714
 30
0.0
 10
1.23712
 20
-0.7041400000000001
 30
0.0
 10
1.15076
 20
-0.9429000000000001
 30
0.0
 10
1.0948800000000001
 20
-1.3010400000000002
 30
0.0
 10
1.0948800000000001
 20
-1.3010400000000002
 30
0.0
 10
1.0313800000000002
 20
-1.7023600000000001
 30
0.0
 10
0.63768
 20
-2.01986
 30
0.0
 10
0.2643
 20
-2.2840200000000004
 30
0.0
 10
0.2643
 20
-2.2840200000000004
 30
0.0
 10
-0.13701
 20
-3.3813000000000004
 30
0.0
 10
-1.2749300000000001
 20
-3.6962600000000001
 30
0.0
 10
-2.2528300000000003
 20
-3.3990800000000001
 30
0.0
 10
-2.2528300000000003
 20
-3.3990800000000001
 30
0.0
 10
-2.3341100000000004
 20
-3.1908000000000003
 30
0.0
 10
-2.2579100000000003
 20
-2.8402800000000004
 30
0.0
 10
-2.3696700000000002
 20
-2.6320000000000001
 30
0.0
 10
-2.3696700000000002
 20
-2.6320000000000001
 30
0.0
 10
-2.3696700000000002
 20
-2.6320000000000001
 30
0.0
 10
-2.8040100000000003
 20
-2.1976600000000004
 30
0.0
 10
-2.8040100000000003
 20
-2.1976600000000004
 30
0.0
 10
-2.8040100000000003
 20
-2.1976600000000004
 30
0.0
 10
-3.1265900000000002
 20
-1.79634
 30
0.0
 10
-3.3729700000000005
 20
-2.0757400000000001
 30
0.0
 10
-3.4923500000000001
 20
-2.3703800000000004
 30
0.0
 10
-3.4923500000000001
 20
-2.3703800000000004
 30
0.0
 10
-3.6828500000000002
 20
-1.4661400000000002
 30
0.0
 10
-2.7887700000000004
 20
-0.6838200000000001
 30
0.0
 10
-3.0453100000000002
 20
0.11373
 30
0.0
 10
-3.0453100000000002
 20
0.11373
 30
0.0
 10
-3.0453100000000002
 20
0.11373
 30
0.0
 10
-2.8522700000000003
 20
0.4439300000000001
 30
0.0
 10
-2.8522700000000003
 20
0.4439300000000001
 30
0.0
 10
-2.8522700000000003
 20
0.4439300000000001
 30
0.0
 10
-3.3628100000000001
 20
0.6522100000000001
 30
0.0
 10
-3.5279100000000003
 20
1.1398900000000001
 30
0.0
 10
-3.3043900000000002
 20
1.6631300000000002
 30
0.0
 10
-3.3043900000000002
 20
1.6631300000000002
 30
0.0
 10
-3.5812500000000003
 20
2.0796900000000003
 30
0.0
 10
-3.6955500000000003
 20
2.51403
 30
0.0
 10
-3.3577300000000001
 20
2.9331300000000002
 30
0.0
 10
-3.3577300000000001
 20
2.9331300000000002
 30
0.0
 10
-3.9089100000000001
 20
2.75787
 30
0.0
 10
-3.8784300000000003
 20
1.9577700000000002
 30
0.0
 10
-3.8479500000000004
 20
1.4700900000000001
 30
0.0
 10
-3.8479500000000004
 20
1.4700900000000001
 30
0.0
 10
-4.3788100000000005
 20
2.4632300000000003
 30
0.0
 10
-4.2391100000000002
 20
3.7484700000000002
 30
0.0
 10
-3.6320500000000004
 20
4.7060500000000003
 30
0.0
 10
-3.6320500000000004
 20
4.7060500000000003
 30
0.0
 10
-2.5906500000000001
 20
5.6128300000000007
 30
0.0
 10
-1.1961900000000001
 20
6.4459500000000007
 30
0.0
 10
0.24144
 20
6.2554500000000006
 30
0.0
 10
0.24144
 20
6.2554500000000006
 30
0.0
 10
1.0644
 20
6.7075700000000005
 30
0.0
 10
1.9457800000000001
 20
6.3773700000000009
 30
0.0
 10
2.6569800000000003
 20
5.9074700000000009
 30
0.0
 10
2.6569800000000003
 20
5.9074700000000009
 30
0.0
 10
3.8634800000000005
 20
4.8940100000000006
 30
0.0
 10
4.1911400000000008
 20
3.4309700000000003
 30
0.0
 10
3.9777800000000005
 20
2.0415900000000002
 30
0.0
 10
3.9777800000000005
 20
2.0415900000000002
 30
0.0
 10
3.8406200000000004
 20
1.1424300000000001
 30
0.0
 10
3.4545400000000002
 20
0.28645
 30
0.0
 10
2.9973400000000003
 20
-0.4349
 30
0.0
  0
SPLINE
  5
26
100
AcDbEntity
  8
Ebene 1
100
AcDbSpline
210
0.0
220
0.0
230
1.0
 70
     1
 71
     3
 72
    24
 73
    20
 74
     0
 42
0.0000000001
 43
0.0000000001
 40
0.0
 40
0.0
 40
0.0
 40
0.0
 40
0.2
 40
0.2
 40
0.2
 40
0.2
 40
0.4
 40
0.4
 40
0.4
 40
0.4
 40
0.6000000000000001
 40
0.6000000000000001
 40
0.6000000000000001
 40
0.6000000000000001
 40
0.8
 40
0.8
 40
0.8
 40
0.8
 40
1.0
 40
1.0
 40
1.0
 40
1.0
 10
-0.07097
 20
0.07817
 30
0.0
 10
-0.21321
 20
0.02737
 30
0.0
 10
-0.37323
 20
-0.02088
 30
0.0
 10
-0.53579
 20
-0.03866
 30
0.0
 10
-0.53579
 20
-0.03866
 30
0.0
 10
-0.17511
 20
-0.4577600000000001
 30
0.0
 10
-0.61199
 20
-0.9962400000000001
 30
0.0
 10
-0.37831
 20
-1.4661400000000002
 30
0.0
 10
-0.37831
 20
-1.4661400000000002
 30
0.0
 10
-0.15733
 20
-1.3620000000000001
 30
0.0
 10
0.09666
 20
-1.1715
 30
0.0
 10
0.21858
 20
-0.92766
 30
0.0
 10
0.21858
 20
-0.92766
 30
0.0
 10
0.23382
 20
-0.5974600000000001
 30
0.0
 10
0.30494
 20
-0.19614
 30
0.0
 10
0.09666
 20
0.06293
 30
0.0
 10
0.09666
 20
0.06293
 30
0.0
 10
0.0484
 20
0.09595
 30
0.0
 10
-0.01255
 20
0.07817
 30
0.0
 10
-0.07097
 20
0.07817
 30
0.0
  0
SPLINE
  5
27
100
AcDbEntity
  8
Ebene 1
 62
     7
100
AcDbSpline
210
0.0
220
0.0
230
1.0
 70
     1
 71
     3
 72
   196
 73
   192
 74
     0
 42
0.0000000001
 43
0.0000000001
 40
0.0
 40
0.0
 40
0.0
 40
0.0
 40
0.0208333333333333
 40
0.0208333333333333
 40
0.0208333333333333
 40
0.0208333333333333
 40
0.0416666666666667
 40
0.0416666666666667
 40
0.0416666666666667
 40
0.0416666666666667
 40
0.0625
 40
0.0625
 40
0.0625
 40
0.0625
 40
0.0833333333333333
 40
0.0833333333333333
 40
0.0833333333333333
 40
0.0833333333333333
 40
0.1041666666666667
 40
0.1041666666666667
 40
0.1041666666666667
 40
0.1041666666666667
 40
0.125
 40
0.125
 40
0.125
 40
0.125
 40
0.1458333333333333
 40
0.1458333333333333
 40
0.1458333333333333
 40
0.1458333333333333
 40
0.1666666666666667
 40
0.1666666666666667
 40
0.1666666666666667
 40
0.1666666666666667
 40
0.1875
 40
0.1875
 40
0.1875
 40
0.1875
 40
0.2083333333333333
 40
0.2083333333333333
 40
0.2083333333333333
 40
0.2083333333333333
 40
0.2291666666666667
 40
0.2291666666666667
 40
0.2291666666666667
 40
0.2291666666666667
 40
0.25
 40
0.25
 40
0.25
 40
0.25
 40
0.2708333333333333
 40
0.2708333333333333
 40
0.2708333333333333
 40
0.2708333333333333
 40
0.2916666666666666
 40
0.2916666666666666
 40
0.2916666666666666
 40
0.2916666666666666
 40
0.3124999999999999
 40
0.3124999999999999
 40
0.3124999999999999
 40
0.3124999999999999
 40
0.3333333333333333
 40
0.3333333333333333
 40
0.3333333333333333
 40
0.3333333333333333
 40
0.3541666666666666
 40
0.3541666666666666
 40
0.3541666666666666
 40
0.3541666666666666
 40
0.3749999999999999
 40
0.3749999999999999
 40
0.3749999999999999
 40
0.3749999999999999
 40
0.3958333333333332
 40
0.3958333333333332
 40
0.3958333333333332
 40
0.3958333333333332
 40
0.4166666666666665
 40
0.4166666666666665
 40
0.4166666666666665
 40
0.4166666666666665
 40
0.4374999999999998
 40
0.4374999999999998
 40
0.4374999999999998
 40
0.4374999999999998
 40
0.4583333333333332
 40
0.4583333333333332
 40
0.4583333333333332
 40
0.4583333333333332
 40
0.4791666666666665
 40
0.4791666666666665
 40
0.4791666666666665
 40
0.4791666666666665
 40
0.4999999999999998
 40
0.4999999999999998
 40
0.4999999999999998
 40
0.4999999999999998
 40
0.5208333333333332
 40
0.5208333333333332
 40
0.5208333333333332
 40
0.5208333333333332
 40
0.5416666666666665
 40
0.5416666666666665
 40
0.5416666666666665
 40
0.5416666666666665
 40
0.5624999999999999
 40
0.5624999999999999
 40
0.5624999999999999
 40
0.5624999999999999
 40
0.5833333333333333
 40
0.5833333333333333
 40
0.5833333333333333
 40
0.5833333333333333
 40
0.6041666666666666
 40
0.6041666666666666
 40
0.6041666666666666
 40
0.6041666666666666
 40
0.625
 40
0.625
 40
0.625
 40
0.625
 40
0.6458333333333334
 40
0.6458333333333334
 40
0.6458333333333334
 40
0.6458333333333334
 40
0.6666666666666667
 40
0.6666666666666667
 40
0.6666666666666667
 40
0.6666666666666667
 40
0.6875000000000001
 40
0.6875000000000001
 40
0.6875000000000001
 40
0.6875000000000001
 40
0.7083333333333335
 40
0.7083333333333335
 40
0.7083333333333335
 40
0.7083333333333335
 40
0.7291666666666669
 40
0.7291666666666669
 40
0.7291666666666669
 40
0.7291666666666669
 40
0.7500000000000002
 40
0.7500000000000002
 40
0.7500000000000002
 40
0.7500000000000002
 40
0.7708333333333336
 40
0.7708333333333336
 40
0.7708333333333336
 40
0.7708333333333336
 40
0.791666666666667
 40
0.791666666666667
 40
0.791666666666667
 40
0.791666666666667
 40
0.8125000000000003
 40
0.8125000000000003
 40
0.8125000000000003
 40
0.8125000000000003
 40
0.8333333333333337
 40
0.8333333333333337
 40
0.8333333333333337
 40
0.8333333333333337
 40
0.8541666666666671
 40
0.8541666666666671
 40
0.8541666666666671
 40
0.8541666666666671
 40
0.8750000000000004
 40
0.8750000000000004
 40
0.8750000000000004
 40
0.8750000000000004
 40
0.8958333333333338
 40
0.8958333333333338
 40
0.8958333333333338
 40
0.8958333333333338
 40
0.9166666666666672
 40
0.9166666666666672
 40
0.9166666666666672
 40
0.9166666666666672
 40
0.9375000000000006
 40
0.9375000000000006
 40
0.9375000000000006
 40
0.9375000000000006
 40
0.9583333333333339
 40
0.9583333333333339
 40
0.9583333333333339
 40
0.9583333333333339
 40
0.9791666666666673
 40
0.9791666666666673
 40
0.9791666666666673
 40
0.9791666666666673
 40
1.0
 40
1.0
 40
1.0
 40
1.0
 10
1.19648
 20
6.3773700000000009
 30
0.0
 10
2.8322400000000001
 20
6.2884700000000002
 30
0.0
 10
4.1022400000000001
 20
4.3606100000000003
 30
0.0
 10
3.7034600000000002
 20
2.84423
 30
0.0
 10
3.7034600000000002
 20
2.84423
 30
0.0
 10
3.7034600000000002
 20
2.84423
 30
0.0
 10
3.7034600000000002
 20
2.75787
 30
0.0
 10
3.7034600000000002
 20
2.75787
 30
0.0
 10
3.7034600000000002
 20
2.75787
 30
0.0
 10
3.7720400000000005
 20
2.6029300000000002
 30
0.0
 10
3.7542600000000004
 20
3.0372700000000004
 30
0.0
 10
3.8253800000000004
 20
3.0880700000000001
 30
0.0
 10
3.8253800000000004
 20
3.0880700000000001
 30
0.0
 10
3.9625400000000002
 20
2.2879700000000001
 30
0.0
 10
3.9625400000000002
 20
1.2973700000000001
 30
0.0
 10
3.3554800000000005
 20
0.7411100000000001
 30
0.0
 10
3.3554800000000005
 20
0.7411100000000001
 30
0.0
 10
3.4240600000000003
 20
1.0535300000000001
 30
0.0
 10
3.6501200000000003
 20
1.3659500000000002
 30
0.0
 10
3.6323400000000001
 20
1.6809100000000001
 30
0.0
 10
3.6323400000000001
 20
1.6809100000000001
 30
0.0
 10
3.6323400000000001
 20
1.6809100000000001
 30
0.0
 10
3.3732600000000001
 20
1.2440300000000002
 30
0.0
 10
3.3732600000000001
 20
1.2440300000000002
 30
0.0
 10
3.3732600000000001
 20
1.2440300000000002
 30
0.0
 10
3.3199200000000002
 20
1.10433
 30
0.0
 10
3.2157800000000001
 20
0.9671700000000001
 30
0.0
 10
3.0938600000000003
 20
0.8960500000000001
 30
0.0
 10
3.0938600000000003
 20
0.8960500000000001
 30
0.0
 10
3.1624400000000001
 20
1.4192900000000002
 30
0.0
 10
3.4062800000000002
 20
2.0619100000000001
 30
0.0
 10
3.3199200000000002
 20
2.51403
 30
0.0
 10
3.3199200000000002
 20
2.51403
 30
0.0
 10
3.3021400000000001
 20
2.3235300000000003
 30
0.0
 10
3.1802200000000003
 20
2.1508100000000003
 30
0.0
 10
3.0938600000000003
 20
1.9933300000000003
 30
0.0
 10
3.0938600000000003
 20
1.9933300000000003
 30
0.0
 10
3.0075000000000003
 20
1.8028300000000002
 30
0.0
 10
2.8678000000000003
 20
1.5564500000000001
 30
0.0
 10
2.6925400000000002
 20
1.4523100000000002
 30
0.0
 10
2.6925400000000002
 20
1.4523100000000002
 30
0.0
 10
2.6569800000000003
 20
1.6809100000000001
 30
0.0
 10
2.9033600000000002
 20
2.2016100000000001
 30
0.0
 10
2.79922
 20
2.2371700000000003
 30
0.0
 10
2.79922
 20
2.2371700000000003
 30
0.0
 10
2.7458800000000001
 20
2.0263500000000003
 30
0.0
 10
2.7103200000000003
 20
1.8180700000000001
 30
0.0
 10
2.6061800000000002
 20
1.6453500000000001
 30
0.0
 10
2.6061800000000002
 20
1.6453500000000001
 30
0.0
 10
2.5376000000000003
 20
1.5056500000000002
 30
0.0
 10
2.4512400000000003
 20
1.31515
 30
0.0
 10
2.3293200000000001
 20
1.22879
 30
0.0
 10
2.3293200000000001
 20
1.22879
 30
0.0
 10
2.4334600000000002
 20
1.7672700000000001
 30
0.0
 10
2.34456
 20
2.3057500000000002
 30
0.0
 10
2.5553800000000004
 20
2.8112100000000004
 30
0.0
 10
2.5553800000000004
 20
2.8112100000000004
 30
0.0
 10
2.5553800000000004
 20
2.8112100000000004
 30
0.0
 10
2.4512400000000003
 20
2.7502500000000003
 30
0.0
 10
2.4512400000000003
 20
2.7502500000000003
 30
0.0
 10
2.4512400000000003
 20
2.7502500000000003
 30
0.0
 10
2.2632800000000004
 20
2.46069
 30
0.0
 10
2.0550000000000002
 20
1.9120500000000002
 30
0.0
 10
2.0143600000000004
 20
1.4192900000000002
 30
0.0
 10
2.0143600000000004
 20
1.4192900000000002
 30
0.0
 10
1.7197200000000001
 20
0.9671700000000001
 30
0.0
 10
1.6333600000000001
 20
2.6715100000000001
 30
0.0
 10
1.6155800000000002
 20
2.2701900000000004
 30
0.0
 10
1.6155800000000002
 20
2.2701900000000004
 30
0.0
 10
1.6155800000000002
 20
2.2701900000000004
 30
0.0
 10
1.6333600000000001
 20
1.9577700000000002
 30
0.0
 10
1.6333600000000001
 20
1.9577700000000002
 30
0.0
 10
1.6333600000000001
 20
1.9577700000000002
 30
0.0
 10
1.4936600000000002
 20
1.19323
 30
0.0
 10
1.5622400000000001
 20
2.6892900000000002
 30
0.0
 10
1.4758800000000001
 20
2.4632300000000003
 30
0.0
 10
1.4758800000000001
 20
2.4632300000000003
 30
0.0
 10
1.40476
 20
2.2879700000000001
 30
0.0
 10
1.4936600000000002
 20
2.04413
 30
0.0
 10
1.3539600000000001
 20
1.8891900000000001
 30
0.0
 10
1.3539600000000001
 20
1.8891900000000001
 30
0.0
 10
1.3336400000000002
 20
2.2371700000000003
 30
0.0
 10
1.4758800000000001
 20
2.5318100000000001
 30
0.0
 10
1.5114400000000001
 20
2.84423
 30
0.0
 10
1.5114400000000001
 20
2.84423
 30
0.0
 10
1.5800200000000002
 20
3.3319100000000001
 30
0.0
 10
1.6155800000000002
 20
3.9415100000000005
 30
0.0
 10
1.44032
 20
4.3758500000000007
 30
0.0
 10
1.44032
 20
4.3758500000000007
 30
0.0
 10
1.3895200000000001
 20
4.2894900000000007
 30
0.0
 10
1.4936600000000002
 20
4.1675700000000004
 30
0.0
 10
1.44032
 20
4.0634300000000003
 30
0.0
 10
1.44032
 20
4.0634300000000003
 30
0.0
 10
1.4225400000000001
 20
3.4030300000000002
 30
0.0
 10
1.5978000000000001
 20
2.5851500000000001
 30
0.0
 10
1.05932
 20
2.0263500000000003
 30
0.0
 10
1.05932
 20
2.0263500000000003
 30
0.0
 10
1.2117200000000001
 20
2.5318100000000001
 30
0.0
 10
1.1152000000000002
 20
3.1922100000000002
 30
0.0
 10
1.1279000000000001
 20
3.7154500000000001
 30
0.0
 10
1.1279000000000001
 20
3.7154500000000001
 30
0.0
 10
1.0847200000000001
 20
3.4360500000000003
 30
0.0
 10
1.06186
 20
3.0880700000000001
 30
0.0
 10
0.87136
 20
2.9331300000000002
 30
0.0
 10
0.87136
 20
2.9331300000000002
 30
0.0
 10
0.87136
 20
2.9331300000000002
 30
0.0
 10
0.9018400000000001
 20
3.1591900000000002
 30
0.0
 10
0.9018400000000001
 20
3.1591900000000002
 30
0.0
 10
0.9018400000000001
 20
3.1591900000000002
 30
0.0
 10
0.9297800000000001
 20
3.7484700000000002
 30
0.0
 10
0.658
 20
4.3606100000000003
 30
0.0
 10
0.16016
 20
4.6552500000000006
 30
0.0
 10
0.16016
 20
4.6552500000000006
 30
0.0
 10
0.2008
 20
4.4622100000000007
 30
0.0
 10
0.39638
 20
4.3250500000000001
 30
0.0
 10
0.37606
 20
4.1142300000000001
 30
0.0
 10
0.37606
 20
4.1142300000000001
 30
0.0
 10
0.36336
 20
4.0100899999999999
 30
0.0
 10
0.28462
 20
4.1320100000000002
 30
0.0
 10
0.25922
 20
4.1675700000000004
 30
0.0
 10
0.25922
 20
4.1675700000000004
 30
0.0
 10
0.20842
 20
4.2361500000000003
 30
0.0
 10
0.14746
 20
4.3072699999999999
 30
0.0
 10
0.07126
 20
4.3606100000000003
 30
0.0
 10
0.07126
 20
4.3606100000000003
 30
0.0
 10
-0.47483
 20
4.8279700000000005
 30
0.0
 10
0.5868800000000001
 20
3.6290900000000001
 30
0.0
 10
0.07126
 20
3.8551500000000005
 30
0.0
 10
0.07126
 20
3.8551500000000005
 30
0.0
 10
-0.10145
 20
4.4114100000000001
 30
0.0
 10
-0.69835
 20
4.7060500000000003
 30
0.0
 10
-1.24699
 20
4.5663500000000008
 30
0.0
 10
-1.24699
 20
4.5663500000000008
 30
0.0
 10
-1.2368300000000001
 20
4.7593900000000007
 30
0.0
 10
-0.90917
 20
4.8635300000000008
 30
0.0
 10
-0.9396500000000001
 20
4.9854500000000002
 30
0.0
 10
-0.9396500000000001
 20
4.9854500000000002
 30
0.0
 10
-1.4832100000000001
 20
4.6552500000000006
 30
0.0
 10
-1.8794500000000001
 20
4.1142300000000001
 30
0.0
 10
-2.1918700000000002
 20
3.5757500000000002
 30
0.0
 10
-2.1918700000000002
 20
3.5757500000000002
 30
0.0
 10
-2.5271500000000002
 20
3.9237300000000004
 30
0.0
 10
-2.8395700000000001
 20
4.4469700000000003
 30
0.0
 10
-3.3221700000000003
 20
4.58413
 30
0.0
 10
-3.3221700000000003
 20
4.58413
 30
0.0
 10
-3.6676100000000003
 20
4.4469700000000003
 30
0.0
 10
-3.7539700000000003
 20
4.0456500000000002
 30
0.0
 10
-3.8225500000000001
 20
3.7154500000000001
 30
0.0
 10
-3.8225500000000001
 20
3.7154500000000001
 30
0.0
 10
-3.6523700000000003
 20
3.8907100000000003
 30
0.0
 10
-3.6066500000000001
 20
4.3758500000000007
 30
0.0
 10
-3.2739100000000003
 20
4.3936299999999999
 30
0.0
 10
-3.2739100000000003
 20
4.3936299999999999
 30
0.0
 10
-3.8225500000000001
 20
3.7154500000000001
 30
0.0
 10
-3.8327100000000005
 20
2.7934300000000003
 30
0.0
 10
-3.9317700000000002
 20
1.9577700000000002
 30
0.0
 10
-3.9317700000000002
 20
1.9577700000000002
 30
0.0
 10
-4.1730700000000001
 20
2.4098900000000003
 30
0.0
 10
-4.1044900000000002
 20
3.0194900000000002
 30
0.0
 10
-3.8987500000000002
 20
3.4716100000000001
 30
0.0
 10
-3.8987500000000002
 20
3.4716100000000001
 30
0.0
 10
-4.3534100000000002
 20
4.3631500000000001
 30
0.0
 10
-2.6033500000000003
 20
5.4248700000000003
 30
0.0
 10
-1.6991100000000001
 20
5.2470700000000008
 30
0.0
 10
-1.6991100000000001
 20
5.2470700000000008
 30
0.0
 10
-1.9708900000000003
 20
5.4197900000000008
 30
0.0
 10
-2.3112500000000002
 20
5.2470700000000008
 30
0.0
 10
-2.6236700000000002
 20
5.26485
 30
0.0
 10
-2.6236700000000002
 20
5.26485
 30
0.0
 10
-2.4407900000000002
 20
5.7169700000000008
 30
0.0
 10
-1.7880100000000001
 20
5.5061500000000008
 30
0.0
 10
-1.4120900000000001
 20
5.6128300000000007
 30
0.0
 10
-1.4120900000000001
 20
5.6128300000000007
 30
0.0
 10
-1.4120900000000001
 20
5.6128300000000007
 30
0.0
 10
-1.92517
 20
5.6636300000000004
 30
0.0
 10
-1.92517
 20
5.6636300000000004
 30
0.0
 10
-1.92517
 20
5.6636300000000004
 30
0.0
 10
-1.7067300000000001
 20
6.0471700000000004
 30
0.0
 10
-0.20305
 20
5.8363500000000004
 30
0.0
 10
-1.04379
 20
6.0116100000000001
 30
0.0
 10
-1.04379
 20
6.0116100000000001
 30
0.0
 10
-1.0666500000000001
 20
6.1335300000000004
 30
0.0
 10
-0.53071
 20
6.2376700000000005
 30
0.0
 10
-0.33513
 20
6.1335300000000004
 30
0.0
 10
-0.33513
 20
6.1335300000000004
 30
0.0
 10
-0.3021100000000001
 20
5.9252500000000001
 30
0.0
 10
-0.6729500000000001
 20
5.8033300000000008
 30
0.0
 10
-0.7313700000000001
 20
5.6636300000000004
 30
0.0
 10
-0.7313700000000001
 20
5.6636300000000004
 30
0.0
 10
-0.09637
 20
5.8896900000000008
 30
0.0
 10
0.51576
 20
6.2884700000000002
 30
0.0
 10
1.19648
 20
6.3773700000000009
 30
0.0
  0
SPLINE
  5
28
100
AcDbEntity
  8
Ebene 1
100
AcDbSpline
210
0.0
220
0.0
230
1.0
 70
     1
 71
     3
 72
    44
 73
    40
 74
     0
 42
0.0000000001
 43
0.0000000001
 40
0.0
 40
0.0
 40
0.0
 40
0.0
 40
0.1
 40
0.1
 40
0.1
 40
0.1
 40
0.2
 40
0.2
 40
0.2
 40
0.2
 40
0.3
 40
0.3
 40
0.3
 40
0.3
 40
0.4
 40
0.4
 40
0.4
 40
0.4
 40
0.5
 40
0.5
 40
0.5
 40
0.5
 40
0.6
 40
0.6
 40
0.6
 40
0.6
 40
0.7
 40
0.7
 40
0.7
 40
0.7
 40
0.7999999999999999
 40
0.7999999999999999
 40
0.7999999999999999
 40
0.7999999999999999
 40
0.8999999999999999
 40
0.8999999999999999
 40
0.8999999999999999
 40
0.8999999999999999
 40
1.0
 40
1.0
 40
1.0
 40
1.0
 10
-1.04379
 20
5.6128300000000007
 30
0.0
 10
-0.88885
 20
5.5417100000000001
 30
0.0
 10
-1.2673100000000002
 20
5.4553500000000001
 30
0.0
 10
-1.21397
 20
5.3334300000000008
 30
0.0
 10
-1.21397
 20
5.3334300000000008
 30
0.0
 10
-1.21397
 20
5.3334300000000008
 30
0.0
 10
-0.59167
 20
5.43757
 30
0.0
 10
-0.59167
 20
5.43757
 30
0.0
 10
-0.59167
 20
5.43757
 30
0.0
 10
-0.4900700000000001
 20
5.43757
 30
0.0
 10
-0.27163
 20
5.5594900000000003
 30
0.0
 10
-0.24877
 20
5.4197900000000008
 30
0.0
 10
-0.24877
 20
5.4197900000000008
 30
0.0
 10
-0.3427500000000001
 20
5.4553500000000001
 30
0.0
 10
-0.45451
 20
5.43757
 30
0.0
 10
-0.55611
 20
5.4020100000000006
 30
0.0
 10
-0.55611
 20
5.4020100000000006
 30
0.0
 10
-1.3003300000000002
 20
5.3842300000000005
 30
0.0
 10
-1.9658100000000001
 20
4.7593900000000007
 30
0.0
 10
-2.1232900000000003
 20
4.0634300000000003
 30
0.0
 10
-2.1232900000000003
 20
4.0634300000000003
 30
0.0
 10
-2.18933
 20
4.3428300000000002
 30
0.0
 10
-1.9378700000000002
 20
4.7771700000000008
 30
0.0
 10
-2.2909300000000004
 20
4.9854500000000002
 30
0.0
 10
-2.2909300000000004
 20
4.9854500000000002
 30
0.0
 10
-2.31887
 20
5.0362500000000008
 30
0.0
 10
-2.2782300000000002
 20
5.0718100000000002
 30
0.0
 10
-2.2299700000000002
 20
5.05403
 30
0.0
 10
-2.2299700000000002
 20
5.05403
 30
0.0
 10
-1.8540500000000002
 20
4.6882700000000002
 30
0.0
 10
-1.5238500000000001
 20
5.2978700000000005
 30
0.0
 10
-1.20381
 20
5.4883700000000006
 30
0.0
 10
-1.20381
 20
5.4883700000000006
 30
0.0
 10
-1.1834900000000002
 20
5.5417100000000001
 30
0.0
 10
-1.2698500000000001
 20
5.5061500000000008
 30
0.0
 10
-1.2647700000000002
 20
5.5594900000000003
 30
0.0
 10
-1.2647700000000002
 20
5.5594900000000003
 30
0.0
 10
-1.1911100000000001
 20
5.5594900000000003
 30
0.0
 10
-1.0945900000000002
 20
5.5417100000000001
 30
0.0
 10
-1.04379
 20
5.6128300000000007
 30
0.0
  0
SPLINE
  5
29
100
AcDbEntity
  8
Ebene 1
100
AcDbSpline
210
0.0
220
0.0
230
1.0
 70
     1
 71
     3
 72
    16
 73
    12
 74
     0
 42
0.0000000001
 43
0.0000000001
 40
0.0
 40
0.0
 40
0.0
 40
0.0
 40
0.3333333333333333
 40
0.3333333333333333
 40
0.3333333333333333
 40
0.3333333333333333
 40
0.6666666666666666
 40
0.6666666666666666
 40
0.6666666666666666
 40
0.6666666666666666
 40
1.0
 40
1.0
 40
1.0
 40
1.0
 10
0.25922
 20
5.43757
 30
0.0
 10
0.59704
 20
5.3689900000000002
 30
0.0
 10
0.95518
 20
5.2115100000000005
 30
0.0
 10
1.2295
 20
5.0184700000000007
 30
0.0
 10
1.2295
 20
5.0184700000000007
 30
0.0
 10
0.9069200000000001
 20
5.1073700000000004
 30
0.0
 10
0.6199
 20
5.35121
 30
0.0
 10
0.27954
 20
5.3334300000000008
 30
0.0
 10
0.27954
 20
5.3334300000000008
 30
0.0
 10
0.27954
 20
5.3334300000000008
 30
0.0
 10
0.25922
 20
5.43757
 30
0.0
 10
0.25922
 20
5.43757
 30
0.0
  0
SPLINE
  5
2A
100
AcDbEntity
  8
Ebene 1
100
AcDbSpline
210
0.0
220
0.0
230
1.0
 70
     1
 71
     3
 72
    24
 73
    20
 74
     0
 42
0.0000000001
 43
0.0000000001
 40
0.0
 40
0.0
 40
0.0
 40
0.0
 40
0.2
 40
0.2
 40
0.2
 40
0.2
 40
0.4
 40
0.4
 40
0.4
 40
0.4
 40
0.6000000000000001
 40
0.6000000000000001
 40
0.6000000000000001
 40
0.6000000000000001
 40
0.8
 40
0.8
 40
0.8
 40
0.8
 40
1.0
 40
1.0
 40
1.0
 40
1.0
 10
2.1032600000000001
 20
5.3156500000000007
 30
0.0
 10
3.0583000000000005
 20
4.7060500000000003
 30
0.0
 10
3.6323400000000001
 20
3.5935300000000003
 30
0.0
 10
3.5459800000000001
 20
2.4632300000000003
 30
0.0
 10
3.5459800000000001
 20
2.4632300000000003
 30
0.0
 10
3.4596200000000001
 20
2.4632300000000003
 30
0.0
 10
3.4748600000000005
 20
2.5495900000000002
 30
0.0
 10
3.3885000000000001
 20
2.5318100000000001
 30
0.0
 10
3.3885000000000001
 20
2.5318100000000001
 30
0.0
 10
3.3885000000000001
 20
2.5318100000000001
 30
0.0
 10
3.3377000000000003
 20
3.0728300000000002
 30
0.0
 10
3.3377000000000003
 20
3.0728300000000002
 30
0.0
 10
3.3377000000000003
 20
3.0728300000000002
 30
0.0
 10
3.4240600000000003
 20
3.9770700000000003
 30
0.0
 10
2.79922
 20
4.7593900000000007
 30
0.0
 10
2.1032600000000001
 20
5.2470700000000008
 30
0.0
 10
2.1032600000000001
 20
5.2470700000000008
 30
0.0
 10
2.08548
 20
5.26485
 30
0.0
 10
2.08548
 20
5.2978700000000005
 30
0.0
 10
2.1032600000000001
 20
5.3156500000000007
 30
0.0
  0
SPLINE
  5
2B
100
AcDbEntity
  8
Ebene 1
 62
     7
100
AcDbSpline
210
0.0
220
0.0
230
1.0
 70
     1
 71
     3
 72
   284
 73
   280
 74
     0
 42
0.0000000001
 43
0.0000000001
 40
0.0
 40
0.0
 40
0.0
 40
0.0
 40
0.0142857142857143
 40
0.0142857142857143
 40
0.0142857142857143
 40
0.0142857142857143
 40
0.0285714285714286
 40
0.0285714285714286
 40
0.0285714285714286
 40
0.0285714285714286
 40
0.0428571428571429
 40
0.0428571428571429
 40
0.0428571428571429
 40
0.0428571428571429
 40
0.0571428571428571
 40
0.0571428571428571
 40
0.0571428571428571
 40
0.0571428571428571
 40
0.0714285714285714
 40
0.0714285714285714
 40
0.0714285714285714
 40
0.0714285714285714
 40
0.0857142857142857
 40
0.0857142857142857
 40
0.0857142857142857
 40
0.0857142857142857
 40
0.1
 40
0.1
 40
0.1
 40
0.1
 40
0.1142857142857143
 40
0.1142857142857143
 40
0.1142857142857143
 40
0.1142857142857143
 40
0.1285714285714286
 40
0.1285714285714286
 40
0.1285714285714286
 40
0.1285714285714286
 40
0.1428571428571429
 40
0.1428571428571429
 40
0.1428571428571429
 40
0.1428571428571429
 40
0.1571428571428572
 40
0.1571428571428572
 40
0.1571428571428572
 40
0.1571428571428572
 40
0.1714285714285715
 40
0.1714285714285715
 40
0.1714285714285715
 40
0.1714285714285715
 40
0.1857142857142858
 40
0.1857142857142858
 40
0.1857142857142858
 40
0.1857142857142858
 40
0.2
 40
0.2
 40
0.2
 40
0.2
 40
0.2142857142857143
 40
0.2142857142857143
 40
0.2142857142857143
 40
0.2142857142857143
 40
0.2285714285714286
 40
0.2285714285714286
 40
0.2285714285714286
 40
0.2285714285714286
 40
0.2428571428571429
 40
0.2428571428571429
 40
0.2428571428571429
 40
0.2428571428571429
 40
0.2571428571428572
 40
0.2571428571428572
 40
0.2571428571428572
 40
0.2571428571428572
 40
0.2714285714285715
 40
0.2714285714285715
 40
0.2714285714285715
 40
0.2714285714285715
 40
0.2857142857142858
 40
0.2857142857142858
 40
0.2857142857142858
 40
0.2857142857142858
 40
0.3
 40
0.3
 40
0.3
 40
0.3
 40
0.3142857142857143
 40
0.3142857142857143
 40
0.3142857142857143
 40
0.3142857142857143
 40
0.3285714285714286
 40
0.3285714285714286
 40
0.3285714285714286
 40
0.3285714285714286
 40
0.3428571428571429
 40
0.3428571428571429
 40
0.3428571428571429
 40
0.3428571428571429
 40
0.3571428571428572
 40
0.3571428571428572
 40
0.3571428571428572
 40
0.3571428571428572
 40
0.3714285714285715
 40
0.3714285714285715
 40
0.3714285714285715
 40
0.3714285714285715
 40
0.3857142857142858
 40
0.3857142857142858
 40
0.3857142857142858
 40
0.3857142857142858
 40
0.4000000000000001
 40
0.4000000000000001
 40
0.4000000000000001
 40
0.4000000000000001
 40
0.4142857142857144
 40
0.4142857142857144
 40
0.4142857142857144
 40
0.4142857142857144
 40
0.4285714285714287
 40
0.4285714285714287
 40
0.4285714285714287
 40
0.4285714285714287
 40
0.442857142857143
 40
0.442857142857143
 40
0.442857142857143
 40
0.442857142857143
 40
0.4571428571428572
 40
0.4571428571428572
 40
0.4571428571428572
 40
0.4571428571428572
 40
0.4714285714285715
 40
0.4714285714285715
 40
0.4714285714285715
 40
0.4714285714285715
 40
0.4857142857142858
 40
0.4857142857142858
 40
0.4857142857142858
 40
0.4857142857142858
 40
0.5000000000000001
 40
0.5000000000000001
 40
0.5000000000000001
 40
0.5000000000000001
 40
0.5142857142857144
 40
0.5142857142857144
 40
0.5142857142857144
 40
0.5142857142857144
 40
0.5285714285714286
 40
0.5285714285714286
 40
0.5285714285714286
 40
0.5285714285714286
 40
0.5428571428571428
 40
0.5428571428571428
 40
0.5428571428571428
 40
0.5428571428571428
 40
0.5571428571428571
 40
0.5571428571428571
 40
0.5571428571428571
 40
0.5571428571428571
 40
0.5714285714285713
 40
0.5714285714285713
 40
0.5714285714285713
 40
0.5714285714285713
 40
0.5857142857142855
 40
0.5857142857142855
 40
0.5857142857142855
 40
0.5857142857142855
 40
0.5999999999999998
 40
0.5999999999999998
 40
0.5999999999999998
 40
0.5999999999999998
 40
0.614285714285714
 40
0.614285714285714
 40
0.614285714285714
 40
0.614285714285714
 40
0.6285714285714282
 40
0.6285714285714282
 40
0.6285714285714282
 40
0.6285714285714282
 40
0.6428571428571425
 40
0.6428571428571425
 40
0.6428571428571425
 40
0.6428571428571425
 40
0.6571428571428567
 40
0.6571428571428567
 40
0.6571428571428567
 40
0.6571428571428567
 40
0.6714285714285709
 40
0.6714285714285709
 40
0.6714285714285709
 40
0.6714285714285709
 40
0.6857142857142852
 40
0.6857142857142852
 40
0.6857142857142852
 40
0.6857142857142852
 40
0.6999999999999994
 40
0.6999999999999994
 40
0.6999999999999994
 40
0.6999999999999994
 40
0.7142857142857136
 40
0.7142857142857136
 40
0.7142857142857136
 40
0.7142857142857136
 40
0.7285714285714279
 40
0.7285714285714279
 40
0.7285714285714279
 40
0.7285714285714279
 40
0.7428571428571421
 40
0.7428571428571421
 40
0.7428571428571421
 40
0.7428571428571421
 40
0.7571428571428563
 40
0.7571428571428563
 40
0.7571428571428563
 40
0.7571428571428563
 40
0.7714285714285706
 40
0.7714285714285706
 40
0.7714285714285706
 40
0.7714285714285706
 40
0.7857142857142848
 40
0.7857142857142848
 40
0.7857142857142848
 40
0.7857142857142848
 40
0.7999999999999991
 40
0.7999999999999991
 40
0.7999999999999991
 40
0.7999999999999991
 40
0.8142857142857133
 40
0.8142857142857133
 40
0.8142857142857133
 40
0.8142857142857133
 40
0.8285714285714275
 40
0.8285714285714275
 40
0.8285714285714275
 40
0.8285714285714275
 40
0.8428571428571418
 40
0.8428571428571418
 40
0.8428571428571418
 40
0.8428571428571418
 40
0.857142857142856
 40
0.857142857142856
 40
0.857142857142856
 40
0.857142857142856
 40
0.8714285714285702
 40
0.8714285714285702
 40
0.8714285714285702
 40
0.8714285714285702
 40
0.8857142857142845
 40
0.8857142857142845
 40
0.8857142857142845
 40
0.8857142857142845
 40
0.8999999999999987
 40
0.8999999999999987
 40
0.8999999999999987
 40
0.8999999999999987
 40
0.9142857142857129
 40
0.9142857142857129
 40
0.9142857142857129
 40
0.9142857142857129
 40
0.9285714285714272
 40
0.9285714285714272
 40
0.9285714285714272
 40
0.9285714285714272
 40
0.9428571428571414
 40
0.9428571428571414
 40
0.9428571428571414
 40
0.9428571428571414
 40
0.9571428571428556
 40
0.9571428571428556
 40
0.9571428571428556
 40
0.9571428571428556
 40
0.9714285714285699
 40
0.9714285714285699
 40
0.9714285714285699
 40
0.9714285714285699
 40
0.9857142857142841
 40
0.9857142857142841
 40
0.9857142857142841
 40
0.9857142857142841
 40
1.0
 40
1.0
 40
1.0
 40
1.0
 10
-0.9574300000000001
 20
4.49777
 30
0.0
 10
-0.3757700000000001
 20
4.4622100000000007
 30
0.0
 10
0.1627
 20
3.9237300000000004
 30
0.0
 10
0.10682
 20
3.3141300000000005
 30
0.0
 10
0.10682
 20
3.3141300000000005
 30
0.0
 10
0.23128
 20
3.2963500000000003
 30
0.0
 10
0.19826
 20
3.4716100000000001
 30
0.0
 10
0.24144
 20
3.5427300000000002
 30
0.0
 10
0.24144
 20
3.5427300000000002
 30
0.0
 10
0.24144
 20
3.5427300000000002
 30
0.0
 10
0.277
 20
3.7840300000000004
 30
0.0
 10
0.277
 20
3.7840300000000004
 30
0.0
 10
0.277
 20
3.7840300000000004
 30
0.0
 10
0.33796
 20
4.0456500000000002
 30
0.0
 10
0.41162
 20
3.3319100000000001
 30
0.0
 10
0.5005200000000001
 20
3.6113100000000005
 30
0.0
 10
0.5005200000000001
 20
3.6113100000000005
 30
0.0
 10
0.5005200000000001
 20
3.6113100000000005
 30
0.0
 10
0.55386
 20
4.0456500000000002
 30
0.0
 10
0.55386
 20
4.0456500000000002
 30
0.0
 10
0.55386
 20
4.0456500000000002
 30
0.0
 10
0.85104
 20
3.6798900000000003
 30
0.0
 10
0.7697600000000001
 20
3.1922100000000002
 30
0.0
 10
0.7596000000000001
 20
2.7400900000000004
 30
0.0
 10
0.7596000000000001
 20
2.7400900000000004
 30
0.0
 10
0.00776
 20
2.75787
 30
0.0
 10
-0.4799100000000001
 20
2.16859
 30
0.0
 10
-1.08951
 20
1.8358500000000002
 30
0.0
 10
-1.08951
 20
1.8358500000000002
 30
0.0
 10
-0.50531
 20
1.8180700000000001
 30
0.0
 10
-1.4984500000000001
 20
1.3507100000000001
 30
0.0
 10
-1.8134100000000002
 20
1.8028300000000002
 30
0.0
 10
-1.8134100000000002
 20
1.8028300000000002
 30
0.0
 10
-1.8210300000000001
 20
1.7139300000000002
 30
0.0
 10
-1.7270500000000002
 20
1.6275700000000002
 30
0.0
 10
-1.67371
 20
1.5412100000000002
 30
0.0
 10
-1.67371
 20
1.5412100000000002
 30
0.0
 10
-1.4552700000000001
 20
1.40151
 30
0.0
 10
-1.7016500000000001
 20
1.19323
 30
0.0
 10
-1.6991100000000001
 20
1.01797
 30
0.0
 10
-1.6991100000000001
 20
1.01797
 30
0.0
 10
-1.4400300000000001
 20
1.31515
 30
0.0
 10
-0.9625100000000001
 20
1.7317100000000001
 30
0.0
 10
-0.55103
 20
1.5412100000000002
 30
0.0
 10
-0.55103
 20
1.5412100000000002
 30
0.0
 10
0.34812
 20
1.5920100000000001
 30
0.0
 10
0.5411600000000001
 20
2.0263500000000003
 30
0.0
 10
0.83072
 20
2.4454500000000001
 30
0.0
 10
0.83072
 20
2.4454500000000001
 30
0.0
 10
0.83072
 20
2.4454500000000001
 30
0.0
 10
0.5945
 20
2.5851500000000001
 30
0.0
 10
0.5945
 20
2.5851500000000001
 30
0.0
 10
0.5945
 20
2.5851500000000001
 30
0.0
 10
0.6529200000000001
 20
2.6207100000000003
 30
0.0
 10
0.78754
 20
2.6892900000000002
 30
0.0
 10
0.76214
 20
2.5495900000000002
 30
0.0
 10
0.76214
 20
2.5495900000000002
 30
0.0
 10
0.9678800000000001
 20
2.51403
 30
0.0
 10
0.85104
 20
2.9331300000000002
 30
0.0
 10
1.0542400000000001
 20
2.9839300000000004
 30
0.0
 10
1.0542400000000001
 20
2.9839300000000004
 30
0.0
 10
1.09996
 20
2.6029300000000002
 30
0.0
 10
1.06186
 20
2.1838300000000004
 30
0.0
 10
0.8815200000000001
 20
1.8358500000000002
 30
0.0
 10
0.8815200000000001
 20
1.8358500000000002
 30
0.0
 10
0.8332600000000001
 20
1.4370700000000001
 30
0.0
 10
1.3717400000000002
 20
2.5318100000000001
 30
0.0
 10
1.2472800000000002
 20
1.9399900000000001
 30
0.0
 10
1.2472800000000002
 20
1.9399900000000001
 30
0.0
 10
1.2472800000000002
 20
1.9399900000000001
 30
0.0
 10
1.2142600000000001
 20
1.7317100000000001
 30
0.0
 10
1.2142600000000001
 20
1.7317100000000001
 30
0.0
 10
1.2142600000000001
 20
1.7317100000000001
 30
0.0
 10
1.2142600000000001
 20
1.7317100000000001
 30
0.0
 10
1.2193400000000001
 20
1.5564500000000001
 30
0.0
 10
1.2193400000000001
 20
1.5564500000000001
 30
0.0
 10
1.2193400000000001
 20
1.5564500000000001
 30
0.0
 10
1.4936600000000002
 20
2.1330300000000002
 30
0.0
 10
1.5978000000000001
 20
1.31515
 30
0.0
 10
1.8924400000000001
 20
1.10433
 30
0.0
 10
1.8924400000000001
 20
1.10433
 30
0.0
 10
1.9813400000000001
 20
0.91383
 30
0.0
 10
2.0677000000000003
 20
1.0535300000000001
 30
0.0
 10
2.0677000000000003
 20
1.19323
 30
0.0
 10
2.0677000000000003
 20
1.19323
 30
0.0
 10
2.0677000000000003
 20
1.19323
 30
0.0
 10
2.1032600000000001
 20
1.5412100000000002
 30
0.0
 10
2.1032600000000001
 20
1.5412100000000002
 30
0.0
 10
2.1032600000000001
 20
1.5412100000000002
 30
0.0
 10
2.5884
 20
2.6359500000000002
 30
0.0
 10
1.9457800000000001
 20
0.25343
 30
0.0
 10
2.46902
 20
1.22879
 30
0.0
 10
2.46902
 20
1.22879
 30
0.0
 10
2.6239600000000003
 20
1.5234300000000001
 30
0.0
 10
2.5553800000000004
 20
1.2618100000000001
 30
0.0
 10
2.46902
 20
1.10433
 30
0.0
 10
2.46902
 20
1.10433
 30
0.0
 10
2.4334600000000002
 20
1.0357500000000002
 30
0.0
 10
2.3801200000000002
 20
0.7588900000000001
 30
0.0
 10
2.50204
 20
0.91383
 30
0.0
 10
2.50204
 20
0.91383
 30
0.0
 10
2.5884
 20
1.1221100000000002
 30
0.0
 10
2.7458800000000001
 20
1.2973700000000001
 30
0.0
 10
2.9033600000000002
 20
1.4523100000000002
 30
0.0
 10
2.9033600000000002
 20
1.4523100000000002
 30
0.0
 10
2.8678000000000003
 20
1.07131
 30
0.0
 10
2.7281000000000004
 20
0.6522100000000001
 30
0.0
 10
2.4842600000000004
 20
0.32201
 30
0.0
 10
2.4842600000000004
 20
0.32201
 30
0.0
 10
2.3623400000000001
 20
0.20009
 30
0.0
 10
2.1032600000000001
 20
0.13151
 30
0.0
 10
2.0321400000000001
 20
0.33979
 30
0.0
 10
2.0321400000000001
 20
0.33979
 30
0.0
 10
1.9635600000000002
 20
0.9316100000000001
 30
0.0
 10
1.0771000000000002
 20
0.8960500000000001
 30
0.0
 10
1.4758800000000001
 20
1.4700900000000001
 30
0.0
 10
1.4758800000000001
 20
1.4700900000000001
 30
0.0
 10
1.1914
 20
1.07131
 30
0.0
 10
0.7113400000000001
 20
0.9493900000000001
 30
0.0
 10
0.24144
 20
1.07131
 30
0.0
 10
0.24144
 20
1.07131
 30
0.0
 10
-0.16495
 20
0.9316100000000001
 30
0.0
 10
-0.61707
 20
0.6522100000000001
 30
0.0
 10
-1.03871
 20
0.8960500000000001
 30
0.0
 10
-1.03871
 20
0.8960500000000001
 30
0.0
 10
-1.1098300000000001
 20
0.72333
 30
0.0
 10
-1.2368300000000001
 20
0.4972700000000001
 30
0.0
 10
-1.13015
 20
0.28899
 30
0.0
 10
-1.13015
 20
0.28899
 30
0.0
 10
-1.13015
 20
0.28899
 30
0.0
 10
-1.0133100000000002
 20
0.09595
 30
0.0
 10
-1.0133100000000002
 20
0.09595
 30
0.0
 10
-1.0133100000000002
 20
0.09595
 30
0.0
 10
-1.0133100000000002
 20
0.09595
 30
0.0
 10
-1.1123700000000001
 20
0.4109100000000001
 30
0.0
 10
-1.1123700000000001
 20
0.4109100000000001
 30
0.0
 10
-1.1123700000000001
 20
0.4109100000000001
 30
0.0
 10
-1.12761
 20
0.4617100000000001
 30
0.0
 10
-1.0945900000000002
 20
0.51505
 30
0.0
 10
-1.0666500000000001
 20
0.5480700000000001
 30
0.0
 10
-1.0666500000000001
 20
0.5480700000000001
 30
0.0
 10
-0.9371100000000001
 20
0.72333
 30
0.0
 10
-1.0234700000000001
 20
0.13151
 30
0.0
 10
-0.9218700000000001
 20
0.28899
 30
0.0
 10
-0.9218700000000001
 20
0.28899
 30
0.0
 10
-0.9218700000000001
 20
0.28899
 30
0.0
 10
-0.9218700000000001
 20
0.51505
 30
0.0
 10
-0.9218700000000001
 20
0.51505
 30
0.0
 10
-0.9218700000000001
 20
0.51505
 30
0.0
 10
-0.78471
 20
0.8630300000000001
 30
0.0
 10
-0.55611
 20
-0.092
 30
0.0
 10
-0.7694700000000001
 20
-0.16312
 30
0.0
 10
-0.7694700000000001
 20
-0.16312
 30
0.0
 10
-0.7948700000000001
 20
-0.33584
 30
0.0
 10
-0.8558300000000001
 20
-0.11486
 30
0.0
 10
-0.88631
 20
-0.04374
 30
0.0
 10
-0.88631
 20
-0.04374
 30
0.0
 10
-0.9752100000000001
 20
0.24073
 30
0.0
 10
-0.9472700000000001
 20
-0.4806200000000001
 30
0.0
 10
-1.1047500000000001
 20
-0.11486
 30
0.0
 10
-1.1047500000000001
 20
-0.11486
 30
0.0
 10
-1.20889
 20
-0.06152
 30
0.0
 10
-1.1504700000000001
 20
-0.3587
 30
0.0
 10
-1.1936500000000001
 20
-0.6203200000000001
 30
0.0
 10
-1.1936500000000001
 20
-0.6203200000000001
 30
0.0
 10
-1.3562100000000001
 20
-0.5873
 30
0.0
 10
-1.1860300000000001
 20
-0.12502
 30
0.0
 10
-1.3435100000000002
 20
-0.40188
 30
0.0
 10
-1.3435100000000002
 20
-0.40188
 30
0.0
 10
-1.2850900000000001
 20
-0.6914400000000001
 30
0.0
 10
-1.4908300000000001
 20
-0.8616200000000001
 30
0.0
 10
-1.4781300000000002
 20
-0.50856
 30
0.0
 10
-1.4781300000000002
 20
-0.50856
 30
0.0
 10
-1.6762500000000002
 20
-0.17328
 30
0.0
 10
-1.3943100000000002
 20
-1.1562600000000001
 30
0.0
 10
-1.5822700000000001
 20
-0.8387600000000001
 30
0.0
 10
-1.5822700000000001
 20
-0.8387600000000001
 30
0.0
 10
-1.58735
 20
-0.80574
 30
0.0
 10
-1.6533900000000001
 20
-0.82352
 30
0.0
 10
-1.6356100000000002
 20
-0.8565400000000001
 30
0.0
 10
-1.6356100000000002
 20
-0.8565400000000001
 30
0.0
 10
-1.6940300000000001
 20
-1.1537200000000001
 30
0.0
 10
-1.6762500000000002
 20
-0.63302
 30
0.0
 10
-1.7346700000000002
 20
-0.6482600000000001
 30
0.0
 10
-1.7346700000000002
 20
-0.6482600000000001
 30
0.0
 10
-1.7245100000000002
 20
-1.11816
 30
0.0
 10
-1.6813300000000002
 20
-1.29342
 30
0.0
 10
-2.0521700000000003
 20
-0.8921000000000001
 30
0.0
 10
-2.0521700000000003
 20
-0.8921000000000001
 30
0.0
 10
-2.1613900000000004
 20
-1.3620000000000001
 30
0.0
 10
-2.22235
 20
-1.3086600000000002
 30
0.0
 10
-2.2299700000000002
 20
-0.8921000000000001
 30
0.0
 10
-2.2299700000000002
 20
-0.8921000000000001
 30
0.0
 10
-2.40523
 20
-1.0445
 30
0.0
 10
-2.2833100000000002
 20
-1.20452
 30
0.0
 10
-2.48651
 20
-0.9683000000000001
 30
0.0
 10
-2.48651
 20
-0.9683000000000001
 30
0.0
 10
-2.7049500000000002
 20
-1.37216
 30
0.0
 10
-2.6643100000000004
 20
-1.1435600000000001
 30
0.0
 10
-2.5576300000000001
 20
-0.9251200000000001
 30
0.0
 10
-2.5576300000000001
 20
-0.9251200000000001
 30
0.0
 10
-2.4966700000000004
 20
-0.80574
 30
0.0
 10
-2.5601700000000003
 20
-0.5822200000000001
 30
0.0
 10
-2.6135100000000002
 20
-0.73716
 30
0.0
 10
-2.6135100000000002
 20
-0.73716
 30
0.0
 10
-2.5398500000000004
 20
-1.08514
 30
0.0
 10
-3.0707100000000001
 20
-1.1029200000000001
 30
0.0
 10
-2.82179
 20
-0.7701800000000001
 30
0.0
 10
-2.82179
 20
-0.7701800000000001
 30
0.0
 10
-2.8090900000000003
 20
-0.6838200000000001
 30
0.0
 10
-2.8751300000000004
 20
-0.7524000000000001
 30
0.0
 10
-2.8827500000000001
 20
-0.7879600000000001
 30
0.0
 10
-2.8827500000000001
 20
-0.7879600000000001
 30
0.0
 10
-2.8827500000000001
 20
-0.7879600000000001
 30
0.0
 10
-2.9411700000000001
 20
-0.9962400000000001
 30
0.0
 10
-2.9411700000000001
 20
-0.9962400000000001
 30
0.0
 10
-2.9411700000000001
 20
-0.9962400000000001
 30
0.0
 10
-2.94625
 20
-1.0318000000000001
 30
0.0
 10
-2.9716500000000003
 20
-1.0318000000000001
 30
0.0
 10
-2.9919700000000002
 20
-1.0140200000000001
 30
0.0
 10
-2.9919700000000002
 20
-1.0140200000000001
 30
0.0
 10
-3.1850100000000001
 20
-1.1892800000000001
 30
0.0
 10
-2.8573500000000003
 20
-0.61524
 30
0.0
 10
-3.0402300000000002
 20
-0.82352
 30
0.0
 10
-3.0402300000000002
 20
-0.82352
 30
0.0
 10
-3.0402300000000002
 20
-0.82352
 30
0.0
 10
-3.1494500000000003
 20
-1.08514
 30
0.0
 10
-3.1494500000000003
 20
-1.08514
 30
0.0
 10
-3.1494500000000003
 20
-1.08514
 30
0.0
 10
-3.1646900000000002
 20
-0.5619000000000001
 30
0.0
 10
-2.6236700000000002
 20
-0.3536200000000001
 30
0.0
 10
-2.8827500000000001
 20
0.09595
 30
0.0
 10
-2.8827500000000001
 20
0.09595
 30
0.0
 10
-2.6084300000000002
 20
0.28899
 30
0.0
 10
-2.7227300000000003
 20
-0.47554
 30
0.0
 10
-2.6287500000000001
 20
-0.05644
 30
0.0
 10
-2.6287500000000001
 20
-0.05644
 30
0.0
 10
-2.6287500000000001
 20
-0.05644
 30
0.0
 10
-2.6439900000000001
 20
0.18231
 30
0.0
 10
-2.6439900000000001
 20
0.18231
 30
0.0
 10
-2.6439900000000001
 20
0.18231
 30
0.0
 10
-1.8972300000000002
 20
-0.47554
 30
0.0
 10
-1.7880100000000001
 20
0.9493900000000001
 30
0.0
 10
-2.0572500000000002
 20
1.40151
 30
0.0
 10
-2.0572500000000002
 20
1.40151
 30
0.0
 10
-2.3163300000000002
 20
1.31515
 30
0.0
 10
-2.5271500000000002
 20
1.1754500000000001
 30
0.0
 10
-2.69225
 20
1.27959
 30
0.0
 10
-2.69225
 20
1.27959
 30
0.0
 10
-2.7278100000000003
 20
1.4523100000000002
 30
0.0
 10
-2.5068300000000003
 20
1.6097900000000001
 30
0.0
 10
-2.3772900000000003
 20
1.7139300000000002
 30
0.0
 10
-2.3772900000000003
 20
1.7139300000000002
 30
0.0
 10
-1.9556500000000001
 20
1.6809100000000001
 30
0.0
 10
-1.9480300000000002
 20
1.8968100000000001
 30
0.0
 10
-2.39507
 20
1.8282300000000002
 30
0.0
 10
-2.39507
 20
1.8282300000000002
 30
0.0
 10
-2.7176500000000003
 20
1.4116700000000002
 30
0.0
 10
-3.0910300000000004
 20
1.8180700000000001
 30
0.0
 10
-3.1951700000000001
 20
2.16859
 30
0.0
 10
-3.1951700000000001
 20
2.16859
 30
0.0
 10
-3.3399500000000004
 20
2.2371700000000003
 30
0.0
 10
-3.1392900000000004
 20
2.01111
 30
0.0
 10
-3.2358100000000003
 20
2.0619100000000001
 30
0.0
 10
-3.2358100000000003
 20
2.0619100000000001
 30
0.0
 10
-3.3882100000000004
 20
1.3659500000000002
 30
0.0
 10
-3.7920700000000003
 20
3.1236300000000004
 30
0.0
 10
-2.9792700000000001
 20
2.8264500000000004
 30
0.0
 10
-2.9792700000000001
 20
2.8264500000000004
 30
0.0
 10
-3.4567900000000003
 20
3.0880700000000001
 30
0.0
 10
-3.1519900000000001
 20
3.7154500000000001
 30
0.0
 10
-3.0757900000000005
 20
4.1320100000000002
 30
0.0
 10
-3.0757900000000005
 20
4.1320100000000002
 30
0.0
 10
-2.6719300000000001
 20
4.1853500000000006
 30
0.0
 10
-2.4280900000000001
 20
3.6443300000000005
 30
0.0
 10
-2.1436100000000002
 20
3.4716100000000001
 30
0.0
 10
-2.1436100000000002
 20
3.4716100000000001
 30
0.0
 10
-1.9302500000000002
 20
3.9415100000000005
 30
0.0
 10
-1.5416300000000001
 20
4.5155500000000002
 30
0.0
 10
-0.9574300000000001
 20
4.49777
 30
0.0
  0
SPLINE
  5
2C
100
AcDbEntity
  8
Ebene 1
100
AcDbSpline
210
0.0
220
0.0
230
1.0
 70
     1
 71
     3
 72
    24
 73
    20
 74
     0
 42
0.0000000001
 43
0.0000000001
 40
0.0
 40
0.0
 40
0.0
 40
0.0
 40
0.2
 40
0.2
 40
0.2
 40
0.2
 40
0.4
 40
0.4
 40
0.4
 40
0.4
 40
0.6000000000000001
 40
0.6000000000000001
 40
0.6000000000000001
 40
0.6000000000000001
 40
0.8
 40
0.8
 40
0.8
 40
0.8
 40
1.0
 40
1.0
 40
1.0
 40
1.0
 10
-0.13955
 20
3.3319100000000001
 30
0.0
 10
-0.10653
 20
3.3319100000000001
 30
0.0
 10
-0.04049
 20
3.3319100000000001
 30
0.0
 10
-0.05573
 20
3.2785700000000002
 30
0.0
 10
-0.05573
 20
3.2785700000000002
 30
0.0
 10
-0.5789700000000001
 20
3.1236300000000004
 30
0.0
 10
-1.2419100000000001
 20
3.05505
 30
0.0
 10
-1.50099
 20
2.4632300000000003
 30
0.0
 10
-1.50099
 20
2.4632300000000003
 30
0.0
 10
-1.50099
 20
2.4632300000000003
 30
0.0
 10
-1.5594100000000002
 20
2.4632300000000003
 30
0.0
 10
-1.5594100000000002
 20
2.4632300000000003
 30
0.0
 10
-1.5594100000000002
 20
2.4632300000000003
 30
0.0
 10
-1.50099
 20
2.7223100000000002
 30
0.0
 10
-1.2571500000000002
 20
2.9153500000000001
 30
0.0
 10
-1.08951
 20
3.1236300000000004
 30
0.0
 10
-1.08951
 20
3.1236300000000004
 30
0.0
 10
-1.08951
 20
3.1236300000000004
 30
0.0
 10
-0.13955
 20
3.3319100000000001
 30
0.0
 10
-0.13955
 20
3.3319100000000001
 30
0.0
  0
SPLINE
  5
2D
100
AcDbEntity
  8
Ebene 1
100
AcDbSpline
210
0.0
220
0.0
230
1.0
 70
     1
 71
     3
 72
    28
 73
    24
 74
     0
 42
0.0000000001
 43
0.0000000001
 40
0.0
 40
0.0
 40
0.0
 40
0.0
 40
0.1666666666666667
 40
0.1666666666666667
 40
0.1666666666666667
 40
0.1666666666666667
 40
0.3333333333333333
 40
0.3333333333333333
 40
0.3333333333333333
 40
0.3333333333333333
 40
0.5
 40
0.5
 40
0.5
 40
0.5
 40
0.6666666666666666
 40
0.6666666666666666
 40
0.6666666666666666
 40
0.6666666666666666
 40
0.8333333333333333
 40
0.8333333333333333
 40
0.8333333333333333
 40
0.8333333333333333
 40
1.0
 40
1.0
 40
1.0
 40
1.0
 10
-1.67117
 20
2.7934300000000003
 30
0.0
 10
-1.67117
 20
2.7934300000000003
 30
0.0
 10
-1.5822700000000001
 20
2.7756500000000002
 30
0.0
 10
-1.5822700000000001
 20
2.7756500000000002
 30
0.0
 10
-1.5822700000000001
 20
2.7756500000000002
 30
0.0
 10
-1.7880100000000001
 20
2.5851500000000001
 30
0.0
 10
-2.2807700000000004
 20
2.5673700000000004
 30
0.0
 10
-2.2096500000000003
 20
2.1838300000000004
 30
0.0
 10
-2.2096500000000003
 20
2.1838300000000004
 30
0.0
 10
-2.1994900000000004
 20
2.16859
 30
0.0
 10
-2.2198100000000003
 20
2.1508100000000003
 30
0.0
 10
-2.2452100000000002
 20
2.1508100000000003
 30
0.0
 10
-2.2452100000000002
 20
2.1508100000000003
 30
0.0
 10
-2.3899900000000001
 20
2.3057500000000002
 30
0.0
 10
-2.3112500000000002
 20
2.5495900000000002
 30
0.0
 10
-2.5347700000000004
 20
2.6715100000000001
 30
0.0
 10
-2.5347700000000004
 20
2.6715100000000001
 30
0.0
 10
-2.5347700000000004
 20
2.6715100000000001
 30
0.0
 10
-2.5347700000000004
 20
2.7400900000000004
 30
0.0
 10
-2.5347700000000004
 20
2.7400900000000004
 30
0.0
 10
-2.5347700000000004
 20
2.7400900000000004
 30
0.0
 10
-2.2604500000000001
 20
2.5495900000000002
 30
0.0
 10
-1.9531100000000001
 20
2.7400900000000004
 30
0.0
 10
-1.67117
 20
2.7934300000000003
 30
0.0
  0
SPLINE
  5
2E
100
AcDbEntity
  8
Ebene 1
 62
     7
100
AcDbSpline
210
0.0
220
0.0
230
1.0
 70
     1
 71
     3
 72
    16
 73
    12
 74
     0
 42
0.0000000001
 43
0.0000000001
 40
0.0
 40
0.0
 40
0.0
 40
0.0
 40
0.3333333333333333
 40
0.3333333333333333
 40
0.3333333333333333
 40
0.3333333333333333
 40
0.6666666666666666
 40
0.6666666666666666
 40
0.6666666666666666
 40
0.6666666666666666
 40
1.0
 40
1.0
 40
1.0
 40
1.0
 10
-0.15733
 20
2.1152500000000001
 30
0.0
 10
-0.15733
 20
2.1152500000000001
 30
0.0
 10
-0.12685
 20
2.1152500000000001
 30
0.0
 10
-0.12685
 20
2.1152500000000001
 30
0.0
 10
-0.12685
 20
2.1152500000000001
 30
0.0
 10
-0.19543
 20
2.01111
 30
0.0
 10
-0.3325900000000001
 20
1.9577700000000002
 30
0.0
 10
-0.44689
 20
1.9222100000000002
 30
0.0
 10
-0.44689
 20
1.9222100000000002
 30
0.0
 10
-0.44689
 20
1.9222100000000002
 30
0.0
 10
-0.15733
 20
2.1152500000000001
 30
0.0
 10
-0.15733
 20
2.1152500000000001
 30
0.0
  0
SPLINE
  5
2F
100
AcDbEntity
  8
Ebene 1
 62
     7
100
AcDbSpline
210
0.0
220
0.0
230
1.0
 70
     1
 71
     3
 72
    24
 73
    20
 74
     0
 42
0.0000000001
 43
0.0000000001
 40
0.0
 40
0.0
 40
0.0
 40
0.0
 40
0.2
 40
0.2
 40
0.2
 40
0.2
 40
0.4
 40
0.4
 40
0.4
 40
0.4
 40
0.6000000000000001
 40
0.6000000000000001
 40
0.6000000000000001
 40
0.6000000000000001
 40
0.8
 40
0.8
 40
0.8
 40
0.8
 40
1.0
 40
1.0
 40
1.0
 40
1.0
 10
-3.2535900000000004
 20
1.4523100000000002
 30
0.0
 10
-3.2205700000000004
 20
1.4523100000000002
 30
0.0
 10
-3.2180300000000002
 20
1.4192900000000002
 30
0.0
 10
-3.2129500000000002
 20
1.3837300000000001
 30
0.0
 10
-3.2129500000000002
 20
1.3837300000000001
 30
0.0
 10
-3.0707100000000001
 20
1.40151
 30
0.0
 10
-2.9183100000000004
 20
1.1576700000000002
 30
0.0
 10
-2.7709900000000003
 20
1.3329300000000002
 30
0.0
 10
-2.7709900000000003
 20
1.3329300000000002
 30
0.0
 10
-2.6617700000000002
 20
1.1221100000000002
 30
0.0
 10
-2.7582900000000001
 20
0.8808100000000001
 30
0.0
 10
-2.7887700000000004
 20
0.6522100000000001
 30
0.0
 10
-2.7887700000000004
 20
0.6522100000000001
 30
0.0
 10
-2.8446500000000001
 20
0.6344300000000001
 30
0.0
 10
-2.7938500000000004
 20
0.7411100000000001
 30
0.0
 10
-2.8522700000000003
 20
0.7411100000000001
 30
0.0
 10
-2.8522700000000003
 20
0.7411100000000001
 30
0.0
 10
-3.2688300000000003
 20
0.5836300000000001
 30
0.0
 10
-3.4593300000000005
 20
1.1754500000000001
 30
0.0
 10
-3.2535900000000004
 20
1.4523100000000002
 30
0.0
  0
SPLINE
  5
30
100
AcDbEntity
  8
Ebene 1
 62
     7
100
AcDbSpline
210
0.0
220
0.0
230
1.0
 70
     1
 71
     3
 72
   152
 73
   148
 74
     0
 42
0.0000000001
 43
0.0000000001
 40
0.0
 40
0.0
 40
0.0
 40
0.0
 40
0.027027027027027
 40
0.027027027027027
 40
0.027027027027027
 40
0.027027027027027
 40
0.0540540540540541
 40
0.0540540540540541
 40
0.0540540540540541
 40
0.0540540540540541
 40
0.0810810810810811
 40
0.0810810810810811
 40
0.0810810810810811
 40
0.0810810810810811
 40
0.1081081081081081
 40
0.1081081081081081
 40
0.1081081081081081
 40
0.1081081081081081
 40
0.1351351351351351
 40
0.1351351351351351
 40
0.1351351351351351
 40
0.1351351351351351
 40
0.1621621621621622
 40
0.1621621621621622
 40
0.1621621621621622
 40
0.1621621621621622
 40
0.1891891891891892
 40
0.1891891891891892
 40
0.1891891891891892
 40
0.1891891891891892
 40
0.2162162162162162
 40
0.2162162162162162
 40
0.2162162162162162
 40
0.2162162162162162
 40
0.2432432432432433
 40
0.2432432432432433
 40
0.2432432432432433
 40
0.2432432432432433
 40
0.2702702702702703
 40
0.2702702702702703
 40
0.2702702702702703
 40
0.2702702702702703
 40
0.2972972972972973
 40
0.2972972972972973
 40
0.2972972972972973
 40
0.2972972972972973
 40
0.3243243243243243
 40
0.3243243243243243
 40
0.3243243243243243
 40
0.3243243243243243
 40
0.3513513513513514
 40
0.3513513513513514
 40
0.3513513513513514
 40
0.3513513513513514
 40
0.3783783783783784
 40
0.3783783783783784
 40
0.3783783783783784
 40
0.3783783783783784
 40
0.4054054054054054
 40
0.4054054054054054
 40
0.4054054054054054
 40
0.4054054054054054
 40
0.4324324324324325
 40
0.4324324324324325
 40
0.4324324324324325
 40
0.4324324324324325
 40
0.4594594594594595
 40
0.4594594594594595
 40
0.4594594594594595
 40
0.4594594594594595
 40
0.4864864864864865
 40
0.4864864864864865
 40
0.4864864864864865
 40
0.4864864864864865
 40
0.5135135135135136
 40
0.5135135135135136
 40
0.5135135135135136
 40
0.5135135135135136
 40
0.5405405405405406
 40
0.5405405405405406
 40
0.5405405405405406
 40
0.5405405405405406
 40
0.5675675675675675
 40
0.5675675675675675
 40
0.5675675675675675
 40
0.5675675675675675
 40
0.5945945945945945
 40
0.5945945945945945
 40
0.5945945945945945
 40
0.5945945945945945
 40
0.6216216216216215
 40
0.6216216216216215
 40
0.6216216216216215
 40
0.6216216216216215
 40
0.6486486486486485
 40
0.6486486486486485
 40
0.6486486486486485
 40
0.6486486486486485
 40
0.6756756756756754
 40
0.6756756756756754
 40
0.6756756756756754
 40
0.6756756756756754
 40
0.7027027027027024
 40
0.7027027027027024
 40
0.7027027027027024
 40
0.7027027027027024
 40
0.7297297297297294
 40
0.7297297297297294
 40
0.7297297297297294
 40
0.7297297297297294
 40
0.7567567567567564
 40
0.7567567567567564
 40
0.7567567567567564
 40
0.7567567567567564
 40
0.7837837837837833
 40
0.7837837837837833
 40
0.7837837837837833
 40
0.7837837837837833
 40
0.8108108108108103
 40
0.8108108108108103
 40
0.8108108108108103
 40
0.8108108108108103
 40
0.8378378378378373
 40
0.8378378378378373
 40
0.8378378378378373
 40
0.8378378378378373
 40
0.8648648648648643
 40
0.8648648648648643
 40
0.8648648648648643
 40
0.8648648648648643
 40
0.8918918918918912
 40
0.8918918918918912
 40
0.8918918918918912
 40
0.8918918918918912
 40
0.9189189189189182
 40
0.9189189189189182
 40
0.9189189189189182
 40
0.9189189189189182
 40
0.9459459459459452
 40
0.9459459459459452
 40
0.9459459459459452
 40
0.9459459459459452
 40
0.9729729729729721
 40
0.9729729729729721
 40
0.9729729729729721
 40
0.9729729729729721
 40
1.0
 40
1.0
 40
1.0
 40
1.0
 10
0.4497200000000001
 20
0.9671700000000001
 30
0.0
 10
0.8612000000000001
 20
0.9316100000000001
 30
0.0
 10
0.4725800000000001
 20
0.3575700000000001
 30
0.0
 10
0.69864
 20
0.13151
 30
0.0
 10
0.69864
 20
0.13151
 30
0.0
 10
1.0440800000000001
 20
0.20009
 30
0.0
 10
1.2980800000000001
 20
0.5658500000000001
 30
0.0
 10
1.3717400000000002
 20
0.8630300000000001
 30
0.0
 10
1.3717400000000002
 20
0.8630300000000001
 30
0.0
 10
1.4758800000000001
 20
0.6522100000000001
 30
0.0
 10
1.2523600000000001
 20
0.4617100000000001
 30
0.0
 10
1.09996
 20
0.32201
 30
0.0
 10
1.09996
 20
0.32201
 30
0.0
 10
1.09996
 20
0.32201
 30
0.0
 10
0.9170800000000001
 20
0.09595
 30
0.0
 10
0.9170800000000001
 20
0.09595
 30
0.0
 10
0.9170800000000001
 20
0.09595
 30
0.0
 10
0.8586600000000001
 20
0.02737
 30
0.0
 10
0.7570600000000001
 20
-0.02088
 30
0.0
 10
0.76722
 20
-0.12756
 30
0.0
 10
0.76722
 20
-0.12756
 30
0.0
 10
1.0009000000000001
 20
0.11373
 30
0.0
 10
1.4225400000000001
 20
0.37535
 30
0.0
 10
1.6155800000000002
 20
0.70555
 30
0.0
 10
1.6155800000000002
 20
0.70555
 30
0.0
 10
1.6155800000000002
 20
0.70555
 30
0.0
 10
1.8594200000000001
 20
0.5658500000000001
 30
0.0
 10
1.8594200000000001
 20
0.5658500000000001
 30
0.0
 10
1.8594200000000001
 20
0.5658500000000001
 30
0.0
 10
1.8924400000000001
 20
0.02737
 30
0.0
 10
0.9272400000000001
 20
-0.17836
 30
0.0
 10
0.9424800000000001
 20
-0.80574
 30
0.0
 10
0.9424800000000001
 20
-0.80574
 30
0.0
 10
1.0059800000000001
 20
-0.7879600000000001
 30
0.0
 10
1.0059800000000001
 20
-0.61524
 30
0.0
 10
1.0720200000000002
 20
-0.6482600000000001
 30
0.0
 10
1.0720200000000002
 20
-0.6482600000000001
 30
0.0
 10
1.0720200000000002
 20
-0.6482600000000001
 30
0.0
 10
1.0771000000000002
 20
-0.80574
 30
0.0
 10
1.0771000000000002
 20
-0.80574
 30
0.0
 10
1.0771000000000002
 20
-0.80574
 30
0.0
 10
1.0771000000000002
 20
-0.80574
 30
0.0
 10
1.0771000000000002
 20
-1.08514
 30
0.0
 10
1.0771000000000002
 20
-1.08514
 30
0.0
 10
1.0771000000000002
 20
-1.08514
 30
0.0
 10
1.05932
 20
-1.20452
 30
0.0
 10
1.01868
 20
-1.3264400000000001
 30
0.0
 10
0.9678800000000001
 20
-1.4483600000000001
 30
0.0
 10
0.9678800000000001
 20
-1.4483600000000001
 30
0.0
 10
0.531
 20
-1.8674600000000001
 30
0.0
 10
0.05094
 20
-2.2662400000000003
 30
0.0
 10
-0.41387
 20
-2.6675600000000004
 30
0.0
 10
-0.41387
 20
-2.6675600000000004
 30
0.0
 10
-0.46467
 20
-2.7717000000000001
 30
0.0
 10
-0.29449
 20
-2.7183600000000001
 30
0.0
 10
-0.27417
 20
-2.6497800000000002
 30
0.0
 10
-0.27417
 20
-2.6497800000000002
 30
0.0
 10
0.0738
 20
-2.4770600000000003
 30
0.0
 10
-0.48753
 20
-3.03078
 30
0.0
 10
-0.6297700000000001
 20
-3.1704800000000004
 30
0.0
 10
-0.6297700000000001
 20
-3.1704800000000004
 30
0.0
 10
-1.1149100000000001
 20
-3.4676600000000004
 30
0.0
 10
-1.6229100000000001
 20
-3.0663400000000003
 30
0.0
 10
-2.1182100000000004
 20
-3.1374600000000004
 30
0.0
 10
-2.1182100000000004
 20
-3.1374600000000004
 30
0.0
 10
-2.1055100000000002
 20
-3.1882600000000001
 30
0.0
 10
-1.8819900000000001
 20
-3.2060400000000002
 30
0.0
 10
-2.0369300000000004
 20
-3.2771600000000003
 30
0.0
 10
-2.0369300000000004
 20
-3.2771600000000003
 30
0.0
 10
-2.10297
 20
-3.2949400000000004
 30
0.0
 10
-2.1436100000000002
 20
-3.3635200000000003
 30
0.0
 10
-2.2045700000000004
 20
-3.2949400000000004
 30
0.0
 10
-2.2045700000000004
 20
-3.2949400000000004
 30
0.0
 10
-2.1639300000000001
 20
-2.9571200000000002
 30
0.0
 10
-2.27061
 20
-2.7513800000000002
 30
0.0
 10
-2.4103100000000004
 20
-2.4973800000000002
 30
0.0
 10
-2.4103100000000004
 20
-2.4973800000000002
 30
0.0
 10
-2.4636500000000003
 20
-2.3957800000000002
 30
0.0
 10
-2.7024100000000004
 20
-2.26878
 30
0.0
 10
-2.5779500000000004
 20
-2.1621000000000001
 30
0.0
 10
-2.5779500000000004
 20
-2.1621000000000001
 30
0.0
 10
-2.4560300000000002
 20
-2.3703800000000004
 30
0.0
 10
-2.26553
 20
-2.2840200000000004
 30
0.0
 10
-2.3493500000000003
 20
-2.0935200000000003
 30
0.0
 10
-2.3493500000000003
 20
-2.0935200000000003
 30
0.0
 10
-2.2350500000000002
 20
-2.2840200000000004
 30
0.0
 10
-2.0140700000000002
 20
-2.3195800000000002
 30
0.0
 10
-2.1004300000000002
 20
-2.02494
 30
0.0
 10
-2.1004300000000002
 20
-2.02494
 30
0.0
 10
-1.9708900000000003
 20
-2.1113
 30
0.0
 10
-1.8591300000000002
 20
-2.3195800000000002
 30
0.0
 10
-1.7956300000000001
 20
-2.4237200000000003
 30
0.0
 10
-1.7956300000000001
 20
-2.4237200000000003
 30
0.0
 10
-1.6483100000000002
 20
-2.05796
 30
0.0
 10
-1.3079500000000002
 20
-2.3297400000000001
 30
0.0
 10
-1.41971
 20
-1.7379200000000001
 30
0.0
 10
-1.41971
 20
-1.7379200000000001
 30
0.0
 10
-1.2165100000000002
 20
-2.2154400000000001
 30
0.0
 10
-1.12253
 20
-1.7734800000000002
 30
0.0
 10
-1.07935
 20
-1.4483600000000001
 30
0.0
 10
-1.07935
 20
-1.4483600000000001
 30
0.0
 10
-1.07935
 20
-1.4483600000000001
 30
0.0
 10
-1.0260100000000001
 20
-1.6591800000000001
 30
0.0
 10
-1.0260100000000001
 20
-1.6591800000000001
 30
0.0
 10
-1.0260100000000001
 20
-1.6591800000000001
 30
0.0
 10
-0.86599
 20
-1.8496800000000002
 30
0.0
 10
-0.8380500000000001
 20
-1.3975600000000001
 30
0.0
 10
-0.7770900000000001
 20
-1.2756400000000001
 30
0.0
 10
-0.7770900000000001
 20
-1.2756400000000001
 30
0.0
 10
-0.73899
 20
-1.6591800000000001
 30
0.0
 10
-0.5611900000000001
 20
-1.2400800000000001
 30
0.0
 10
-0.5230900000000001
 20
-1.2756400000000001
 30
0.0
 10
-0.5230900000000001
 20
-1.2756400000000001
 30
0.0
 10
-0.5611900000000001
 20
-1.9004800000000002
 30
0.0
 10
0.22112
 20
-1.0140200000000001
 30
0.0
 10
0.06618
 20
-1.6058400000000002
 30
0.0
 10
0.06618
 20
-1.6058400000000002
 30
0.0
 10
0.06618
 20
-1.6058400000000002
 30
0.0
 10
0.0357
 20
-1.8496800000000002
 30
0.0
 10
0.0357
 20
-1.8496800000000002
 30
0.0
 10
0.0357
 20
-1.8496800000000002
 30
0.0
 10
0.41162
 20
-1.1359400000000002
 30
0.0
 10
0.5183000000000001
 20
-0.10978
 30
0.0
 10
-0.03541
 20
0.6877700000000001
 30
0.0
 10
-0.03541
 20
0.6877700000000001
 30
0.0
 10
-0.03795
 20
0.7588900000000001
 30
0.0
 10
-0.03541
 20
0.82747
 30
0.0
 10
0.00268
 20
0.8960500000000001
 30
0.0
 10
0.00268
 20
0.8960500000000001
 30
0.0
 10
0.11952
 20
0.91383
 30
0.0
 10
0.00522
 20
0.70555
 30
0.0
 10
0.09666
 20
0.6522100000000001
 30
0.0
 10
0.09666
 20
0.6522100000000001
 30
0.0
 10
0.09666
 20
0.6522100000000001
 30
0.0
 10
0.2897
 20
0.3575700000000001
 30
0.0
 10
0.2897
 20
0.3575700000000001
 30
0.0
 10
0.2897
 20
0.3575700000000001
 30
0.0
 10
0.2897
 20
0.3575700000000001
 30
0.0
 10
0.4827400000000001
 20
-0.05644
 30
0.0
 10
0.4827400000000001
 20
-0.05644
 30
0.0
 10
0.4827400000000001
 20
-0.05644
 30
0.0
 10
0.53354
 20
0.14929
 30
0.0
 10
0.37098
 20
0.37535
 30
0.0
 10
0.29732
 20
0.5658500000000001
 30
0.0
 10
0.29732
 20
0.5658500000000001
 30
0.0
 10
0.20842
 20
0.72333
 30
0.0
 10
0.27954
 20
0.9493900000000001
 30
0.0
 10
0.4497200000000001
 20
0.9671700000000001
 30
0.0
  0
SPLINE
  5
31
100
AcDbEntity
  8
Ebene 1
 62
     7
100
AcDbSpline
210
0.0
220
0.0
230
1.0
 70
     1
 71
     3
 72
    56
 73
    52
 74
     0
 42
0.0000000001
 43
0.0000000001
 40
0.0
 40
0.0
 40
0.0
 40
0.0
 40
0.0769230769230769
 40
0.0769230769230769
 40
0.0769230769230769
 40
0.0769230769230769
 40
0.1538461538461539
 40
0.1538461538461539
 40
0.1538461538461539
 40
0.1538461538461539
 40
0.2307692307692308
 40
0.2307692307692308
 40
0.2307692307692308
 40
0.2307692307692308
 40
0.3076923076923077
 40
0.3076923076923077
 40
0.3076923076923077
 40
0.3076923076923077
 40
0.3846153846153846
 40
0.3846153846153846
 40
0.3846153846153846
 40
0.3846153846153846
 40
0.4615384615384616
 40
0.4615384615384616
 40
0.4615384615384616
 40
0.4615384615384616
 40
0.5384615384615386
 40
0.5384615384615386
 40
0.5384615384615386
 40
0.5384615384615386
 40
0.6153846153846154
 40
0.6153846153846154
 40
0.6153846153846154
 40
0.6153846153846154
 40
0.6923076923076923
 40
0.6923076923076923
 40
0.6923076923076923
 40
0.6923076923076923
 40
0.7692307692307692
 40
0.7692307692307692
 40
0.7692307692307692
 40
0.7692307692307692
 40
0.846153846153846
 40
0.846153846153846
 40
0.846153846153846
 40
0.846153846153846
 40
0.9230769230769229
 40
0.9230769230769229
 40
0.9230769230769229
 40
0.9230769230769229
 40
1.0
 40
1.0
 40
1.0
 40
1.0
 10
3.1624400000000001
 20
0.6699900000000001
 30
0.0
 10
3.1802200000000003
 20
0.4617100000000001
 30
0.0
 10
2.8500200000000002
 20
0.23565
 30
0.0
 10
2.9363800000000002
 20
0.02737
 30
0.0
 10
2.9363800000000002
 20
0.02737
 30
0.0
 10
2.97194
 20
0.04515
 30
0.0
 10
2.9897200000000002
 20
0.07817
 30
0.0
 10
3.0075000000000003
 20
0.09595
 30
0.0
 10
3.0075000000000003
 20
0.09595
 30
0.0
 10
3.0075000000000003
 20
0.09595
 30
0.0
 10
3.2843600000000004
 20
0.4617100000000001
 30
0.0
 10
3.2843600000000004
 20
0.4617100000000001
 30
0.0
 10
3.2843600000000004
 20
0.4617100000000001
 30
0.0
 10
3.1446600000000005
 20
-0.02088
 30
0.0
 10
2.79922
 20
-0.43998
 30
0.0
 10
2.7636600000000002
 20
-0.9454400000000001
 30
0.0
 10
2.7636600000000002
 20
-0.9454400000000001
 30
0.0
 10
2.6239600000000003
 20
-0.9962400000000001
 30
0.0
 10
2.34456
 20
-1.1892800000000001
 30
0.0
 10
2.2404200000000003
 20
-1.0140200000000001
 30
0.0
 10
2.2404200000000003
 20
-1.0140200000000001
 30
0.0
 10
2.1896200000000001
 20
-1.3264400000000001
 30
0.0
 10
1.9813400000000001
 20
-1.0495800000000002
 30
0.0
 10
1.9457800000000001
 20
-0.8921000000000001
 30
0.0
 10
1.9457800000000001
 20
-0.8921000000000001
 30
0.0
 10
1.9991200000000002
 20
-0.7016000000000001
 30
0.0
 10
1.8746600000000002
 20
-0.6838200000000001
 30
0.0
 10
1.8924400000000001
 20
-0.8743200000000001
 30
0.0
 10
1.8924400000000001
 20
-0.8743200000000001
 30
0.0
 10
1.8924400000000001
 20
-0.8743200000000001
 30
0.0
 10
1.8924400000000001
 20
-1.0673600000000001
 30
0.0
 10
1.8924400000000001
 20
-1.0673600000000001
 30
0.0
 10
1.8924400000000001
 20
-1.0673600000000001
 30
0.0
 10
1.7197200000000001
 20
-0.8743200000000001
 30
0.0
 10
1.8060800000000001
 20
-0.5796800000000001
 30
0.0
 10
1.9280000000000002
 20
-0.38664
 30
0.0
 10
1.9280000000000002
 20
-0.38664
 30
0.0
 10
2.0143600000000004
 20
-0.24948
 30
0.0
 10
2.1032600000000001
 20
-0.10978
 30
0.0
 10
2.2582
 20
-0.05644
 30
0.0
 10
2.2582
 20
-0.05644
 30
0.0
 10
2.46902
 20
-0.00564
 30
0.0
 10
2.1896200000000001
 20
-0.3536200000000001
 30
0.0
 10
2.2226400000000002
 20
-0.4907800000000001
 30
0.0
 10
2.2226400000000002
 20
-0.4907800000000001
 30
0.0
 10
2.2404200000000003
 20
-0.5796800000000001
 30
0.0
 10
2.1540600000000003
 20
-0.7016000000000001
 30
0.0
 10
2.2404200000000003
 20
-0.7701800000000001
 30
0.0
 10
2.2404200000000003
 20
-0.7701800000000001
 30
0.0
 10
2.2937600000000002
 20
-0.17836
 30
0.0
 10
2.8144600000000004
 20
0.21787
 30
0.0
 10
3.1624400000000001
 20
0.6699900000000001
 30
0.0
  0
SPLINE
  5
32
100
AcDbEntity
  8
Ebene 1
 62
     7
100
AcDbSpline
210
0.0
220
0.0
230
1.0
 70
     1
 71
     3
 72
    44
 73
    40
 74
     0
 42
0.0000000001
 43
0.0000000001
 40
0.0
 40
0.0
 40
0.0
 40
0.0
 40
0.1
 40
0.1
 40
0.1
 40
0.1
 40
0.2
 40
0.2
 40
0.2
 40
0.2
 40
0.3
 40
0.3
 40
0.3
 40
0.3
 40
0.4
 40
0.4
 40
0.4
 40
0.4
 40
0.5
 40
0.5
 40
0.5
 40
0.5
 40
0.6
 40
0.6
 40
0.6
 40
0.6
 40
0.7
 40
0.7
 40
0.7
 40
0.7
 40
0.7999999999999999
 40
0.7999999999999999
 40
0.7999999999999999
 40
0.7999999999999999
 40
0.8999999999999999
 40
0.8999999999999999
 40
0.8999999999999999
 40
0.8999999999999999
 40
1.0
 40
1.0
 40
1.0
 40
1.0
 10
3.7390200000000005
 20
-0.02088
 30
0.0
 10
4.2241600000000004
 20
-0.14534
 30
0.0
 10
4.0514400000000004
 20
-0.80574
 30
0.0
 10
3.9117400000000004
 20
-1.1359400000000002
 30
0.0
 10
3.9117400000000004
 20
-1.1359400000000002
 30
0.0
 10
3.9117400000000004
 20
-1.1359400000000002
 30
0.0
 10
3.8584000000000005
 20
-0.9606800000000001
 30
0.0
 10
3.8584000000000005
 20
-0.9606800000000001
 30
0.0
 10
3.8584000000000005
 20
-0.9606800000000001
 30
0.0
 10
3.8406200000000004
 20
-0.90988
 30
0.0
 10
3.8939600000000003
 20
-0.6660400000000001
 30
0.0
 10
3.8076000000000003
 20
-0.7701800000000001
 30
0.0
 10
3.8076000000000003
 20
-0.7701800000000001
 30
0.0
 10
3.7542600000000004
 20
-1.20452
 30
0.0
 10
3.9117400000000004
 20
-1.79634
 30
0.0
 10
3.5282000000000004
 20
-2.0757400000000001
 30
0.0
 10
3.5282000000000004
 20
-2.0757400000000001
 30
0.0
 10
3.1624400000000001
 20
-1.9893800000000001
 30
0.0
 10
3.0938600000000003
 20
-1.58806
 30
0.0
 10
2.9211400000000003
 20
-1.3620000000000001
 30
0.0
 10
2.9211400000000003
 20
-1.3620000000000001
 30
0.0
 10
3.0583000000000005
 20
-1.37978
 30
0.0
 10
3.2513400000000003
 20
-1.58806
 30
0.0
 10
3.3732600000000001
 20
-1.41534
 30
0.0
 10
3.3732600000000001
 20
-1.41534
 30
0.0
 10
3.4062800000000002
 20
-1.1892800000000001
 30
0.0
 10
3.0938600000000003
 20
-1.29342
 30
0.0
 10
3.0075000000000003
 20
-1.1715
 30
0.0
 10
3.0075000000000003
 20
-1.1715
 30
0.0
 10
3.2157800000000001
 20
-1.11816
 30
0.0
 10
3.3732600000000001
 20
-0.9606800000000001
 30
0.0
 10
3.4748600000000005
 20
-0.7701800000000001
 30
0.0
 10
3.4748600000000005
 20
-0.7701800000000001
 30
0.0
 10
3.4926400000000002
 20
-0.28504
 30
0.0
 10
3.0760800000000001
 20
-0.8565400000000001
 30
0.0
 10
2.97194
 20
-1.0318000000000001
 30
0.0
 10
2.97194
 20
-1.0318000000000001
 30
0.0
 10
3.0405200000000003
 20
-0.5974600000000001
 30
0.0
 10
3.3885000000000001
 20
-0.2317
 30
0.0
 10
3.7390200000000005
 20
-0.02088
 30
0.0
  0
SPLINE
  5
33
100
AcDbEntity
  8
Ebene 1
 62
     7
100
AcDbSpline
210
0.0
220
0.0
230
1.0
 70
     1
 71
     3
 72
    12
 73
     8
 74
     0
 42
0.0000000001
 43
0.0000000001
 40
0.0
 40
0.0
 40
0.0
 40
0.0
 40
0.5
 40
0.5
 40
0.5
 40
0.5
 40
1.0
 40
1.0
 40
1.0
 40
1.0
 10
-0.69581
 20
-0.092
 30
0.0
 10
-0.5789700000000001
 20
-0.19614
 30
0.0
 10
-0.35291
 20
-0.38664
 30
0.0
 10
-0.4900700000000001
 20
-0.5441200000000001
 30
0.0
 10
-0.4900700000000001
 20
-0.5441200000000001
 30
0.0
 10
-0.71613
 20
-0.61524
 30
0.0
 10
-0.8075700000000001
 20
-0.2317
 30
0.0
 10
-0.69581
 20
-0.092
 30
0.0
  0
SPLINE
  5
34
100
AcDbEntity
  8
Ebene 1
 62
     7
100
AcDbSpline
210
0.0
220
0.0
230
1.0
 70
     1
 71
     3
 72
    20
 73
    16
 74
     0
 42
0.0000000001
 43
0.0000000001
 40
0.0
 40
0.0
 40
0.0
 40
0.0
 40
0.25
 40
0.25
 40
0.25
 40
0.25
 40
0.5
 40
0.5
 40
0.5
 40
0.5
 40
0.75
 40
0.75
 40
0.75
 40
0.75
 40
1.0
 40
1.0
 40
1.0
 40
1.0
 10
-0.9396500000000001
 20
-0.31806
 30
0.0
 10
-0.8329700000000001
 20
-0.33584
 30
0.0
 10
-0.7872500000000001
 20
-0.43998
 30
0.0
 10
-0.7770900000000001
 20
-0.5441200000000001
 30
0.0
 10
-0.7770900000000001
 20
-0.5441200000000001
 30
0.0
 10
-0.6704100000000001
 20
-0.5619000000000001
 30
0.0
 10
-0.63993
 20
-0.6838200000000001
 30
0.0
 10
-0.6653300000000001
 20
-0.7879600000000001
 30
0.0
 10
-0.6653300000000001
 20
-0.7879600000000001
 30
0.0
 10
-0.6653300000000001
 20
-0.7879600000000001
 30
0.0
 10
-0.7669300000000001
 20
-0.82352
 30
0.0
 10
-0.7669300000000001
 20
-0.82352
 30
0.0
 10
-0.7669300000000001
 20
-0.82352
 30
0.0
 10
-0.8837700000000001
 20
-0.6838200000000001
 30
0.0
 10
-1.00315
 20
-0.50856
 30
0.0
 10
-0.9396500000000001
 20
-0.31806
 30
0.0
  0
SPLINE
  5
35
100
AcDbEntity
  8
Ebene 1
 62
     7
100
AcDbSpline
210
0.0
220
0.0
230
1.0
 70
     1
 71
     3
 72
    16
 73
    12
 74
     0
 42
0.0000000001
 43
0.0000000001
 40
0.0
 40
0.0
 40
0.0
 40
0.0
 40
0.3333333333333333
 40
0.3333333333333333
 40
0.3333333333333333
 40
0.3333333333333333
 40
0.6666666666666666
 40
0.6666666666666666
 40
0.6666666666666666
 40
0.6666666666666666
 40
1.0
 40
1.0
 40
1.0
 40
1.0
 10
-1.1479300000000001
 20
-0.5441200000000001
 30
0.0
 10
-0.9904500000000001
 20
-0.6838200000000001
 30
0.0
 10
-0.7770900000000001
 20
-0.8743200000000001
 30
0.0
 10
-0.90917
 20
-1.1029200000000001
 30
0.0
 10
-0.90917
 20
-1.1029200000000001
 30
0.0
 10
-0.90917
 20
-1.1029200000000001
 30
0.0
 10
-1.00315
 20
-1.11816
 30
0.0
 10
-1.00315
 20
-1.11816
 30
0.0
 10
-1.00315
 20
-1.11816
 30
0.0
 10
-1.12761
 20
-0.9606800000000001
 30
0.0
 10
-1.2012700000000001
 20
-0.7524000000000001
 30
0.0
 10
-1.1479300000000001
 20
-0.5441200000000001
 30
0.0
  0
SPLINE
  5
36
100
AcDbEntity
  8
Ebene 1
 62
     7
100
AcDbSpline
210
0.0
220
0.0
230
1.0
 70
     1
 71
     3
 72
    16
 73
    12
 74
     0
 42
0.0000000001
 43
0.0000000001
 40
0.0
 40
0.0
 40
0.0
 40
0.0
 40
0.3333333333333333
 40
0.3333333333333333
 40
0.3333333333333333
 40
0.3333333333333333
 40
0.6666666666666666
 40
0.6666666666666666
 40
0.6666666666666666
 40
0.6666666666666666
 40
1.0
 40
1.0
 40
1.0
 40
1.0
 10
-1.3587500000000001
 20
-0.73716
 30
0.0
 10
-1.20889
 20
-0.8565400000000001
 30
0.0
 10
-1.0488700000000002
 20
-1.11816
 30
0.0
 10
-1.1352300000000002
 20
-1.3086600000000002
 30
0.0
 10
-1.1352300000000002
 20
-1.3086600000000002
 30
0.0
 10
-1.1809500000000002
 20
-1.3264400000000001
 30
0.0
 10
-1.2342900000000001
 20
-1.3264400000000001
 30
0.0
 10
-1.2825500000000001
 20
-1.3264400000000001
 30
0.0
 10
-1.2825500000000001
 20
-1.3264400000000001
 30
0.0
 10
-1.3409700000000002
 20
-1.1359400000000002
 30
0.0
 10
-1.4095500000000001
 20
-0.9454400000000001
 30
0.0
 10
-1.3587500000000001
 20
-0.73716
 30
0.0
  0
SPLINE
  5
37
100
AcDbEntity
  8
Ebene 1
 62
     7
100
AcDbSpline
210
0.0
220
0.0
230
1.0
 70
     1
 71
     3
 72
    16
 73
    12
 74
     0
 42
0.0000000001
 43
0.0000000001
 40
0.0
 40
0.0
 40
0.0
 40
0.0
 40
0.3333333333333333
 40
0.3333333333333333
 40
0.3333333333333333
 40
0.3333333333333333
 40
0.6666666666666666
 40
0.6666666666666666
 40
0.6666666666666666
 40
0.6666666666666666
 40
1.0
 40
1.0
 40
1.0
 40
1.0
 10
-0.57389
 20
-0.7879600000000001
 30
0.0
 10
-0.57389
 20
-0.7879600000000001
 30
0.0
 10
-0.5434100000000001
 20
-0.80574
 30
0.0
 10
-0.5434100000000001
 20
-0.80574
 30
0.0
 10
-0.5434100000000001
 20
-0.80574
 30
0.0
 10
-0.5662700000000001
 20
-0.9962400000000001
 30
0.0
 10
-0.57135
 20
-1.20452
 30
0.0
 10
-0.6907300000000001
 20
-1.3442200000000002
 30
0.0
 10
-0.6907300000000001
 20
-1.3442200000000002
 30
0.0
 10
-0.6907300000000001
 20
-1.1537200000000001
 30
0.0
 10
-0.7059700000000001
 20
-0.92766
 30
0.0
 10
-0.57389
 20
-0.7879600000000001
 30
0.0
  0
SPLINE
  5
38
100
AcDbEntity
  8
Ebene 1
 62
     7
100
AcDbSpline
210
0.0
220
0.0
230
1.0
 70
     1
 71
     3
 72
    20
 73
    16
 74
     0
 42
0.0000000001
 43
0.0000000001
 40
0.0
 40
0.0
 40
0.0
 40
0.0
 40
0.25
 40
0.25
 40
0.25
 40
0.25
 40
0.5
 40
0.5
 40
0.5
 40
0.5
 40
0.75
 40
0.75
 40
0.75
 40
0.75
 40
1.0
 40
1.0
 40
1.0
 40
1.0
 10
-0.78471
 20
-0.8921000000000001
 30
0.0
 10
-0.78471
 20
-0.8921000000000001
 30
0.0
 10
-0.7339100000000001
 20
-0.8921000000000001
 30
0.0
 10
-0.7339100000000001
 20
-0.8921000000000001
 30
0.0
 10
-0.7339100000000001
 20
-0.8921000000000001
 30
0.0
 10
-0.74153
 20
-1.1537200000000001
 30
0.0
 10
-0.8634500000000001
 20
-1.41534
 30
0.0
 10
-0.9574300000000001
 20
-1.6414000000000002
 30
0.0
 10
-0.9574300000000001
 20
-1.6414000000000002
 30
0.0
 10
-1.04379
 20
-1.5372600000000001
 30
0.0
 10
-1.0285500000000001
 20
-1.37978
 30
0.0
 10
-1.00315
 20
-1.2400800000000001
 30
0.0
 10
-1.00315
 20
-1.2400800000000001
 30
0.0
 10
-0.82789
 20
-1.20452
 30
0.0
 10
-0.7897900000000001
 20
-1.0673600000000001
 30
0.0
 10
-0.78471
 20
-0.8921000000000001
 30
0.0
  0
SPLINE
  5
39
100
AcDbEntity
  8
Ebene 1
 62
     7
100
AcDbSpline
210
0.0
220
0.0
230
1.0
 70
     1
 71
     3
 72
    20
 73
    16
 74
     0
 42
0.0000000001
 43
0.0000000001
 40
0.0
 40
0.0
 40
0.0
 40
0.0
 40
0.25
 40
0.25
 40
0.25
 40
0.25
 40
0.5
 40
0.5
 40
0.5
 40
0.5
 40
0.75
 40
0.75
 40
0.75
 40
0.75
 40
1.0
 40
1.0
 40
1.0
 40
1.0
 10
-1.6178300000000001
 20
-0.92766
 30
0.0
 10
-1.4476500000000001
 20
-0.9784600000000001
 30
0.0
 10
-1.4019300000000001
 20
-1.20452
 30
0.0
 10
-1.3409700000000002
 20
-1.3620000000000001
 30
0.0
 10
-1.3409700000000002
 20
-1.3620000000000001
 30
0.0
 10
-1.3409700000000002
 20
-1.3620000000000001
 30
0.0
 10
-1.4781300000000002
 20
-1.5550400000000002
 30
0.0
 10
-1.4781300000000002
 20
-1.5550400000000002
 30
0.0
 10
-1.4781300000000002
 20
-1.5550400000000002
 30
0.0
 10
-1.4781300000000002
 20
-1.5550400000000002
 30
0.0
 10
-1.63053
 20
-1.5017
 30
0.0
 10
-1.63053
 20
-1.5017
 30
0.0
 10
-1.63053
 20
-1.5017
 30
0.0
 10
-1.6483100000000002
 20
-1.3086600000000002
 30
0.0
 10
-1.6635500000000001
 20
-1.11816
 30
0.0
 10
-1.6178300000000001
 20
-0.92766
 30
0.0
  0
SPLINE
  5
3A
100
AcDbEntity
  8
Ebene 1
 62
     7
100
AcDbSpline
210
0.0
220
0.0
230
1.0
 70
     1
 71
     3
 72
    16
 73
    12
 74
     0
 42
0.0000000001
 43
0.0000000001
 40
0.0
 40
0.0
 40
0.0
 40
0.0
 40
0.3333333333333333
 40
0.3333333333333333
 40
0.3333333333333333
 40
0.3333333333333333
 40
0.6666666666666666
 40
0.6666666666666666
 40
0.6666666666666666
 40
0.6666666666666666
 40
1.0
 40
1.0
 40
1.0
 40
1.0
 10
-2.7836900000000004
 20
-1.0495800000000002
 30
0.0
 10
-2.6668500000000002
 20
-1.2400800000000001
 30
0.0
 10
-2.6846300000000003
 20
-1.5372600000000001
 30
0.0
 10
-2.6820900000000001
 20
-1.7455400000000001
 30
0.0
 10
-2.6820900000000001
 20
-1.7455400000000001
 30
0.0
 10
-2.6820900000000001
 20
-1.7455400000000001
 30
0.0
 10
-2.9183100000000004
 20
-1.7455400000000001
 30
0.0
 10
-2.9183100000000004
 20
-1.7455400000000001
 30
0.0
 10
-2.9183100000000004
 20
-1.7455400000000001
 30
0.0
 10
-2.9335500000000003
 20
-1.5194800000000002
 30
0.0
 10
-2.9437100000000003
 20
-1.2400800000000001
 30
0.0
 10
-2.7836900000000004
 20
-1.0495800000000002
 30
0.0
  0
SPLINE
  5
3B
100
AcDbEntity
  8
Ebene 1
 62
     7
100
AcDbSpline
210
0.0
220
0.0
230
1.0
 70
     1
 71
     3
 72
    12
 73
     8
 74
     0
 42
0.0000000001
 43
0.0000000001
 40
0.0
 40
0.0
 40
0.0
 40
0.0
 40
0.5
 40
0.5
 40
0.5
 40
0.5
 40
1.0
 40
1.0
 40
1.0
 40
1.0
 10
-2.0013700000000001
 20
-1.0495800000000002
 30
0.0
 10
-1.6660900000000001
 20
-1.3086600000000002
 30
0.0
 10
-1.5670300000000001
 20
-1.8852400000000002
 30
0.0
 10
-1.7956300000000001
 20
-2.2662400000000003
 30
0.0
 10
-1.7956300000000001
 20
-2.2662400000000003
 30
0.0
 10
-1.9073900000000001
 20
-1.8852400000000002
 30
0.0
 10
-2.2401300000000002
 20
-1.4661400000000002
 30
0.0
 10
-2.0013700000000001
 20
-1.0495800000000002
 30
0.0
  0
SPLINE
  5
3C
100
AcDbEntity
  8
Ebene 1
 62
     7
100
AcDbSpline
210
0.0
220
0.0
230
1.0
 70
     1
 71
     3
 72
    16
 73
    12
 74
     0
 42
0.0000000001
 43
0.0000000001
 40
0.0
 40
0.0
 40
0.0
 40
0.0
 40
0.3333333333333333
 40
0.3333333333333333
 40
0.3333333333333333
 40
0.3333333333333333
 40
0.6666666666666666
 40
0.6666666666666666
 40
0.6666666666666666
 40
0.6666666666666666
 40
1.0
 40
1.0
 40
1.0
 40
1.0
 10
-2.4712700000000001
 20
-1.08514
 30
0.0
 10
-2.3264900000000002
 20
-1.2223000000000002
 30
0.0
 10
-2.1969500000000002
 20
-1.4305800000000002
 30
0.0
 10
-2.1613900000000004
 20
-1.6414000000000002
 30
0.0
 10
-2.1613900000000004
 20
-1.6414000000000002
 30
0.0
 10
-2.2909300000000004
 20
-1.6591800000000001
 30
0.0
 10
-2.4611100000000001
 20
-1.79634
 30
0.0
 10
-2.5881100000000004
 20
-1.6922000000000001
 30
0.0
 10
-2.5881100000000004
 20
-1.6922000000000001
 30
0.0
 10
-2.6008100000000001
 20
-1.4839200000000001
 30
0.0
 10
-2.5754100000000002
 20
-1.2578600000000002
 30
0.0
 10
-2.4712700000000001
 20
-1.08514
 30
0.0
  0
SPLINE
  5
3D
100
AcDbEntity
  8
Ebene 1
 62
     7
100
AcDbSpline
210
0.0
220
0.0
230
1.0
 70
     1
 71
     3
 72
    28
 73
    24
 74
     0
 42
0.0000000001
 43
0.0000000001
 40
0.0
 40
0.0
 40
0.0
 40
0.0
 40
0.1666666666666667
 40
0.1666666666666667
 40
0.1666666666666667
 40
0.1666666666666667
 40
0.3333333333333333
 40
0.3333333333333333
 40
0.3333333333333333
 40
0.3333333333333333
 40
0.5
 40
0.5
 40
0.5
 40
0.5
 40
0.6666666666666666
 40
0.6666666666666666
 40
0.6666666666666666
 40
0.6666666666666666
 40
0.8333333333333333
 40
0.8333333333333333
 40
0.8333333333333333
 40
0.8333333333333333
 40
1.0
 40
1.0
 40
1.0
 40
1.0
 10
2.5553800000000004
 20
-1.11816
 30
0.0
 10
2.5553800000000004
 20
-1.11816
 30
0.0
 10
2.8144600000000004
 20
-1.1537200000000001
 30
0.0
 10
2.8144600000000004
 20
-1.1537200000000001
 30
0.0
 10
2.8144600000000004
 20
-1.1537200000000001
 30
0.0
 10
2.8144600000000004
 20
-1.1537200000000001
 30
0.0
 10
2.8678000000000003
 20
-1.1537200000000001
 30
0.0
 10
2.8678000000000003
 20
-1.1537200000000001
 30
0.0
 10
2.8678000000000003
 20
-1.1537200000000001
 30
0.0
 10
2.88558
 20
-1.20452
 30
0.0
 10
2.88558
 20
-1.2756400000000001
 30
0.0
 10
2.88558
 20
-1.3264400000000001
 30
0.0
 10
2.88558
 20
-1.3264400000000001
 30
0.0
 10
2.6417400000000004
 20
-1.37978
 30
0.0
 10
2.3801200000000002
 20
-1.2400800000000001
 30
0.0
 10
2.1185
 20
-1.3264400000000001
 30
0.0
 10
2.1185
 20
-1.3264400000000001
 30
0.0
 10
2.1540600000000003
 20
-1.2400800000000001
 30
0.0
 10
2.2582
 20
-1.2400800000000001
 30
0.0
 10
2.3293200000000001
 20
-1.2223000000000002
 30
0.0
 10
2.3293200000000001
 20
-1.2223000000000002
 30
0.0
 10
2.41568
 20
-1.20452
 30
0.0
 10
2.4842600000000004
 20
-1.1715
 30
0.0
 10
2.5553800000000004
 20
-1.11816
 30
0.0
  0
SPLINE
  5
3E
100
AcDbEntity
  8
Ebene 1
 62
     7
100
AcDbSpline
210
0.0
220
0.0
230
1.0
 70
     1
 71
     3
 72
    20
 73
    16
 74
     0
 42
0.0000000001
 43
0.0000000001
 40
0.0
 40
0.0
 40
0.0
 40
0.0
 40
0.25
 40
0.25
 40
0.25
 40
0.25
 40
0.5
 40
0.5
 40
0.5
 40
0.5
 40
0.75
 40
0.75
 40
0.75
 40
0.75
 40
1.0
 40
1.0
 40
1.0
 40
1.0
 10
-3.0453100000000002
 20
-1.1359400000000002
 30
0.0
 10
-2.9767300000000003
 20
-1.1892800000000001
 30
0.0
 10
-2.9843500000000001
 20
-1.3086600000000002
 30
0.0
 10
-3.0097500000000004
 20
-1.3975600000000001
 30
0.0
 10
-3.0097500000000004
 20
-1.3975600000000001
 30
0.0
 10
-2.9284700000000004
 20
-1.4839200000000001
 30
0.0
 10
-2.9513300000000005
 20
-1.6744200000000002
 30
0.0
 10
-3.0808700000000004
 20
-1.7277600000000002
 30
0.0
 10
-3.0808700000000004
 20
-1.7277600000000002
 30
0.0
 10
-3.0808700000000004
 20
-1.7277600000000002
 30
0.0
 10
-3.1799300000000001
 20
-1.6744200000000002
 30
0.0
 10
-3.1799300000000001
 20
-1.6744200000000002
 30
0.0
 10
-3.1799300000000001
 20
-1.6744200000000002
 30
0.0
 10
-3.1545300000000003
 20
-1.4839200000000001
 30
0.0
 10
-3.1469100000000001
 20
-1.29342
 30
0.0
 10
-3.0453100000000002
 20
-1.1359400000000002
 30
0.0
  0
SPLINE
  5
3F
100
AcDbEntity
  8
Ebene 1
 62
     7
100
AcDbSpline
210
0.0
220
0.0
230
1.0
 70
     1
 71
     3
 72
    20
 73
    16
 74
     0
 42
0.0000000001
 43
0.0000000001
 40
0.0
 40
0.0
 40
0.0
 40
0.0
 40
0.25
 40
0.25
 40
0.25
 40
0.25
 40
0.5
 40
0.5
 40
0.5
 40
0.5
 40
0.75
 40
0.75
 40
0.75
 40
0.75
 40
1.0
 40
1.0
 40
1.0
 40
1.0
 10
1.4758800000000001
 20
-1.1537200000000001
 30
0.0
 10
1.6333600000000001
 20
-1.1359400000000002
 30
0.0
 10
1.7197200000000001
 20
-1.3442200000000002
 30
0.0
 10
1.8746600000000002
 20
-1.29342
 30
0.0
 10
1.8746600000000002
 20
-1.29342
 30
0.0
 10
1.8746600000000002
 20
-1.29342
 30
0.0
 10
1.8746600000000002
 20
-1.3264400000000001
 30
0.0
 10
1.8746600000000002
 20
-1.3264400000000001
 30
0.0
 10
1.8746600000000002
 20
-1.3264400000000001
 30
0.0
 10
1.8746600000000002
 20
-1.3264400000000001
 30
0.0
 10
1.52922
 20
-1.4483600000000001
 30
0.0
 10
1.52922
 20
-1.4483600000000001
 30
0.0
 10
1.52922
 20
-1.4483600000000001
 30
0.0
 10
1.4936600000000002
 20
-1.3442200000000002
 30
0.0
 10
1.44032
 20
-1.2400800000000001
 30
0.0
 10
1.4758800000000001
 20
-1.1537200000000001
 30
0.0
  0
SPLINE
  5
40
100
AcDbEntity
  8
Ebene 1
 62
     7
100
AcDbSpline
210
0.0
220
0.0
230
1.0
 70
     1
 71
     3
 72
    12
 73
     8
 74
     0
 42
0.0000000001
 43
0.0000000001
 40
0.0
 40
0.0
 40
0.0
 40
0.0
 40
0.5
 40
0.5
 40
0.5
 40
0.5
 40
1.0
 40
1.0
 40
1.0
 40
1.0
 10
-3.2180300000000002
 20
-1.2400800000000001
 30
0.0
 10
-3.1519900000000001
 20
-1.4483600000000001
 30
0.0
 10
-3.2307300000000003
 20
-1.7607800000000002
 30
0.0
 10
-3.3704300000000003
 20
-1.9360400000000002
 30
0.0
 10
-3.3704300000000003
 20
-1.9360400000000002
 30
0.0
 10
-3.3704300000000003
 20
-1.9360400000000002
 30
0.0
 10
-3.2180300000000002
 20
-1.2400800000000001
 30
0.0
 10
-3.2180300000000002
 20
-1.2400800000000001
 30
0.0
  0
SPLINE
  5
41
100
AcDbEntity
  8
Ebene 1
 62
     7
100
AcDbSpline
210
0.0
220
0.0
230
1.0
 70
     1
 71
     3
 72
    16
 73
    12
 74
     0
 42
0.0000000001
 43
0.0000000001
 40
0.0
 40
0.0
 40
0.0
 40
0.0
 40
0.3333333333333333
 40
0.3333333333333333
 40
0.3333333333333333
 40
0.3333333333333333
 40
0.6666666666666666
 40
0.6666666666666666
 40
0.6666666666666666
 40
0.6666666666666666
 40
1.0
 40
1.0
 40
1.0
 40
1.0
 10
-1.2876300000000001
 20
-1.41534
 30
0.0
 10
-1.2876300000000001
 20
-1.41534
 30
0.0
 10
-1.1530100000000001
 20
-1.41534
 30
0.0
 10
-1.1530100000000001
 20
-1.41534
 30
0.0
 10
-1.1530100000000001
 20
-1.41534
 30
0.0
 10
-1.1479300000000001
 20
-1.5702800000000001
 30
0.0
 10
-1.20381
 20
-1.7099800000000001
 30
0.0
 10
-1.2723900000000001
 20
-1.8496800000000002
 30
0.0
 10
-1.2723900000000001
 20
-1.8496800000000002
 30
0.0
 10
-1.4070100000000001
 20
-1.7277600000000002
 30
0.0
 10
-1.38161
 20
-1.5550400000000002
 30
0.0
 10
-1.2876300000000001
 20
-1.41534
 30
0.0
  0
SPLINE
  5
42
100
AcDbEntity
  8
Ebene 1
 62
     7
100
AcDbSpline
210
0.0
220
0.0
230
1.0
 70
     1
 71
     3
 72
    28
 73
    24
 74
     0
 42
0.0000000001
 43
0.0000000001
 40
0.0
 40
0.0
 40
0.0
 40
0.0
 40
0.1666666666666667
 40
0.1666666666666667
 40
0.1666666666666667
 40
0.1666666666666667
 40
0.3333333333333333
 40
0.3333333333333333
 40
0.3333333333333333
 40
0.3333333333333333
 40
0.5
 40
0.5
 40
0.5
 40
0.5
 40
0.6666666666666666
 40
0.6666666666666666
 40
0.6666666666666666
 40
0.6666666666666666
 40
0.8333333333333333
 40
0.8333333333333333
 40
0.8333333333333333
 40
0.8333333333333333
 40
1.0
 40
1.0
 40
1.0
 40
1.0
 10
2.34456
 20
-1.4661400000000002
 30
0.0
 10
3.0938600000000003
 20
-1.3264400000000001
 30
0.0
 10
3.0583000000000005
 20
-2.1976600000000004
 30
0.0
 10
2.8144600000000004
 20
-2.6320000000000001
 30
0.0
 10
2.8144600000000004
 20
-2.6320000000000001
 30
0.0
 10
2.8144600000000004
 20
-2.6320000000000001
 30
0.0
 10
2.8144600000000004
 20
-2.4059400000000002
 30
0.0
 10
2.8144600000000004
 20
-2.4059400000000002
 30
0.0
 10
2.8144600000000004
 20
-2.4059400000000002
 30
0.0
 10
2.79922
 20
-2.2129000000000003
 30
0.0
 10
2.8500200000000002
 20
-1.9893800000000001
 30
0.0
 10
2.7281000000000004
 20
-1.8496800000000002
 30
0.0
 10
2.7281000000000004
 20
-1.8496800000000002
 30
0.0
 10
2.8144600000000004
 20
-2.4415
 30
0.0
 10
2.67476
 20
-3.1196800000000002
 30
0.0
 10
2.3979000000000004
 20
-3.6403800000000004
 30
0.0
 10
2.3979000000000004
 20
-3.6403800000000004
 30
0.0
 10
2.1540600000000003
 20
-3.3813000000000004
 30
0.0
 10
2.1540600000000003
 20
-2.94442
 30
0.0
 10
2.1896200000000001
 20
-2.5786600000000002
 30
0.0
 10
2.1896200000000001
 20
-2.5786600000000002
 30
0.0
 10
2.0499200000000002
 20
-2.23068
 30
0.0
 10
2.2226400000000002
 20
-1.8141200000000002
 30
0.0
 10
2.34456
 20
-1.4661400000000002
 30
0.0
  0
SPLINE
  5
43
100
AcDbEntity
  8
Ebene 1
 62
     7
100
AcDbSpline
210
0.0
220
0.0
230
1.0
 70
     1
 71
     3
 72
    16
 73
    12
 74
     0
 42
0.0000000001
 43
0.0000000001
 40
0.0
 40
0.0
 40
0.0
 40
0.0
 40
0.3333333333333333
 40
0.3333333333333333
 40
0.3333333333333333
 40
0.3333333333333333
 40
0.6666666666666666
 40
0.6666666666666666
 40
0.6666666666666666
 40
0.6666666666666666
 40
1.0
 40
1.0
 40
1.0
 40
1.0
 10
-1.6178300000000001
 20
-1.6058400000000002
 30
0.0
 10
-1.6178300000000001
 20
-1.6058400000000002
 30
0.0
 10
-1.46543
 20
-1.6236200000000001
 30
0.0
 10
-1.46543
 20
-1.6236200000000001
 30
0.0
 10
-1.46543
 20
-1.6236200000000001
 30
0.0
 10
-1.4552700000000001
 20
-1.7785600000000001
 30
0.0
 10
-1.4552700000000001
 20
-1.9538200000000001
 30
0.0
 10
-1.54925
 20
-2.0757400000000001
 30
0.0
 10
-1.54925
 20
-2.0757400000000001
 30
0.0
 10
-1.6610100000000001
 20
-1.9716000000000002
 30
0.0
 10
-1.6432300000000002
 20
-1.7607800000000002
 30
0.0
 10
-1.6178300000000001
 20
-1.6058400000000002
 30
0.0
  0
SPLINE
  5
44
100
AcDbEntity
  8
Ebene 1
 62
     7
100
AcDbSpline
210
0.0
220
0.0
230
1.0
 70
     1
 71
     3
 72
    64
 73
    60
 74
     0
 42
0.0000000001
 43
0.0000000001
 40
0.0
 40
0.0
 40
0.0
 40
0.0
 40
0.0666666666666667
 40
0.0666666666666667
 40
0.0666666666666667
 40
0.0666666666666667
 40
0.1333333333333333
 40
0.1333333333333333
 40
0.1333333333333333
 40
0.1333333333333333
 40
0.2
 40
0.2
 40
0.2
 40
0.2
 40
0.2666666666666667
 40
0.2666666666666667
 40
0.2666666666666667
 40
0.2666666666666667
 40
0.3333333333333333
 40
0.3333333333333333
 40
0.3333333333333333
 40
0.3333333333333333
 40
0.4
 40
0.4
 40
0.4
 40
0.4
 40
0.4666666666666666
 40
0.4666666666666666
 40
0.4666666666666666
 40
0.4666666666666666
 40
0.5333333333333333
 40
0.5333333333333333
 40
0.5333333333333333
 40
0.5333333333333333
 40
0.6
 40
0.6
 40
0.6
 40
0.6
 40
0.6666666666666666
 40
0.6666666666666666
 40
0.6666666666666666
 40
0.6666666666666666
 40
0.7333333333333333
 40
0.7333333333333333
 40
0.7333333333333333
 40
0.7333333333333333
 40
0.7999999999999999
 40
0.7999999999999999
 40
0.7999999999999999
 40
0.7999999999999999
 40
0.8666666666666666
 40
0.8666666666666666
 40
0.8666666666666666
 40
0.8666666666666666
 40
0.9333333333333332
 40
0.9333333333333332
 40
0.9333333333333332
 40
0.9333333333333332
 40
1.0
 40
1.0
 40
1.0
 40
1.0
 10
2.5884
 20
-4.44048
 30
0.0
 10
2.79922
 20
-4.6690800000000001
 30
0.0
 10
3.1802200000000003
 20
-4.73766
 30
0.0
 10
3.3199200000000002
 20
-5.0323000000000002
 30
0.0
 10
3.3199200000000002
 20
-5.0323000000000002
 30
0.0
 10
2.7103200000000003
 20
-5.0856400000000006
 30
0.0
 10
2.17184
 20
-4.5979600000000005
 30
0.0
 10
2.0143600000000004
 20
-4.0417000000000005
 30
0.0
 10
2.0143600000000004
 20
-4.0417000000000005
 30
0.0
 10
1.9280000000000002
 20
-4.0061400000000003
 30
0.0
 10
1.9280000000000002
 20
-3.9020000000000001
 30
0.0
 10
1.8924400000000001
 20
-3.8334200000000003
 30
0.0
 10
1.8924400000000001
 20
-3.8334200000000003
 30
0.0
 10
1.7705200000000001
 20
-3.8512000000000004
 30
0.0
 10
1.8746600000000002
 20
-4.0239200000000004
 30
0.0
 10
1.8924400000000001
 20
-4.0925000000000002
 30
0.0
 10
1.8924400000000001
 20
-4.0925000000000002
 30
0.0
 10
1.5622400000000001
 20
-3.7470600000000003
 30
0.0
 10
1.7527400000000002
 20
-3.2416000000000005
 30
0.0
 10
1.7197200000000001
 20
-2.8250400000000004
 30
0.0
 10
1.7197200000000001
 20
-2.8250400000000004
 30
0.0
 10
1.7197200000000001
 20
-2.8250400000000004
 30
0.0
 10
1.4758800000000001
 20
-3.6581600000000001
 30
0.0
 10
1.4758800000000001
 20
-3.6581600000000001
 30
0.0
 10
1.4758800000000001
 20
-3.6581600000000001
 30
0.0
 10
1.3031600000000001
 20
-3.1196800000000002
 30
0.0
 10
1.44032
 20
-2.4770600000000003
 30
0.0
 10
1.8060800000000001
 20
-2.0401800000000003
 30
0.0
 10
1.8060800000000001
 20
-2.0401800000000003
 30
0.0
 10
1.8416400000000002
 20
-2.3373600000000003
 30
0.0
 10
1.7019400000000002
 20
-2.7183600000000001
 30
0.0
 10
1.8594200000000001
 20
-2.9977600000000004
 30
0.0
 10
1.8594200000000001
 20
-2.9977600000000004
 30
0.0
 10
1.8594200000000001
 20
-2.9977600000000004
 30
0.0
 10
1.8746600000000002
 20
-2.85806
 30
0.0
 10
1.8746600000000002
 20
-2.85806
 30
0.0
 10
1.8746600000000002
 20
-2.85806
 30
0.0
 10
1.8746600000000002
 20
-2.85806
 30
0.0
 10
1.8746600000000002
 20
-2.6828000000000003
 30
0.0
 10
1.8746600000000002
 20
-2.6828000000000003
 30
0.0
 10
1.8746600000000002
 20
-2.6828000000000003
 30
0.0
 10
1.8924400000000001
 20
-2.5456400000000001
 30
0.0
 10
1.9457800000000001
 20
-2.4059400000000002
 30
0.0
 10
1.9457800000000001
 20
-2.2484600000000001
 30
0.0
 10
1.9457800000000001
 20
-2.2484600000000001
 30
0.0
 10
1.9813400000000001
 20
-2.05796
 30
0.0
 10
2.0143600000000004
 20
-1.8496800000000002
 30
0.0
 10
2.1540600000000003
 20
-1.6922000000000001
 30
0.0
 10
2.1540600000000003
 20
-1.6922000000000001
 30
0.0
 10
2.0677000000000003
 20
-2.35514
 30
0.0
 10
1.9813400000000001
 20
-3.03078
 30
0.0
 10
1.9457800000000001
 20
-3.6937200000000003
 30
0.0
 10
1.9457800000000001
 20
-3.6937200000000003
 30
0.0
 10
2.1362800000000002
 20
-3.9705800000000004
 30
0.0
 10
2.3293200000000001
 20
-4.2499800000000008
 30
0.0
 10
2.5553800000000004
 20
-4.4938200000000004
 30
0.0
 10
2.5553800000000004
 20
-4.4938200000000004
 30
0.0
 10
2.5706200000000003
 20
-4.4938200000000004
 30
0.0
 10
2.5884
 20
-4.4582600000000001
 30
0.0
 10
2.5884
 20
-4.44048
 30
0.0
  0
SPLINE
  5
45
100
AcDbEntity
  8
Ebene 1
 62
     7
100
AcDbSpline
210
0.0
220
0.0
230
1.0
 70
     1
 71
     3
 72
    16
 73
    12
 74
     0
 42
0.0000000001
 43
0.0000000001
 40
0.0
 40
0.0
 40
0.0
 40
0.0
 40
0.3333333333333333
 40
0.3333333333333333
 40
0.3333333333333333
 40
0.3333333333333333
 40
0.6666666666666666
 40
0.6666666666666666
 40
0.6666666666666666
 40
0.6666666666666666
 40
1.0
 40
1.0
 40
1.0
 40
1.0
 10
-2.2629900000000003
 20
-1.7455400000000001
 30
0.0
 10
-2.1232900000000003
 20
-1.79634
 30
0.0
 10
-2.1334500000000003
 20
-2.05796
 30
0.0
 10
-2.1588500000000002
 20
-2.1798800000000003
 30
0.0
 10
-2.1588500000000002
 20
-2.1798800000000003
 30
0.0
 10
-2.27569
 20
-2.1113
 30
0.0
 10
-2.3722100000000004
 20
-1.9538200000000001
 30
0.0
 10
-2.4484100000000004
 20
-1.8319000000000001
 30
0.0
 10
-2.4484100000000004
 20
-1.8319000000000001
 30
0.0
 10
-2.4484100000000004
 20
-1.8319000000000001
 30
0.0
 10
-2.2629900000000003
 20
-1.7455400000000001
 30
0.0
 10
-2.2629900000000003
 20
-1.7455400000000001
 30
0.0
  0
SPLINE
  5
46
100
AcDbEntity
  8
Ebene 1
 62
     7
100
AcDbSpline
210
0.0
220
0.0
230
1.0
 70
     1
 71
     3
 72
    12
 73
     8
 74
     0
 42
0.0000000001
 43
0.0000000001
 40
0.0
 40
0.0
 40
0.0
 40
0.0
 40
0.5
 40
0.5
 40
0.5
 40
0.5
 40
1.0
 40
1.0
 40
1.0
 40
1.0
 10
-2.1232900000000003
 20
-1.7455400000000001
 30
0.0
 10
-1.9962900000000001
 20
-1.8141200000000002
 30
0.0
 10
-1.9683500000000003
 20
-1.9716000000000002
 30
0.0
 10
-1.9353300000000002
 20
-2.0935200000000003
 30
0.0
 10
-1.9353300000000002
 20
-2.0935200000000003
 30
0.0
 10
-2.0445500000000001
 20
-2.0401800000000003
 30
0.0
 10
-2.1055100000000002
 20
-1.8674600000000001
 30
0.0
 10
-2.1232900000000003
 20
-1.7455400000000001
 30
0.0
  0
SPLINE
  5
47
100
AcDbEntity
  8
Ebene 1
 62
     7
100
AcDbSpline
210
0.0
220
0.0
230
1.0
 70
     1
 71
     3
 72
    20
 73
    16
 74
     0
 42
0.0000000001
 43
0.0000000001
 40
0.0
 40
0.0
 40
0.0
 40
0.0
 40
0.25
 40
0.25
 40
0.25
 40
0.25
 40
0.5
 40
0.5
 40
0.5
 40
0.5
 40
0.75
 40
0.75
 40
0.75
 40
0.75
 40
1.0
 40
1.0
 40
1.0
 40
1.0
 10
-3.0097500000000004
 20
-1.7785600000000001
 30
0.0
 10
-2.9157700000000002
 20
-1.79634
 30
0.0
 10
-2.8751300000000004
 20
-1.9004800000000002
 30
0.0
 10
-2.8040100000000003
 20
-1.9538200000000001
 30
0.0
 10
-2.8040100000000003
 20
-1.9538200000000001
 30
0.0
 10
-2.7760700000000003
 20
-1.9893800000000001
 30
0.0
 10
-2.7430500000000002
 20
-2.02494
 30
0.0
 10
-2.73543
 20
-2.05796
 30
0.0
 10
-2.73543
 20
-2.05796
 30
0.0
 10
-2.8294100000000002
 20
-1.9716000000000002
 30
0.0
 10
-3.0351500000000002
 20
-1.9360400000000002
 30
0.0
 10
-3.0935700000000002
 20
-1.79634
 30
0.0
 10
-3.0935700000000002
 20
-1.79634
 30
0.0
 10
-3.0935700000000002
 20
-1.79634
 30
0.0
 10
-3.0097500000000004
 20
-1.7785600000000001
 30
0.0
 10
-3.0097500000000004
 20
-1.7785600000000001
 30
0.0
  0
SPLINE
  5
48
100
AcDbEntity
  8
Ebene 1
 62
     7
100
AcDbSpline
210
0.0
220
0.0
230
1.0
 70
     1
 71
     3
 72
    16
 73
    12
 74
     0
 42
0.0000000001
 43
0.0000000001
 40
0.0
 40
0.0
 40
0.0
 40
0.0
 40
0.3333333333333333
 40
0.3333333333333333
 40
0.3333333333333333
 40
0.3333333333333333
 40
0.6666666666666666
 40
0.6666666666666666
 40
0.6666666666666666
 40
0.6666666666666666
 40
1.0
 40
1.0
 40
1.0
 40
1.0
 10
-2.6617700000000002
 20
-1.7785600000000001
 30
0.0
 10
-2.4890500000000002
 20
-1.8141200000000002
 30
0.0
 10
-2.3468100000000001
 20
-2.0935200000000003
 30
0.0
 10
-2.4179300000000001
 20
-2.23068
 30
0.0
 10
-2.4179300000000001
 20
-2.23068
 30
0.0
 10
-2.4179300000000001
 20
-2.23068
 30
0.0
 10
-2.7963900000000002
 20
-1.8141200000000002
 30
0.0
 10
-2.7963900000000002
 20
-1.8141200000000002
 30
0.0
 10
-2.7963900000000002
 20
-1.8141200000000002
 30
0.0
 10
-2.7963900000000002
 20
-1.8141200000000002
 30
0.0
 10
-2.6617700000000002
 20
-1.7785600000000001
 30
0.0
 10
-2.6617700000000002
 20
-1.7785600000000001
 30
0.0
  0
SPLINE
  5
49
100
AcDbEntity
  8
Ebene 1
 62
     7
100
AcDbSpline
210
0.0
220
0.0
230
1.0
 70
     1
 71
     3
 72
    12
 73
     8
 74
     0
 42
0.0000000001
 43
0.0000000001
 40
0.0
 40
0.0
 40
0.0
 40
0.0
 40
0.5
 40
0.5
 40
0.5
 40
0.5
 40
1.0
 40
1.0
 40
1.0
 40
1.0
 10
2.08548
 20
-3.0841200000000004
 30
0.0
 10
2.0321400000000001
 20
-3.4854400000000001
 30
0.0
 10
2.2937600000000002
 20
-3.8334200000000003
 30
0.0
 10
2.3979000000000004
 20
-4.1991800000000001
 30
0.0
 10
2.3979000000000004
 20
-4.1991800000000001
 30
0.0
 10
2.1185
 20
-3.9020000000000001
 30
0.0
 10
1.8924400000000001
 20
-3.4676600000000004
 30
0.0
 10
2.08548
 20
-3.0841200000000004
 30
0.0
  0
ENDSEC
  0
SECTION
  2
OBJECTS
  0
DICTIONARY
  5
19
100
AcDbDictionary
280
     0
281
     1
  3
ACAD_GROUP
350
1A
  3
ACAD_MLINESTYLE
350
1B
  3
ACAD_LAYOUT
350
1E
  3
ACAD_PLOTSETTINGS
350
22
  3
ACAD_PLOTSTYLENAME
350
1F
  3
ACAD_WIPEOUT_VARS
350
23
  0
DICTIONARY
  5
1A
102
{ACAD_REACTORS
330
19
102
}
100
AcDbDictionary
280
     0
281
     1
  0
DICTIONARY
  5
1B
102
{ACAD_REACTORS
330
19
102
}
100
AcDbDictionary
280
     0
281
     1
  3
Standard
350
1C
  0
MLINESTYLE
  5
1C
102
{ACAD_REACTORS
330
1B
102
}
100
AcDbMlineStyle
  2
Standard
 70
     0
  3

 62
     0
 51
90.0
 52
90.0
 71
     2
 49
0.5
 62
   256
  6
BYLAYER
 49
-0.5
 62
   256
  6
BYLAYER
  0
ACDBDICTIONARYWDFLT
  5
1F
102
{ACAD_REACTORS
330
19
102
}
100
AcDbDictionary
281
     1
  3
Normal
350
1D
100
AcDbDictionaryWithDefault
340
1D
  0
ACDBPLACEHOLDER
  5
1D
102
{ACAD_REACTORS
330
1F
102
}
  0
LAYOUT
  5
20
102
{ACAD_REACTORS
330
1E
102
}
100
AcDbPlotSettings
  1

  2

  4

  6

 40
0.0
 41
0.0
 42
0.0
 43
0.0
 44
0.0
 45
0.0
 46
0.0
 47
0.0
 48
0.0
 49
0.0
140
0.0
141
0.0
142
1.0
143
1.0
 70
  1024
 72
     0
 73
     0
 74
     0
  7

 75
     0
147
1.0
148
0.0
149
0.0
100
AcDbLayout
  1
Model
 70
     0
 71
     0
 10
0.0
 20
0.0
 11
0.0
 21
0.0
 12
0.0
 22
0.0
 32
0.0
 14
0.0
 24
0.0
 34
0.0
 15
0.0
 25
0.0
 35
0.0
146
0.0
 13
0.0
 23
0.0
 33
0.0
 16
0.0
 26
0.0
 36
0.0
 17
0.0
 27
0.0
 37
0.0
 76
     0
330
A
331
0
345
0
346
0
  0
LAYOUT
  5
21
102
{ACAD_REACTORS
330
1E
102
}
100
AcDbPlotSettings
  1

  2

  4

  6

 40
0.0
 41
0.0
 42
0.0
 43
0.0
 44
0.0
 45
0.0
 46
0.0
 47
0.0
 48
0.0
 49
0.0
140
0.0
141
0.0
142
1.0
143
1.0
 70
     0
 72
     0
 73
     0
 74
     0
  7

 75
     0
147
1.0
148
0.0
149
0.0
100
AcDbLayout
  1
Layout1
 70
     0
 71
     0
 10
0.0
 20
0.0
 11
0.0
 21
0.0
 12
0.0
 22
0.0
 32
0.0
 14
0.0
 24
0.0
 34
0.0
 15
0.0
 25
0.0
 35
0.0
146
0.0
 13
0.0
 23
0.0
 33
0.0
 16
0.0
 26
0.0
 36
0.0
 17
0.0
 27
0.0
 37
0.0
 76
     0
330
B
331
0
345
0
346
0
  0
DICTIONARY
  5
1E
102
{ACAD_REACTORS
330
19
102
}
100
AcDbDictionary
280
     0
281
     1
  3
Layout1
350
21
  3
Model
350
20
  0
DICTIONARY
  5
22
102
{ACAD_REACTORS
330
19
102
}
100
AcDbDictionary
280
     0
281
     1
  0
WIPEOUTVARIABLES
  5
23
100
AcDbWipeoutVariables
 70
     1
  0
ENDSEC
  0
EOF
