  0
SECTION
  2
HEADER
  9
$ACADVER
  1
AC1015
  9
$ACADMAINTVER
 70
     6
  9
$DWGCODEPAGE
  3
DOS850
  9
$INSBASE
 10
0.0
 20
0.0
 30
0.0
  9
$EXTMIN
 10
-4.36905
 20
-6.47088
 30
1.000000E+20
  9
$EXTMAX
 10
4.37319
 20
6.46373
 30
-1.000000E+20
  9
$LIMMIN
 10
0.0
 20
0.0
  9
$LIMMAX
 10
0.0
 20
0.0
  9
$ORTHOMODE
 70
     0
  9
$REGENMODE
 70
     1
  9
$FILLMODE
 70
     1
  9
$QTEXTMODE
 70
     0
  9
$MIRRTEXT
 70
     1
  9
$LTSCALE
 40
1.0
  9
$ATTMODE
 70
     1
  9
$TEXTSIZE
 40
0.2
  9
$TRACEWID
 40
0.05
  9
$TEXTSTYLE
  7
Standard
  9
$CLAYER
  8
0
  9
$CELTYPE
  6
Continuous
  9
$CECOLOR
 62
   256
  9
$CELTSCALE
 40
1.0
  9
$DISPSILH
 70
     0
  9
$DIMSCALE
 40
1.0
  9
$DIMASZ
 40
0.18
  9
$DIMEXO
 40
0.0625
  9
$DIMDLI
 40
0.38
  9
$DIMRND
 40
0.0
  9
$DIMDLE
 40
0.0
  9
$DIMEXE
 40
0.18
  9
$DIMTP
 40
0.0
  9
$DIMTM
 40
0.0
  9
$DIMTXT
 40
0.18
  9
$DIMCEN
 40
0.09
  9
$DIMTSZ
 40
0.0
  9
$DIMTOL
 70
     0
  9
$DIMLIM
 70
     0
  9
$DIMTIH
 70
     1
  9
$DIMTOH
 70
     1
  9
$DIMSE1
 70
     0
  9
$DIMSE2
 70
     0
  9
$DIMTAD
 70
     0
  9
$DIMZIN
 70
     0
  9
$DIMBLK
  1

  9
$DIMASO
 70
     1
  9
$DIMSHO
 70
     1
  9
$DIMPOST
  1

  9
$DIMAPOST
  1

  9
$DIMALT
 70
     0
  9
$DIMALTD
 70
     2
  9
$DIMALTF
 40
25.4
  9
$DIMLFAC
 40
1.0
  9
$DIMTOFL
 70
     0
  9
$DIMTVP
 40
0.0
  9
$DIMTIX
 70
     0
  9
$DIMSOXD
 70
     0
  9
$DIMSAH
 70
     0
  9
$DIMBLK1
  1

  9
$DIMBLK2
  1

  9
$DIMSTYLE
  2
Standard
  9
$DIMCLRD
 70
     0
  9
$DIMCLRE
 70
     0
  9
$DIMCLRT
 70
     0
  9
$DIMTFAC
 40
1.0
  9
$DIMGAP
 40
0.09
  9
$DIMJUST
 70
     0
  9
$DIMSD1
 70
     0
  9
$DIMSD2
 70
     0
  9
$DIMTOLJ
 70
     1
  9
$DIMTZIN
 70
     0
  9
$DIMALTZ
 70
     0
  9
$DIMALTTZ
 70
     0
  9
$DIMUPT
 70
     0
  9
$DIMDEC
 70
     4
  9
$DIMTDEC
 70
     4
  9
$DIMALTU
 70
     2
  9
$DIMALTTD
 70
     2
  9
$DIMTXSTY
  7
Standard
  9
$DIMAUNIT
 70
     0
  9
$DIMADEC
 70
     0
  9
$DIMALTRND
 40
0.0
  9
$DIMAZIN
 70
     0
  9
$DIMDSEP
 70
     0
  9
$DIMATFIT
 70
     3
  9
$DIMFRAC
 70
     0
  9
$DIMLDRBLK
  1

  9
$DIMLUNIT
 70
     2
  9
$DIMLWD
 70
     0
  9
$DIMLWE
 70
     0
  9
$DIMTMOVE
 70
     0
  9
$LUNITS
 70
     2
  9
$LUPREC
 70
     4
  9
$SKETCHINC
 40
0.1
  9
$FILLETRAD
 40
0.0
  9
$AUNITS
 70
     0
  9
$AUPREC
 70
     0
  9
$MENU
  1
acad
  9
$ELEVATION
 40
0.0
  9
$PELEVATION
 40
0.0
  9
$THICKNESS
 40
0.0
  9
$LIMCHECK
 70
     0
  9
$CHAMFERA
 40
0.0
  9
$CHAMFERB
 40
0.0
  9
$CHAMFERC
 40
0.0
  9
$CHAMFERD
 40
0.0
  9
$SKPOLY
 70
     0
  9
$TDCREATE
 40
0.000000000
  9
$TDUCREATE
 40
0.000000000
  9
$TDUPDATE
 40
0.000000000
  9
$TDUUPDATE
 40
0.000000000
  9
$TDINDWG
 40
0.0000000000
  9
$TDUSRTIMER
 40
0.0000000000
  9
$USRTIMER
 70
     1
  9
$ANGBASE
 50
0.0
  9
$ANGDIR
 70
     0
  9
$PDMODE
 70
     0
  9
$PDSIZE
 40
0.0
  9
$PLINEWID
 40
0.0
  9
$SPLFRAME
 70
     0
  9
$SPLINETYPE
 70
     6
  9
$SPLINESEGS
 70
     8
  9
$HANDSEED
  5
3D
  9
$SURFTAB1
 70
     6
  9
$SURFTAB2
 70
     6
  9
$SURFTYPE
 70
     6
  9
$SURFU
 70
     6
  9
$SURFV
 70
     6
  9
$UCSBASE
  2

  9
$UCSNAME
  2

  9
$UCSORG
 10
0.0
 20
0.0
 30
0.0
  9
$UCSXDIR
 10
1.0
 20
0.0
 30
0.0
  9
$UCSYDIR
 10
0.0
 20
1.0
 30
0.0
  9
$UCSORTHOREF
  2

  9
$UCSORTHOVIEW
 70
     0
  9
$UCSORGTOP
 10
0.0
 20
0.0
 30
0.0
  9
$UCSORGBOTTOM
 10
0.0
 20
0.0
 30
0.0
  9
$UCSORGLEFT
 10
0.0
 20
0.0
 30
0.0
  9
$UCSORGRIGHT
 10
0.0
 20
0.0
 30
0.0
  9
$UCSORGFRONT
 10
0.0
 20
0.0
 30
0.0
  9
$UCSORGBACK
 10
0.0
 20
0.0
 30
0.0
  9
$PUCSBASE
  2

  9
$PUCSNAME
  2

  9
$PUCSORG
 10
0.0
 20
0.0
 30
0.0
  9
$PUCSXDIR
 10
1.0
 20
0.0
 30
0.0
  9
$PUCSYDIR
 10
0.0
 20
1.0
 30
0.0
  9
$PUCSORTHOREF
  2

  9
$PUCSORTHOVIEW
 70
     0
  9
$PUCSORGTOP
 10
0.0
 20
0.0
 30
0.0
  9
$PUCSORGBOTTOM
 10
0.0
 20
0.0
 30
0.0
  9
$PUCSORGLEFT
 10
0.0
 20
0.0
 30
0.0
  9
$PUCSORGRIGHT
 10
0.0
 20
0.0
 30
0.0
  9
$PUCSORGFRONT
 10
0.0
 20
0.0
 30
0.0
  9
$PUCSORGBACK
 10
0.0
 20
0.0
 30
0.0
  9
$USERI1
 70
     0
  9
$USERI2
 70
     0
  9
$USERI3
 70
     0
  9
$USERI4
 70
     0
  9
$USERI5
 70
     0
  9
$USERR1
 40
0.0
  9
$USERR2
 40
0.0
  9
$USERR3
 40
0.0
  9
$USERR4
 40
0.0
  9
$USERR5
 40
0.0
  9
$WORLDVIEW
 70
     1
  9
$SHADEDGE
 70
     3
  9
$SHADEDIF
 70
    70
  9
$TILEMODE
 70
     1
  9
$MAXACTVP
 70
    16
  9
$PINSBASE
 10
0.0
 20
0.0
 30
0.0
  9
$PLIMCHECK
 70
     0
  9
$PEXTMIN
 10
1.000000E+20
 20
1.000000E+20
 30
1.000000E+20
  9
$PEXTMAX
 10
-1.000000E+20
 20
-1.000000E+20
 30
-1.000000E+20
  9
$PLIMMIN
 10
0.0
 20
0.0
  9
$PLIMMAX
 10
12.0
 20
9.0
  9
$UNITMODE
 70
     0
  9
$VISRETAIN
 70
     0
  9
$PLINEGEN
 70
     1
  9
$PSLTSCALE
 70
     0
  9
$TREEDEPTH
 70
  3020
  9
$CMLSTYLE
  2
Standard
  9
$CMLJUST
 70
     0
  9
$CMLSCALE
 40
1.0
  9
$PROXYGRAPHICS
 70
     0
  9
$MEASUREMENT
 70
     0
  9
$CELWEIGHT
370
     0
  9
$ENDCAPS
280
     0
  9
$JOINSTYLE
280
     0
  9
$LWDISPLAY
290
     0
  9
$INSUNITS
 70
     5
  9
$HYPERLINKBASE
  1

  9
$XEDIT
290
     1
  9
$CEPSNTYPE
380
     0
  9
$PSTYLEMODE
290
     1
  9
$FINGERPRINTGUID
  2

  9
$VERSIONGUID
  2

  9
$EXTNAMES
290
     1
  9
$PSVPSCALE
 40
0.0
  0
ENDSEC
  0
SECTION
  2
CLASSES
  0
CLASS
  1
LWPOLYLINE
  2
AcDbPolyline
  3
AutoCAD 2000
 90
    32768
280
     0
281
     1
  0
CLASS
  1
IMAGE
  2
AcDbRasterImage
  3
ISM
 90
    32895
280
     0
281
     1
  0
CLASS
  1
OLE2FRAME
  2
AcDbOle2Frame
  3
AutoCAD 2000
 90
    32768
280
     0
281
     1
  0
CLASS
  1
HATCH
  2
AcDbHatch
  3
AutoCAD 2000
 90
    32768
280
     0
281
     1
  0
CLASS
  1
DICTIONARYVAR
  2
AcDbDictionaryVar
  3
AutoCAD 2000
 90
    32768
280
     0
281
     0
  0
CLASS
  1
RASTERVARIABLES
  2
AcDbRasterVariables
  3
ISM
 90
    32768
280
     0
281
     0
  0
CLASS
  1
IMAGEDEF
  2
AcDbRasterImageDef
  3
ISM
 90
    32768
280
     0
281
     0
  0
CLASS
  1
IMAGEDEF_REACTOR
  2
AcDbRasterImageDefReactor
  3
ISM
 90
    32769
280
     0
281
     0
  0
CLASS
  1
IDBUFFER
  2
AcDbIdBuffer
  3
AutoCAD 2000
 90
    32768
280
     0
281
     0
  0
CLASS
  1
SPATIAL_FILTER
  2
AcDbSpatialFilter
  3
AutoCAD 2000
 90
    32768
280
     0
281
     0
  0
CLASS
  1
XRECORD
  2
AcDbXrecord
  3
AutoCAD 2000
 90
    32768
280
     0
281
     0
  0
CLASS
  1
SORTENTSTABLE
  2
AcDbSortentsTable
  3
AutoCAD 2000
 90
    32768
280
     0
281
     0
  0
CLASS
  1
LAYER_INDEX
  2
AcDbLayerIndex
  3
AutoCAD 2000
 90
    32768
280
     0
281
     0
  0
CLASS
  1
SPATIAL_INDEX
  2
AcDbSpatialIndex
  3
AutoCAD 2000
 90
    32768
280
     0
281
     0
  0
CLASS
  1
OBJECT_PTR
  2
CAseDLPNTableRecord
  3
"ASE-LPNTableRecord"
 90
    32769
280
     0
281
     0
  0
CLASS
  1
LAYOUT
  2
AcDbLayout
  3
AutoCAD 2000
 90
        0
280
     0
281
     0
  0
CLASS
  1
PLOTSETTINGS
  2
AcDbPlotSettings
  3
AutoCAD 2000
 90
    32768
280
     0
281
     0
  0
CLASS
  1
ACDBDICTIONARYWDFLT
  2
AcDbDictionaryWithDefault
  3
AutoCAD 2000
 90
        0
280
     0
281
     0
  0
CLASS
  1
ACDBPLACEHOLDER
  2
AcDbPlaceHolder
  3
AutoCAD 2000
 90
        0
280
     0
281
     0
  0
CLASS
  1
VBA_PROJECT
  2
AcDbVbaProject
  3
acadvba
 90
    32768
280
     0
281
     0
  0
CLASS
  1
WIPEOUT
  2
AcDbWipeout
  3
WipeOut|AutoCAD Express Tool|expresstools@autodesk.com
 90
    32895
280
     0
281
     1
  0
CLASS
  1
WIPEOUTVARIABLES
  2
AcDbWipeoutVariables
  3
WipeOut|AutoCAD Express Tool|expresstools@autodesk.com
 90
        0
280
     0
281
     0
  0
CLASS
  1
RTEXT
  2
RText
  3
RText|AutoCAD Express Tool|expresstools@autodesk.com
 90
    32768
280
     0
281
     1
  0
CLASS
  1
ARCALIGNEDTEXT
  2
AcDbArcAlignedText
  3
ATEXT|AutoCAD Express Tool|expresstools@autodesk.com
 90
    32768
280
     0
281
     1
  0
ENDSEC
  0
SECTION
  2
TABLES
  0
TABLE
  2
VPORT
  5
7
100
AcDbSymbolTable
 70
     1
  0
VPORT
  5
15
100
AcDbSymbolTableRecord
100
AcDbViewportTableRecord
  2
*ACTIVE
 70
     0
 10
0.0
 20
0.0
 11
1.0
 21
1.0
 12
6.591288
 22
4.579184
 13
0.0
 23
0.0
 14
1.0
 24
1.0
 15
0.0
 25
0.0
 16
0.0
 26
0.0
 36
1.0
 17
0.0
 27
0.0
 37
0.0
 40
9.158369
 41
0.688564
 42
50.0
 43
0.0
 44
0.0
 50
0.0
 51
0.0
 71
     0
 72
   100
 73
     1
 74
     1
 75
     0
 76
     0
 77
     0
 78
     0
281
     0
 65
     0
110
0.0
120
0.0
130
0.0
111
1.0
121
0.0
131
0.0
112
0.0
122
1.0
132
0.0
345
0
346
0
 79
     0
146
0.0
  0
ENDTAB
  0
TABLE
  2
LTYPE
  5
4
100
AcDbSymbolTable
 70
     3
  0
LTYPE
  5
11
100
AcDbSymbolTableRecord
100
AcDbLinetypeTableRecord
  2
ByBlock
 70
    64
  3

 72
    65
 73
     0
 40
0.0
  0
LTYPE
  5
12
100
AcDbSymbolTableRecord
100
AcDbLinetypeTableRecord
  2
ByLayer
 70
    64
  3

 72
    65
 73
     0
 40
0.0
  0
LTYPE
  5
13
100
AcDbSymbolTableRecord
100
AcDbLinetypeTableRecord
  2
Continuous
 70
    64
  3
Solid line
 72
    65
 73
     0
 40
0.0
  0
ENDTAB
  0
TABLE
  2
LAYER
  5
2
100
AcDbSymbolTable
 70
     2
  0
LAYER
  5
14
100
AcDbSymbolTableRecord
100
AcDbLayerTableRecord
  2
0
 70
     0
 62
     7
  6
Continuous
290
     1
370
    -3
390
1D
  0
LAYER
  5
24
100
AcDbSymbolTableRecord
100
AcDbLayerTableRecord
  2
Ebene 1
 70
     0
 62
     7
  6
Continuous
290
     1
370
    -3
390
1F
  0
ENDTAB
  0
TABLE
  2
STYLE
  5
3
100
AcDbSymbolTable
 70
     1
  0
STYLE
  5
17
100
AcDbSymbolTableRecord
100
AcDbTextStyleTableRecord
  2
Standard
 70
     0
 40
0.0
 41
1.0
 50
0.0
 71
     0
 42
0.0
  3
txt
  4

  0
ENDTAB
  0
TABLE
  2
VIEW
  5
5
100
AcDbSymbolTable
 70
     0
  0
ENDTAB
  0
TABLE
  2
UCS
  5
6
100
AcDbSymbolTable
 70
     0
  0
ENDTAB
  0
TABLE
  2
APPID
  5
8
100
AcDbSymbolTable
 70
     1
  0
APPID
  5
16
100
AcDbSymbolTableRecord
100
AcDbRegAppTableRecord
  2
ACAD
 70
     0
  0
ENDTAB
  0
TABLE
  2
DIMSTYLE
  5
9
100
AcDbSymbolTable
 70
     1
100
AcDbDimStyleTable
 71
     0
  0
DIMSTYLE
105
18
100
AcDbSymbolTableRecord
100
AcDbDimStyleTableRecord
  2
Standard
 70
     0
  3

  4

 40
1.0
 41
0.18
 42
0.0625
 43
0.38
 44
0.18
 45
0.0
 46
0.0
 47
0.0
 48
0.0
 71
     0
 72
     0
 73
     1
 74
     1
 75
     0
 76
     0
 77
     0
 78
     0
 79
     0
140
0.18
141
0.09
142
0.0
143
25.4
144
1.0
145
0.0
146
1.0
147
0.09
148
0.0
170
     0
171
     2
172
     0
173
     0
174
     0
175
     0
176
     0
177
     0
178
     0
179
     0
271
     4
272
     4
273
     2
274
     2
275
     0
276
     0
277
     2
278
    46
279
     0
280
     0
281
     0
282
     0
283
     1
284
     0
285
     0
286
     0
288
     0
340
17
341
0
342
0
343
0
344
0
371
    -2
372
    -2
  0
ENDTAB
  0
TABLE
  2
BLOCK_RECORD
  5
1
100
AcDbSymbolTable
 70
     0
  0
BLOCK_RECORD
  5
A
100
AcDbSymbolTableRecord
100
AcDbBlockTableRecord
  2
*MODEL_SPACE
340
20
  0
BLOCK_RECORD
  5
B
100
AcDbSymbolTableRecord
100
AcDbBlockTableRecord
  2
*PAPER_SPACE
340
21
  0
ENDTAB
  0
ENDSEC
  0
SECTION
  2
BLOCKS
  0
BLOCK
  5
D
100
AcDbEntity
  8
0
100
AcDbBlockBegin
  2
*MODEL_SPACE
 70
     0
 10
0.0
 20
0.0
 30
0.0
  3
*MODEL_SPACE
  1

  0
ENDBLK
  5
E
100
AcDbEntity
  8
0
100
AcDbBlockEnd
  0
BLOCK
  5
F
100
AcDbEntity
 67
     1
  8
0
100
AcDbBlockBegin
  2
*PAPER_SPACE
 70
     0
 10
0.0
 20
0.0
 30
0.0
  3
*PAPER_SPACE
  1

  0
ENDBLK
  5
10
100
AcDbEntity
 67
     1
  8
0
100
AcDbBlockEnd
  0
ENDSEC
  0
SECTION
  2
ENTITIES
  0
SPLINE
  5
25
100
AcDbEntity
  8
Ebene 1
100
AcDbSpline
210
0.0
220
0.0
230
1.0
 70
     1
 71
     3
 72
   128
 73
   124
 74
     0
 42
0.0000000001
 43
0.0000000001
 40
0.0
 40
0.0
 40
0.0
 40
0.0
 40
0.032258064516129
 40
0.032258064516129
 40
0.032258064516129
 40
0.032258064516129
 40
0.0645161290322581
 40
0.0645161290322581
 40
0.0645161290322581
 40
0.0645161290322581
 40
0.0967741935483871
 40
0.0967741935483871
 40
0.0967741935483871
 40
0.0967741935483871
 40
0.1290322580645161
 40
0.1290322580645161
 40
0.1290322580645161
 40
0.1290322580645161
 40
0.1612903225806452
 40
0.1612903225806452
 40
0.1612903225806452
 40
0.1612903225806452
 40
0.1935483870967742
 40
0.1935483870967742
 40
0.1935483870967742
 40
0.1935483870967742
 40
0.2258064516129032
 40
0.2258064516129032
 40
0.2258064516129032
 40
0.2258064516129032
 40
0.2580645161290323
 40
0.2580645161290323
 40
0.2580645161290323
 40
0.2580645161290323
 40
0.2903225806451613
 40
0.2903225806451613
 40
0.2903225806451613
 40
0.2903225806451613
 40
0.3225806451612903
 40
0.3225806451612903
 40
0.3225806451612903
 40
0.3225806451612903
 40
0.3548387096774193
 40
0.3548387096774193
 40
0.3548387096774193
 40
0.3548387096774193
 40
0.3870967741935483
 40
0.3870967741935483
 40
0.3870967741935483
 40
0.3870967741935483
 40
0.4193548387096773
 40
0.4193548387096773
 40
0.4193548387096773
 40
0.4193548387096773
 40
0.4516129032258063
 40
0.4516129032258063
 40
0.4516129032258063
 40
0.4516129032258063
 40
0.4838709677419353
 40
0.4838709677419353
 40
0.4838709677419353
 40
0.4838709677419353
 40
0.5161290322580643
 40
0.5161290322580643
 40
0.5161290322580643
 40
0.5161290322580643
 40
0.5483870967741933
 40
0.5483870967741933
 40
0.5483870967741933
 40
0.5483870967741933
 40
0.5806451612903223
 40
0.5806451612903223
 40
0.5806451612903223
 40
0.5806451612903223
 40
0.6129032258064513
 40
0.6129032258064513
 40
0.6129032258064513
 40
0.6129032258064513
 40
0.6451612903225803
 40
0.6451612903225803
 40
0.6451612903225803
 40
0.6451612903225803
 40
0.6774193548387093
 40
0.6774193548387093
 40
0.6774193548387093
 40
0.6774193548387093
 40
0.7096774193548383
 40
0.7096774193548383
 40
0.7096774193548383
 40
0.7096774193548383
 40
0.7419354838709673
 40
0.7419354838709673
 40
0.7419354838709673
 40
0.7419354838709673
 40
0.7741935483870963
 40
0.7741935483870963
 40
0.7741935483870963
 40
0.7741935483870963
 40
0.8064516129032253
 40
0.8064516129032253
 40
0.8064516129032253
 40
0.8064516129032253
 40
0.8387096774193543
 40
0.8387096774193543
 40
0.8387096774193543
 40
0.8387096774193543
 40
0.8709677419354833
 40
0.8709677419354833
 40
0.8709677419354833
 40
0.8709677419354833
 40
0.9032258064516123
 40
0.9032258064516123
 40
0.9032258064516123
 40
0.9032258064516123
 40
0.9354838709677413
 40
0.9354838709677413
 40
0.9354838709677413
 40
0.9354838709677413
 40
0.9677419354838703
 40
0.9677419354838703
 40
0.9677419354838703
 40
0.9677419354838703
 40
1.0
 40
1.0
 40
1.0
 40
1.0
 10
0.21604
 20
6.4637300000000009
 30
0.0
 10
1.0491600000000001
 20
6.0598700000000001
 30
0.0
 10
1.11012
 20
4.9854500000000002
 30
0.0
 10
1.14822
 20
4.2463100000000003
 30
0.0
 10
1.14822
 20
4.2463100000000003
 30
0.0
 10
1.1761600000000001
 20
3.8576900000000003
 30
0.0
 10
1.0948800000000001
 20
3.3928700000000003
 30
0.0
 10
1.01868
 20
3.0042500000000003
 30
0.0
 10
1.01868
 20
3.0042500000000003
 30
0.0
 10
2.0626200000000003
 20
2.4124300000000001
 30
0.0
 10
2.9744800000000002
 20
3.0042500000000003
 30
0.0
 10
3.6094800000000005
 20
3.9110300000000002
 30
0.0
 10
3.6094800000000005
 20
3.9110300000000002
 30
0.0
 10
4.0006400000000006
 20
4.4850700000000003
 30
0.0
 10
4.0285800000000007
 20
5.2978700000000005
 30
0.0
 10
4.1581200000000003
 20
5.9100100000000007
 30
0.0
 10
4.1581200000000003
 20
5.9100100000000007
 30
0.0
 10
4.8312200000000001
 20
4.2259900000000004
 30
0.0
 10
3.7771200000000005
 20
2.5800700000000001
 30
0.0
 10
3.0303600000000004
 20
1.15259
 30
0.0
 10
3.0303600000000004
 20
1.15259
 30
0.0
 10
3.1878400000000005
 20
0.39567
 30
0.0
 10
3.0303600000000004
 20
-0.37902
 30
0.0
 10
3.3453200000000001
 20
-1.0445
 30
0.0
 10
3.3453200000000001
 20
-1.0445
 30
0.0
 10
3.1548200000000004
 20
-1.6109200000000001
 30
0.0
 10
3.1268800000000003
 20
-2.1621000000000001
 30
0.0
 10
3.30722
 20
-2.7463000000000002
 30
0.0
 10
3.30722
 20
-2.7463000000000002
 30
0.0
 10
2.7154000000000003
 20
-3.4092400000000005
 30
0.0
 10
3.1091000000000002
 20
-4.8976800000000003
 30
0.0
 10
2.8449400000000002
 20
-5.7257200000000008
 30
0.0
 10
2.8449400000000002
 20
-5.7257200000000008
 30
0.0
 10
2.8449400000000002
 20
-5.7257200000000008
 30
0.0
 10
2.7890600000000001
 20
-5.8197000000000001
 30
0.0
 10
2.7890600000000001
 20
-5.8197000000000001
 30
0.0
 10
2.7890600000000001
 20
-5.8197000000000001
 30
0.0
 10
2.5960200000000002
 20
-5.4691800000000006
 30
0.0
 10
2.6061800000000002
 20
-6.1956200000000008
 30
0.0
 10
2.4537800000000001
 20
-6.3683400000000008
 30
0.0
 10
2.4537800000000001
 20
-6.3683400000000008
 30
0.0
 10
2.3496400000000004
 20
-6.3531000000000004
 30
0.0
 10
2.38774
 20
-6.1651400000000001
 30
0.0
 10
2.34456
 20
-6.0787800000000001
 30
0.0
 10
2.34456
 20
-6.0787800000000001
 30
0.0
 10
2.2074000000000003
 20
-5.6342800000000004
 30
0.0
 10
2.0550000000000002
 20
-6.7645800000000005
 30
0.0
 10
1.9711800000000002
 20
-6.3962800000000009
 30
0.0
 10
1.9711800000000002
 20
-6.3962800000000009
 30
0.0
 10
1.9711800000000002
 20
-6.3962800000000009
 30
0.0
 10
1.9203800000000002
 20
-6.2261000000000006
 30
0.0
 10
1.9203800000000002
 20
-6.2261000000000006
 30
0.0
 10
1.9203800000000002
 20
-6.2261000000000006
 30
0.0
 10
1.8848200000000002
 20
-6.1168800000000001
 30
0.0
 10
1.8543400000000001
 20
-5.9873400000000006
 30
0.0
 10
1.7883000000000002
 20
-5.8933600000000004
 30
0.0
 10
1.7883000000000002
 20
-5.8933600000000004
 30
0.0
 10
1.6460600000000001
 20
-6.0533800000000006
 30
0.0
 10
1.6638400000000002
 20
-6.2718200000000008
 30
0.0
 10
1.6384400000000001
 20
-6.462320000000001
 30
0.0
 10
1.6384400000000001
 20
-6.462320000000001
 30
0.0
 10
1.40476
 20
-6.3861200000000009
 30
0.0
 10
1.3895200000000001
 20
-6.0381400000000003
 30
0.0
 10
1.3463400000000001
 20
-5.8197000000000001
 30
0.0
 10
1.3463400000000001
 20
-5.8197000000000001
 30
0.0
 10
1.1990200000000002
 20
-5.8476400000000002
 30
0.0
 10
1.2650600000000001
 20
-6.1956200000000008
 30
0.0
 10
1.1406000000000001
 20
-6.2819800000000008
 30
0.0
 10
1.1406000000000001
 20
-6.2819800000000008
 30
0.0
 10
0.9043800000000001
 20
-5.9949600000000007
 30
0.0
 10
0.9475600000000001
 20
-5.4742600000000001
 30
0.0
 10
0.7545200000000001
 20
-6.0787800000000001
 30
0.0
 10
0.7545200000000001
 20
-6.0787800000000001
 30
0.0
 10
0.5894200000000001
 20
-5.8349400000000005
 30
0.0
 10
0.6249800000000001
 20
-5.4818800000000003
 30
0.0
 10
0.5640200000000001
 20
-5.1948600000000003
 30
0.0
 10
0.5640200000000001
 20
-5.1948600000000003
 30
0.0
 10
0.36082
 20
-5.2736000000000001
 30
0.0
 10
0.39384
 20
-5.5987200000000001
 30
0.0
 10
0.25414
 20
-5.7460400000000007
 30
0.0
 10
0.25414
 20
-5.7460400000000007
 30
0.0
 10
0.10428
 20
-5.4996600000000004
 30
0.0
 10
0.22366
 20
-5.1542200000000005
 30
0.0
 10
0.23636
 20
-4.8748200000000006
 30
0.0
 10
0.23636
 20
-4.8748200000000006
 30
0.0
 10
0.15508
 20
-4.8367200000000006
 30
0.0
 10
0.06618
 20
-5.1364400000000003
 30
0.0
 10
-0.02271
 20
-5.1923200000000005
 30
0.0
 10
-0.02271
 20
-5.1923200000000005
 30
0.0
 10
-0.08621
 20
-4.6792400000000001
 30
0.0
 10
0.22112
 20
-4.1712400000000001
 30
0.0
 10
0.40146
 20
-3.6911800000000001
 30
0.0
 10
0.40146
 20
-3.6911800000000001
 30
0.0
 10
0.3989200000000001
 20
-3.5387800000000005
 30
0.0
 10
0.22112
 20
-3.4371800000000001
 30
0.0
 10
0.08904
 20
-3.4143200000000005
 30
0.0
 10
0.08904
 20
-3.4143200000000005
 30
0.0
 10
0.08904
 20
-3.4143200000000005
 30
0.0
 10
-0.8913900000000001
 20
-3.5260800000000003
 30
0.0
 10
-0.8913900000000001
 20
-3.5260800000000003
 30
0.0
 10
-0.8913900000000001
 20
-3.5260800000000003
 30
0.0
 10
-1.8819900000000001
 20
-4.0925000000000002
 30
0.0
 10
-3.0961100000000004
 20
-3.5895800000000002
 30
0.0
 10
-3.8149300000000004
 20
-2.7666200000000001
 30
0.0
 10
-3.8149300000000004
 20
-2.7666200000000001
 30
0.0
 10
-3.8149300000000004
 20
-2.7666200000000001
 30
0.0
 10
-3.7031700000000005
 20
-2.2484600000000001
 30
0.0
 10
-3.7031700000000005
 20
-2.2484600000000001
 30
0.0
 10
-3.7031700000000005
 20
-2.2484600000000001
 30
0.0
 10
-3.7031700000000005
 20
-2.2484600000000001
 30
0.0
 10
-3.8200100000000003
 20
-1.9182600000000001
 30
0.0
 10
-3.8200100000000003
 20
-1.9182600000000001
 30
0.0
 10
-3.8200100000000003
 20
-1.9182600000000001
 30
0.0
 10
-5.3998900000000001
 20
0.32201
 30
0.0
 10
-3.3348700000000004
 20
3.5224100000000003
 30
0.0
 10
-0.6678700000000001
 20
3.1718900000000003
 30
0.0
 10
-0.6678700000000001
 20
3.1718900000000003
 30
0.0
 10
-0.43165
 20
3.1515700000000004
 30
0.0
 10
-0.29449
 20
3.3369900000000001
 30
0.0
 10
-0.15479
 20
3.5046300000000001
 30
0.0
 10
-0.15479
 20
3.5046300000000001
 30
0.0
 10
0.5411600000000001
 20
4.3555300000000008
 30
0.0
 10
0.68086
 20
5.4832900000000002
 30
0.0
 10
0.21604
 20
6.4637300000000009
 30
0.0
  0
SPLINE
  5
26
100
AcDbEntity
  8
Ebene 1
 62
     7
100
AcDbSpline
210
0.0
220
0.0
230
1.0
 70
     1
 71
     3
 72
   272
 73
   268
 74
     0
 42
0.0000000001
 43
0.0000000001
 40
0.0
 40
0.0
 40
0.0
 40
0.0
 40
0.0149253731343284
 40
0.0149253731343284
 40
0.0149253731343284
 40
0.0149253731343284
 40
0.0298507462686567
 40
0.0298507462686567
 40
0.0298507462686567
 40
0.0298507462686567
 40
0.0447761194029851
 40
0.0447761194029851
 40
0.0447761194029851
 40
0.0447761194029851
 40
0.0597014925373134
 40
0.0597014925373134
 40
0.0597014925373134
 40
0.0597014925373134
 40
0.0746268656716418
 40
0.0746268656716418
 40
0.0746268656716418
 40
0.0746268656716418
 40
0.0895522388059701
 40
0.0895522388059701
 40
0.0895522388059701
 40
0.0895522388059701
 40
0.1044776119402985
 40
0.1044776119402985
 40
0.1044776119402985
 40
0.1044776119402985
 40
0.1194029850746269
 40
0.1194029850746269
 40
0.1194029850746269
 40
0.1194029850746269
 40
0.1343283582089552
 40
0.1343283582089552
 40
0.1343283582089552
 40
0.1343283582089552
 40
0.1492537313432836
 40
0.1492537313432836
 40
0.1492537313432836
 40
0.1492537313432836
 40
0.1641791044776119
 40
0.1641791044776119
 40
0.1641791044776119
 40
0.1641791044776119
 40
0.1791044776119403
 40
0.1791044776119403
 40
0.1791044776119403
 40
0.1791044776119403
 40
0.1940298507462686
 40
0.1940298507462686
 40
0.1940298507462686
 40
0.1940298507462686
 40
0.208955223880597
 40
0.208955223880597
 40
0.208955223880597
 40
0.208955223880597
 40
0.2238805970149253
 40
0.2238805970149253
 40
0.2238805970149253
 40
0.2238805970149253
 40
0.2388059701492536
 40
0.2388059701492536
 40
0.2388059701492536
 40
0.2388059701492536
 40
0.253731343283582
 40
0.253731343283582
 40
0.253731343283582
 40
0.253731343283582
 40
0.2686567164179103
 40
0.2686567164179103
 40
0.2686567164179103
 40
0.2686567164179103
 40
0.2835820895522387
 40
0.2835820895522387
 40
0.2835820895522387
 40
0.2835820895522387
 40
0.298507462686567
 40
0.298507462686567
 40
0.298507462686567
 40
0.298507462686567
 40
0.3134328358208954
 40
0.3134328358208954
 40
0.3134328358208954
 40
0.3134328358208954
 40
0.3283582089552237
 40
0.3283582089552237
 40
0.3283582089552237
 40
0.3283582089552237
 40
0.3432835820895521
 40
0.3432835820895521
 40
0.3432835820895521
 40
0.3432835820895521
 40
0.3582089552238804
 40
0.3582089552238804
 40
0.3582089552238804
 40
0.3582089552238804
 40
0.3731343283582088
 40
0.3731343283582088
 40
0.3731343283582088
 40
0.3731343283582088
 40
0.3880597014925371
 40
0.3880597014925371
 40
0.3880597014925371
 40
0.3880597014925371
 40
0.4029850746268655
 40
0.4029850746268655
 40
0.4029850746268655
 40
0.4029850746268655
 40
0.4179104477611938
 40
0.4179104477611938
 40
0.4179104477611938
 40
0.4179104477611938
 40
0.4328358208955221
 40
0.4328358208955221
 40
0.4328358208955221
 40
0.4328358208955221
 40
0.4477611940298505
 40
0.4477611940298505
 40
0.4477611940298505
 40
0.4477611940298505
 40
0.4626865671641788
 40
0.4626865671641788
 40
0.4626865671641788
 40
0.4626865671641788
 40
0.4776119402985072
 40
0.4776119402985072
 40
0.4776119402985072
 40
0.4776119402985072
 40
0.4925373134328355
 40
0.4925373134328355
 40
0.4925373134328355
 40
0.4925373134328355
 40
0.5074626865671639
 40
0.5074626865671639
 40
0.5074626865671639
 40
0.5074626865671639
 40
0.5223880597014923
 40
0.5223880597014923
 40
0.5223880597014923
 40
0.5223880597014923
 40
0.5373134328358207
 40
0.5373134328358207
 40
0.5373134328358207
 40
0.5373134328358207
 40
0.5522388059701491
 40
0.5522388059701491
 40
0.5522388059701491
 40
0.5522388059701491
 40
0.5671641791044775
 40
0.5671641791044775
 40
0.5671641791044775
 40
0.5671641791044775
 40
0.5820895522388059
 40
0.5820895522388059
 40
0.5820895522388059
 40
0.5820895522388059
 40
0.5970149253731343
 40
0.5970149253731343
 40
0.5970149253731343
 40
0.5970149253731343
 40
0.6119402985074627
 40
0.6119402985074627
 40
0.6119402985074627
 40
0.6119402985074627
 40
0.6268656716417911
 40
0.6268656716417911
 40
0.6268656716417911
 40
0.6268656716417911
 40
0.6417910447761195
 40
0.6417910447761195
 40
0.6417910447761195
 40
0.6417910447761195
 40
0.6567164179104479
 40
0.6567164179104479
 40
0.6567164179104479
 40
0.6567164179104479
 40
0.6716417910447763
 40
0.6716417910447763
 40
0.6716417910447763
 40
0.6716417910447763
 40
0.6865671641791047
 40
0.6865671641791047
 40
0.6865671641791047
 40
0.6865671641791047
 40
0.7014925373134331
 40
0.7014925373134331
 40
0.7014925373134331
 40
0.7014925373134331
 40
0.7164179104477615
 40
0.7164179104477615
 40
0.7164179104477615
 40
0.7164179104477615
 40
0.7313432835820899
 40
0.7313432835820899
 40
0.7313432835820899
 40
0.7313432835820899
 40
0.7462686567164183
 40
0.7462686567164183
 40
0.7462686567164183
 40
0.7462686567164183
 40
0.7611940298507467
 40
0.7611940298507467
 40
0.7611940298507467
 40
0.7611940298507467
 40
0.7761194029850751
 40
0.7761194029850751
 40
0.7761194029850751
 40
0.7761194029850751
 40
0.7910447761194035
 40
0.7910447761194035
 40
0.7910447761194035
 40
0.7910447761194035
 40
0.8059701492537319
 40
0.8059701492537319
 40
0.8059701492537319
 40
0.8059701492537319
 40
0.8208955223880603
 40
0.8208955223880603
 40
0.8208955223880603
 40
0.8208955223880603
 40
0.8358208955223887
 40
0.8358208955223887
 40
0.8358208955223887
 40
0.8358208955223887
 40
0.8507462686567171
 40
0.8507462686567171
 40
0.8507462686567171
 40
0.8507462686567171
 40
0.8656716417910455
 40
0.8656716417910455
 40
0.8656716417910455
 40
0.8656716417910455
 40
0.8805970149253739
 40
0.8805970149253739
 40
0.8805970149253739
 40
0.8805970149253739
 40
0.8955223880597023
 40
0.8955223880597023
 40
0.8955223880597023
 40
0.8955223880597023
 40
0.9104477611940307
 40
0.9104477611940307
 40
0.9104477611940307
 40
0.9104477611940307
 40
0.9253731343283591
 40
0.9253731343283591
 40
0.9253731343283591
 40
0.9253731343283591
 40
0.9402985074626875
 40
0.9402985074626875
 40
0.9402985074626875
 40
0.9402985074626875
 40
0.9552238805970159
 40
0.9552238805970159
 40
0.9552238805970159
 40
0.9552238805970159
 40
0.9701492537313443
 40
0.9701492537313443
 40
0.9701492537313443
 40
0.9701492537313443
 40
0.9850746268656727
 40
0.9850746268656727
 40
0.9850746268656727
 40
0.9850746268656727
 40
1.0
 40
1.0
 40
1.0
 40
1.0
 10
1.4936600000000002
 20
-4.8646600000000007
 30
0.0
 10
1.52668
 20
-4.7935400000000001
 30
0.0
 10
1.52668
 20
-4.3719000000000001
 30
0.0
 10
1.4631800000000001
 20
-4.5827200000000001
 30
0.0
 10
1.4631800000000001
 20
-4.5827200000000001
 30
0.0
 10
1.4631800000000001
 20
-4.5827200000000001
 30
0.0
 10
1.4276200000000001
 20
-4.8646600000000007
 30
0.0
 10
1.4276200000000001
 20
-4.8646600000000007
 30
0.0
 10
1.4276200000000001
 20
-4.8646600000000007
 30
0.0
 10
1.3742800000000002
 20
-4.9561000000000002
 30
0.0
 10
1.4301600000000001
 20
-5.3879000000000001
 30
0.0
 10
1.3311000000000002
 20
-5.2786800000000005
 30
0.0
 10
1.3311000000000002
 20
-5.2786800000000005
 30
0.0
 10
1.3006200000000001
 20
-5.2075600000000009
 30
0.0
 10
1.2117200000000001
 20
-5.0272200000000007
 30
0.0
 10
1.1736200000000001
 20
-5.1186600000000002
 30
0.0
 10
1.1736200000000001
 20
-5.1186600000000002
 30
0.0
 10
0.8942200000000001
 20
-5.5733200000000007
 30
0.0
 10
1.1558400000000002
 20
-3.9324800000000004
 30
0.0
 10
0.9831200000000001
 20
-4.6055800000000007
 30
0.0
 10
0.9831200000000001
 20
-4.6055800000000007
 30
0.0
 10
0.9831200000000001
 20
-4.6055800000000007
 30
0.0
 10
0.9653400000000001
 20
-4.8265600000000006
 30
0.0
 10
0.9653400000000001
 20
-4.8265600000000006
 30
0.0
 10
0.9653400000000001
 20
-4.8265600000000006
 30
0.0
 10
0.9805800000000001
 20
-5.4844200000000001
 30
0.0
 10
0.9424800000000001
 20
-4.7325800000000005
 30
0.0
 10
0.74182
 20
-4.6589200000000002
 30
0.0
 10
0.74182
 20
-4.6589200000000002
 30
0.0
 10
0.8129400000000001
 20
-4.2982400000000007
 30
0.0
 10
0.8840600000000001
 20
-3.9274000000000004
 30
0.0
 10
0.7723000000000001
 20
-3.5616400000000001
 30
0.0
 10
0.7723000000000001
 20
-3.5616400000000001
 30
0.0
 10
0.7316600000000001
 20
-2.9672800000000001
 30
0.0
 10
1.4987400000000002
 20
-3.5133800000000002
 30
0.0
 10
1.31332
 20
-3.9070800000000001
 30
0.0
 10
1.31332
 20
-3.9070800000000001
 30
0.0
 10
1.3844400000000001
 20
-3.8816800000000002
 30
0.0
 10
1.3742800000000002
 20
-3.8435800000000002
 30
0.0
 10
1.4225400000000001
 20
-3.7191200000000002
 30
0.0
 10
1.4225400000000001
 20
-3.7191200000000002
 30
0.0
 10
1.4708000000000001
 20
-2.7310600000000003
 30
0.0
 10
0.3684400000000001
 20
-3.2466800000000005
 30
0.0
 10
-0.14971
 20
-3.3584400000000003
 30
0.0
 10
-0.14971
 20
-3.3584400000000003
 30
0.0
 10
-0.7694700000000001
 20
-3.3609800000000001
 30
0.0
 10
-1.3485900000000002
 20
-2.64724
 30
0.0
 10
-1.0209300000000001
 20
-2.10114
 30
0.0
 10
-1.0209300000000001
 20
-2.10114
 30
0.0
 10
-1.4959100000000001
 20
-2.6243800000000004
 30
0.0
 10
-2.1867900000000002
 20
-3.2771600000000003
 30
0.0
 10
-2.90307
 20
-2.9749000000000003
 30
0.0
 10
-2.90307
 20
-2.9749000000000003
 30
0.0
 10
-2.4585700000000004
 20
-3.4219400000000002
 30
0.0
 10
-1.8337300000000001
 20
-2.9749000000000003
 30
0.0
 10
-1.3485900000000002
 20
-2.8910800000000001
 30
0.0
 10
-1.3485900000000002
 20
-2.8910800000000001
 30
0.0
 10
-1.29271
 20
-2.8936200000000003
 30
0.0
 10
-1.2342900000000001
 20
-2.9241000000000001
 30
0.0
 10
-1.20635
 20
-2.9698200000000003
 30
0.0
 10
-1.20635
 20
-2.9698200000000003
 30
0.0
 10
-1.8870700000000002
 20
-4.1585400000000003
 30
0.0
 10
-4.0333700000000006
 20
-3.2136600000000004
 30
0.0
 10
-3.3374100000000002
 20
-1.9004800000000002
 30
0.0
 10
-3.3374100000000002
 20
-1.9004800000000002
 30
0.0
 10
-3.6625300000000003
 20
-1.6236200000000001
 30
0.0
 10
-3.7920700000000003
 20
-1.1842000000000001
 30
0.0
 10
-3.7412700000000001
 20
-0.7676400000000001
 30
0.0
 10
-3.7412700000000001
 20
-0.7676400000000001
 30
0.0
 10
-3.4136100000000003
 20
0.5074300000000001
 30
0.0
 10
-2.01153
 20
-0.0285
 30
0.0
 10
-1.3155700000000001
 20
-0.4349
 30
0.0
 10
-1.3155700000000001
 20
-0.4349
 30
0.0
 10
-2.0572500000000002
 20
0.43377
 30
0.0
 10
-3.6091900000000003
 20
0.43377
 30
0.0
 10
-3.9774900000000004
 20
-0.76256
 30
0.0
 10
-3.9774900000000004
 20
-0.76256
 30
0.0
 10
-4.9452300000000005
 20
1.2110100000000001
 30
0.0
 10
-2.7684500000000001
 20
3.2074500000000001
 30
0.0
 10
-0.8939300000000001
 20
2.93059
 30
0.0
 10
-0.8939300000000001
 20
2.93059
 30
0.0
 10
-1.0310900000000001
 20
2.7654900000000002
 30
0.0
 10
-1.37907
 20
2.50387
 30
0.0
 10
-1.0209300000000001
 20
2.5978500000000002
 30
0.0
 10
-1.0209300000000001
 20
2.5978500000000002
 30
0.0
 10
-1.1072900000000001
 20
2.3946500000000004
 30
0.0
 10
-1.16571
 20
2.0619100000000001
 30
0.0
 10
-1.00569
 20
1.8942700000000001
 30
0.0
 10
-1.00569
 20
1.8942700000000001
 30
0.0
 10
-1.20381
 20
2.3184500000000003
 30
0.0
 10
-0.4494300000000001
 20
3.4487500000000004
 30
0.0
 10
-0.5586500000000001
 20
2.5419700000000001
 30
0.0
 10
-0.5586500000000001
 20
2.5419700000000001
 30
0.0
 10
-0.47737
 20
2.3184500000000003
 30
0.0
 10
-0.26147
 20
3.5401900000000004
 30
0.0
 10
-0.18781
 20
3.0779100000000001
 30
0.0
 10
-0.18781
 20
3.0779100000000001
 30
0.0
 10
-0.15733
 20
2.9509100000000004
 30
0.0
 10
-0.3021100000000001
 20
2.7273900000000002
 30
0.0
 10
-0.19289
 20
2.6715100000000001
 30
0.0
 10
-0.19289
 20
2.6715100000000001
 30
0.0
 10
-0.07605
 20
3.1718900000000003
 30
0.0
 10
-0.00493
 20
3.7256100000000001
 30
0.0
 10
0.38368
 20
4.0964499999999999
 30
0.0
 10
0.38368
 20
4.0964499999999999
 30
0.0
 10
0.43702
 20
3.9313500000000001
 30
0.0
 10
0.3557400000000001
 20
3.7459300000000004
 30
0.0
 10
0.40654
 20
3.5605100000000003
 30
0.0
 10
0.40654
 20
3.5605100000000003
 30
0.0
 10
0.5259200000000001
 20
3.8932500000000001
 30
0.0
 10
0.44718
 20
4.2996500000000006
 30
0.0
 10
0.5691000000000001
 20
4.63239
 30
0.0
 10
0.5691000000000001
 20
4.63239
 30
0.0
 10
0.5691000000000001
 20
4.63239
 30
0.0
 10
0.6199
 20
4.4850700000000003
 30
0.0
 10
0.6199
 20
4.4850700000000003
 30
0.0
 10
0.6199
 20
4.4850700000000003
 30
0.0
 10
0.7215
 20
4.9473500000000001
 30
0.0
 10
0.5868800000000001
 20
5.4477300000000008
 30
0.0
 10
0.5868800000000001
 20
5.8922300000000005
 30
0.0
 10
0.5868800000000001
 20
5.8922300000000005
 30
0.0
 10
0.8358000000000001
 20
5.7068100000000008
 30
0.0
 10
0.88914
 20
5.3918500000000007
 30
0.0
 10
0.9755
 20
5.1149900000000006
 30
0.0
 10
0.9755
 20
5.1149900000000006
 30
0.0
 10
1.0263
 20
4.4850700000000003
 30
0.0
 10
0.8789800000000001
 20
3.8754700000000004
 30
0.0
 10
0.7342000000000001
 20
3.2836500000000002
 30
0.0
 10
0.7342000000000001
 20
3.2836500000000002
 30
0.0
 10
0.9221600000000001
 20
3.3192100000000004
 30
0.0
 10
0.8586600000000001
 20
3.8754700000000004
 30
0.0
 10
1.0136000000000001
 20
4.0786700000000007
 30
0.0
 10
1.0136000000000001
 20
4.0786700000000007
 30
0.0
 10
1.1355200000000001
 20
3.0220300000000004
 30
0.0
 10
0.53608
 20
2.0796900000000003
 30
0.0
 10
0.16524
 20
1.15259
 30
0.0
 10
0.16524
 20
1.15259
 30
0.0
 10
0.32272
 20
1.23133
 30
0.0
 10
0.44718
 20
1.4396100000000001
 30
0.0
 10
0.59196
 20
1.52851
 30
0.0
 10
0.59196
 20
1.52851
 30
0.0
 10
0.6046600000000001
 20
1.5361300000000002
 30
0.0
 10
1.2853800000000002
 20
1.1627500000000002
 30
0.0
 10
0.93486
 20
1.4675500000000001
 30
0.0
 10
0.93486
 20
1.4675500000000001
 30
0.0
 10
0.51576
 20
1.7647300000000001
 30
0.0
 10
0.8764400000000001
 20
2.2828900000000001
 30
0.0
 10
0.9247000000000001
 20
2.6892900000000002
 30
0.0
 10
0.9247000000000001
 20
2.6892900000000002
 30
0.0
 10
1.4733400000000001
 20
2.8391500000000001
 30
0.0
 10
1.9838800000000001
 20
2.50387
 30
0.0
 10
2.41568
 20
2.2828900000000001
 30
0.0
 10
2.41568
 20
2.2828900000000001
 30
0.0
 10
2.3293200000000001
 20
2.3768700000000003
 30
0.0
 10
2.1870800000000004
 20
2.4860900000000004
 30
0.0
 10
2.2023200000000003
 20
2.5978500000000002
 30
0.0
 10
2.2023200000000003
 20
2.5978500000000002
 30
0.0
 10
2.2023200000000003
 20
2.5978500000000002
 30
0.0
 10
2.4004400000000001
 20
2.6537300000000004
 30
0.0
 10
2.4004400000000001
 20
2.6537300000000004
 30
0.0
 10
2.4004400000000001
 20
2.6537300000000004
 30
0.0
 10
2.5325200000000003
 20
2.2270100000000004
 30
0.0
 10
2.8551000000000002
 20
2.1177900000000003
 30
0.0
 10
3.13958
 20
2.6156300000000003
 30
0.0
 10
3.13958
 20
2.6156300000000003
 30
0.0
 10
3.1268800000000003
 20
2.6537300000000004
 30
0.0
 10
3.05322
 20
2.63341
 30
0.0
 10
3.0354400000000004
 20
2.6156300000000003
 30
0.0
 10
3.0354400000000004
 20
2.6156300000000003
 30
0.0
 10
2.1312000000000002
 20
2.0619100000000001
 30
0.0
 10
2.9516200000000001
 20
3.1160100000000002
 30
0.0
 10
3.2843600000000004
 20
3.3928700000000003
 30
0.0
 10
3.2843600000000004
 20
3.3928700000000003
 30
0.0
 10
3.2843600000000004
 20
3.3928700000000003
 30
0.0
 10
3.4545400000000002
 20
3.5782900000000004
 30
0.0
 10
3.4545400000000002
 20
3.5782900000000004
 30
0.0
 10
3.4545400000000002
 20
3.5782900000000004
 30
0.0
 10
3.6374200000000001
 20
3.7637100000000001
 30
0.0
 10
3.2894400000000004
 20
2.9509100000000004
 30
0.0
 10
3.5434400000000004
 20
3.3014300000000003
 30
0.0
 10
3.5434400000000004
 20
3.3014300000000003
 30
0.0
 10
3.5434400000000004
 20
3.3014300000000003
 30
0.0
 10
4.2292400000000008
 20
5.1708700000000007
 30
0.0
 10
4.2292400000000008
 20
5.1708700000000007
 30
0.0
 10
4.2292400000000008
 20
5.1708700000000007
 30
0.0
 10
4.4426000000000005
 20
4.2259900000000004
 30
0.0
 10
3.9574600000000002
 20
3.3750900000000001
 30
0.0
 10
3.4240600000000003
 20
2.6537300000000004
 30
0.0
 10
3.4240600000000003
 20
2.6537300000000004
 30
0.0
 10
3.4189800000000004
 20
2.4327500000000004
 30
0.0
 10
3.6526600000000005
 20
2.8747100000000003
 30
0.0
 10
3.7491800000000004
 20
2.9509100000000004
 30
0.0
 10
3.7491800000000004
 20
2.9509100000000004
 30
0.0
 10
3.7187000000000001
 20
2.5241900000000004
 30
0.0
 10
3.5002600000000004
 20
2.1177900000000003
 30
0.0
 10
3.1726000000000001
 20
1.8002900000000002
 30
0.0
 10
3.1726000000000001
 20
1.8002900000000002
 30
0.0
 10
3.4672400000000003
 20
2.3946500000000004
 30
0.0
 10
2.8500200000000002
 20
1.8383900000000002
 30
0.0
 10
2.8830400000000003
 20
1.5056500000000002
 30
0.0
 10
2.8830400000000003
 20
1.5056500000000002
 30
0.0
 10
2.7585800000000003
 20
1.9704700000000002
 30
0.0
 10
2.7357200000000002
 20
1.7571100000000002
 30
0.0
 10
2.5477600000000002
 20
1.8561700000000001
 30
0.0
 10
2.5477600000000002
 20
1.8561700000000001
 30
0.0
 10
3.0176600000000002
 20
1.15259
 30
0.0
 10
3.1675200000000001
 20
0.21025
 30
0.0
 10
2.9541600000000003
 20
-0.65588
 30
0.0
 10
2.9541600000000003
 20
-0.65588
 30
0.0
 10
3.5967800000000003
 20
-1.03942
 30
0.0
 10
2.92876
 20
-1.3848600000000002
 30
0.0
 10
2.7535000000000003
 20
-1.8217400000000001
 30
0.0
 10
2.7535000000000003
 20
-1.8217400000000001
 30
0.0
 10
3.1141800000000002
 20
-1.8573000000000002
 30
0.0
 10
3.3402400000000001
 20
-2.6218400000000002
 30
0.0
 10
3.0354400000000004
 20
-2.9088600000000002
 30
0.0
 10
3.0354400000000004
 20
-2.9088600000000002
 30
0.0
 10
3.0354400000000004
 20
-2.9088600000000002
 30
0.0
 10
3.0862400000000001
 20
-2.5812000000000004
 30
0.0
 10
3.0862400000000001
 20
-2.5812000000000004
 30
0.0
 10
3.0862400000000001
 20
-2.5812000000000004
 30
0.0
 10
3.0964
 20
-2.5151600000000003
 30
0.0
 10
3.0354400000000004
 20
-2.2865600000000001
 30
0.0
 10
2.9744800000000002
 20
-2.3957800000000002
 30
0.0
 10
2.9744800000000002
 20
-2.3957800000000002
 30
0.0
 10
2.8982800000000002
 20
-3.2390600000000003
 30
0.0
 10
2.8017600000000003
 20
-4.1255200000000007
 30
0.0
 10
2.8271600000000001
 20
-5.02468
 30
0.0
 10
2.8271600000000001
 20
-5.02468
 30
0.0
 10
2.8271600000000001
 20
-5.02468
 30
0.0
 10
2.6544400000000001
 20
-5.3320200000000009
 30
0.0
 10
2.6544400000000001
 20
-5.3320200000000009
 30
0.0
 10
2.6544400000000001
 20
-5.3320200000000009
 30
0.0
 10
2.6112600000000001
 20
-5.2050200000000002
 30
0.0
 10
2.7027000000000001
 20
-4.5344600000000002
 30
0.0
 10
2.6417400000000004
 20
-4.6716200000000008
 30
0.0
 10
2.6417400000000004
 20
-4.6716200000000008
 30
0.0
 10
2.4995000000000003
 20
-4.6309800000000001
 30
0.0
 10
2.6265000000000001
 20
-5.2075600000000009
 30
0.0
 10
2.3598000000000003
 20
-5.3955200000000003
 30
0.0
 10
2.3598000000000003
 20
-5.3955200000000003
 30
0.0
 10
2.3293200000000001
 20
-5.0754800000000007
 30
0.0
 10
2.46902
 20
-4.3642799999999999
 30
0.0
 10
2.3166200000000003
 20
-4.4481000000000002
 30
0.0
 10
2.3166200000000003
 20
-4.4481000000000002
 30
0.0
 10
2.3166200000000003
 20
-4.4481000000000002
 30
0.0
 10
2.2709000000000001
 20
-5.28376
 30
0.0
 10
2.2709000000000001
 20
-5.28376
 30
0.0
 10
2.2709000000000001
 20
-5.28376
 30
0.0
 10
2.2683600000000004
 20
-5.3040800000000008
 30
0.0
 10
2.2785200000000003
 20
-5.3294800000000002
 30
0.0
 10
2.2582
 20
-5.3421800000000008
 30
0.0
 10
2.2582
 20
-5.3421800000000008
 30
0.0
 10
2.2582
 20
-5.3421800000000008
 30
0.0
 10
2.24804
 20
-5.4641000000000002
 30
0.0
 10
2.24804
 20
-5.4641000000000002
 30
0.0
 10
2.24804
 20
-5.4641000000000002
 30
0.0
 10
2.1185
 20
-5.0119800000000003
 30
0.0
 10
1.9076800000000003
 20
-5.6520600000000005
 30
0.0
 10
1.8873600000000001
 20
-5.0551600000000008
 30
0.0
 10
1.8873600000000001
 20
-5.0551600000000008
 30
0.0
 10
1.8162400000000001
 20
-5.0450000000000008
 30
0.0
 10
1.7933800000000002
 20
-5.7612800000000002
 30
0.0
 10
1.7121000000000002
 20
-5.2202600000000006
 30
0.0
 10
1.7121000000000002
 20
-5.2202600000000006
 30
0.0
 10
1.5165200000000001
 20
-5.3802800000000008
 30
0.0
 10
1.5063600000000001
 20
-5.2278800000000007
 30
0.0
 10
1.4936600000000002
 20
-4.8646600000000007
 30
0.0
  0
SPLINE
  5
27
100
AcDbEntity
  8
Ebene 1
100
AcDbSpline
210
0.0
220
0.0
230
1.0
 70
     1
 71
     3
 72
    28
 73
    24
 74
     0
 42
0.0000000001
 43
0.0000000001
 40
0.0
 40
0.0
 40
0.0
 40
0.0
 40
0.1666666666666667
 40
0.1666666666666667
 40
0.1666666666666667
 40
0.1666666666666667
 40
0.3333333333333333
 40
0.3333333333333333
 40
0.3333333333333333
 40
0.3333333333333333
 40
0.5
 40
0.5
 40
0.5
 40
0.5
 40
0.6666666666666666
 40
0.6666666666666666
 40
0.6666666666666666
 40
0.6666666666666666
 40
0.8333333333333333
 40
0.8333333333333333
 40
0.8333333333333333
 40
0.8333333333333333
 40
1.0
 40
1.0
 40
1.0
 40
1.0
 10
0.3455800000000001
 20
2.5597500000000002
 30
0.0
 10
0.36336
 20
2.5597500000000002
 30
0.0
 10
0.3989200000000001
 20
2.5800700000000001
 30
0.0
 10
0.40146
 20
2.5419700000000001
 30
0.0
 10
0.40146
 20
2.5419700000000001
 30
0.0
 10
0.27192
 20
2.1914500000000001
 30
0.0
 10
-0.03287
 20
1.9120500000000002
 30
0.0
 10
-0.16495
 20
1.5437500000000002
 30
0.0
 10
-0.16495
 20
1.5437500000000002
 30
0.0
 10
-0.13193
 20
1.3938900000000001
 30
0.0
 10
0.0484
 20
1.5996300000000001
 30
0.0
 10
0.1246
 20
1.5234300000000001
 30
0.0
 10
0.1246
 20
1.5234300000000001
 30
0.0
 10
0.1246
 20
1.5234300000000001
 30
0.0
 10
-0.40879
 20
1.1348100000000001
 30
0.0
 10
-0.40879
 20
1.1348100000000001
 30
0.0
 10
-0.40879
 20
1.1348100000000001
 30
0.0
 10
-0.40879
 20
1.1348100000000001
 30
0.0
 10
-0.5154700000000001
 20
1.19069
 30
0.0
 10
-0.5154700000000001
 20
1.19069
 30
0.0
 10
-0.5154700000000001
 20
1.19069
 30
0.0
 10
-0.44181
 20
1.7469500000000002
 30
0.0
 10
0.08904
 20
2.0974700000000004
 30
0.0
 10
0.3455800000000001
 20
2.5597500000000002
 30
0.0
  0
SPLINE
  5
28
100
AcDbEntity
  8
Ebene 1
100
AcDbSpline
210
0.0
220
0.0
230
1.0
 70
     1
 71
     3
 72
    16
 73
    12
 74
     0
 42
0.0000000001
 43
0.0000000001
 40
0.0
 40
0.0
 40
0.0
 40
0.0
 40
0.3333333333333333
 40
0.3333333333333333
 40
0.3333333333333333
 40
0.3333333333333333
 40
0.6666666666666666
 40
0.6666666666666666
 40
0.6666666666666666
 40
0.6666666666666666
 40
1.0
 40
1.0
 40
1.0
 40
1.0
 10
-0.5408700000000001
 20
0.6725300000000001
 30
0.0
 10
-0.51293
 20
0.6725300000000001
 30
0.0
 10
-0.48499
 20
0.6725300000000001
 30
0.0
 10
-0.4697500000000001
 20
0.6547500000000001
 30
0.0
 10
-0.4697500000000001
 20
0.6547500000000001
 30
0.0
 10
-0.4926100000000001
 20
0.30169
 30
0.0
 10
-0.3122700000000001
 20
-0.2317
 30
0.0
 10
-0.70089
 20
-0.37902
 30
0.0
 10
-0.70089
 20
-0.37902
 30
0.0
 10
-0.61707
 20
-0.04628
 30
0.0
 10
-0.44689
 20
0.30169
 30
0.0
 10
-0.5408700000000001
 20
0.6725300000000001
 30
0.0
  0
SPLINE
  5
29
100
AcDbEntity
  8
Ebene 1
100
AcDbSpline
210
0.0
220
0.0
230
1.0
 70
     1
 71
     3
 72
    20
 73
    16
 74
     0
 42
0.0000000001
 43
0.0000000001
 40
0.0
 40
0.0
 40
0.0
 40
0.0
 40
0.25
 40
0.25
 40
0.25
 40
0.25
 40
0.5
 40
0.5
 40
0.5
 40
0.5
 40
0.75
 40
0.75
 40
0.75
 40
0.75
 40
1.0
 40
1.0
 40
1.0
 40
1.0
 10
2.12358
 20
0.30169
 30
0.0
 10
2.1642200000000003
 20
0.32201
 30
0.0
 10
2.1794600000000002
 20
0.28391
 30
0.0
 10
2.1921600000000003
 20
0.26613
 30
0.0
 10
2.1921600000000003
 20
0.26613
 30
0.0
 10
2.2404200000000003
 20
-0.13772
 30
0.0
 10
2.4918800000000001
 20
-0.5644400000000001
 30
0.0
 10
2.3267800000000003
 20
-0.9530600000000001
 30
0.0
 10
2.3267800000000003
 20
-0.9530600000000001
 30
0.0
 10
2.3267800000000003
 20
-0.9530600000000001
 30
0.0
 10
2.1845400000000001
 20
-0.8540000000000001
 30
0.0
 10
2.1845400000000001
 20
-0.8540000000000001
 30
0.0
 10
2.1845400000000001
 20
-0.8540000000000001
 30
0.0
 10
2.2658200000000002
 20
-0.473
 30
0.0
 10
2.1439000000000004
 20
-0.08184
 30
0.0
 10
2.12358
 20
0.30169
 30
0.0
  0
SPLINE
  5
2A
100
AcDbEntity
  8
Ebene 1
100
AcDbSpline
210
0.0
220
0.0
230
1.0
 70
     1
 71
     3
 72
    24
 73
    20
 74
     0
 42
0.0000000001
 43
0.0000000001
 40
0.0
 40
0.0
 40
0.0
 40
0.0
 40
0.2
 40
0.2
 40
0.2
 40
0.2
 40
0.4
 40
0.4
 40
0.4
 40
0.4
 40
0.6000000000000001
 40
0.6000000000000001
 40
0.6000000000000001
 40
0.6000000000000001
 40
0.8
 40
0.8
 40
0.8
 40
0.8
 40
1.0
 40
1.0
 40
1.0
 40
1.0
 10
0.03316
 20
0.04515
 30
0.0
 10
0.11444
 20
-0.08184
 30
0.0
 10
0.13222
 20
-0.30536
 30
0.0
 10
0.32272
 20
-0.36124
 30
0.0
 10
0.32272
 20
-0.36124
 30
0.0
 10
0.32272
 20
-0.36124
 30
0.0
 10
0.30494
 20
-0.4349
 30
0.0
 10
0.30494
 20
-0.4349
 30
0.0
 10
0.30494
 20
-0.4349
 30
0.0
 10
0.18048
 20
-0.45268
 30
0.0
 10
0.06618
 20
-0.28758
 30
0.0
 10
-0.04049
 20
-0.4171200000000001
 30
0.0
 10
-0.04049
 20
-0.4171200000000001
 30
0.0
 10
-0.04049
 20
-0.4171200000000001
 30
0.0
 10
-0.10907
 20
-0.4171200000000001
 30
0.0
 10
-0.10907
 20
-0.4171200000000001
 30
0.0
 10
-0.10907
 20
-0.4171200000000001
 30
0.0
 10
-0.10907
 20
-0.4171200000000001
 30
0.0
 10
0.03316
 20
0.04515
 30
0.0
 10
0.03316
 20
0.04515
 30
0.0
  0
SPLINE
  5
2B
100
AcDbEntity
  8
Ebene 1
100
AcDbSpline
210
0.0
220
0.0
230
1.0
 70
     1
 71
     3
 72
    20
 73
    16
 74
     0
 42
0.0000000001
 43
0.0000000001
 40
0.0
 40
0.0
 40
0.0
 40
0.0
 40
0.25
 40
0.25
 40
0.25
 40
0.25
 40
0.5
 40
0.5
 40
0.5
 40
0.5
 40
0.75
 40
0.75
 40
0.75
 40
0.75
 40
1.0
 40
1.0
 40
1.0
 40
1.0
 10
0.64276
 20
-0.473
 30
0.0
 10
0.64276
 20
-0.473
 30
0.0
 10
0.7138800000000001
 20
-0.473
 30
0.0
 10
0.7138800000000001
 20
-0.473
 30
0.0
 10
0.7138800000000001
 20
-0.473
 30
0.0
 10
1.10504
 20
-0.82606
 30
0.0
 10
1.9686400000000002
 20
-0.5441200000000001
 30
0.0
 10
2.0626200000000003
 20
-1.2248400000000002
 30
0.0
 10
2.0626200000000003
 20
-1.2248400000000002
 30
0.0
 10
2.0626200000000003
 20
-1.2248400000000002
 30
0.0
 10
1.9635600000000002
 20
-1.20706
 30
0.0
 10
1.9635600000000002
 20
-1.20706
 30
0.0
 10
1.9635600000000002
 20
-1.20706
 30
0.0
 10
1.6663800000000002
 20
-0.7092200000000001
 30
0.0
 10
0.8967600000000001
 20
-0.9632200000000001
 30
0.0
 10
0.64276
 20
-0.473
 30
0.0
  0
SPLINE
  5
2C
100
AcDbEntity
  8
Ebene 1
100
AcDbSpline
210
0.0
220
0.0
230
1.0
 70
     1
 71
     3
 72
    28
 73
    24
 74
     0
 42
0.0000000001
 43
0.0000000001
 40
0.0
 40
0.0
 40
0.0
 40
0.0
 40
0.1666666666666667
 40
0.1666666666666667
 40
0.1666666666666667
 40
0.1666666666666667
 40
0.3333333333333333
 40
0.3333333333333333
 40
0.3333333333333333
 40
0.3333333333333333
 40
0.5
 40
0.5
 40
0.5
 40
0.5
 40
0.6666666666666666
 40
0.6666666666666666
 40
0.6666666666666666
 40
0.6666666666666666
 40
0.8333333333333333
 40
0.8333333333333333
 40
0.8333333333333333
 40
0.8333333333333333
 40
1.0
 40
1.0
 40
1.0
 40
1.0
 10
-1.1885700000000001
 20
-0.5441200000000001
 30
0.0
 10
-1.0717300000000001
 20
-0.52888
 30
0.0
 10
-1.0539500000000002
 20
-0.6711200000000001
 30
0.0
 10
-0.9650500000000001
 20
-0.7117600000000001
 30
0.0
 10
-0.9650500000000001
 20
-0.7117600000000001
 30
0.0
 10
-0.88631
 20
-0.6812800000000001
 30
0.0
 10
-0.8177300000000001
 20
-0.52888
 30
0.0
 10
-0.7288300000000001
 20
-0.6050800000000001
 30
0.0
 10
-0.7288300000000001
 20
-0.6050800000000001
 30
0.0
 10
-0.7288300000000001
 20
-0.6050800000000001
 30
0.0
 10
-0.76439
 20
-0.7244600000000001
 30
0.0
 10
-0.76439
 20
-0.7244600000000001
 30
0.0
 10
-0.76439
 20
-0.7244600000000001
 30
0.0
 10
-1.2012700000000001
 20
-1.1334000000000002
 30
0.0
 10
-0.5840500000000001
 20
-1.6287
 30
0.0
 10
-0.8405900000000001
 20
-2.0935200000000003
 30
0.0
 10
-0.8405900000000001
 20
-2.0935200000000003
 30
0.0
 10
-0.7262900000000001
 20
-1.6236200000000001
 30
0.0
 10
-1.24953
 20
-1.29342
 30
0.0
 10
-1.1123700000000001
 20
-0.8413000000000001
 30
0.0
 10
-1.1123700000000001
 20
-0.8413000000000001
 30
0.0
 10
-1.1123700000000001
 20
-0.8413000000000001
 30
0.0
 10
-1.1885700000000001
 20
-0.5441200000000001
 30
0.0
 10
-1.1885700000000001
 20
-0.5441200000000001
 30
0.0
  0
SPLINE
  5
2D
100
AcDbEntity
  8
Ebene 1
100
AcDbSpline
210
0.0
220
0.0
230
1.0
 70
     1
 71
     3
 72
    20
 73
    16
 74
     0
 42
0.0000000001
 43
0.0000000001
 40
0.0
 40
0.0
 40
0.0
 40
0.0
 40
0.25
 40
0.25
 40
0.25
 40
0.25
 40
0.5
 40
0.5
 40
0.5
 40
0.5
 40
0.75
 40
0.75
 40
0.75
 40
0.75
 40
1.0
 40
1.0
 40
1.0
 40
1.0
 10
2.8830400000000003
 20
-0.7854200000000001
 30
0.0
 10
2.8830400000000003
 20
-0.7854200000000001
 30
0.0
 10
3.0862400000000001
 20
-0.82352
 30
0.0
 10
3.0862400000000001
 20
-0.82352
 30
0.0
 10
3.0862400000000001
 20
-0.82352
 30
0.0
 10
2.9567000000000001
 20
-0.9530600000000001
 30
0.0
 10
2.7281000000000004
 20
-0.9810000000000001
 30
0.0
 10
2.6544400000000001
 20
-1.16896
 30
0.0
 10
2.6544400000000001
 20
-1.16896
 30
0.0
 10
2.5401400000000001
 20
-1.1994400000000001
 30
0.0
 10
2.4918800000000001
 20
-1.0648200000000001
 30
0.0
 10
2.5680800000000001
 20
-0.99116
 30
0.0
 10
2.5680800000000001
 20
-0.99116
 30
0.0
 10
2.59348
 20
-0.8590800000000001
 30
0.0
 10
2.7662000000000004
 20
-0.80574
 30
0.0
 10
2.8830400000000003
 20
-0.7854200000000001
 30
0.0
  0
SPLINE
  5
2E
100
AcDbEntity
  8
Ebene 1
100
AcDbSpline
210
0.0
220
0.0
230
1.0
 70
     1
 71
     3
 72
    40
 73
    36
 74
     0
 42
0.0000000001
 43
0.0000000001
 40
0.0
 40
0.0
 40
0.0
 40
0.0
 40
0.1111111111111111
 40
0.1111111111111111
 40
0.1111111111111111
 40
0.1111111111111111
 40
0.2222222222222222
 40
0.2222222222222222
 40
0.2222222222222222
 40
0.2222222222222222
 40
0.3333333333333333
 40
0.3333333333333333
 40
0.3333333333333333
 40
0.3333333333333333
 40
0.4444444444444444
 40
0.4444444444444444
 40
0.4444444444444444
 40
0.4444444444444444
 40
0.5555555555555556
 40
0.5555555555555556
 40
0.5555555555555556
 40
0.5555555555555556
 40
0.6666666666666667
 40
0.6666666666666667
 40
0.6666666666666667
 40
0.6666666666666667
 40
0.7777777777777779
 40
0.7777777777777779
 40
0.7777777777777779
 40
0.7777777777777779
 40
0.8888888888888891
 40
0.8888888888888891
 40
0.8888888888888891
 40
0.8888888888888891
 40
1.0
 40
1.0
 40
1.0
 40
1.0
 10
0.23636
 20
-1.1765800000000002
 30
0.0
 10
0.8967600000000001
 20
-1.12832
 30
0.0
 10
1.32094
 20
-1.7430000000000001
 30
0.0
 10
1.8441800000000002
 20
-1.9893800000000001
 30
0.0
 10
1.8441800000000002
 20
-1.9893800000000001
 30
0.0
 10
1.8441800000000002
 20
-1.9893800000000001
 30
0.0
 10
1.7527400000000002
 20
-2.06304
 30
0.0
 10
1.7527400000000002
 20
-2.06304
 30
0.0
 10
1.7527400000000002
 20
-2.06304
 30
0.0
 10
1.4504800000000002
 20
-1.9157200000000001
 30
0.0
 10
1.15076
 20
-2.14432
 30
0.0
 10
0.86882
 20
-2.2230600000000003
 30
0.0
 10
0.86882
 20
-2.2230600000000003
 30
0.0
 10
0.8739000000000001
 20
-2.1138400000000002
 30
0.0
 10
1.0263
 20
-2.0808200000000001
 30
0.0
 10
1.10504
 20
-2.0274800000000002
 30
0.0
 10
1.10504
 20
-2.0274800000000002
 30
0.0
 10
1.15076
 20
-1.9614400000000001
 30
0.0
 10
1.44032
 20
-1.9284200000000002
 30
0.0
 10
1.27014
 20
-1.8954000000000002
 30
0.0
 10
1.27014
 20
-1.8954000000000002
 30
0.0
 10
0.88914
 20
-2.0173200000000002
 30
0.0
 10
0.4421000000000001
 20
-2.0605000000000002
 30
0.0
 10
0.05602
 20
-1.9106400000000001
 30
0.0
 10
0.05602
 20
-1.9106400000000001
 30
0.0
 10
-0.19289
 20
-1.9106400000000001
 30
0.0
 10
-0.07351
 20
-1.3670800000000001
 30
0.0
 10
-0.24623
 20
-1.5753600000000001
 30
0.0
 10
-0.24623
 20
-1.5753600000000001
 30
0.0
 10
-0.27417
 20
-1.5931400000000002
 30
0.0
 10
-0.3122700000000001
 20
-1.5779000000000001
 30
0.0
 10
-0.29957
 20
-1.54488
 30
0.0
 10
-0.29957
 20
-1.54488
 30
0.0
 10
-0.14209
 20
-1.3950200000000001
 30
0.0
 10
0.04332
 20
-1.2477
 30
0.0
 10
0.23636
 20
-1.1765800000000002
 30
0.0
  0
SPLINE
  5
2F
100
AcDbEntity
  8
Ebene 1
100
AcDbSpline
210
0.0
220
0.0
230
1.0
 70
     1
 71
     3
 72
    16
 73
    12
 74
     0
 42
0.0000000001
 43
0.0000000001
 40
0.0
 40
0.0
 40
0.0
 40
0.0
 40
0.3333333333333333
 40
0.3333333333333333
 40
0.3333333333333333
 40
0.3333333333333333
 40
0.6666666666666666
 40
0.6666666666666666
 40
0.6666666666666666
 40
0.6666666666666666
 40
1.0
 40
1.0
 40
1.0
 40
1.0
 10
2.1413600000000002
 20
-1.2858000000000001
 30
0.0
 10
2.3140800000000001
 20
-1.4509000000000001
 30
0.0
 10
2.2785200000000003
 20
-1.9436600000000002
 30
0.0
 10
1.9788000000000001
 20
-1.9843000000000002
 30
0.0
 10
1.9788000000000001
 20
-1.9843000000000002
 30
0.0
 10
1.9788000000000001
 20
-1.9843000000000002
 30
0.0
 10
1.9788000000000001
 20
-1.9004800000000002
 30
0.0
 10
1.9788000000000001
 20
-1.9004800000000002
 30
0.0
 10
1.9788000000000001
 20
-1.9004800000000002
 30
0.0
 10
2.1362800000000002
 20
-1.7430000000000001
 30
0.0
 10
2.1921600000000003
 20
-1.5017
 30
0.0
 10
2.1413600000000002
 20
-1.2858000000000001
 30
0.0
  0
SPLINE
  5
30
100
AcDbEntity
  8
Ebene 1
100
AcDbSpline
210
0.0
220
0.0
230
1.0
 70
     1
 71
     3
 72
    24
 73
    20
 74
     0
 42
0.0000000001
 43
0.0000000001
 40
0.0
 40
0.0
 40
0.0
 40
0.0
 40
0.2
 40
0.2
 40
0.2
 40
0.2
 40
0.4
 40
0.4
 40
0.4
 40
0.4
 40
0.6000000000000001
 40
0.6000000000000001
 40
0.6000000000000001
 40
0.6000000000000001
 40
0.8
 40
0.8
 40
0.8
 40
0.8
 40
1.0
 40
1.0
 40
1.0
 40
1.0
 10
2.5299800000000001
 20
-1.3594600000000001
 30
0.0
 10
2.54522
 20
-1.3620000000000001
 30
0.0
 10
2.5833200000000001
 20
-1.3493000000000002
 30
0.0
 10
2.5858600000000003
 20
-1.37724
 30
0.0
 10
2.5858600000000003
 20
-1.37724
 30
0.0
 10
2.5223600000000004
 20
-1.5347200000000001
 30
0.0
 10
2.5528400000000002
 20
-1.7709400000000002
 30
0.0
 10
2.7306400000000002
 20
-1.8623800000000001
 30
0.0
 10
2.7306400000000002
 20
-1.8623800000000001
 30
0.0
 10
2.7306400000000002
 20
-1.8623800000000001
 30
0.0
 10
2.7306400000000002
 20
-1.9106400000000001
 30
0.0
 10
2.7306400000000002
 20
-1.9106400000000001
 30
0.0
 10
2.7306400000000002
 20
-1.9106400000000001
 30
0.0
 10
2.4360000000000004
 20
-1.9436600000000002
 30
0.0
 10
2.5350600000000001
 20
-1.5931400000000002
 30
0.0
 10
2.4918800000000001
 20
-1.41534
 30
0.0
 10
2.4918800000000001
 20
-1.41534
 30
0.0
 10
2.4918800000000001
 20
-1.41534
 30
0.0
 10
2.5299800000000001
 20
-1.3594600000000001
 30
0.0
 10
2.5299800000000001
 20
-1.3594600000000001
 30
0.0
  0
SPLINE
  5
31
100
AcDbEntity
  8
Ebene 1
100
AcDbSpline
210
0.0
220
0.0
230
1.0
 70
     1
 71
     3
 72
    24
 73
    20
 74
     0
 42
0.0000000001
 43
0.0000000001
 40
0.0
 40
0.0
 40
0.0
 40
0.0
 40
0.2
 40
0.2
 40
0.2
 40
0.2
 40
0.4
 40
0.4
 40
0.4
 40
0.4
 40
0.6000000000000001
 40
0.6000000000000001
 40
0.6000000000000001
 40
0.6000000000000001
 40
0.8
 40
0.8
 40
0.8
 40
0.8
 40
1.0
 40
1.0
 40
1.0
 40
1.0
 10
1.6613000000000002
 20
-2.36022
 30
0.0
 10
2.0626200000000003
 20
-2.3805400000000003
 30
0.0
 10
1.8873600000000001
 20
-2.9037800000000002
 30
0.0
 10
2.0296000000000003
 20
-3.15524
 30
0.0
 10
2.0296000000000003
 20
-3.15524
 30
0.0
 10
2.0296000000000003
 20
-3.15524
 30
0.0
 10
2.0270600000000001
 20
-3.2974800000000002
 30
0.0
 10
2.0270600000000001
 20
-3.2974800000000002
 30
0.0
 10
2.0270600000000001
 20
-3.2974800000000002
 30
0.0
 10
2.0270600000000001
 20
-3.2974800000000002
 30
0.0
 10
1.9254600000000002
 20
-3.2416000000000005
 30
0.0
 10
1.9254600000000002
 20
-3.2416000000000005
 30
0.0
 10
1.9254600000000002
 20
-3.2416000000000005
 30
0.0
 10
1.8467200000000001
 20
-2.9469600000000002
 30
0.0
 10
1.4987400000000002
 20
-3.0511000000000004
 30
0.0
 10
1.3311000000000002
 20
-2.8529800000000001
 30
0.0
 10
1.3311000000000002
 20
-2.8529800000000001
 30
0.0
 10
1.27776
 20
-2.64724
 30
0.0
 10
1.5038200000000002
 20
-2.4618200000000003
 30
0.0
 10
1.6613000000000002
 20
-2.36022
 30
0.0
  0
SPLINE
  5
32
100
AcDbEntity
  8
Ebene 1
100
AcDbSpline
210
0.0
220
0.0
230
1.0
 70
     1
 71
     3
 72
    20
 73
    16
 74
     0
 42
0.0000000001
 43
0.0000000001
 40
0.0
 40
0.0
 40
0.0
 40
0.0
 40
0.25
 40
0.25
 40
0.25
 40
0.25
 40
0.5
 40
0.5
 40
0.5
 40
0.5
 40
0.75
 40
0.75
 40
0.75
 40
0.75
 40
1.0
 40
1.0
 40
1.0
 40
1.0
 10
2.6417400000000004
 20
-2.4338800000000003
 30
0.0
 10
2.9084400000000001
 20
-2.3805400000000003
 30
0.0
 10
2.7865200000000003
 20
-2.6726400000000003
 30
0.0
 10
2.8576400000000004
 20
-2.81488
 30
0.0
 10
2.8576400000000004
 20
-2.81488
 30
0.0
 10
2.6341200000000002
 20
-2.81996
 30
0.0
 10
2.5553800000000004
 20
-3.0511000000000004
 30
0.0
 10
2.54522
 20
-3.2593800000000002
 30
0.0
 10
2.54522
 20
-3.2593800000000002
 30
0.0
 10
2.5325200000000003
 20
-3.2771600000000003
 30
0.0
 10
2.5147400000000002
 20
-3.2898600000000005
 30
0.0
 10
2.4918800000000001
 20
-3.2847800000000005
 30
0.0
 10
2.4918800000000001
 20
-3.2847800000000005
 30
0.0
 10
2.5045800000000003
 20
-3.0231600000000003
 30
0.0
 10
2.45886
 20
-2.6650200000000002
 30
0.0
 10
2.6417400000000004
 20
-2.4338800000000003
 30
0.0
  0
SPLINE
  5
33
100
AcDbEntity
  8
Ebene 1
100
AcDbSpline
210
0.0
220
0.0
230
1.0
 70
     1
 71
     3
 72
    16
 73
    12
 74
     0
 42
0.0000000001
 43
0.0000000001
 40
0.0
 40
0.0
 40
0.0
 40
0.0
 40
0.3333333333333333
 40
0.3333333333333333
 40
0.3333333333333333
 40
0.3333333333333333
 40
0.6666666666666666
 40
0.6666666666666666
 40
0.6666666666666666
 40
0.6666666666666666
 40
1.0
 40
1.0
 40
1.0
 40
1.0
 10
0.69864
 20
-2.4694400000000001
 30
0.0
 10
0.8434200000000001
 20
-2.4948400000000004
 30
0.0
 10
0.59196
 20
-2.7005800000000004
 30
0.0
 10
0.7697600000000001
 20
-2.7691600000000003
 30
0.0
 10
0.7697600000000001
 20
-2.7691600000000003
 30
0.0
 10
0.7799200000000001
 20
-2.7894800000000002
 30
0.0
 10
0.7596000000000001
 20
-2.8047200000000001
 30
0.0
 10
0.7494400000000001
 20
-2.8174200000000003
 30
0.0
 10
0.7494400000000001
 20
-2.8174200000000003
 30
0.0
 10
0.57926
 20
-2.7996400000000001
 30
0.0
 10
0.6122800000000001
 20
-2.57104
 30
0.0
 10
0.69864
 20
-2.4694400000000001
 30
0.0
  0
SPLINE
  5
34
100
AcDbEntity
  8
Ebene 1
 62
     7
100
AcDbSpline
210
0.0
220
0.0
230
1.0
 70
     1
 71
     3
 72
    24
 73
    20
 74
     0
 42
0.0000000001
 43
0.0000000001
 40
0.0
 40
0.0
 40
0.0
 40
0.0
 40
0.2
 40
0.2
 40
0.2
 40
0.2
 40
0.4
 40
0.4
 40
0.4
 40
0.4
 40
0.6000000000000001
 40
0.6000000000000001
 40
0.6000000000000001
 40
0.6000000000000001
 40
0.8
 40
0.8
 40
0.8
 40
0.8
 40
1.0
 40
1.0
 40
1.0
 40
1.0
 10
0.5868800000000001
 20
-3.4143200000000005
 30
0.0
 10
0.8129400000000001
 20
-3.7115000000000005
 30
0.0
 10
0.76722
 20
-4.2830000000000004
 30
0.0
 10
0.61482
 20
-4.5446200000000001
 30
0.0
 10
0.61482
 20
-4.5446200000000001
 30
0.0
 10
0.7367400000000001
 20
-4.8697400000000002
 30
0.0
 10
0.41162
 20
-5.0170600000000007
 30
0.0
 10
0.29478
 20
-5.2786800000000005
 30
0.0
 10
0.29478
 20
-5.2786800000000005
 30
0.0
 10
0.2897
 20
-4.9789600000000007
 30
0.0
 10
0.33288
 20
-4.6513
 30
0.0
 10
0.5691000000000001
 20
-4.4684200000000001
 30
0.0
 10
0.5691000000000001
 20
-4.4684200000000001
 30
0.0
 10
0.5691000000000001
 20
-4.4684200000000001
 30
0.0
 10
0.51322
 20
-4.4125400000000008
 30
0.0
 10
0.51322
 20
-4.4125400000000008
 30
0.0
 10
0.51322
 20
-4.4125400000000008
 30
0.0
 10
0.51322
 20
-4.4125400000000008
 30
0.0
 10
0.5868800000000001
 20
-3.4143200000000005
 30
0.0
 10
0.5868800000000001
 20
-3.4143200000000005
 30
0.0
  0
SPLINE
  5
35
100
AcDbEntity
  8
Ebene 1
 62
     7
100
AcDbSpline
210
0.0
220
0.0
230
1.0
 70
     1
 71
     3
 72
    12
 73
     8
 74
     0
 42
0.0000000001
 43
0.0000000001
 40
0.0
 40
0.0
 40
0.0
 40
0.0
 40
0.5
 40
0.5
 40
0.5
 40
0.5
 40
1.0
 40
1.0
 40
1.0
 40
1.0
 10
0.42178
 20
-3.9502600000000001
 30
0.0
 10
0.4548
 20
-4.0061400000000003
 30
0.0
 10
0.44464
 20
-4.1661600000000005
 30
0.0
 10
0.35066
 20
-4.1306000000000003
 30
0.0
 10
0.35066
 20
-4.1306000000000003
 30
0.0
 10
0.3455800000000001
 20
-4.0670999999999999
 30
0.0
 10
0.3989200000000001
 20
-4.0010600000000007
 30
0.0
 10
0.42178
 20
-3.9502600000000001
 30
0.0
  0
SPLINE
  5
36
100
AcDbEntity
  8
Ebene 1
 62
     7
100
AcDbSpline
210
0.0
220
0.0
230
1.0
 70
     1
 71
     3
 72
    16
 73
    12
 74
     0
 42
0.0000000001
 43
0.0000000001
 40
0.0
 40
0.0
 40
0.0
 40
0.0
 40
0.3333333333333333
 40
0.3333333333333333
 40
0.3333333333333333
 40
0.3333333333333333
 40
0.6666666666666666
 40
0.6666666666666666
 40
0.6666666666666666
 40
0.6666666666666666
 40
1.0
 40
1.0
 40
1.0
 40
1.0
 10
0.2897
 20
-4.2093400000000001
 30
0.0
 10
0.2897
 20
-4.2093400000000001
 30
0.0
 10
0.34304
 20
-4.2144200000000005
 30
0.0
 10
0.34304
 20
-4.2144200000000005
 30
0.0
 10
0.34304
 20
-4.2144200000000005
 30
0.0
 10
0.37606
 20
-4.44048
 30
0.0
 10
0.23128
 20
-4.6284400000000003
 30
0.0
 10
0.09412
 20
-4.7783000000000007
 30
0.0
 10
0.09412
 20
-4.7783000000000007
 30
0.0
 10
0.0992
 20
-4.5801800000000004
 30
0.0
 10
0.17032
 20
-4.3592000000000004
 30
0.0
 10
0.2897
 20
-4.2093400000000001
 30
0.0
  0
SPLINE
  5
37
100
AcDbEntity
  8
Ebene 1
 62
     7
100
AcDbSpline
210
0.0
220
0.0
230
1.0
 70
     1
 71
     3
 72
    16
 73
    12
 74
     0
 42
0.0000000001
 43
0.0000000001
 40
0.0
 40
0.0
 40
0.0
 40
0.0
 40
0.3333333333333333
 40
0.3333333333333333
 40
0.3333333333333333
 40
0.3333333333333333
 40
0.6666666666666666
 40
0.6666666666666666
 40
0.6666666666666666
 40
0.6666666666666666
 40
1.0
 40
1.0
 40
1.0
 40
1.0
 10
0.7545200000000001
 20
-4.8748200000000006
 30
0.0
 10
0.785
 20
-4.8773600000000004
 30
0.0
 10
0.8231000000000001
 20
-4.8672000000000004
 30
0.0
 10
0.8408800000000001
 20
-4.8976800000000003
 30
0.0
 10
0.8408800000000001
 20
-4.8976800000000003
 30
0.0
 10
0.9094600000000001
 20
-5.1847000000000003
 30
0.0
 10
0.9374000000000001
 20
-5.5174400000000006
 30
0.0
 10
0.7723000000000001
 20
-5.7638200000000008
 30
0.0
 10
0.7723000000000001
 20
-5.7638200000000008
 30
0.0
 10
0.6503800000000001
 20
-5.4971200000000007
 30
0.0
 10
0.67832
 20
-5.1643800000000004
 30
0.0
 10
0.7545200000000001
 20
-4.8748200000000006
 30
0.0
  0
SPLINE
  5
38
100
AcDbEntity
  8
Ebene 1
 62
     7
100
AcDbSpline
210
0.0
220
0.0
230
1.0
 70
     1
 71
     3
 72
    12
 73
     8
 74
     0
 42
0.0000000001
 43
0.0000000001
 40
0.0
 40
0.0
 40
0.0
 40
0.0
 40
0.5
 40
0.5
 40
0.5
 40
0.5
 40
1.0
 40
1.0
 40
1.0
 40
1.0
 10
1.2168000000000001
 20
-5.2075600000000009
 30
0.0
 10
1.4352400000000001
 20
-5.4361600000000001
 30
0.0
 10
1.18632
 20
-5.7485800000000005
 30
0.0
 10
1.1406000000000001
 20
-5.9873400000000006
 30
0.0
 10
1.1406000000000001
 20
-5.9873400000000006
 30
0.0
 10
0.95518
 20
-5.7587400000000004
 30
0.0
 10
1.0517000000000001
 20
-5.4260000000000002
 30
0.0
 10
1.2168000000000001
 20
-5.2075600000000009
 30
0.0
  0
SPLINE
  5
39
100
AcDbEntity
  8
Ebene 1
 62
     7
100
AcDbSpline
210
0.0
220
0.0
230
1.0
 70
     1
 71
     3
 72
    12
 73
     8
 74
     0
 42
0.0000000001
 43
0.0000000001
 40
0.0
 40
0.0
 40
0.0
 40
0.0
 40
0.5
 40
0.5
 40
0.5
 40
0.5
 40
1.0
 40
1.0
 40
1.0
 40
1.0
 10
2.7687400000000002
 20
-5.24566
 30
0.0
 10
2.7966800000000003
 20
-5.3320200000000009
 30
0.0
 10
2.8068400000000002
 20
-5.4844200000000001
 30
0.0
 10
2.7662000000000004
 20
-5.5733200000000007
 30
0.0
 10
2.7662000000000004
 20
-5.5733200000000007
 30
0.0
 10
2.6442800000000002
 20
-5.4920400000000003
 30
0.0
 10
2.6874600000000002
 20
-5.3447200000000006
 30
0.0
 10
2.7687400000000002
 20
-5.24566
 30
0.0
  0
SPLINE
  5
3A
100
AcDbEntity
  8
Ebene 1
 62
     7
100
AcDbSpline
210
0.0
220
0.0
230
1.0
 70
     1
 71
     3
 72
    16
 73
    12
 74
     0
 42
0.0000000001
 43
0.0000000001
 40
0.0
 40
0.0
 40
0.0
 40
0.0
 40
0.3333333333333333
 40
0.3333333333333333
 40
0.3333333333333333
 40
0.3333333333333333
 40
0.6666666666666666
 40
0.6666666666666666
 40
0.6666666666666666
 40
0.6666666666666666
 40
1.0
 40
1.0
 40
1.0
 40
1.0
 10
2.4918800000000001
 20
-5.3193200000000003
 30
0.0
 10
2.6925400000000002
 20
-5.5403000000000002
 30
0.0
 10
2.50712
 20
-5.8501800000000008
 30
0.0
 10
2.4360000000000004
 20
-6.0787800000000001
 30
0.0
 10
2.4360000000000004
 20
-6.0787800000000001
 30
0.0
 10
2.4360000000000004
 20
-6.0787800000000001
 30
0.0
 10
2.3064600000000004
 20
-5.6723800000000004
 30
0.0
 10
2.3064600000000004
 20
-5.6723800000000004
 30
0.0
 10
2.3064600000000004
 20
-5.6723800000000004
 30
0.0
 10
2.3064600000000004
 20
-5.6723800000000004
 30
0.0
 10
2.4918800000000001
 20
-5.3193200000000003
 30
0.0
 10
2.4918800000000001
 20
-5.3193200000000003
 30
0.0
  0
SPLINE
  5
3B
100
AcDbEntity
  8
Ebene 1
 62
     7
100
AcDbSpline
210
0.0
220
0.0
230
1.0
 70
     1
 71
     3
 72
    16
 73
    12
 74
     0
 42
0.0000000001
 43
0.0000000001
 40
0.0
 40
0.0
 40
0.0
 40
0.0
 40
0.3333333333333333
 40
0.3333333333333333
 40
0.3333333333333333
 40
0.3333333333333333
 40
0.6666666666666666
 40
0.6666666666666666
 40
0.6666666666666666
 40
0.6666666666666666
 40
1.0
 40
1.0
 40
1.0
 40
1.0
 10
1.56732
 20
-5.3396400000000002
 30
0.0
 10
1.56732
 20
-5.3396400000000002
 30
0.0
 10
1.6384400000000001
 20
-5.3421800000000008
 30
0.0
 10
1.6384400000000001
 20
-5.3421800000000008
 30
0.0
 10
1.6384400000000001
 20
-5.3421800000000008
 30
0.0
 10
1.8010000000000002
 20
-5.6038000000000006
 30
0.0
 10
1.69686
 20
-5.8933600000000004
 30
0.0
 10
1.56732
 20
-6.1346600000000002
 30
0.0
 10
1.56732
 20
-6.1346600000000002
 30
0.0
 10
1.4073000000000002
 20
-5.9060600000000001
 30
0.0
 10
1.35904
 20
-5.5707800000000001
 30
0.0
 10
1.56732
 20
-5.3396400000000002
 30
0.0
  0
SPLINE
  5
3C
100
AcDbEntity
  8
Ebene 1
 62
     7
100
AcDbSpline
210
0.0
220
0.0
230
1.0
 70
     1
 71
     3
 72
    12
 73
     8
 74
     0
 42
0.0000000001
 43
0.0000000001
 40
0.0
 40
0.0
 40
0.0
 40
0.0
 40
0.5
 40
0.5
 40
0.5
 40
0.5
 40
1.0
 40
1.0
 40
1.0
 40
1.0
 10
2.0677000000000003
 20
-5.3396400000000002
 30
0.0
 10
2.2861400000000001
 20
-5.5377600000000005
 30
0.0
 10
2.1185
 20
-5.9136800000000003
 30
0.0
 10
2.0118200000000002
 20
-6.1346600000000002
 30
0.0
 10
2.0118200000000002
 20
-6.1346600000000002
 30
0.0
 10
1.9178400000000002
 20
-5.8806600000000007
 30
0.0
 10
1.8772000000000002
 20
-5.5707800000000001
 30
0.0
 10
2.0677000000000003
 20
-5.3396400000000002
 30
0.0
  0
ENDSEC
  0
SECTION
  2
OBJECTS
  0
DICTIONARY
  5
19
100
AcDbDictionary
280
     0
281
     1
  3
ACAD_GROUP
350
1A
  3
ACAD_MLINESTYLE
350
1B
  3
ACAD_LAYOUT
350
1E
  3
ACAD_PLOTSETTINGS
350
22
  3
ACAD_PLOTSTYLENAME
350
1F
  3
ACAD_WIPEOUT_VARS
350
23
  0
DICTIONARY
  5
1A
102
{ACAD_REACTORS
330
19
102
}
100
AcDbDictionary
280
     0
281
     1
  0
DICTIONARY
  5
1B
102
{ACAD_REACTORS
330
19
102
}
100
AcDbDictionary
280
     0
281
     1
  3
Standard
350
1C
  0
MLINESTYLE
  5
1C
102
{ACAD_REACTORS
330
1B
102
}
100
AcDbMlineStyle
  2
Standard
 70
     0
  3

 62
     0
 51
90.0
 52
90.0
 71
     2
 49
0.5
 62
   256
  6
BYLAYER
 49
-0.5
 62
   256
  6
BYLAYER
  0
ACDBDICTIONARYWDFLT
  5
1F
102
{ACAD_REACTORS
330
19
102
}
100
AcDbDictionary
281
     1
  3
Normal
350
1D
100
AcDbDictionaryWithDefault
340
1D
  0
ACDBPLACEHOLDER
  5
1D
102
{ACAD_REACTORS
330
1F
102
}
  0
LAYOUT
  5
20
102
{ACAD_REACTORS
330
1E
102
}
100
AcDbPlotSettings
  1

  2

  4

  6

 40
0.0
 41
0.0
 42
0.0
 43
0.0
 44
0.0
 45
0.0
 46
0.0
 47
0.0
 48
0.0
 49
0.0
140
0.0
141
0.0
142
1.0
143
1.0
 70
  1024
 72
     0
 73
     0
 74
     0
  7

 75
     0
147
1.0
148
0.0
149
0.0
100
AcDbLayout
  1
Model
 70
     0
 71
     0
 10
0.0
 20
0.0
 11
0.0
 21
0.0
 12
0.0
 22
0.0
 32
0.0
 14
0.0
 24
0.0
 34
0.0
 15
0.0
 25
0.0
 35
0.0
146
0.0
 13
0.0
 23
0.0
 33
0.0
 16
0.0
 26
0.0
 36
0.0
 17
0.0
 27
0.0
 37
0.0
 76
     0
330
A
331
0
345
0
346
0
  0
LAYOUT
  5
21
102
{ACAD_REACTORS
330
1E
102
}
100
AcDbPlotSettings
  1

  2

  4

  6

 40
0.0
 41
0.0
 42
0.0
 43
0.0
 44
0.0
 45
0.0
 46
0.0
 47
0.0
 48
0.0
 49
0.0
140
0.0
141
0.0
142
1.0
143
1.0
 70
     0
 72
     0
 73
     0
 74
     0
  7

 75
     0
147
1.0
148
0.0
149
0.0
100
AcDbLayout
  1
Layout1
 70
     0
 71
     0
 10
0.0
 20
0.0
 11
0.0
 21
0.0
 12
0.0
 22
0.0
 32
0.0
 14
0.0
 24
0.0
 34
0.0
 15
0.0
 25
0.0
 35
0.0
146
0.0
 13
0.0
 23
0.0
 33
0.0
 16
0.0
 26
0.0
 36
0.0
 17
0.0
 27
0.0
 37
0.0
 76
     0
330
B
331
0
345
0
346
0
  0
DICTIONARY
  5
1E
102
{ACAD_REACTORS
330
19
102
}
100
AcDbDictionary
280
     0
281
     1
  3
Layout1
350
21
  3
Model
350
20
  0
DICTIONARY
  5
22
102
{ACAD_REACTORS
330
19
102
}
100
AcDbDictionary
280
     0
281
     1
  0
WIPEOUTVARIABLES
  5
23
100
AcDbWipeoutVariables
 70
     1
  0
ENDSEC
  0
EOF
