  0
SECTION
  2
HEADER
  9
$ACADVER
  1
AC1015
  9
$ACADMAINTVER
 70
     6
  9
$DWGCODEPAGE
  3
DOS850
  9
$INSBASE
 10
0.0
 20
0.0
 30
0.0
  9
$EXTMIN
 10
-6.20761
 20
-5.30408
 30
1.000000E+20
  9
$EXTMAX
 10
6.2134
 20
5.29961
 30
-1.000000E+20
  9
$LIMMIN
 10
0.0
 20
0.0
  9
$LIMMAX
 10
0.0
 20
0.0
  9
$ORTHOMODE
 70
     0
  9
$REGENMODE
 70
     1
  9
$FILLMODE
 70
     1
  9
$QTEXTMODE
 70
     0
  9
$MIRRTEXT
 70
     1
  9
$LTSCALE
 40
1.0
  9
$ATTMODE
 70
     1
  9
$TEXTSIZE
 40
0.2
  9
$TRACEWID
 40
0.05
  9
$TEXTSTYLE
  7
Standard
  9
$CLAYER
  8
0
  9
$CELTYPE
  6
Continuous
  9
$CECOLOR
 62
   256
  9
$CELTSCALE
 40
1.0
  9
$DISPSILH
 70
     0
  9
$DIMSCALE
 40
1.0
  9
$DIMASZ
 40
0.18
  9
$DIMEXO
 40
0.0625
  9
$DIMDLI
 40
0.38
  9
$DIMRND
 40
0.0
  9
$DIMDLE
 40
0.0
  9
$DIMEXE
 40
0.18
  9
$DIMTP
 40
0.0
  9
$DIMTM
 40
0.0
  9
$DIMTXT
 40
0.18
  9
$DIMCEN
 40
0.09
  9
$DIMTSZ
 40
0.0
  9
$DIMTOL
 70
     0
  9
$DIMLIM
 70
     0
  9
$DIMTIH
 70
     1
  9
$DIMTOH
 70
     1
  9
$DIMSE1
 70
     0
  9
$DIMSE2
 70
     0
  9
$DIMTAD
 70
     0
  9
$DIMZIN
 70
     0
  9
$DIMBLK
  1

  9
$DIMASO
 70
     1
  9
$DIMSHO
 70
     1
  9
$DIMPOST
  1

  9
$DIMAPOST
  1

  9
$DIMALT
 70
     0
  9
$DIMALTD
 70
     2
  9
$DIMALTF
 40
25.4
  9
$DIMLFAC
 40
1.0
  9
$DIMTOFL
 70
     0
  9
$DIMTVP
 40
0.0
  9
$DIMTIX
 70
     0
  9
$DIMSOXD
 70
     0
  9
$DIMSAH
 70
     0
  9
$DIMBLK1
  1

  9
$DIMBLK2
  1

  9
$DIMSTYLE
  2
Standard
  9
$DIMCLRD
 70
     0
  9
$DIMCLRE
 70
     0
  9
$DIMCLRT
 70
     0
  9
$DIMTFAC
 40
1.0
  9
$DIMGAP
 40
0.09
  9
$DIMJUST
 70
     0
  9
$DIMSD1
 70
     0
  9
$DIMSD2
 70
     0
  9
$DIMTOLJ
 70
     1
  9
$DIMTZIN
 70
     0
  9
$DIMALTZ
 70
     0
  9
$DIMALTTZ
 70
     0
  9
$DIMUPT
 70
     0
  9
$DIMDEC
 70
     4
  9
$DIMTDEC
 70
     4
  9
$DIMALTU
 70
     2
  9
$DIMALTTD
 70
     2
  9
$DIMTXSTY
  7
Standard
  9
$DIMAUNIT
 70
     0
  9
$DIMADEC
 70
     0
  9
$DIMALTRND
 40
0.0
  9
$DIMAZIN
 70
     0
  9
$DIMDSEP
 70
     0
  9
$DIMATFIT
 70
     3
  9
$DIMFRAC
 70
     0
  9
$DIMLDRBLK
  1

  9
$DIMLUNIT
 70
     2
  9
$DIMLWD
 70
     0
  9
$DIMLWE
 70
     0
  9
$DIMTMOVE
 70
     0
  9
$LUNITS
 70
     2
  9
$LUPREC
 70
     4
  9
$SKETCHINC
 40
0.1
  9
$FILLETRAD
 40
0.0
  9
$AUNITS
 70
     0
  9
$AUPREC
 70
     0
  9
$MENU
  1
acad
  9
$ELEVATION
 40
0.0
  9
$PELEVATION
 40
0.0
  9
$THICKNESS
 40
0.0
  9
$LIMCHECK
 70
     0
  9
$CHAMFERA
 40
0.0
  9
$CHAMFERB
 40
0.0
  9
$CHAMFERC
 40
0.0
  9
$CHAMFERD
 40
0.0
  9
$SKPOLY
 70
     0
  9
$TDCREATE
 40
0.000000000
  9
$TDUCREATE
 40
0.000000000
  9
$TDUPDATE
 40
0.000000000
  9
$TDUUPDATE
 40
0.000000000
  9
$TDINDWG
 40
0.0000000000
  9
$TDUSRTIMER
 40
0.0000000000
  9
$USRTIMER
 70
     1
  9
$ANGBASE
 50
0.0
  9
$ANGDIR
 70
     0
  9
$PDMODE
 70
     0
  9
$PDSIZE
 40
0.0
  9
$PLINEWID
 40
0.0
  9
$SPLFRAME
 70
     0
  9
$SPLINETYPE
 70
     6
  9
$SPLINESEGS
 70
     8
  9
$HANDSEED
  5
41
  9
$SURFTAB1
 70
     6
  9
$SURFTAB2
 70
     6
  9
$SURFTYPE
 70
     6
  9
$SURFU
 70
     6
  9
$SURFV
 70
     6
  9
$UCSBASE
  2

  9
$UCSNAME
  2

  9
$UCSORG
 10
0.0
 20
0.0
 30
0.0
  9
$UCSXDIR
 10
1.0
 20
0.0
 30
0.0
  9
$UCSYDIR
 10
0.0
 20
1.0
 30
0.0
  9
$UCSORTHOREF
  2

  9
$UCSORTHOVIEW
 70
     0
  9
$UCSORGTOP
 10
0.0
 20
0.0
 30
0.0
  9
$UCSORGBOTTOM
 10
0.0
 20
0.0
 30
0.0
  9
$UCSORGLEFT
 10
0.0
 20
0.0
 30
0.0
  9
$UCSORGRIGHT
 10
0.0
 20
0.0
 30
0.0
  9
$UCSORGFRONT
 10
0.0
 20
0.0
 30
0.0
  9
$UCSORGBACK
 10
0.0
 20
0.0
 30
0.0
  9
$PUCSBASE
  2

  9
$PUCSNAME
  2

  9
$PUCSORG
 10
0.0
 20
0.0
 30
0.0
  9
$PUCSXDIR
 10
1.0
 20
0.0
 30
0.0
  9
$PUCSYDIR
 10
0.0
 20
1.0
 30
0.0
  9
$PUCSORTHOREF
  2

  9
$PUCSORTHOVIEW
 70
     0
  9
$PUCSORGTOP
 10
0.0
 20
0.0
 30
0.0
  9
$PUCSORGBOTTOM
 10
0.0
 20
0.0
 30
0.0
  9
$PUCSORGLEFT
 10
0.0
 20
0.0
 30
0.0
  9
$PUCSORGRIGHT
 10
0.0
 20
0.0
 30
0.0
  9
$PUCSORGFRONT
 10
0.0
 20
0.0
 30
0.0
  9
$PUCSORGBACK
 10
0.0
 20
0.0
 30
0.0
  9
$USERI1
 70
     0
  9
$USERI2
 70
     0
  9
$USERI3
 70
     0
  9
$USERI4
 70
     0
  9
$USERI5
 70
     0
  9
$USERR1
 40
0.0
  9
$USERR2
 40
0.0
  9
$USERR3
 40
0.0
  9
$USERR4
 40
0.0
  9
$USERR5
 40
0.0
  9
$WORLDVIEW
 70
     1
  9
$SHADEDGE
 70
     3
  9
$SHADEDIF
 70
    70
  9
$TILEMODE
 70
     1
  9
$MAXACTVP
 70
    16
  9
$PINSBASE
 10
0.0
 20
0.0
 30
0.0
  9
$PLIMCHECK
 70
     0
  9
$PEXTMIN
 10
1.000000E+20
 20
1.000000E+20
 30
1.000000E+20
  9
$PEXTMAX
 10
-1.000000E+20
 20
-1.000000E+20
 30
-1.000000E+20
  9
$PLIMMIN
 10
0.0
 20
0.0
  9
$PLIMMAX
 10
12.0
 20
9.0
  9
$UNITMODE
 70
     0
  9
$VISRETAIN
 70
     0
  9
$PLINEGEN
 70
     1
  9
$PSLTSCALE
 70
     0
  9
$TREEDEPTH
 70
  3020
  9
$CMLSTYLE
  2
Standard
  9
$CMLJUST
 70
     0
  9
$CMLSCALE
 40
1.0
  9
$PROXYGRAPHICS
 70
     0
  9
$MEASUREMENT
 70
     0
  9
$CELWEIGHT
370
     0
  9
$ENDCAPS
280
     0
  9
$JOINSTYLE
280
     0
  9
$LWDISPLAY
290
     0
  9
$INSUNITS
 70
     5
  9
$HYPERLINKBASE
  1

  9
$XEDIT
290
     1
  9
$CEPSNTYPE
380
     0
  9
$PSTYLEMODE
290
     1
  9
$FINGERPRINTGUID
  2

  9
$VERSIONGUID
  2

  9
$EXTNAMES
290
     1
  9
$PSVPSCALE
 40
0.0
  0
ENDSEC
  0
SECTION
  2
CLASSES
  0
CLASS
  1
LWPOLYLINE
  2
AcDbPolyline
  3
AutoCAD 2000
 90
    32768
280
     0
281
     1
  0
CLASS
  1
IMAGE
  2
AcDbRasterImage
  3
ISM
 90
    32895
280
     0
281
     1
  0
CLASS
  1
OLE2FRAME
  2
AcDbOle2Frame
  3
AutoCAD 2000
 90
    32768
280
     0
281
     1
  0
CLASS
  1
HATCH
  2
AcDbHatch
  3
AutoCAD 2000
 90
    32768
280
     0
281
     1
  0
CLASS
  1
DICTIONARYVAR
  2
AcDbDictionaryVar
  3
AutoCAD 2000
 90
    32768
280
     0
281
     0
  0
CLASS
  1
RASTERVARIABLES
  2
AcDbRasterVariables
  3
ISM
 90
    32768
280
     0
281
     0
  0
CLASS
  1
IMAGEDEF
  2
AcDbRasterImageDef
  3
ISM
 90
    32768
280
     0
281
     0
  0
CLASS
  1
IMAGEDEF_REACTOR
  2
AcDbRasterImageDefReactor
  3
ISM
 90
    32769
280
     0
281
     0
  0
CLASS
  1
IDBUFFER
  2
AcDbIdBuffer
  3
AutoCAD 2000
 90
    32768
280
     0
281
     0
  0
CLASS
  1
SPATIAL_FILTER
  2
AcDbSpatialFilter
  3
AutoCAD 2000
 90
    32768
280
     0
281
     0
  0
CLASS
  1
XRECORD
  2
AcDbXrecord
  3
AutoCAD 2000
 90
    32768
280
     0
281
     0
  0
CLASS
  1
SORTENTSTABLE
  2
AcDbSortentsTable
  3
AutoCAD 2000
 90
    32768
280
     0
281
     0
  0
CLASS
  1
LAYER_INDEX
  2
AcDbLayerIndex
  3
AutoCAD 2000
 90
    32768
280
     0
281
     0
  0
CLASS
  1
SPATIAL_INDEX
  2
AcDbSpatialIndex
  3
AutoCAD 2000
 90
    32768
280
     0
281
     0
  0
CLASS
  1
OBJECT_PTR
  2
CAseDLPNTableRecord
  3
"ASE-LPNTableRecord"
 90
    32769
280
     0
281
     0
  0
CLASS
  1
LAYOUT
  2
AcDbLayout
  3
AutoCAD 2000
 90
        0
280
     0
281
     0
  0
CLASS
  1
PLOTSETTINGS
  2
AcDbPlotSettings
  3
AutoCAD 2000
 90
    32768
280
     0
281
     0
  0
CLASS
  1
ACDBDICTIONARYWDFLT
  2
AcDbDictionaryWithDefault
  3
AutoCAD 2000
 90
        0
280
     0
281
     0
  0
CLASS
  1
ACDBPLACEHOLDER
  2
AcDbPlaceHolder
  3
AutoCAD 2000
 90
        0
280
     0
281
     0
  0
CLASS
  1
VBA_PROJECT
  2
AcDbVbaProject
  3
acadvba
 90
    32768
280
     0
281
     0
  0
CLASS
  1
WIPEOUT
  2
AcDbWipeout
  3
WipeOut|AutoCAD Express Tool|expresstools@autodesk.com
 90
    32895
280
     0
281
     1
  0
CLASS
  1
WIPEOUTVARIABLES
  2
AcDbWipeoutVariables
  3
WipeOut|AutoCAD Express Tool|expresstools@autodesk.com
 90
        0
280
     0
281
     0
  0
CLASS
  1
RTEXT
  2
RText
  3
RText|AutoCAD Express Tool|expresstools@autodesk.com
 90
    32768
280
     0
281
     1
  0
CLASS
  1
ARCALIGNEDTEXT
  2
AcDbArcAlignedText
  3
ATEXT|AutoCAD Express Tool|expresstools@autodesk.com
 90
    32768
280
     0
281
     1
  0
ENDSEC
  0
SECTION
  2
TABLES
  0
TABLE
  2
VPORT
  5
7
100
AcDbSymbolTable
 70
     1
  0
VPORT
  5
15
100
AcDbSymbolTableRecord
100
AcDbViewportTableRecord
  2
*ACTIVE
 70
     0
 10
0.0
 20
0.0
 11
1.0
 21
1.0
 12
6.591288
 22
4.579184
 13
0.0
 23
0.0
 14
1.0
 24
1.0
 15
0.0
 25
0.0
 16
0.0
 26
0.0
 36
1.0
 17
0.0
 27
0.0
 37
0.0
 40
9.158369
 41
0.688564
 42
50.0
 43
0.0
 44
0.0
 50
0.0
 51
0.0
 71
     0
 72
   100
 73
     1
 74
     1
 75
     0
 76
     0
 77
     0
 78
     0
281
     0
 65
     0
110
0.0
120
0.0
130
0.0
111
1.0
121
0.0
131
0.0
112
0.0
122
1.0
132
0.0
345
0
346
0
 79
     0
146
0.0
  0
ENDTAB
  0
TABLE
  2
LTYPE
  5
4
100
AcDbSymbolTable
 70
     3
  0
LTYPE
  5
11
100
AcDbSymbolTableRecord
100
AcDbLinetypeTableRecord
  2
ByBlock
 70
    64
  3

 72
    65
 73
     0
 40
0.0
  0
LTYPE
  5
12
100
AcDbSymbolTableRecord
100
AcDbLinetypeTableRecord
  2
ByLayer
 70
    64
  3

 72
    65
 73
     0
 40
0.0
  0
LTYPE
  5
13
100
AcDbSymbolTableRecord
100
AcDbLinetypeTableRecord
  2
Continuous
 70
    64
  3
Solid line
 72
    65
 73
     0
 40
0.0
  0
ENDTAB
  0
TABLE
  2
LAYER
  5
2
100
AcDbSymbolTable
 70
     2
  0
LAYER
  5
14
100
AcDbSymbolTableRecord
100
AcDbLayerTableRecord
  2
0
 70
     0
 62
     7
  6
Continuous
290
     1
370
    -3
390
1D
  0
LAYER
  5
24
100
AcDbSymbolTableRecord
100
AcDbLayerTableRecord
  2
Ebene 1
 70
     0
 62
     7
  6
Continuous
290
     1
370
    -3
390
1F
  0
ENDTAB
  0
TABLE
  2
STYLE
  5
3
100
AcDbSymbolTable
 70
     1
  0
STYLE
  5
17
100
AcDbSymbolTableRecord
100
AcDbTextStyleTableRecord
  2
Standard
 70
     0
 40
0.0
 41
1.0
 50
0.0
 71
     0
 42
0.0
  3
txt
  4

  0
ENDTAB
  0
TABLE
  2
VIEW
  5
5
100
AcDbSymbolTable
 70
     0
  0
ENDTAB
  0
TABLE
  2
UCS
  5
6
100
AcDbSymbolTable
 70
     0
  0
ENDTAB
  0
TABLE
  2
APPID
  5
8
100
AcDbSymbolTable
 70
     1
  0
APPID
  5
16
100
AcDbSymbolTableRecord
100
AcDbRegAppTableRecord
  2
ACAD
 70
     0
  0
ENDTAB
  0
TABLE
  2
DIMSTYLE
  5
9
100
AcDbSymbolTable
 70
     1
100
AcDbDimStyleTable
 71
     0
  0
DIMSTYLE
105
18
100
AcDbSymbolTableRecord
100
AcDbDimStyleTableRecord
  2
Standard
 70
     0
  3

  4

 40
1.0
 41
0.18
 42
0.0625
 43
0.38
 44
0.18
 45
0.0
 46
0.0
 47
0.0
 48
0.0
 71
     0
 72
     0
 73
     1
 74
     1
 75
     0
 76
     0
 77
     0
 78
     0
 79
     0
140
0.18
141
0.09
142
0.0
143
25.4
144
1.0
145
0.0
146
1.0
147
0.09
148
0.0
170
     0
171
     2
172
     0
173
     0
174
     0
175
     0
176
     0
177
     0
178
     0
179
     0
271
     4
272
     4
273
     2
274
     2
275
     0
276
     0
277
     2
278
    46
279
     0
280
     0
281
     0
282
     0
283
     1
284
     0
285
     0
286
     0
288
     0
340
17
341
0
342
0
343
0
344
0
371
    -2
372
    -2
  0
ENDTAB
  0
TABLE
  2
BLOCK_RECORD
  5
1
100
AcDbSymbolTable
 70
     0
  0
BLOCK_RECORD
  5
A
100
AcDbSymbolTableRecord
100
AcDbBlockTableRecord
  2
*MODEL_SPACE
340
20
  0
BLOCK_RECORD
  5
B
100
AcDbSymbolTableRecord
100
AcDbBlockTableRecord
  2
*PAPER_SPACE
340
21
  0
ENDTAB
  0
ENDSEC
  0
SECTION
  2
BLOCKS
  0
BLOCK
  5
D
100
AcDbEntity
  8
0
100
AcDbBlockBegin
  2
*MODEL_SPACE
 70
     0
 10
0.0
 20
0.0
 30
0.0
  3
*MODEL_SPACE
  1

  0
ENDBLK
  5
E
100
AcDbEntity
  8
0
100
AcDbBlockEnd
  0
BLOCK
  5
F
100
AcDbEntity
 67
     1
  8
0
100
AcDbBlockBegin
  2
*PAPER_SPACE
 70
     0
 10
0.0
 20
0.0
 30
0.0
  3
*PAPER_SPACE
  1

  0
ENDBLK
  5
10
100
AcDbEntity
 67
     1
  8
0
100
AcDbBlockEnd
  0
ENDSEC
  0
SECTION
  2
ENTITIES
  0
SPLINE
  5
25
100
AcDbEntity
  8
Ebene 1
100
AcDbSpline
210
0.0
220
0.0
230
1.0
 70
     1
 71
     3
 72
   116
 73
   112
 74
     0
 42
0.0000000001
 43
0.0000000001
 40
0.0
 40
0.0
 40
0.0
 40
0.0
 40
0.0357142857142857
 40
0.0357142857142857
 40
0.0357142857142857
 40
0.0357142857142857
 40
0.0714285714285714
 40
0.0714285714285714
 40
0.0714285714285714
 40
0.0714285714285714
 40
0.1071428571428571
 40
0.1071428571428571
 40
0.1071428571428571
 40
0.1071428571428571
 40
0.1428571428571429
 40
0.1428571428571429
 40
0.1428571428571429
 40
0.1428571428571429
 40
0.1785714285714286
 40
0.1785714285714286
 40
0.1785714285714286
 40
0.1785714285714286
 40
0.2142857142857143
 40
0.2142857142857143
 40
0.2142857142857143
 40
0.2142857142857143
 40
0.2499999999999999
 40
0.2499999999999999
 40
0.2499999999999999
 40
0.2499999999999999
 40
0.2857142857142856
 40
0.2857142857142856
 40
0.2857142857142856
 40
0.2857142857142856
 40
0.3214285714285713
 40
0.3214285714285713
 40
0.3214285714285713
 40
0.3214285714285713
 40
0.357142857142857
 40
0.357142857142857
 40
0.357142857142857
 40
0.357142857142857
 40
0.3928571428571427
 40
0.3928571428571427
 40
0.3928571428571427
 40
0.3928571428571427
 40
0.4285714285714284
 40
0.4285714285714284
 40
0.4285714285714284
 40
0.4285714285714284
 40
0.4642857142857141
 40
0.4642857142857141
 40
0.4642857142857141
 40
0.4642857142857141
 40
0.4999999999999998
 40
0.4999999999999998
 40
0.4999999999999998
 40
0.4999999999999998
 40
0.5357142857142856
 40
0.5357142857142856
 40
0.5357142857142856
 40
0.5357142857142856
 40
0.5714285714285713
 40
0.5714285714285713
 40
0.5714285714285713
 40
0.5714285714285713
 40
0.607142857142857
 40
0.607142857142857
 40
0.607142857142857
 40
0.607142857142857
 40
0.6428571428571427
 40
0.6428571428571427
 40
0.6428571428571427
 40
0.6428571428571427
 40
0.6785714285714284
 40
0.6785714285714284
 40
0.6785714285714284
 40
0.6785714285714284
 40
0.7142857142857141
 40
0.7142857142857141
 40
0.7142857142857141
 40
0.7142857142857141
 40
0.7499999999999998
 40
0.7499999999999998
 40
0.7499999999999998
 40
0.7499999999999998
 40
0.7857142857142855
 40
0.7857142857142855
 40
0.7857142857142855
 40
0.7857142857142855
 40
0.8214285714285712
 40
0.8214285714285712
 40
0.8214285714285712
 40
0.8214285714285712
 40
0.8571428571428569
 40
0.8571428571428569
 40
0.8571428571428569
 40
0.8571428571428569
 40
0.8928571428571426
 40
0.8928571428571426
 40
0.8928571428571426
 40
0.8928571428571426
 40
0.9285714285714283
 40
0.9285714285714283
 40
0.9285714285714283
 40
0.9285714285714283
 40
0.964285714285714
 40
0.964285714285714
 40
0.964285714285714
 40
0.964285714285714
 40
1.0
 40
1.0
 40
1.0
 40
1.0
 10
1.9026000000000001
 20
5.2953300000000008
 30
0.0
 10
2.3369400000000002
 20
5.35121
 30
0.0
 10
2.6595200000000001
 20
4.8660700000000006
 30
0.0
 10
2.5274400000000004
 20
4.4368100000000004
 30
0.0
 10
2.5274400000000004
 20
4.4368100000000004
 30
0.0
 10
3.3554800000000005
 20
4.5155500000000002
 30
0.0
 10
4.2775000000000007
 20
3.0956900000000003
 30
0.0
 10
4.9226600000000005
 20
4.1142300000000001
 30
0.0
 10
4.9226600000000005
 20
4.1142300000000001
 30
0.0
 10
4.9734600000000002
 20
3.6773500000000001
 30
0.0
 10
4.5619800000000001
 20
3.3192100000000004
 30
0.0
 10
4.2013000000000007
 20
3.2353900000000002
 30
0.0
 10
4.2013000000000007
 20
3.2353900000000002
 30
0.0
 10
5.3951000000000002
 20
2.2625700000000002
 30
0.0
 10
4.8109000000000002
 20
0.41853
 30
0.0
 10
5.7430800000000009
 20
-0.6609600000000001
 30
0.0
 10
5.7430800000000009
 20
-0.6609600000000001
 30
0.0
 10
5.9183400000000006
 20
-0.72192
 30
0.0
 10
6.0148600000000005
 20
-0.5390400000000001
 30
0.0
 10
6.1393200000000006
 20
-0.5238
 30
0.0
 10
6.1393200000000006
 20
-0.5238
 30
0.0
 10
6.1393200000000006
 20
-0.5238
 30
0.0
 10
6.1901200000000003
 20
-0.7320800000000001
 30
0.0
 10
6.1901200000000003
 20
-0.7320800000000001
 30
0.0
 10
6.1901200000000003
 20
-0.7320800000000001
 30
0.0
 10
6.3628400000000003
 20
-1.41534
 30
0.0
 10
5.5195600000000002
 20
-1.3086600000000002
 30
0.0
 10
5.4687600000000005
 20
-1.6769600000000002
 30
0.0
 10
5.4687600000000005
 20
-1.6769600000000002
 30
0.0
 10
5.4814600000000002
 20
-1.8573000000000002
 30
0.0
 10
5.5322600000000008
 20
-2.02494
 30
0.0
 10
5.5932200000000005
 20
-2.19258
 30
0.0
 10
5.5932200000000005
 20
-2.19258
 30
0.0
 10
6.3272800000000009
 20
-3.0434800000000002
 30
0.0
 10
6.3145800000000003
 20
-4.7656000000000001
 30
0.0
 10
5.3214400000000008
 20
-5.3040800000000008
 30
0.0
 10
5.3214400000000008
 20
-5.3040800000000008
 30
0.0
 10
5.1715800000000005
 20
-5.2863000000000007
 30
0.0
 10
5.0471200000000005
 20
-5.1720000000000006
 30
0.0
 10
4.9963200000000008
 20
-5.0170600000000007
 30
0.0
 10
4.9963200000000008
 20
-5.0170600000000007
 30
0.0
 10
6.1266200000000008
 20
-5.0119800000000003
 30
0.0
 10
5.2452400000000008
 20
-3.3457400000000002
 30
0.0
 10
4.6610400000000007
 20
-2.8987000000000003
 30
0.0
 10
4.6610400000000007
 20
-2.8987000000000003
 30
0.0
 10
4.5365800000000007
 20
-2.5532600000000003
 30
0.0
 10
4.4883200000000008
 20
-2.9850600000000003
 30
0.0
 10
4.6000800000000002
 20
-3.1298400000000002
 30
0.0
 10
4.6000800000000002
 20
-3.1298400000000002
 30
0.0
 10
4.6000800000000002
 20
-3.1298400000000002
 30
0.0
 10
4.7118400000000005
 20
-3.3432000000000004
 30
0.0
 10
4.7118400000000005
 20
-3.3432000000000004
 30
0.0
 10
4.7118400000000005
 20
-3.3432000000000004
 30
0.0
 10
3.7796600000000002
 20
-3.0790400000000004
 30
0.0
 10
4.4502200000000007
 20
-1.7912600000000001
 30
0.0
 10
4.0514400000000004
 20
-1.1410200000000001
 30
0.0
 10
4.0514400000000004
 20
-1.1410200000000001
 30
0.0
 10
3.8787200000000004
 20
-0.7041400000000001
 30
0.0
 10
3.3453200000000001
 20
-0.8311400000000001
 30
0.0
 10
3.1954600000000002
 20
-1.2248400000000002
 30
0.0
 10
3.1954600000000002
 20
-1.2248400000000002
 30
0.0
 10
3.2691200000000005
 20
-1.5652000000000001
 30
0.0
 10
3.6933000000000002
 20
-1.8801600000000001
 30
0.0
 10
3.4189800000000004
 20
-2.2611600000000003
 30
0.0
 10
3.4189800000000004
 20
-2.2611600000000003
 30
0.0
 10
3.4672400000000003
 20
-1.8420600000000003
 30
0.0
 10
2.9084400000000001
 20
-1.6388600000000002
 30
0.0
 10
2.6976200000000001
 20
-1.3188200000000001
 30
0.0
 10
2.6976200000000001
 20
-1.3188200000000001
 30
0.0
 10
2.1997800000000001
 20
-2.1341600000000001
 30
0.0
 10
2.1693000000000002
 20
-3.1349200000000002
 30
0.0
 10
1.9762600000000001
 20
-4.0696400000000006
 30
0.0
 10
1.9762600000000001
 20
-4.0696400000000006
 30
0.0
 10
1.6511400000000001
 20
-4.2017200000000008
 30
0.0
 10
1.4123800000000002
 20
-4.5217600000000004
 30
0.0
 10
1.0821800000000001
 20
-4.6208200000000001
 30
0.0
 10
1.0821800000000001
 20
-4.6208200000000001
 30
0.0
 10
1.0821800000000001
 20
-4.6208200000000001
 30
0.0
 10
0.8764400000000001
 20
-4.5903400000000003
 30
0.0
 10
0.8764400000000001
 20
-4.5903400000000003
 30
0.0
 10
0.8764400000000001
 20
-4.5903400000000003
 30
0.0
 10
0.08142
 20
-3.3203400000000003
 30
0.0
 10
-0.63231
 20
-1.9538200000000001
 30
0.0
 10
-0.6297700000000001
 20
-0.36124
 30
0.0
 10
-0.6297700000000001
 20
-0.36124
 30
0.0
 10
-0.82535
 20
-0.09708
 30
0.0
 10
-1.1758700000000002
 20
0.18739
 30
0.0
 10
-1.0666500000000001
 20
0.5861700000000001
 30
0.0
 10
-1.0666500000000001
 20
0.5861700000000001
 30
0.0
 10
-1.0514100000000002
 20
0.68269
 30
0.0
 10
-1.03363
 20
0.8122300000000001
 30
0.0
 10
-1.1022100000000001
 20
0.8833500000000001
 30
0.0
 10
-1.1022100000000001
 20
0.8833500000000001
 30
0.0
 10
-2.7735300000000001
 20
0.27629
 30
0.0
 10
-4.48041
 20
-0.346
 30
0.0
 10
-6.2076100000000007
 20
-0.7041400000000001
 30
0.0
 10
-6.2076100000000007
 20
-0.7041400000000001
 30
0.0
 10
-4.5947100000000001
 20
0.06801
 30
0.0
 10
-2.8192500000000003
 20
0.7182500000000001
 30
0.0
 10
-1.1530100000000001
 20
1.3938900000000001
 30
0.0
 10
-1.1530100000000001
 20
1.3938900000000001
 30
0.0
 10
-1.4857500000000001
 20
3.0626700000000002
 30
0.0
 10
0.14746
 20
4.4368100000000004
 30
0.0
 10
1.5546200000000001
 20
4.4037900000000008
 30
0.0
 10
1.5546200000000001
 20
4.4037900000000008
 30
0.0
 10
1.7248000000000001
 20
4.49777
 30
0.0
 10
1.9330800000000001
 20
4.49777
 30
0.0
 10
2.0626200000000003
 20
4.6831900000000006
 30
0.0
 10
2.0626200000000003
 20
4.6831900000000006
 30
0.0
 10
2.2836000000000003
 20
4.9422700000000006
 30
0.0
 10
1.9076800000000003
 20
5.2572300000000007
 30
0.0
 10
1.9026000000000001
 20
5.2953300000000008
 30
0.0
  0
SPLINE
  5
26
100
AcDbEntity
  8
Ebene 1
 62
     7
100
AcDbSpline
210
0.0
220
0.0
230
1.0
 70
     1
 71
     3
 72
   324
 73
   320
 74
     0
 42
0.0000000001
 43
0.0000000001
 40
0.0
 40
0.0
 40
0.0
 40
0.0
 40
0.0125
 40
0.0125
 40
0.0125
 40
0.0125
 40
0.025
 40
0.025
 40
0.025
 40
0.025
 40
0.0375
 40
0.0375
 40
0.0375
 40
0.0375
 40
0.05
 40
0.05
 40
0.05
 40
0.05
 40
0.0625
 40
0.0625
 40
0.0625
 40
0.0625
 40
0.075
 40
0.075
 40
0.075
 40
0.075
 40
0.0875
 40
0.0875
 40
0.0875
 40
0.0875
 40
0.1
 40
0.1
 40
0.1
 40
0.1
 40
0.1125
 40
0.1125
 40
0.1125
 40
0.1125
 40
0.125
 40
0.125
 40
0.125
 40
0.125
 40
0.1375
 40
0.1375
 40
0.1375
 40
0.1375
 40
0.15
 40
0.15
 40
0.15
 40
0.15
 40
0.1625
 40
0.1625
 40
0.1625
 40
0.1625
 40
0.175
 40
0.175
 40
0.175
 40
0.175
 40
0.1875
 40
0.1875
 40
0.1875
 40
0.1875
 40
0.2
 40
0.2
 40
0.2
 40
0.2
 40
0.2125000000000001
 40
0.2125000000000001
 40
0.2125000000000001
 40
0.2125000000000001
 40
0.2250000000000001
 40
0.2250000000000001
 40
0.2250000000000001
 40
0.2250000000000001
 40
0.2375000000000001
 40
0.2375000000000001
 40
0.2375000000000001
 40
0.2375000000000001
 40
0.2500000000000001
 40
0.2500000000000001
 40
0.2500000000000001
 40
0.2500000000000001
 40
0.2625000000000001
 40
0.2625000000000001
 40
0.2625000000000001
 40
0.2625000000000001
 40
0.2750000000000001
 40
0.2750000000000001
 40
0.2750000000000001
 40
0.2750000000000001
 40
0.2875000000000001
 40
0.2875000000000001
 40
0.2875000000000001
 40
0.2875000000000001
 40
0.3000000000000001
 40
0.3000000000000001
 40
0.3000000000000001
 40
0.3000000000000001
 40
0.3125000000000001
 40
0.3125000000000001
 40
0.3125000000000001
 40
0.3125000000000001
 40
0.3250000000000001
 40
0.3250000000000001
 40
0.3250000000000001
 40
0.3250000000000001
 40
0.3375000000000001
 40
0.3375000000000001
 40
0.3375000000000001
 40
0.3375000000000001
 40
0.3500000000000001
 40
0.3500000000000001
 40
0.3500000000000001
 40
0.3500000000000001
 40
0.3625000000000002
 40
0.3625000000000002
 40
0.3625000000000002
 40
0.3625000000000002
 40
0.3750000000000002
 40
0.3750000000000002
 40
0.3750000000000002
 40
0.3750000000000002
 40
0.3875000000000002
 40
0.3875000000000002
 40
0.3875000000000002
 40
0.3875000000000002
 40
0.4000000000000002
 40
0.4000000000000002
 40
0.4000000000000002
 40
0.4000000000000002
 40
0.4125000000000002
 40
0.4125000000000002
 40
0.4125000000000002
 40
0.4125000000000002
 40
0.4250000000000002
 40
0.4250000000000002
 40
0.4250000000000002
 40
0.4250000000000002
 40
0.4375000000000002
 40
0.4375000000000002
 40
0.4375000000000002
 40
0.4375000000000002
 40
0.4500000000000002
 40
0.4500000000000002
 40
0.4500000000000002
 40
0.4500000000000002
 40
0.4625000000000002
 40
0.4625000000000002
 40
0.4625000000000002
 40
0.4625000000000002
 40
0.4750000000000003
 40
0.4750000000000003
 40
0.4750000000000003
 40
0.4750000000000003
 40
0.4875000000000003
 40
0.4875000000000003
 40
0.4875000000000003
 40
0.4875000000000003
 40
0.5000000000000002
 40
0.5000000000000002
 40
0.5000000000000002
 40
0.5000000000000002
 40
0.5125000000000002
 40
0.5125000000000002
 40
0.5125000000000002
 40
0.5125000000000002
 40
0.5250000000000001
 40
0.5250000000000001
 40
0.5250000000000001
 40
0.5250000000000001
 40
0.5375000000000001
 40
0.5375000000000001
 40
0.5375000000000001
 40
0.5375000000000001
 40
0.55
 40
0.55
 40
0.55
 40
0.55
 40
0.5625
 40
0.5625
 40
0.5625
 40
0.5625
 40
0.575
 40
0.575
 40
0.575
 40
0.575
 40
0.5874999999999999
 40
0.5874999999999999
 40
0.5874999999999999
 40
0.5874999999999999
 40
0.5999999999999999
 40
0.5999999999999999
 40
0.5999999999999999
 40
0.5999999999999999
 40
0.6124999999999998
 40
0.6124999999999998
 40
0.6124999999999998
 40
0.6124999999999998
 40
0.6249999999999998
 40
0.6249999999999998
 40
0.6249999999999998
 40
0.6249999999999998
 40
0.6374999999999997
 40
0.6374999999999997
 40
0.6374999999999997
 40
0.6374999999999997
 40
0.6499999999999997
 40
0.6499999999999997
 40
0.6499999999999997
 40
0.6499999999999997
 40
0.6624999999999996
 40
0.6624999999999996
 40
0.6624999999999996
 40
0.6624999999999996
 40
0.6749999999999996
 40
0.6749999999999996
 40
0.6749999999999996
 40
0.6749999999999996
 40
0.6874999999999996
 40
0.6874999999999996
 40
0.6874999999999996
 40
0.6874999999999996
 40
0.6999999999999995
 40
0.6999999999999995
 40
0.6999999999999995
 40
0.6999999999999995
 40
0.7124999999999995
 40
0.7124999999999995
 40
0.7124999999999995
 40
0.7124999999999995
 40
0.7249999999999994
 40
0.7249999999999994
 40
0.7249999999999994
 40
0.7249999999999994
 40
0.7374999999999994
 40
0.7374999999999994
 40
0.7374999999999994
 40
0.7374999999999994
 40
0.7499999999999993
 40
0.7499999999999993
 40
0.7499999999999993
 40
0.7499999999999993
 40
0.7624999999999993
 40
0.7624999999999993
 40
0.7624999999999993
 40
0.7624999999999993
 40
0.7749999999999993
 40
0.7749999999999993
 40
0.7749999999999993
 40
0.7749999999999993
 40
0.7874999999999992
 40
0.7874999999999992
 40
0.7874999999999992
 40
0.7874999999999992
 40
0.7999999999999992
 40
0.7999999999999992
 40
0.7999999999999992
 40
0.7999999999999992
 40
0.8124999999999991
 40
0.8124999999999991
 40
0.8124999999999991
 40
0.8124999999999991
 40
0.8249999999999991
 40
0.8249999999999991
 40
0.8249999999999991
 40
0.8249999999999991
 40
0.837499999999999
 40
0.837499999999999
 40
0.837499999999999
 40
0.837499999999999
 40
0.849999999999999
 40
0.849999999999999
 40
0.849999999999999
 40
0.849999999999999
 40
0.8624999999999989
 40
0.8624999999999989
 40
0.8624999999999989
 40
0.8624999999999989
 40
0.8749999999999989
 40
0.8749999999999989
 40
0.8749999999999989
 40
0.8749999999999989
 40
0.8874999999999989
 40
0.8874999999999989
 40
0.8874999999999989
 40
0.8874999999999989
 40
0.8999999999999988
 40
0.8999999999999988
 40
0.8999999999999988
 40
0.8999999999999988
 40
0.9124999999999988
 40
0.9124999999999988
 40
0.9124999999999988
 40
0.9124999999999988
 40
0.9249999999999987
 40
0.9249999999999987
 40
0.9249999999999987
 40
0.9249999999999987
 40
0.9374999999999987
 40
0.9374999999999987
 40
0.9374999999999987
 40
0.9374999999999987
 40
0.9499999999999986
 40
0.9499999999999986
 40
0.9499999999999986
 40
0.9499999999999986
 40
0.9624999999999986
 40
0.9624999999999986
 40
0.9624999999999986
 40
0.9624999999999986
 40
0.9749999999999985
 40
0.9749999999999985
 40
0.9749999999999985
 40
0.9749999999999985
 40
0.9874999999999985
 40
0.9874999999999985
 40
0.9874999999999985
 40
0.9874999999999985
 40
1.0
 40
1.0
 40
1.0
 40
1.0
 10
3.9930200000000005
 20
0.51505
 30
0.0
 10
3.8431600000000001
 20
1.1271900000000001
 30
0.0
 10
4.0514400000000004
 20
-0.73716
 30
0.0
 10
3.2818200000000002
 20
-0.9048000000000001
 30
0.0
 10
3.2818200000000002
 20
-0.9048000000000001
 30
0.0
 10
3.3199200000000002
 20
-0.6254000000000001
 30
0.0
 10
3.5561400000000001
 20
-0.44252
 30
0.0
 10
3.6171000000000002
 20
-0.17074
 30
0.0
 10
3.6171000000000002
 20
-0.17074
 30
0.0
 10
3.6298000000000004
 20
-0.13264
 30
0.0
 10
3.6679000000000004
 20
-0.07168
 30
0.0
 10
3.6552000000000002
 20
-0.03358
 30
0.0
 10
3.6552000000000002
 20
-0.03358
 30
0.0
 10
3.4570800000000004
 20
-0.44506
 30
0.0
 10
3.0456000000000003
 20
-0.78034
 30
0.0
 10
3.0964
 20
-1.29342
 30
0.0
 10
3.0964
 20
-1.29342
 30
0.0
 10
3.1573600000000002
 20
-1.54488
 30
0.0
 10
3.5434400000000004
 20
-1.7023600000000001
 30
0.0
 10
3.4316800000000001
 20
-1.9995400000000001
 30
0.0
 10
3.4316800000000001
 20
-1.9995400000000001
 30
0.0
 10
3.4316800000000001
 20
-1.9995400000000001
 30
0.0
 10
3.3453200000000001
 20
-1.8344400000000001
 30
0.0
 10
3.3453200000000001
 20
-1.8344400000000001
 30
0.0
 10
3.3453200000000001
 20
-1.8344400000000001
 30
0.0
 10
3.1700600000000003
 20
-1.6287
 30
0.0
 10
2.8830400000000003
 20
-1.5296400000000001
 30
0.0
 10
2.7839800000000001
 20
-1.25024
 30
0.0
 10
2.7839800000000001
 20
-1.25024
 30
0.0
 10
2.7839800000000001
 20
-1.25024
 30
0.0
 10
2.9846400000000002
 20
0.07563
 30
0.0
 10
2.9846400000000002
 20
0.07563
 30
0.0
 10
2.9846400000000002
 20
0.07563
 30
0.0
 10
3.0710000000000002
 20
-0.10978
 30
0.0
 10
3.0583000000000005
 20
-0.3841000000000001
 30
0.0
 10
2.9592400000000003
 20
-0.56952
 30
0.0
 10
2.9592400000000003
 20
-0.56952
 30
0.0
 10
2.9084400000000001
 20
-0.6406400000000001
 30
0.0
 10
3.0329000000000002
 20
-0.6482600000000001
 30
0.0
 10
3.0202000000000004
 20
-0.5796800000000001
 30
0.0
 10
3.0202000000000004
 20
-0.5796800000000001
 30
0.0
 10
3.1827600000000005
 20
-0.2317
 30
0.0
 10
2.9846400000000002
 20
0.13151
 30
0.0
 10
3.0837000000000003
 20
0.48711
 30
0.0
 10
3.0837000000000003
 20
0.48711
 30
0.0
 10
3.0837000000000003
 20
0.48711
 30
0.0
 10
2.9592400000000003
 20
0.21025
 30
0.0
 10
2.9592400000000003
 20
0.21025
 30
0.0
 10
2.9592400000000003
 20
0.21025
 30
0.0
 10
2.8347800000000003
 20
0.07309
 30
0.0
 10
2.5604600000000004
 20
-0.34854
 30
0.0
 10
2.7230200000000004
 20
0.07563
 30
0.0
 10
2.7230200000000004
 20
0.07563
 30
0.0
 10
2.7484200000000003
 20
0.14421
 30
0.0
 10
2.7712800000000004
 20
0.19247
 30
0.0
 10
2.8220800000000001
 20
0.24327
 30
0.0
 10
2.8220800000000001
 20
0.24327
 30
0.0
 10
2.8601800000000002
 20
0.48965
 30
0.0
 10
2.7357200000000002
 20
0.27121
 30
0.0
 10
2.6976200000000001
 20
0.15691
 30
0.0
 10
2.6976200000000001
 20
0.15691
 30
0.0
 10
2.63666
 20
0.03499
 30
0.0
 10
2.6087200000000004
 20
-0.09454
 30
0.0
 10
2.5731600000000001
 20
-0.22408
 30
0.0
 10
2.5731600000000001
 20
-0.22408
 30
0.0
 10
2.5731600000000001
 20
-0.22408
 30
0.0
 10
2.5274400000000004
 20
-0.5492
 30
0.0
 10
2.5274400000000004
 20
-0.5492
 30
0.0
 10
2.5274400000000004
 20
-0.5492
 30
0.0
 10
2.3852000000000002
 20
-0.0412
 30
0.0
 10
2.8093800000000004
 20
0.4540900000000001
 30
0.0
 10
2.5909400000000002
 20
0.97733
 30
0.0
 10
2.5909400000000002
 20
0.97733
 30
0.0
 10
2.8297000000000003
 20
0.5709300000000001
 30
0.0
 10
3.0151200000000005
 20
0.74365
 30
0.0
 10
3.3605600000000004
 20
0.30931
 30
0.0
 10
3.3605600000000004
 20
0.30931
 30
0.0
 10
3.7237800000000001
 20
-0.14534
 30
0.0
 10
3.3885000000000001
 20
0.36519
 30
0.0
 10
3.2437200000000002
 20
0.57855
 30
0.0
 10
3.2437200000000002
 20
0.57855
 30
0.0
 10
2.6722200000000003
 20
0.78937
 30
0.0
 10
2.41568
 20
1.40659
 30
0.0
 10
2.2785200000000003
 20
1.9907900000000001
 30
0.0
 10
2.2785200000000003
 20
1.9907900000000001
 30
0.0
 10
2.46902
 20
1.9272900000000002
 30
0.0
 10
2.6239600000000003
 20
1.6783700000000001
 30
0.0
 10
2.8093800000000004
 20
1.6326500000000002
 30
0.0
 10
2.8093800000000004
 20
1.6326500000000002
 30
0.0
 10
2.8093800000000004
 20
1.6326500000000002
 30
0.0
 10
2.5350600000000001
 20
1.8790300000000002
 30
0.0
 10
2.5350600000000001
 20
1.8790300000000002
 30
0.0
 10
2.5350600000000001
 20
1.8790300000000002
 30
0.0
 10
1.8645
 20
2.2422500000000003
 30
0.0
 10
1.8873600000000001
 20
3.2785700000000002
 30
0.0
 10
1.2117200000000001
 20
3.6341700000000001
 30
0.0
 10
1.2117200000000001
 20
3.6341700000000001
 30
0.0
 10
1.1914
 20
3.5732100000000004
 30
0.0
 10
1.3107800000000001
 20
3.4360500000000003
 30
0.0
 10
1.2599800000000001
 20
3.3928700000000003
 30
0.0
 10
1.2599800000000001
 20
3.3928700000000003
 30
0.0
 10
1.2066400000000002
 20
3.5198700000000005
 30
0.0
 10
1.1380600000000001
 20
3.6798900000000003
 30
0.0
 10
1.0110600000000001
 20
3.7154500000000001
 30
0.0
 10
1.0110600000000001
 20
3.7154500000000001
 30
0.0
 10
1.1355200000000001
 20
3.5630500000000005
 30
0.0
 10
1.23204
 20
3.3319100000000001
 30
0.0
 10
1.2193400000000001
 20
3.0880700000000001
 30
0.0
 10
1.2193400000000001
 20
3.0880700000000001
 30
0.0
 10
1.1990200000000002
 20
2.9890100000000004
 30
0.0
 10
1.1634600000000002
 20
2.8823300000000001
 30
0.0
 10
1.11266
 20
2.80613
 30
0.0
 10
1.11266
 20
2.80613
 30
0.0
 10
1.0644
 20
3.0372700000000004
 30
0.0
 10
1.0796400000000002
 20
3.3141300000000005
 30
0.0
 10
0.8993000000000001
 20
3.4893900000000002
 30
0.0
 10
0.8993000000000001
 20
3.4893900000000002
 30
0.0
 10
0.88914
 20
3.5630500000000005
 30
0.0
 10
0.7265800000000001
 20
3.5757500000000002
 30
0.0
 10
0.785
 20
3.6240100000000002
 30
0.0
 10
0.785
 20
3.6240100000000002
 30
0.0
 10
1.11012
 20
3.6798900000000003
 30
0.0
 10
0.5691000000000001
 20
3.6748100000000004
 30
0.0
 10
0.4624200000000001
 20
3.6646500000000004
 30
0.0
 10
0.4624200000000001
 20
3.6646500000000004
 30
0.0
 10
0.57164
 20
3.7383100000000002
 30
0.0
 10
0.68086
 20
3.8119700000000005
 30
0.0
 10
0.7977000000000001
 20
3.8703900000000004
 30
0.0
 10
0.7977000000000001
 20
3.8703900000000004
 30
0.0
 10
1.0313800000000002
 20
3.9059500000000003
 30
0.0
 10
1.27014
 20
3.8627700000000003
 30
0.0
 10
1.4911200000000002
 20
3.7992700000000004
 30
0.0
 10
1.4911200000000002
 20
3.7992700000000004
 30
0.0
 10
2.1312000000000002
 20
3.3674700000000004
 30
0.0
 10
2.7230200000000004
 20
2.7959700000000001
 30
0.0
 10
3.1726000000000001
 20
2.0949300000000002
 30
0.0
 10
3.1726000000000001
 20
2.0949300000000002
 30
0.0
 10
3.7288600000000005
 20
1.2262500000000001
 30
0.0
 10
3.8482400000000001
 20
1.11449
 30
0.0
 10
3.2564200000000003
 20
2.12541
 30
0.0
 10
3.2564200000000003
 20
2.12541
 30
0.0
 10
2.9668600000000001
 20
2.6207100000000003
 30
0.0
 10
2.5680800000000001
 20
3.0499700000000001
 30
0.0
 10
2.1794600000000002
 20
3.4563700000000002
 30
0.0
 10
2.1794600000000002
 20
3.4563700000000002
 30
0.0
 10
2.2810600000000001
 20
3.4843100000000002
 30
0.0
 10
2.4614000000000003
 20
3.4995500000000002
 30
0.0
 10
2.4842600000000004
 20
3.6341700000000001
 30
0.0
 10
2.4842600000000004
 20
3.6341700000000001
 30
0.0
 10
2.4842600000000004
 20
3.6341700000000001
 30
0.0
 10
2.05246
 20
3.6367100000000003
 30
0.0
 10
2.05246
 20
3.6367100000000003
 30
0.0
 10
2.05246
 20
3.6367100000000003
 30
0.0
 10
1.23458
 20
4.2082100000000002
 30
0.0
 10
0.28716
 20
3.9313500000000001
 30
0.0
 10
-0.40117
 20
3.2709500000000005
 30
0.0
 10
-0.40117
 20
3.2709500000000005
 30
0.0
 10
-0.07859
 20
4.0024700000000006
 30
0.0
 10
0.7062600000000001
 20
4.1548700000000007
 30
0.0
 10
1.3565
 20
4.2666300000000001
 30
0.0
 10
1.3565
 20
4.2666300000000001
 30
0.0
 10
1.5571600000000001
 20
4.2666300000000001
 30
0.0
 10
1.7248000000000001
 20
4.4012500000000001
 30
0.0
 10
1.9127600000000002
 20
4.4418900000000008
 30
0.0
 10
1.9127600000000002
 20
4.4418900000000008
 30
0.0
 10
1.8848200000000002
 20
4.2996500000000006
 30
0.0
 10
1.4352400000000001
 20
4.1167700000000007
 30
0.0
 10
1.7019400000000002
 20
4.16249
 30
0.0
 10
1.7019400000000002
 20
4.16249
 30
0.0
 10
2.0778600000000003
 20
4.2844100000000003
 30
0.0
 10
2.2988400000000002
 20
4.6882700000000002
 30
0.0
 10
2.1921600000000003
 20
5.0997500000000002
 30
0.0
 10
2.1921600000000003
 20
5.0997500000000002
 30
0.0
 10
2.6112600000000001
 20
4.7771700000000008
 30
0.0
 10
2.1870800000000004
 20
4.2818700000000005
 30
0.0
 10
1.8949800000000001
 20
4.0456500000000002
 30
0.0
 10
1.8949800000000001
 20
4.0456500000000002
 30
0.0
 10
2.0651600000000001
 20
3.9897700000000005
 30
0.0
 10
2.13374
 20
4.1701100000000002
 30
0.0
 10
2.2404200000000003
 20
4.2183700000000002
 30
0.0
 10
2.2404200000000003
 20
4.2183700000000002
 30
0.0
 10
2.8246200000000004
 20
4.46983
 30
0.0
 10
3.3681800000000002
 20
3.8602300000000005
 30
0.0
 10
3.9930200000000005
 20
3.6722700000000001
 30
0.0
 10
3.9930200000000005
 20
3.6722700000000001
 30
0.0
 10
4.2292400000000008
 20
3.6011500000000001
 30
0.0
 10
4.468
 20
3.6798900000000003
 30
0.0
 10
4.6864400000000002
 20
3.7027500000000004
 30
0.0
 10
4.6864400000000002
 20
3.7027500000000004
 30
0.0
 10
4.3384600000000004
 20
3.1439500000000002
 30
0.0
 10
3.6298000000000004
 20
3.4208100000000004
 30
0.0
 10
3.2564200000000003
 20
3.7713300000000003
 30
0.0
 10
3.2564200000000003
 20
3.7713300000000003
 30
0.0
 10
3.2818200000000002
 20
3.6341700000000001
 30
0.0
 10
3.4316800000000001
 20
3.5579700000000001
 30
0.0
 10
3.5180400000000005
 20
3.4639900000000003
 30
0.0
 10
3.5180400000000005
 20
3.4639900000000003
 30
0.0
 10
4.6458000000000004
 20
3.0220300000000004
 30
0.0
 10
5.1233200000000005
 20
1.7647300000000001
 30
0.0
 10
5.1207800000000008
 20
0.48965
 30
0.0
 10
5.1207800000000008
 20
0.48965
 30
0.0
 10
4.9353600000000002
 20
0.5709300000000001
 30
0.0
 10
4.7601000000000004
 20
0.9798700000000001
 30
0.0
 10
4.6000800000000002
 20
0.9392300000000001
 30
0.0
 10
4.6000800000000002
 20
0.9392300000000001
 30
0.0
 10
5.1233200000000005
 20
0.5683900000000001
 30
0.0
 10
5.2427000000000001
 20
-0.4577600000000001
 30
0.0
 10
5.7202200000000003
 20
-0.82098
 30
0.0
 10
5.7202200000000003
 20
-0.82098
 30
0.0
 10
5.8192800000000009
 20
-0.8946400000000001
 30
0.0
 10
5.9005600000000005
 20
-0.7930400000000001
 30
0.0
 10
6.0402600000000009
 20
-0.8159000000000001
 30
0.0
 10
6.0402600000000009
 20
-0.8159000000000001
 30
0.0
 10
6.0910600000000006
 20
-0.9225800000000001
 30
0.0
 10
6.0529600000000006
 20
-1.03688
 30
0.0
 10
5.9920000000000009
 20
-1.12324
 30
0.0
 10
5.9920000000000009
 20
-1.12324
 30
0.0
 10
5.7303800000000003
 20
-1.5702800000000001
 30
0.0
 10
5.3443000000000005
 20
-1.1130800000000001
 30
0.0
 10
5.3087400000000002
 20
-0.76002
 30
0.0
 10
5.3087400000000002
 20
-0.76002
 30
0.0
 10
5.2198400000000005
 20
-0.8286000000000001
 30
0.0
 10
5.3214400000000008
 20
-1.03688
 30
0.0
 10
5.3697000000000008
 20
-1.1384800000000002
 30
0.0
 10
5.3697000000000008
 20
-1.1384800000000002
 30
0.0
 10
5.3824000000000005
 20
-1.1765800000000002
 30
0.0
 10
5.4078000000000008
 20
-1.2172200000000002
 30
0.0
 10
5.4078000000000008
 20
-1.2604000000000002
 30
0.0
 10
5.4078000000000008
 20
-1.2604000000000002
 30
0.0
 10
5.0598200000000002
 20
-1.03688
 30
0.0
 10
4.9836200000000002
 20
-0.5365000000000001
 30
0.0
 10
4.8490000000000002
 20
-0.19614
 30
0.0
 10
4.8490000000000002
 20
-0.19614
 30
0.0
 10
4.8490000000000002
 20
-0.19614
 30
0.0
 10
4.8490000000000002
 20
-0.3206000000000001
 30
0.0
 10
4.8490000000000002
 20
-0.3206000000000001
 30
0.0
 10
4.8490000000000002
 20
-0.3206000000000001
 30
0.0
 10
5.0344200000000008
 20
-1.4356600000000002
 30
0.0
 10
5.7176800000000005
 20
-2.3526000000000002
 30
0.0
 10
6.0047000000000006
 20
-3.3838400000000002
 30
0.0
 10
6.0047000000000006
 20
-3.3838400000000002
 30
0.0
 10
5.8421400000000006
 20
-3.2263600000000001
 30
0.0
 10
5.5322600000000008
 20
-2.5253200000000002
 30
0.0
 10
5.4687600000000005
 20
-2.6751800000000001
 30
0.0
 10
5.4687600000000005
 20
-2.6751800000000001
 30
0.0
 10
5.4687600000000005
 20
-2.6751800000000001
 30
0.0
 10
5.5805200000000008
 20
-2.8352000000000004
 30
0.0
 10
5.5805200000000008
 20
-2.8352000000000004
 30
0.0
 10
5.5805200000000008
 20
-2.8352000000000004
 30
0.0
 10
5.8929400000000003
 20
-3.2568400000000004
 30
0.0
 10
6.2155200000000006
 20
-3.8943800000000004
 30
0.0
 10
5.8675400000000009
 20
-4.3846000000000007
 30
0.0
 10
5.8675400000000009
 20
-4.3846000000000007
 30
0.0
 10
5.8675400000000009
 20
-4.3846000000000007
 30
0.0
 10
5.7913400000000008
 20
-3.9502600000000001
 30
0.0
 10
5.7913400000000008
 20
-3.9502600000000001
 30
0.0
 10
5.7913400000000008
 20
-3.9502600000000001
 30
0.0
 10
5.7913400000000008
 20
-3.8435800000000002
 30
0.0
 10
5.6922800000000002
 20
-3.4270200000000002
 30
0.0
 10
5.7176800000000005
 20
-3.7038800000000003
 30
0.0
 10
5.7176800000000005
 20
-3.7038800000000003
 30
0.0
 10
5.7684800000000003
 20
-4.1128200000000001
 30
0.0
 10
5.8548400000000003
 20
-4.5852600000000008
 30
0.0
 10
5.6313200000000005
 20
-4.9535600000000004
 30
0.0
 10
5.6313200000000005
 20
-4.9535600000000004
 30
0.0
 10
5.6313200000000005
 20
-4.9535600000000004
 30
0.0
 10
5.5576600000000003
 20
-5.07294
 30
0.0
 10
5.5576600000000003
 20
-5.07294
 30
0.0
 10
5.5576600000000003
 20
-5.07294
 30
0.0
 10
5.4459000000000009
 20
-5.2964600000000006
 30
0.0
 10
5.0725200000000008
 20
-5.1669200000000002
 30
0.0
 10
5.4205000000000005
 20
-5.0907200000000001
 30
0.0
 10
5.4205000000000005
 20
-5.0907200000000001
 30
0.0
 10
6.1393200000000006
 20
-3.9959800000000003
 30
0.0
 10
4.6254800000000005
 20
-2.9977600000000004
 30
0.0
 10
4.9480600000000008
 20
-1.7709400000000002
 30
0.0
 10
4.9480600000000008
 20
-1.7709400000000002
 30
0.0
 10
4.9480600000000008
 20
-1.6236200000000001
 30
0.0
 10
4.9480600000000008
 20
-1.4686800000000002
 30
0.0
 10
4.9226600000000005
 20
-1.33406
 30
0.0
 10
4.9226600000000005
 20
-1.33406
 30
0.0
 10
4.9099600000000008
 20
-1.5271000000000001
 30
0.0
 10
4.9099600000000008
 20
-1.7328400000000002
 30
0.0
 10
4.8845600000000005
 20
-1.9360400000000002
 30
0.0
 10
4.8845600000000005
 20
-1.9360400000000002
 30
0.0
 10
4.8718600000000007
 20
-2.1798800000000003
 30
0.0
 10
4.8718600000000007
 20
-2.4338800000000003
 30
0.0
 10
4.9353600000000002
 20
-2.6650200000000002
 30
0.0
 10
4.9353600000000002
 20
-2.6650200000000002
 30
0.0
 10
4.9480600000000008
 20
-2.8910800000000001
 30
0.0
 10
5.0725200000000008
 20
-3.0765000000000002
 30
0.0
 10
5.1207800000000008
 20
-3.2873200000000002
 30
0.0
 10
5.1207800000000008
 20
-3.2873200000000002
 30
0.0
 10
4.4883200000000008
 20
-2.8275800000000002
 30
0.0
 10
4.9353600000000002
 20
-1.8928600000000002
 30
0.0
 10
4.6610400000000007
 20
-1.25278
 30
0.0
 10
4.6610400000000007
 20
-1.25278
 30
0.0
 10
4.6610400000000007
 20
-1.25278
 30
0.0
 10
4.6737400000000004
 20
-1.4712200000000002
 30
0.0
 10
4.6737400000000004
 20
-1.4712200000000002
 30
0.0
 10
4.6737400000000004
 20
-1.4712200000000002
 30
0.0
 10
4.8109000000000002
 20
-2.0122400000000003
 30
0.0
 10
4.5619800000000001
 20
-2.4872200000000002
 30
0.0
 10
4.4248200000000004
 20
-2.94442
 30
0.0
 10
4.4248200000000004
 20
-2.94442
 30
0.0
 10
4.1403400000000001
 20
-1.9817600000000002
 30
0.0
 10
4.4502200000000007
 20
-1.3061200000000002
 30
0.0
 10
3.9904800000000002
 20
-0.44252
 30
0.0
 10
3.9904800000000002
 20
-0.44252
 30
0.0
 10
3.9523800000000002
 20
-0.53396
 30
0.0
 10
3.9523800000000002
 20
-0.6863600000000001
 30
0.0
 10
3.9904800000000002
 20
-0.7854200000000001
 30
0.0
 10
3.9904800000000002
 20
-0.7854200000000001
 30
0.0
 10
4.1149400000000007
 20
-1.0597400000000001
 30
0.0
 10
3.8660200000000002
 20
-0.7397
 30
0.0
 10
3.8152200000000005
 20
-0.63556
 30
0.0
 10
3.8152200000000005
 20
-0.63556
 30
0.0
 10
3.9777800000000005
 20
-0.24948
 30
0.0
 10
3.9803200000000003
 20
0.10357
 30
0.0
 10
3.9930200000000005
 20
0.51505
 30
0.0
  0
SPLINE
  5
27
100
AcDbEntity
  8
Ebene 1
 62
     7
100
AcDbSpline
210
0.0
220
0.0
230
1.0
 70
     1
 71
     3
 72
   220
 73
   216
 74
     0
 42
0.0000000001
 43
0.0000000001
 40
0.0
 40
0.0
 40
0.0
 40
0.0
 40
0.0185185185185185
 40
0.0185185185185185
 40
0.0185185185185185
 40
0.0185185185185185
 40
0.037037037037037
 40
0.037037037037037
 40
0.037037037037037
 40
0.037037037037037
 40
0.0555555555555556
 40
0.0555555555555556
 40
0.0555555555555556
 40
0.0555555555555556
 40
0.0740740740740741
 40
0.0740740740740741
 40
0.0740740740740741
 40
0.0740740740740741
 40
0.0925925925925926
 40
0.0925925925925926
 40
0.0925925925925926
 40
0.0925925925925926
 40
0.1111111111111111
 40
0.1111111111111111
 40
0.1111111111111111
 40
0.1111111111111111
 40
0.1296296296296296
 40
0.1296296296296296
 40
0.1296296296296296
 40
0.1296296296296296
 40
0.1481481481481481
 40
0.1481481481481481
 40
0.1481481481481481
 40
0.1481481481481481
 40
0.1666666666666667
 40
0.1666666666666667
 40
0.1666666666666667
 40
0.1666666666666667
 40
0.1851851851851852
 40
0.1851851851851852
 40
0.1851851851851852
 40
0.1851851851851852
 40
0.2037037037037037
 40
0.2037037037037037
 40
0.2037037037037037
 40
0.2037037037037037
 40
0.2222222222222222
 40
0.2222222222222222
 40
0.2222222222222222
 40
0.2222222222222222
 40
0.2407407407407407
 40
0.2407407407407407
 40
0.2407407407407407
 40
0.2407407407407407
 40
0.2592592592592592
 40
0.2592592592592592
 40
0.2592592592592592
 40
0.2592592592592592
 40
0.2777777777777778
 40
0.2777777777777778
 40
0.2777777777777778
 40
0.2777777777777778
 40
0.2962962962962963
 40
0.2962962962962963
 40
0.2962962962962963
 40
0.2962962962962963
 40
0.3148148148148148
 40
0.3148148148148148
 40
0.3148148148148148
 40
0.3148148148148148
 40
0.3333333333333333
 40
0.3333333333333333
 40
0.3333333333333333
 40
0.3333333333333333
 40
0.3518518518518518
 40
0.3518518518518518
 40
0.3518518518518518
 40
0.3518518518518518
 40
0.3703703703703702
 40
0.3703703703703702
 40
0.3703703703703702
 40
0.3703703703703702
 40
0.3888888888888887
 40
0.3888888888888887
 40
0.3888888888888887
 40
0.3888888888888887
 40
0.4074074074074072
 40
0.4074074074074072
 40
0.4074074074074072
 40
0.4074074074074072
 40
0.4259259259259257
 40
0.4259259259259257
 40
0.4259259259259257
 40
0.4259259259259257
 40
0.4444444444444442
 40
0.4444444444444442
 40
0.4444444444444442
 40
0.4444444444444442
 40
0.4629629629629627
 40
0.4629629629629627
 40
0.4629629629629627
 40
0.4629629629629627
 40
0.4814814814814812
 40
0.4814814814814812
 40
0.4814814814814812
 40
0.4814814814814812
 40
0.4999999999999997
 40
0.4999999999999997
 40
0.4999999999999997
 40
0.4999999999999997
 40
0.5185185185185182
 40
0.5185185185185182
 40
0.5185185185185182
 40
0.5185185185185182
 40
0.5370370370370367
 40
0.5370370370370367
 40
0.5370370370370367
 40
0.5370370370370367
 40
0.5555555555555551
 40
0.5555555555555551
 40
0.5555555555555551
 40
0.5555555555555551
 40
0.5740740740740736
 40
0.5740740740740736
 40
0.5740740740740736
 40
0.5740740740740736
 40
0.5925925925925921
 40
0.5925925925925921
 40
0.5925925925925921
 40
0.5925925925925921
 40
0.6111111111111106
 40
0.6111111111111106
 40
0.6111111111111106
 40
0.6111111111111106
 40
0.6296296296296291
 40
0.6296296296296291
 40
0.6296296296296291
 40
0.6296296296296291
 40
0.6481481481481476
 40
0.6481481481481476
 40
0.6481481481481476
 40
0.6481481481481476
 40
0.6666666666666661
 40
0.6666666666666661
 40
0.6666666666666661
 40
0.6666666666666661
 40
0.6851851851851846
 40
0.6851851851851846
 40
0.6851851851851846
 40
0.6851851851851846
 40
0.7037037037037031
 40
0.7037037037037031
 40
0.7037037037037031
 40
0.7037037037037031
 40
0.7222222222222215
 40
0.7222222222222215
 40
0.7222222222222215
 40
0.7222222222222215
 40
0.74074074074074
 40
0.74074074074074
 40
0.74074074074074
 40
0.74074074074074
 40
0.7592592592592585
 40
0.7592592592592585
 40
0.7592592592592585
 40
0.7592592592592585
 40
0.777777777777777
 40
0.777777777777777
 40
0.777777777777777
 40
0.777777777777777
 40
0.7962962962962955
 40
0.7962962962962955
 40
0.7962962962962955
 40
0.7962962962962955
 40
0.814814814814814
 40
0.814814814814814
 40
0.814814814814814
 40
0.814814814814814
 40
0.8333333333333325
 40
0.8333333333333325
 40
0.8333333333333325
 40
0.8333333333333325
 40
0.851851851851851
 40
0.851851851851851
 40
0.851851851851851
 40
0.851851851851851
 40
0.8703703703703695
 40
0.8703703703703695
 40
0.8703703703703695
 40
0.8703703703703695
 40
0.888888888888888
 40
0.888888888888888
 40
0.888888888888888
 40
0.888888888888888
 40
0.9074074074074064
 40
0.9074074074074064
 40
0.9074074074074064
 40
0.9074074074074064
 40
0.9259259259259249
 40
0.9259259259259249
 40
0.9259259259259249
 40
0.9259259259259249
 40
0.9444444444444434
 40
0.9444444444444434
 40
0.9444444444444434
 40
0.9444444444444434
 40
0.9629629629629619
 40
0.9629629629629619
 40
0.9629629629629619
 40
0.9629629629629619
 40
0.9814814814814804
 40
0.9814814814814804
 40
0.9814814814814804
 40
0.9814814814814804
 40
1.0
 40
1.0
 40
1.0
 40
1.0
 10
1.1329800000000001
 20
-3.8385000000000002
 30
0.0
 10
1.0034400000000001
 20
-3.7191200000000002
 30
0.0
 10
0.7469
 20
-3.5921200000000004
 30
0.0
 10
1.0059800000000001
 20
-3.8004000000000002
 30
0.0
 10
1.0059800000000001
 20
-3.8004000000000002
 30
0.0
 10
1.0491600000000001
 20
-3.8308800000000005
 30
0.0
 10
1.1558400000000002
 20
-3.9299400000000002
 30
0.0
 10
1.0466200000000001
 20
-3.8664400000000003
 30
0.0
 10
1.0466200000000001
 20
-3.8664400000000003
 30
0.0
 10
1.0085200000000001
 20
-3.8689800000000005
 30
0.0
 10
0.9475600000000001
 20
-3.8334200000000003
 30
0.0
 10
0.9602600000000001
 20
-3.9096200000000003
 30
0.0
 10
0.9602600000000001
 20
-3.9096200000000003
 30
0.0
 10
0.95264
 20
-3.9502600000000001
 30
0.0
 10
0.9856600000000001
 20
-3.9782000000000002
 30
0.0
 10
1.0059800000000001
 20
-4.0061400000000003
 30
0.0
 10
1.0059800000000001
 20
-4.0061400000000003
 30
0.0
 10
0.9831200000000001
 20
-4.1229800000000001
 30
0.0
 10
0.8154800000000001
 20
-3.7902400000000003
 30
0.0
 10
0.80786
 20
-3.9248600000000002
 30
0.0
 10
0.80786
 20
-3.9248600000000002
 30
0.0
 10
0.80786
 20
-3.9248600000000002
 30
0.0
 10
0.87136
 20
-4.01884
 30
0.0
 10
0.87136
 20
-4.01884
 30
0.0
 10
0.87136
 20
-4.01884
 30
0.0
 10
0.8027800000000001
 20
-4.0264600000000002
 30
0.0
 10
0.8764400000000001
 20
-4.0823400000000003
 30
0.0
 10
0.8561200000000001
 20
-4.1229800000000001
 30
0.0
 10
0.8561200000000001
 20
-4.1229800000000001
 30
0.0
 10
0.8561200000000001
 20
-4.1229800000000001
 30
0.0
 10
0.7570600000000001
 20
-4.0061400000000003
 30
0.0
 10
0.7570600000000001
 20
-4.0061400000000003
 30
0.0
 10
0.7570600000000001
 20
-4.0061400000000003
 30
0.0
 10
0.7570600000000001
 20
-4.0061400000000003
 30
0.0
 10
0.36336
 20
-3.4295600000000004
 30
0.0
 10
0.36336
 20
-3.4295600000000004
 30
0.0
 10
0.36336
 20
-3.4295600000000004
 30
0.0
 10
0.37098
 20
-3.2797000000000001
 30
0.0
 10
0.53608
 20
-3.5514800000000002
 30
0.0
 10
0.6072000000000001
 20
-3.5210000000000004
 30
0.0
 10
0.6072000000000001
 20
-3.5210000000000004
 30
0.0
 10
0.7570600000000001
 20
-2.9622000000000002
 30
0.0
 10
0.55132
 20
-2.2027400000000004
 30
0.0
 10
0.04332
 20
-1.9665200000000003
 30
0.0
 10
0.04332
 20
-1.9665200000000003
 30
0.0
 10
0.023
 20
-2.0351000000000004
 30
0.0
 10
0.02554
 20
-2.1290800000000001
 30
0.0
 10
-0.01509
 20
-2.1798800000000003
 30
0.0
 10
-0.01509
 20
-2.1798800000000003
 30
0.0
 10
-0.19289
 20
-2.0554200000000002
 30
0.0
 10
-0.09129
 20
-1.8141200000000002
 30
0.0
 10
-0.17765
 20
-1.6642600000000001
 30
0.0
 10
-0.17765
 20
-1.6642600000000001
 30
0.0
 10
-0.21067
 20
-1.92334
 30
0.0
 10
-0.14209
 20
-2.1798800000000003
 30
0.0
 10
-0.21575
 20
-2.3703800000000004
 30
0.0
 10
-0.21575
 20
-2.3703800000000004
 30
0.0
 10
-0.33513
 20
-1.6414000000000002
 30
0.0
 10
-0.7110500000000001
 20
-1.0572000000000001
 30
0.0
 10
-0.5154700000000001
 20
-0.19106
 30
0.0
 10
-0.5154700000000001
 20
-0.19106
 30
0.0
 10
-0.46721
 20
-0.25202
 30
0.0
 10
-0.49769
 20
-0.49586
 30
0.0
 10
-0.41895
 20
-0.42982
 30
0.0
 10
-0.41895
 20
-0.42982
 30
0.0
 10
-0.49515
 20
0.00705
 30
0.0
 10
-0.28433
 20
-0.23932
 30
0.0
 10
-0.04557
 20
-0.24948
 30
0.0
 10
-0.04557
 20
-0.24948
 30
0.0
 10
0.03824
 20
-0.19614
 30
0.0
 10
0.11698
 20
-0.092
 30
0.0
 10
0.1119
 20
0.01721
 30
0.0
 10
0.1119
 20
0.01721
 30
0.0
 10
-0.33767
 20
-0.47046
 30
0.0
 10
-0.6018300000000001
 20
0.37281
 30
0.0
 10
-0.5180100000000001
 20
0.8147700000000001
 30
0.0
 10
-0.5180100000000001
 20
0.8147700000000001
 30
0.0
 10
-0.7491500000000001
 20
0.59633
 30
0.0
 10
-0.5002300000000001
 20
0.04007
 30
0.0
 10
-0.61707
 20
-0.1682
 30
0.0
 10
-0.61707
 20
-0.1682
 30
0.0
 10
-0.99299
 20
0.00705
 30
0.0
 10
-1.03617
 20
0.5201300000000001
 30
0.0
 10
-0.9472700000000001
 20
0.9087500000000001
 30
0.0
 10
-0.9472700000000001
 20
0.9087500000000001
 30
0.0
 10
-0.9472700000000001
 20
0.9087500000000001
 30
0.0
 10
-0.3224300000000001
 20
1.1195700000000002
 30
0.0
 10
-0.3224300000000001
 20
1.1195700000000002
 30
0.0
 10
-0.3224300000000001
 20
1.1195700000000002
 30
0.0
 10
-0.24115
 20
1.1983100000000002
 30
0.0
 10
-0.26147
 20
1.3329300000000002
 30
0.0
 10
-0.25893
 20
1.44215
 30
0.0
 10
-0.25893
 20
1.44215
 30
0.0
 10
-0.6500900000000001
 20
1.5539100000000001
 30
0.0
 10
-0.6297700000000001
 20
2.16351
 30
0.0
 10
-0.43165
 20
2.4860900000000004
 30
0.0
 10
-0.43165
 20
2.4860900000000004
 30
0.0
 10
-0.8710700000000001
 20
2.2727300000000001
 30
0.0
 10
-0.39355
 20
1.5666100000000001
 30
0.0
 10
-1.0615700000000001
 20
1.4218300000000001
 30
0.0
 10
-1.0615700000000001
 20
1.4218300000000001
 30
0.0
 10
-1.2876300000000001
 20
1.9628500000000002
 30
0.0
 10
-1.1047500000000001
 20
2.6511900000000002
 30
0.0
 10
-0.65771
 20
3.0042500000000003
 30
0.0
 10
-0.65771
 20
3.0042500000000003
 30
0.0
 10
-0.63739
 20
2.9001100000000002
 30
0.0
 10
-0.7034300000000001
 20
2.6638900000000003
 30
0.0
 10
-0.53325
 20
2.68167
 30
0.0
 10
-0.53325
 20
2.68167
 30
0.0
 10
-0.49515
 20
3.2734900000000002
 30
0.0
 10
0.09666
 20
3.5655900000000003
 30
0.0
 10
0.5614800000000001
 20
3.6087700000000003
 30
0.0
 10
0.5614800000000001
 20
3.6087700000000003
 30
0.0
 10
1.1202800000000002
 20
3.4462100000000002
 30
0.0
 10
1.06186
 20
2.5572100000000004
 30
0.0
 10
0.8104000000000001
 20
2.1990700000000003
 30
0.0
 10
0.8104000000000001
 20
2.1990700000000003
 30
0.0
 10
0.8104000000000001
 20
2.1990700000000003
 30
0.0
 10
0.8561200000000001
 20
2.21685
 30
0.0
 10
0.8561200000000001
 20
2.21685
 30
0.0
 10
0.8561200000000001
 20
2.21685
 30
0.0
 10
1.0517000000000001
 20
2.3971900000000002
 30
0.0
 10
1.1710800000000001
 20
2.6359500000000002
 30
0.0
 10
1.2472800000000002
 20
2.8950300000000002
 30
0.0
 10
1.2472800000000002
 20
2.8950300000000002
 30
0.0
 10
1.3946000000000001
 20
2.4302100000000002
 30
0.0
 10
1.48858
 20
2.9763100000000002
 30
0.0
 10
1.4708000000000001
 20
3.2506300000000001
 30
0.0
 10
1.4708000000000001
 20
3.2506300000000001
 30
0.0
 10
1.7781400000000001
 20
3.1109300000000002
 30
0.0
 10
1.8289400000000002
 20
2.2193900000000002
 30
0.0
 10
1.5927200000000001
 20
2.8289900000000001
 30
0.0
 10
1.5927200000000001
 20
2.8289900000000001
 30
0.0
 10
1.5927200000000001
 20
2.8289900000000001
 30
0.0
 10
1.5546200000000001
 20
2.6511900000000002
 30
0.0
 10
1.5546200000000001
 20
2.6511900000000002
 30
0.0
 10
1.5546200000000001
 20
2.6511900000000002
 30
0.0
 10
1.6409800000000001
 20
2.13557
 30
0.0
 10
2.3115400000000004
 20
2.1228700000000003
 30
0.0
 10
2.2759800000000001
 20
1.56915
 30
0.0
 10
2.2759800000000001
 20
1.56915
 30
0.0
 10
1.9153000000000002
 20
1.18815
 30
0.0
 10
1.4479400000000002
 20
0.7334900000000001
 30
0.0
 10
1.4581000000000002
 20
0.12135
 30
0.0
 10
1.4581000000000002
 20
0.12135
 30
0.0
 10
1.4581000000000002
 20
0.12135
 30
0.0
 10
1.5165200000000001
 20
0.33979
 30
0.0
 10
1.5165200000000001
 20
0.33979
 30
0.0
 10
1.5165200000000001
 20
0.33979
 30
0.0
 10
1.5774800000000002
 20
0.46933
 30
0.0
 10
1.5393800000000002
 20
0.21533
 30
0.0
 10
1.5927200000000001
 20
0.17215
 30
0.0
 10
1.5927200000000001
 20
0.17215
 30
0.0
 10
1.5927200000000001
 20
0.10611
 30
0.0
 10
1.5978000000000001
 20
0.04007
 30
0.0
 10
1.5774800000000002
 20
-0.01326
 30
0.0
 10
1.5774800000000002
 20
-0.01326
 30
0.0
 10
1.2879200000000002
 20
-0.27488
 30
0.0
 10
0.8408800000000001
 20
-0.5644400000000001
 30
0.0
 10
1.0009000000000001
 20
-1.1791200000000002
 30
0.0
 10
1.0009000000000001
 20
-1.1791200000000002
 30
0.0
 10
1.02884
 20
-0.6431800000000001
 30
0.0
 10
1.1914
 20
-1.0216400000000001
 30
0.0
 10
1.3692000000000002
 20
-1.3188200000000001
 30
0.0
 10
1.3692000000000002
 20
-1.3188200000000001
 30
0.0
 10
1.39714
 20
-1.4864600000000001
 30
0.0
 10
1.1812400000000001
 20
-1.3416800000000002
 30
0.0
 10
1.1202800000000002
 20
-1.4280400000000002
 30
0.0
 10
1.1202800000000002
 20
-1.4280400000000002
 30
0.0
 10
1.5901800000000001
 20
-1.7607800000000002
 30
0.0
 10
1.0339200000000002
 20
-2.6015200000000003
 30
0.0
 10
1.3184
 20
-3.0053800000000002
 30
0.0
 10
1.3184
 20
-3.0053800000000002
 30
0.0
 10
1.1761600000000001
 20
-3.0053800000000002
 30
0.0
 10
1.1837800000000001
 20
-3.1095200000000003
 30
0.0
 10
1.2955400000000001
 20
-3.1831800000000001
 30
0.0
 10
1.2955400000000001
 20
-3.1831800000000001
 30
0.0
 10
1.31332
 20
-3.1933400000000001
 30
0.0
 10
1.3844400000000001
 20
-3.2238200000000004
 30
0.0
 10
1.3285600000000002
 20
-3.2263600000000001
 30
0.0
 10
1.3285600000000002
 20
-3.2263600000000001
 30
0.0
 10
1.02884
 20
-3.1095200000000003
 30
0.0
 10
1.19394
 20
-3.3940000000000001
 30
0.0
 10
1.3539600000000001
 20
-3.5083000000000002
 30
0.0
 10
1.3539600000000001
 20
-3.5083000000000002
 30
0.0
 10
1.2574400000000001
 20
-3.5108400000000004
 30
0.0
 10
1.14314
 20
-3.2847800000000005
 30
0.0
 10
1.0821800000000001
 20
-3.3736800000000002
 30
0.0
 10
1.0821800000000001
 20
-3.3736800000000002
 30
0.0
 10
1.0821800000000001
 20
-3.3736800000000002
 30
0.0
 10
1.1583800000000002
 20
-3.4422600000000001
 30
0.0
 10
1.1583800000000002
 20
-3.4422600000000001
 30
0.0
 10
1.1583800000000002
 20
-3.4422600000000001
 30
0.0
 10
1.0491600000000001
 20
-3.5464000000000002
 30
0.0
 10
1.61304
 20
-3.5311600000000003
 30
0.0
 10
1.5190600000000001
 20
-3.8004000000000002
 30
0.0
 10
1.5190600000000001
 20
-3.8004000000000002
 30
0.0
 10
1.5495400000000001
 20
-3.9223200000000005
 30
0.0
 10
1.4809600000000001
 20
-3.8791400000000005
 30
0.0
 10
1.4352400000000001
 20
-3.8080200000000004
 30
0.0
 10
1.4352400000000001
 20
-3.8080200000000004
 30
0.0
 10
1.2396600000000002
 20
-3.6073600000000003
 30
0.0
 10
1.1837800000000001
 20
-3.5362400000000003
 30
0.0
 10
1.0009000000000001
 20
-3.5006800000000005
 30
0.0
 10
1.0009000000000001
 20
-3.5006800000000005
 30
0.0
 10
1.0263
 20
-3.5870400000000005
 30
0.0
 10
1.1685400000000001
 20
-3.6099000000000001
 30
0.0
 10
1.2168000000000001
 20
-3.6988000000000003
 30
0.0
 10
1.2168000000000001
 20
-3.6988000000000003
 30
0.0
 10
1.1025
 20
-3.6251400000000005
 30
0.0
 10
1.0644
 20
-3.6759400000000002
 30
0.0
 10
1.10504
 20
-3.7597600000000004
 30
0.0
 10
1.10504
 20
-3.7597600000000004
 30
0.0
 10
1.1152000000000002
 20
-3.7826200000000001
 30
0.0
 10
1.18632
 20
-3.8537400000000002
 30
0.0
 10
1.1329800000000001
 20
-3.8385000000000002
 30
0.0
  0
SPLINE
  5
28
100
AcDbEntity
  8
Ebene 1
100
AcDbSpline
210
0.0
220
0.0
230
1.0
 70
     1
 71
     3
 72
    24
 73
    20
 74
     0
 42
0.0000000001
 43
0.0000000001
 40
0.0
 40
0.0
 40
0.0
 40
0.0
 40
0.2
 40
0.2
 40
0.2
 40
0.2
 40
0.4
 40
0.4
 40
0.4
 40
0.4
 40
0.6000000000000001
 40
0.6000000000000001
 40
0.6000000000000001
 40
0.6000000000000001
 40
0.8
 40
0.8
 40
0.8
 40
0.8
 40
1.0
 40
1.0
 40
1.0
 40
1.0
 10
2.9973400000000003
 20
2.9915500000000002
 30
0.0
 10
3.3326200000000004
 20
2.6740500000000003
 30
0.0
 10
3.7796600000000002
 20
2.6080100000000002
 30
0.0
 10
4.1403400000000001
 20
2.34639
 30
0.0
 10
4.1403400000000001
 20
2.34639
 30
0.0
 10
4.3994200000000001
 20
2.0212700000000003
 30
0.0
 10
4.4883200000000008
 20
1.5640700000000001
 30
0.0
 10
4.5619800000000001
 20
1.1856100000000001
 30
0.0
 10
4.5619800000000001
 20
1.1856100000000001
 30
0.0
 10
4.4756200000000002
 20
1.2135500000000001
 30
0.0
 10
4.4756200000000002
 20
1.3684900000000002
 30
0.0
 10
4.4121200000000007
 20
1.4497700000000002
 30
0.0
 10
4.4121200000000007
 20
1.4497700000000002
 30
0.0
 10
4.3130600000000001
 20
1.7875900000000002
 30
0.0
 10
4.1657400000000004
 20
2.12541
 30
0.0
 10
3.9168200000000004
 20
2.3743300000000001
 30
0.0
 10
3.9168200000000004
 20
2.3743300000000001
 30
0.0
 10
3.6171000000000002
 20
2.5826100000000003
 30
0.0
 10
3.1827600000000005
 20
2.68167
 30
0.0
 10
2.9973400000000003
 20
2.9915500000000002
 30
0.0
  0
SPLINE
  5
29
100
AcDbEntity
  8
Ebene 1
 62
     7
100
AcDbSpline
210
0.0
220
0.0
230
1.0
 70
     1
 71
     3
 72
    12
 73
     8
 74
     0
 42
0.0000000001
 43
0.0000000001
 40
0.0
 40
0.0
 40
0.0
 40
0.0
 40
0.5
 40
0.5
 40
0.5
 40
0.5
 40
1.0
 40
1.0
 40
1.0
 40
1.0
 10
1.8772000000000002
 20
2.6791300000000002
 30
0.0
 10
1.9381600000000001
 20
2.5191100000000004
 30
0.0
 10
2.0143600000000004
 20
2.3387700000000002
 30
0.0
 10
2.1007200000000004
 20
2.1889100000000004
 30
0.0
 10
2.1007200000000004
 20
2.1889100000000004
 30
0.0
 10
1.9559400000000002
 20
2.2905100000000003
 30
0.0
 10
1.8391000000000002
 20
2.4835500000000001
 30
0.0
 10
1.8772000000000002
 20
2.6791300000000002
 30
0.0
  0
SPLINE
  5
2A
100
AcDbEntity
  8
Ebene 1
100
AcDbSpline
210
0.0
220
0.0
230
1.0
 70
     1
 71
     3
 72
    16
 73
    12
 74
     0
 42
0.0000000001
 43
0.0000000001
 40
0.0
 40
0.0
 40
0.0
 40
0.0
 40
0.3333333333333333
 40
0.3333333333333333
 40
0.3333333333333333
 40
0.3333333333333333
 40
0.6666666666666666
 40
0.6666666666666666
 40
0.6666666666666666
 40
0.6666666666666666
 40
1.0
 40
1.0
 40
1.0
 40
1.0
 10
1.5063600000000001
 20
2.33623
 30
0.0
 10
1.5241400000000001
 20
2.3336900000000003
 30
0.0
 10
1.5165200000000001
 20
2.3057500000000002
 30
0.0
 10
1.5190600000000001
 20
2.2955900000000002
 30
0.0
 10
1.5190600000000001
 20
2.2955900000000002
 30
0.0
 10
1.4530200000000002
 20
2.17875
 30
0.0
 10
1.5089000000000001
 20
2.0339700000000001
 30
0.0
 10
1.5774800000000002
 20
1.9425300000000001
 30
0.0
 10
1.5774800000000002
 20
1.9425300000000001
 30
0.0
 10
1.44286
 20
1.9704700000000002
 30
0.0
 10
1.4098400000000002
 20
2.2447900000000001
 30
0.0
 10
1.5063600000000001
 20
2.33623
 30
0.0
  0
SPLINE
  5
2B
100
AcDbEntity
  8
Ebene 1
100
AcDbSpline
210
0.0
220
0.0
230
1.0
 70
     1
 71
     3
 72
    56
 73
    52
 74
     0
 42
0.0000000001
 43
0.0000000001
 40
0.0
 40
0.0
 40
0.0
 40
0.0
 40
0.0769230769230769
 40
0.0769230769230769
 40
0.0769230769230769
 40
0.0769230769230769
 40
0.1538461538461539
 40
0.1538461538461539
 40
0.1538461538461539
 40
0.1538461538461539
 40
0.2307692307692308
 40
0.2307692307692308
 40
0.2307692307692308
 40
0.2307692307692308
 40
0.3076923076923077
 40
0.3076923076923077
 40
0.3076923076923077
 40
0.3076923076923077
 40
0.3846153846153846
 40
0.3846153846153846
 40
0.3846153846153846
 40
0.3846153846153846
 40
0.4615384615384616
 40
0.4615384615384616
 40
0.4615384615384616
 40
0.4615384615384616
 40
0.5384615384615386
 40
0.5384615384615386
 40
0.5384615384615386
 40
0.5384615384615386
 40
0.6153846153846154
 40
0.6153846153846154
 40
0.6153846153846154
 40
0.6153846153846154
 40
0.6923076923076923
 40
0.6923076923076923
 40
0.6923076923076923
 40
0.6923076923076923
 40
0.7692307692307692
 40
0.7692307692307692
 40
0.7692307692307692
 40
0.7692307692307692
 40
0.846153846153846
 40
0.846153846153846
 40
0.846153846153846
 40
0.846153846153846
 40
0.9230769230769229
 40
0.9230769230769229
 40
0.9230769230769229
 40
0.9230769230769229
 40
1.0
 40
1.0
 40
1.0
 40
1.0
 10
0.7596000000000001
 20
1.9653900000000002
 30
0.0
 10
0.78754
 20
1.9704700000000002
 30
0.0
 10
0.8231000000000001
 20
1.9653900000000002
 30
0.0
 10
0.8104000000000001
 20
1.9247500000000002
 30
0.0
 10
0.8104000000000001
 20
1.9247500000000002
 30
0.0
 10
0.64022
 20
1.6351900000000001
 30
0.0
 10
0.7748400000000001
 20
1.3075300000000001
 30
0.0
 10
0.9831200000000001
 20
1.0890900000000001
 30
0.0
 10
0.9831200000000001
 20
1.0890900000000001
 30
0.0
 10
0.9831200000000001
 20
1.0890900000000001
 30
0.0
 10
0.9805800000000001
 20
1.0382900000000002
 30
0.0
 10
0.9805800000000001
 20
1.0382900000000002
 30
0.0
 10
0.9805800000000001
 20
1.0382900000000002
 30
0.0
 10
0.8561200000000001
 20
1.1602100000000002
 30
0.0
 10
0.7164200000000001
 20
1.2948300000000001
 30
0.0
 10
0.6529200000000001
 20
1.4700900000000001
 30
0.0
 10
0.6529200000000001
 20
1.4700900000000001
 30
0.0
 10
0.6529200000000001
 20
1.4700900000000001
 30
0.0
 10
0.6757800000000001
 20
1.3253100000000002
 30
0.0
 10
0.6757800000000001
 20
1.3253100000000002
 30
0.0
 10
0.6757800000000001
 20
1.3253100000000002
 30
0.0
 10
1.02376
 20
0.9443100000000001
 30
0.0
 10
1.23712
 20
0.37027
 30
0.0
 10
0.8967600000000001
 20
-0.09962
 30
0.0
 10
0.8967600000000001
 20
-0.09962
 30
0.0
 10
0.9170800000000001
 20
-0.18852
 30
0.0
 10
0.9653400000000001
 20
-0.04628
 30
0.0
 10
1.0110600000000001
 20
-0.01834
 30
0.0
 10
1.0110600000000001
 20
-0.01834
 30
0.0
 10
1.0110600000000001
 20
-0.01834
 30
0.0
 10
1.0923400000000001
 20
0.19501
 30
0.0
 10
1.0923400000000001
 20
0.19501
 30
0.0
 10
1.0923400000000001
 20
0.19501
 30
0.0
 10
1.1304400000000001
 20
-0.09708
 30
0.0
 10
1.06186
 20
-0.46538
 30
0.0
 10
0.8840600000000001
 20
-0.5238
 30
0.0
 10
0.8840600000000001
 20
-0.5238
 30
0.0
 10
0.88914
 20
-0.21138
 30
0.0
 10
0.59196
 20
0.02991
 30
0.0
 10
0.5614800000000001
 20
0.34995
 30
0.0
 10
0.5614800000000001
 20
0.34995
 30
0.0
 10
0.51322
 20
0.31439
 30
0.0
 10
0.5056000000000001
 20
0.15945
 30
0.0
 10
0.43702
 20
0.18485
 30
0.0
 10
0.43702
 20
0.18485
 30
0.0
 10
0.43702
 20
0.18485
 30
0.0
 10
0.5233800000000001
 20
0.5277500000000001
 30
0.0
 10
0.5233800000000001
 20
0.5277500000000001
 30
0.0
 10
0.5233800000000001
 20
0.5277500000000001
 30
0.0
 10
0.8383400000000001
 20
0.9316100000000001
 30
0.0
 10
0.3786000000000001
 20
1.5488300000000002
 30
0.0
 10
0.7596000000000001
 20
1.9653900000000002
 30
0.0
  0
SPLINE
  5
2C
100
AcDbEntity
  8
Ebene 1
 62
     7
100
AcDbSpline
210
0.0
220
0.0
230
1.0
 70
     1
 71
     3
 72
   132
 73
   128
 74
     0
 42
0.0000000001
 43
0.0000000001
 40
0.0
 40
0.0
 40
0.0
 40
0.0
 40
0.03125
 40
0.03125
 40
0.03125
 40
0.03125
 40
0.0625
 40
0.0625
 40
0.0625
 40
0.0625
 40
0.09375
 40
0.09375
 40
0.09375
 40
0.09375
 40
0.125
 40
0.125
 40
0.125
 40
0.125
 40
0.15625
 40
0.15625
 40
0.15625
 40
0.15625
 40
0.1875
 40
0.1875
 40
0.1875
 40
0.1875
 40
0.21875
 40
0.21875
 40
0.21875
 40
0.21875
 40
0.25
 40
0.25
 40
0.25
 40
0.25
 40
0.28125
 40
0.28125
 40
0.28125
 40
0.28125
 40
0.3125
 40
0.3125
 40
0.3125
 40
0.3125
 40
0.34375
 40
0.34375
 40
0.34375
 40
0.34375
 40
0.375
 40
0.375
 40
0.375
 40
0.375
 40
0.40625
 40
0.40625
 40
0.40625
 40
0.40625
 40
0.4375
 40
0.4375
 40
0.4375
 40
0.4375
 40
0.46875
 40
0.46875
 40
0.46875
 40
0.46875
 40
0.5
 40
0.5
 40
0.5
 40
0.5
 40
0.53125
 40
0.53125
 40
0.53125
 40
0.53125
 40
0.5625
 40
0.5625
 40
0.5625
 40
0.5625
 40
0.59375
 40
0.59375
 40
0.59375
 40
0.59375
 40
0.625
 40
0.625
 40
0.625
 40
0.625
 40
0.65625
 40
0.65625
 40
0.65625
 40
0.65625
 40
0.6875
 40
0.6875
 40
0.6875
 40
0.6875
 40
0.71875
 40
0.71875
 40
0.71875
 40
0.71875
 40
0.75
 40
0.75
 40
0.75
 40
0.75
 40
0.78125
 40
0.78125
 40
0.78125
 40
0.78125
 40
0.8125
 40
0.8125
 40
0.8125
 40
0.8125
 40
0.84375
 40
0.84375
 40
0.84375
 40
0.84375
 40
0.875
 40
0.875
 40
0.875
 40
0.875
 40
0.90625
 40
0.90625
 40
0.90625
 40
0.90625
 40
0.9375
 40
0.9375
 40
0.9375
 40
0.9375
 40
0.96875
 40
0.96875
 40
0.96875
 40
0.96875
 40
1.0
 40
1.0
 40
1.0
 40
1.0
 10
-0.6907300000000001
 20
1.5005700000000002
 30
0.0
 10
-0.63739
 20
1.40659
 30
0.0
 10
-0.44181
 20
1.5056500000000002
 30
0.0
 10
-0.35799
 20
1.2846700000000002
 30
0.0
 10
-0.35799
 20
1.2846700000000002
 30
0.0
 10
-0.52817
 20
1.02305
 30
0.0
 10
-0.80503
 20
1.2084700000000002
 30
0.0
 10
-1.03617
 20
1.1398900000000001
 30
0.0
 10
-1.03617
 20
1.1398900000000001
 30
0.0
 10
-1.03363
 20
1.0535300000000001
 30
0.0
 10
-0.8304300000000001
 20
1.1398900000000001
 30
0.0
 10
-0.78217
 20
1.06623
 30
0.0
 10
-0.78217
 20
1.06623
 30
0.0
 10
-0.9701300000000001
 20
0.91383
 30
0.0
 10
-1.2215900000000002
 20
0.9824100000000001
 30
0.0
 10
-1.4451100000000001
 20
0.9620900000000001
 30
0.0
 10
-1.4451100000000001
 20
0.9620900000000001
 30
0.0
 10
-1.4324100000000002
 20
0.89351
 30
0.0
 10
-1.3155700000000001
 20
0.95701
 30
0.0
 10
-1.2749300000000001
 20
0.8960500000000001
 30
0.0
 10
-1.2749300000000001
 20
0.8960500000000001
 30
0.0
 10
-1.4933700000000001
 20
0.7411100000000001
 30
0.0
 10
-1.7778500000000002
 20
0.7512700000000001
 30
0.0
 10
-2.0420100000000003
 20
0.74365
 30
0.0
 10
-2.0420100000000003
 20
0.74365
 30
0.0
 10
-2.0826500000000001
 20
0.66237
 30
0.0
 10
-1.9073900000000001
 20
0.74365
 30
0.0
 10
-1.9099300000000001
 20
0.68269
 30
0.0
 10
-1.9099300000000001
 20
0.68269
 30
0.0
 10
-2.0953500000000003
 20
0.5074300000000001
 30
0.0
 10
-2.36205
 20
0.5709300000000001
 30
0.0
 10
-2.5881100000000004
 20
0.5252100000000001
 30
0.0
 10
-2.5881100000000004
 20
0.5252100000000001
 30
0.0
 10
-2.5881100000000004
 20
0.5252100000000001
 30
0.0
 10
-2.6312900000000004
 20
0.48965
 30
0.0
 10
-2.6312900000000004
 20
0.48965
 30
0.0
 10
-2.6312900000000004
 20
0.48965
 30
0.0
 10
-2.6262100000000004
 20
0.44901
 30
0.0
 10
-2.52969
 20
0.5023500000000001
 30
0.0
 10
-2.4941300000000002
 20
0.45663
 30
0.0
 10
-2.4941300000000002
 20
0.45663
 30
0.0
 10
-2.7506700000000004
 20
0.27629
 30
0.0
 10
-3.0732500000000003
 20
0.29153
 30
0.0
 10
-3.3755100000000002
 20
0.26613
 30
0.0
 10
-3.3755100000000002
 20
0.26613
 30
0.0
 10
-3.5202900000000001
 20
0.16707
 30
0.0
 10
-3.2332700000000001
 20
0.2635900000000001
 30
0.0
 10
-3.2154900000000004
 20
0.20263
 30
0.0
 10
-3.2154900000000004
 20
0.20263
 30
0.0
 10
-3.4618700000000002
 20
0.10611
 30
0.0
 10
-3.7158700000000002
 20
0.05023
 30
0.0
 10
-3.9800300000000002
 20
0.02991
 30
0.0
 10
-3.9800300000000002
 20
0.02991
 30
0.0
 10
-3.9927300000000003
 20
-0.05136
 30
0.0
 10
-3.8682700000000003
 20
0.02991
 30
0.0
 10
-3.8377900000000005
 20
-0.02088
 30
0.0
 10
-3.8377900000000005
 20
-0.02088
 30
0.0
 10
-4.0816300000000005
 20
-0.14026
 30
0.0
 10
-4.3610300000000004
 20
-0.18598
 30
0.0
 10
-4.64297
 20
-0.18344
 30
0.0
 10
-4.64297
 20
-0.18344
 30
0.0
 10
-4.5794700000000006
 20
-0.3333
 30
0.0
 10
-5.1027100000000001
 20
-0.41966
 30
0.0
 10
-5.3135300000000001
 20
-0.42982
 30
0.0
 10
-5.3135300000000001
 20
-0.42982
 30
0.0
 10
-5.3135300000000001
 20
-0.42982
 30
0.0
 10
-4.7953700000000001
 20
-0.25964
 30
0.0
 10
-4.7953700000000001
 20
-0.25964
 30
0.0
 10
-4.7953700000000001
 20
-0.25964
 30
0.0
 10
-4.8055300000000001
 20
-0.20122
 30
0.0
 10
-4.9198300000000001
 20
-0.26726
 30
0.0
 10
-4.9528500000000006
 20
-0.22408
 30
0.0
 10
-4.9528500000000006
 20
-0.22408
 30
0.0
 10
-4.6785300000000003
 20
-0.04628
 30
0.0
 10
-4.3534100000000002
 20
0.00451
 30
0.0
 10
-4.0359100000000003
 20
0.05277
 30
0.0
 10
-4.0359100000000003
 20
0.05277
 30
0.0
 10
-4.0359100000000003
 20
0.14929
 30
0.0
 10
-4.1679900000000005
 20
0.05785
 30
0.0
 10
-4.2289500000000002
 20
0.09341
 30
0.0
 10
-4.2289500000000002
 20
0.09341
 30
0.0
 10
-4.04861
 20
0.28391
 30
0.0
 10
-3.7565100000000005
 20
0.27121
 30
0.0
 10
-3.5025100000000005
 20
0.28391
 30
0.0
 10
-3.5025100000000005
 20
0.28391
 30
0.0
 10
-3.4517100000000003
 20
0.3474100000000001
 30
0.0
 10
-3.5660100000000003
 20
0.29915
 30
0.0
 10
-3.5812500000000003
 20
0.33979
 30
0.0
 10
-3.5812500000000003
 20
0.33979
 30
0.0
 10
-3.3780500000000004
 20
0.5429900000000001
 30
0.0
 10
-3.0580100000000003
 20
0.47695
 30
0.0
 10
-2.7938500000000004
 20
0.53029
 30
0.0
 10
-2.7938500000000004
 20
0.53029
 30
0.0
 10
-2.7557500000000004
 20
0.6115700000000001
 30
0.0
 10
-2.9284700000000004
 20
0.5277500000000001
 30
0.0
 10
-2.9233900000000004
 20
0.59379
 30
0.0
 10
-2.9233900000000004
 20
0.59379
 30
0.0
 10
-2.7278100000000003
 20
0.74365
 30
0.0
 10
-2.48143
 20
0.7334900000000001
 30
0.0
 10
-2.2477500000000004
 20
0.7766700000000001
 30
0.0
 10
-2.2477500000000004
 20
0.7766700000000001
 30
0.0
 10
-2.2299700000000002
 20
0.8833500000000001
 30
0.0
 10
-2.3544300000000002
 20
0.78429
 30
0.0
 10
-2.4026900000000002
 20
0.8046100000000001
 30
0.0
 10
-2.4026900000000002
 20
0.8046100000000001
 30
0.0
 10
-2.2020300000000002
 20
1.02305
 30
0.0
 10
-1.8565900000000002
 20
0.9468500000000001
 30
0.0
 10
-1.58735
 20
0.9925700000000001
 30
0.0
 10
-1.58735
 20
0.9925700000000001
 30
0.0
 10
-1.5365500000000001
 20
1.0814700000000002
 30
0.0
 10
-1.7499100000000001
 20
0.99765
 30
0.0
 10
-1.7930900000000001
 20
1.0509900000000001
 30
0.0
 10
-1.7930900000000001
 20
1.0509900000000001
 30
0.0
 10
-1.5848100000000001
 20
1.2440300000000002
 30
0.0
 10
-1.2876300000000001
 20
1.2059300000000002
 30
0.0
 10
-1.0158500000000001
 20
1.23133
 30
0.0
 10
-1.0158500000000001
 20
1.23133
 30
0.0
 10
-0.9802900000000001
 20
1.27959
 30
0.0
 10
-1.07681
 20
1.2694300000000001
 30
0.0
 10
-1.1022100000000001
 20
1.2516500000000002
 30
0.0
 10
-1.1022100000000001
 20
1.2516500000000002
 30
0.0
 10
-1.6102100000000001
 20
1.2999100000000001
 30
0.0
 10
-0.5230900000000001
 20
1.35833
 30
0.0
 10
-0.8431300000000001
 20
1.4294500000000001
 30
0.0
 10
-0.8431300000000001
 20
1.4294500000000001
 30
0.0
 10
-0.8431300000000001
 20
1.4294500000000001
 30
0.0
 10
-0.6907300000000001
 20
1.5005700000000002
 30
0.0
 10
-0.6907300000000001
 20
1.5005700000000002
 30
0.0
  0
SPLINE
  5
2D
100
AcDbEntity
  8
Ebene 1
 62
     7
100
AcDbSpline
210
0.0
220
0.0
230
1.0
 70
     1
 71
     3
 72
   112
 73
   108
 74
     0
 42
0.0000000001
 43
0.0000000001
 40
0.0
 40
0.0
 40
0.0
 40
0.0
 40
0.037037037037037
 40
0.037037037037037
 40
0.037037037037037
 40
0.037037037037037
 40
0.0740740740740741
 40
0.0740740740740741
 40
0.0740740740740741
 40
0.0740740740740741
 40
0.1111111111111111
 40
0.1111111111111111
 40
0.1111111111111111
 40
0.1111111111111111
 40
0.1481481481481481
 40
0.1481481481481481
 40
0.1481481481481481
 40
0.1481481481481481
 40
0.1851851851851852
 40
0.1851851851851852
 40
0.1851851851851852
 40
0.1851851851851852
 40
0.2222222222222222
 40
0.2222222222222222
 40
0.2222222222222222
 40
0.2222222222222222
 40
0.2592592592592592
 40
0.2592592592592592
 40
0.2592592592592592
 40
0.2592592592592592
 40
0.2962962962962963
 40
0.2962962962962963
 40
0.2962962962962963
 40
0.2962962962962963
 40
0.3333333333333333
 40
0.3333333333333333
 40
0.3333333333333333
 40
0.3333333333333333
 40
0.3703703703703704
 40
0.3703703703703704
 40
0.3703703703703704
 40
0.3703703703703704
 40
0.4074074074074074
 40
0.4074074074074074
 40
0.4074074074074074
 40
0.4074074074074074
 40
0.4444444444444444
 40
0.4444444444444444
 40
0.4444444444444444
 40
0.4444444444444444
 40
0.4814814814814815
 40
0.4814814814814815
 40
0.4814814814814815
 40
0.4814814814814815
 40
0.5185185185185185
 40
0.5185185185185185
 40
0.5185185185185185
 40
0.5185185185185185
 40
0.5555555555555556
 40
0.5555555555555556
 40
0.5555555555555556
 40
0.5555555555555556
 40
0.5925925925925926
 40
0.5925925925925926
 40
0.5925925925925926
 40
0.5925925925925926
 40
0.6296296296296295
 40
0.6296296296296295
 40
0.6296296296296295
 40
0.6296296296296295
 40
0.6666666666666665
 40
0.6666666666666665
 40
0.6666666666666665
 40
0.6666666666666665
 40
0.7037037037037035
 40
0.7037037037037035
 40
0.7037037037037035
 40
0.7037037037037035
 40
0.7407407407407405
 40
0.7407407407407405
 40
0.7407407407407405
 40
0.7407407407407405
 40
0.7777777777777775
 40
0.7777777777777775
 40
0.7777777777777775
 40
0.7777777777777775
 40
0.8148148148148144
 40
0.8148148148148144
 40
0.8148148148148144
 40
0.8148148148148144
 40
0.8518518518518514
 40
0.8518518518518514
 40
0.8518518518518514
 40
0.8518518518518514
 40
0.8888888888888884
 40
0.8888888888888884
 40
0.8888888888888884
 40
0.8888888888888884
 40
0.9259259259259254
 40
0.9259259259259254
 40
0.9259259259259254
 40
0.9259259259259254
 40
0.9629629629629624
 40
0.9629629629629624
 40
0.9629629629629624
 40
0.9629629629629624
 40
1.0
 40
1.0
 40
1.0
 40
1.0
 10
2.3242400000000001
 20
1.44469
 30
0.0
 10
2.7357200000000002
 20
0.8020700000000001
 30
0.0
 10
2.3674200000000001
 20
0.00705
 30
0.0
 10
2.4614000000000003
 20
-0.71684
 30
0.0
 10
2.4614000000000003
 20
-0.71684
 30
0.0
 10
2.4817200000000001
 20
-0.78034
 30
0.0
 10
2.4944200000000003
 20
-0.84638
 30
0.0
 10
2.5350600000000001
 20
-0.8971800000000001
 30
0.0
 10
2.5350600000000001
 20
-0.8971800000000001
 30
0.0
 10
2.6087200000000004
 20
-1.0978400000000001
 30
0.0
 10
2.6595200000000001
 20
-0.8667
 30
0.0
 10
2.6036400000000004
 20
-0.7676400000000001
 30
0.0
 10
2.6036400000000004
 20
-0.7676400000000001
 30
0.0
 10
2.59348
 20
-0.61524
 30
0.0
 10
2.5909400000000002
 20
-0.44506
 30
0.0
 10
2.6595200000000001
 20
-0.3206000000000001
 30
0.0
 10
2.6595200000000001
 20
-0.3206000000000001
 30
0.0
 10
2.9973400000000003
 20
-1.0495800000000002
 30
0.0
 10
2.3598000000000003
 20
-1.6947400000000001
 30
0.0
 10
2.1870800000000004
 20
-2.3703800000000004
 30
0.0
 10
2.1870800000000004
 20
-2.3703800000000004
 30
0.0
 10
2.13374
 20
-2.2713200000000002
 30
0.0
 10
2.20486
 20
-2.1265400000000003
 30
0.0
 10
2.2124800000000002
 20
-2.01478
 30
0.0
 10
2.2124800000000002
 20
-2.01478
 30
0.0
 10
2.2124800000000002
 20
-2.01478
 30
0.0
 10
2.2251800000000004
 20
-1.8573000000000002
 30
0.0
 10
2.2251800000000004
 20
-1.8573000000000002
 30
0.0
 10
2.2251800000000004
 20
-1.8573000000000002
 30
0.0
 10
2.0626200000000003
 20
-2.3703800000000004
 30
0.0
 10
2.0778600000000003
 20
-2.9749000000000003
 30
0.0
 10
2.0016600000000002
 20
-3.5108400000000004
 30
0.0
 10
2.0016600000000002
 20
-3.5108400000000004
 30
0.0
 10
2.0118200000000002
 20
-3.8207200000000001
 30
0.0
 10
1.8746600000000002
 20
-4.0721800000000004
 30
0.0
 10
1.6181200000000002
 20
-4.2093400000000001
 30
0.0
 10
1.6181200000000002
 20
-4.2093400000000001
 30
0.0
 10
1.8035400000000001
 20
-3.8461200000000004
 30
0.0
 10
1.7375
 20
-3.4879800000000003
 30
0.0
 10
1.8518000000000001
 20
-3.0180800000000003
 30
0.0
 10
1.8518000000000001
 20
-3.0180800000000003
 30
0.0
 10
1.8416400000000002
 20
-2.9647400000000004
 30
0.0
 10
1.69686
 20
-3.03078
 30
0.0
 10
1.6790800000000001
 20
-2.9952200000000002
 30
0.0
 10
1.6790800000000001
 20
-2.9952200000000002
 30
0.0
 10
1.8924400000000001
 20
-2.60914
 30
0.0
 10
1.7629000000000001
 20
-2.4745200000000001
 30
0.0
 10
1.8187800000000001
 20
-2.0706600000000002
 30
0.0
 10
1.8187800000000001
 20
-2.0706600000000002
 30
0.0
 10
1.7578200000000002
 20
-2.0173200000000002
 30
0.0
 10
1.6663800000000002
 20
-2.02494
 30
0.0
 10
1.6181200000000002
 20
-1.9512800000000001
 30
0.0
 10
1.6181200000000002
 20
-1.9512800000000001
 30
0.0
 10
1.6181200000000002
 20
-1.9512800000000001
 30
0.0
 10
1.6790800000000001
 20
-1.7988800000000003
 30
0.0
 10
1.6790800000000001
 20
-1.7988800000000003
 30
0.0
 10
1.6790800000000001
 20
-1.7988800000000003
 30
0.0
 10
1.78068
 20
-1.8166600000000002
 30
0.0
 10
1.8416400000000002
 20
-1.9131800000000001
 30
0.0
 10
1.8670400000000003
 20
-1.9893800000000001
 30
0.0
 10
1.8670400000000003
 20
-1.9893800000000001
 30
0.0
 10
1.8975200000000001
 20
-1.58806
 30
0.0
 10
2.1134200000000001
 20
-0.8159000000000001
 30
0.0
 10
1.5089000000000001
 20
-0.63048
 30
0.0
 10
1.5089000000000001
 20
-0.63048
 30
0.0
 10
1.4504800000000002
 20
-0.5644400000000001
 30
0.0
 10
1.3565
 20
-0.5111
 30
0.0
 10
1.3361800000000001
 20
-0.4171200000000001
 30
0.0
 10
1.3361800000000001
 20
-0.4171200000000001
 30
0.0
 10
1.4962000000000002
 20
-0.3587
 30
0.0
 10
1.5978000000000001
 20
-0.6838200000000001
 30
0.0
 10
1.7654400000000001
 20
-0.71684
 30
0.0
 10
1.7654400000000001
 20
-0.71684
 30
0.0
 10
1.7654400000000001
 20
-0.71684
 30
0.0
 10
1.9305400000000001
 20
-0.8362200000000001
 30
0.0
 10
1.9305400000000001
 20
-0.8362200000000001
 30
0.0
 10
1.9305400000000001
 20
-0.8362200000000001
 30
0.0
 10
1.9305400000000001
 20
-0.8362200000000001
 30
0.0
 10
2.1134200000000001
 20
-0.9860800000000001
 30
0.0
 10
2.1134200000000001
 20
-0.9860800000000001
 30
0.0
 10
2.1134200000000001
 20
-0.9860800000000001
 30
0.0
 10
1.9788000000000001
 20
-0.6660400000000001
 30
0.0
 10
1.3234800000000002
 20
-0.4984000000000001
 30
0.0
 10
1.6587600000000002
 20
-0.06152
 30
0.0
 10
1.6587600000000002
 20
-0.06152
 30
0.0
 10
1.7146400000000002
 20
0.21025
 30
0.0
 10
1.8010000000000002
 20
-0.22916
 30
0.0
 10
1.9381600000000001
 20
-0.2825
 30
0.0
 10
1.9381600000000001
 20
-0.2825
 30
0.0
 10
1.9788000000000001
 20
-0.34346
 30
0.0
 10
2.0397600000000002
 20
-0.37902
 30
0.0
 10
2.1134200000000001
 20
-0.35616
 30
0.0
 10
2.1134200000000001
 20
-0.35616
 30
0.0
 10
2.0931000000000002
 20
0.15691
 30
0.0
 10
2.0321400000000001
 20
0.6776100000000001
 30
0.0
 10
2.0778600000000003
 20
1.1703700000000001
 30
0.0
 10
2.0778600000000003
 20
1.1703700000000001
 30
0.0
 10
2.2023200000000003
 20
1.0332100000000002
 30
0.0
 10
2.0931000000000002
 20
0.7766700000000001
 30
0.0
 10
2.1261200000000002
 20
0.58109
 30
0.0
 10
2.1261200000000002
 20
0.58109
 30
0.0
 10
2.1413600000000002
 20
0.4413900000000001
 30
0.0
 10
2.1413600000000002
 20
0.28391
 30
0.0
 10
2.1870800000000004
 20
0.16199
 30
0.0
 10
2.1870800000000004
 20
0.16199
 30
0.0
 10
2.17184
 20
0.6039500000000001
 30
0.0
 10
2.17184
 20
1.06369
 30
0.0
 10
2.3242400000000001
 20
1.44469
 30
0.0
  0
SPLINE
  5
2E
100
AcDbEntity
  8
Ebene 1
100
AcDbSpline
210
0.0
220
0.0
230
1.0
 70
     1
 71
     3
 72
    16
 73
    12
 74
     0
 42
0.0000000001
 43
0.0000000001
 40
0.0
 40
0.0
 40
0.0
 40
0.0
 40
0.3333333333333333
 40
0.3333333333333333
 40
0.3333333333333333
 40
0.3333333333333333
 40
0.6666666666666666
 40
0.6666666666666666
 40
0.6666666666666666
 40
0.6666666666666666
 40
1.0
 40
1.0
 40
1.0
 40
1.0
 10
4.6483400000000001
 20
-0.8819400000000001
 30
0.0
 10
4.5848400000000007
 20
-0.7320800000000001
 30
0.0
 10
4.3994200000000001
 20
-0.55428
 30
0.0
 10
4.3232200000000001
 20
-0.3079
 30
0.0
 10
4.3232200000000001
 20
-0.3079
 30
0.0
 10
4.1962200000000003
 20
0.09849
 30
0.0
 10
4.1886000000000001
 20
0.6699900000000001
 30
0.0
 10
4.1886000000000001
 20
1.0992500000000001
 30
0.0
 10
4.1886000000000001
 20
1.0992500000000001
 30
0.0
 10
4.1886000000000001
 20
1.0992500000000001
 30
0.0
 10
4.6483400000000001
 20
-0.8819400000000001
 30
0.0
 10
4.6483400000000001
 20
-0.8819400000000001
 30
0.0
  0
SPLINE
  5
2F
100
AcDbEntity
  8
Ebene 1
100
AcDbSpline
210
0.0
220
0.0
230
1.0
 70
     1
 71
     3
 72
    24
 73
    20
 74
     0
 42
0.0000000001
 43
0.0000000001
 40
0.0
 40
0.0
 40
0.0
 40
0.0
 40
0.2
 40
0.2
 40
0.2
 40
0.2
 40
0.4
 40
0.4
 40
0.4
 40
0.4
 40
0.6000000000000001
 40
0.6000000000000001
 40
0.6000000000000001
 40
0.6000000000000001
 40
0.8
 40
0.8
 40
0.8
 40
0.8
 40
1.0
 40
1.0
 40
1.0
 40
1.0
 10
0.03824
 20
-0.27742
 30
0.0
 10
0.2262
 20
-0.04882
 30
0.0
 10
0.4497200000000001
 20
0.23819
 30
0.0
 10
0.38622
 20
0.58109
 30
0.0
 10
0.38622
 20
0.58109
 30
0.0
 10
0.3887600000000001
 20
0.6039500000000001
 30
0.0
 10
0.41416
 20
0.59379
 30
0.0
 10
0.42432
 20
0.59633
 30
0.0
 10
0.42432
 20
0.59633
 30
0.0
 10
0.5233800000000001
 20
0.34995
 30
0.0
 10
0.38368
 20
0.07817
 30
0.0
 10
0.2617600000000001
 20
-0.12756
 30
0.0
 10
0.2617600000000001
 20
-0.12756
 30
0.0
 10
0.2617600000000001
 20
-0.12756
 30
0.0
 10
0.37606
 20
-0.49586
 30
0.0
 10
0.37606
 20
-0.49586
 30
0.0
 10
0.37606
 20
-0.49586
 30
0.0
 10
0.3024
 20
-0.45268
 30
0.0
 10
0.21096
 20
-0.15804
 30
0.0
 10
0.03824
 20
-0.27742
 30
0.0
  0
SPLINE
  5
30
100
AcDbEntity
  8
Ebene 1
 62
     7
100
AcDbSpline
210
0.0
220
0.0
230
1.0
 70
     1
 71
     3
 72
    12
 73
     8
 74
     0
 42
0.0000000001
 43
0.0000000001
 40
0.0
 40
0.0
 40
0.0
 40
0.0
 40
0.5
 40
0.5
 40
0.5
 40
0.5
 40
1.0
 40
1.0
 40
1.0
 40
1.0
 10
0.6732400000000001
 20
0.37535
 30
0.0
 10
0.7265800000000001
 20
0.30423
 30
0.0
 10
0.8104000000000001
 20
0.20263
 30
0.0
 10
0.74436
 20
0.10611
 30
0.0
 10
0.74436
 20
0.10611
 30
0.0
 10
0.70372
 20
0.17469
 30
0.0
 10
0.6757800000000001
 20
0.29407
 30
0.0
 10
0.6732400000000001
 20
0.37535
 30
0.0
  0
SPLINE
  5
31
100
AcDbEntity
  8
Ebene 1
100
AcDbSpline
210
0.0
220
0.0
230
1.0
 70
     1
 71
     3
 72
    24
 73
    20
 74
     0
 42
0.0000000001
 43
0.0000000001
 40
0.0
 40
0.0
 40
0.0
 40
0.0
 40
0.2
 40
0.2
 40
0.2
 40
0.2
 40
0.4
 40
0.4
 40
0.4
 40
0.4
 40
0.6000000000000001
 40
0.6000000000000001
 40
0.6000000000000001
 40
0.6000000000000001
 40
0.8
 40
0.8
 40
0.8
 40
0.8
 40
1.0
 40
1.0
 40
1.0
 40
1.0
 10
0.19064
 20
-0.3739400000000001
 30
0.0
 10
0.25414
 20
-0.71938
 30
0.0
 10
0.4725800000000001
 20
-0.9987800000000001
 30
0.0
 10
0.5233800000000001
 20
-1.0724400000000001
 30
0.0
 10
0.5233800000000001
 20
-1.0724400000000001
 30
0.0
 10
0.4929000000000001
 20
-1.2807200000000001
 30
0.0
 10
0.38622
 20
-1.4813800000000001
 30
0.0
 10
0.43702
 20
-1.7023600000000001
 30
0.0
 10
0.43702
 20
-1.7023600000000001
 30
0.0
 10
0.43448
 20
-1.7252200000000002
 30
0.0
 10
0.41162
 20
-1.7150600000000003
 30
0.0
 10
0.3989200000000001
 20
-1.7176000000000002
 30
0.0
 10
0.3989200000000001
 20
-1.7176000000000002
 30
0.0
 10
0.29986
 20
-1.5550400000000002
 30
0.0
 10
0.3659
 20
-1.3289800000000001
 30
0.0
 10
0.3989200000000001
 20
-1.1562600000000001
 30
0.0
 10
0.3989200000000001
 20
-1.1562600000000001
 30
0.0
 10
0.30494
 20
-0.9251200000000001
 30
0.0
 10
0.12968
 20
-0.6025400000000001
 30
0.0
 10
0.19064
 20
-0.3739400000000001
 30
0.0
  0
SPLINE
  5
32
100
AcDbEntity
  8
Ebene 1
 62
     7
100
AcDbSpline
210
0.0
220
0.0
230
1.0
 70
     1
 71
     3
 72
    12
 73
     8
 74
     0
 42
0.0000000001
 43
0.0000000001
 40
0.0
 40
0.0
 40
0.0
 40
0.0
 40
0.5
 40
0.5
 40
0.5
 40
0.5
 40
1.0
 40
1.0
 40
1.0
 40
1.0
 10
1.8035400000000001
 20
-1.4026400000000001
 30
0.0
 10
1.8543400000000001
 20
-1.4255000000000002
 30
0.0
 10
1.9457800000000001
 20
-1.4839200000000001
 30
0.0
 10
1.8772000000000002
 20
-1.54742
 30
0.0
 10
1.8772000000000002
 20
-1.54742
 30
0.0
 10
1.8086200000000001
 20
-1.5550400000000002
 30
0.0
 10
1.7425800000000002
 20
-1.4636
 30
0.0
 10
1.8035400000000001
 20
-1.4026400000000001
 30
0.0
  0
SPLINE
  5
33
100
AcDbEntity
  8
Ebene 1
100
AcDbSpline
210
0.0
220
0.0
230
1.0
 70
     1
 71
     3
 72
    20
 73
    16
 74
     0
 42
0.0000000001
 43
0.0000000001
 40
0.0
 40
0.0
 40
0.0
 40
0.0
 40
0.25
 40
0.25
 40
0.25
 40
0.25
 40
0.5
 40
0.5
 40
0.5
 40
0.5
 40
0.75
 40
0.75
 40
0.75
 40
0.75
 40
1.0
 40
1.0
 40
1.0
 40
1.0
 10
0.47512
 20
-1.6058400000000002
 30
0.0
 10
0.47512
 20
-1.6058400000000002
 30
0.0
 10
0.5208400000000001
 20
-1.6109200000000001
 30
0.0
 10
0.5208400000000001
 20
-1.6109200000000001
 30
0.0
 10
0.5208400000000001
 20
-1.6109200000000001
 30
0.0
 10
0.55386
 20
-1.8903200000000002
 30
0.0
 10
0.8205600000000001
 20
-2.1036800000000002
 30
0.0
 10
0.78246
 20
-2.3830800000000001
 30
0.0
 10
0.78246
 20
-2.3830800000000001
 30
0.0
 10
0.7215
 20
-2.1900400000000002
 30
0.0
 10
0.59958
 20
-2.0071600000000003
 30
0.0
 10
0.46496
 20
-1.8496800000000002
 30
0.0
 10
0.46496
 20
-1.8496800000000002
 30
0.0
 10
0.46496
 20
-1.8496800000000002
 30
0.0
 10
0.47512
 20
-1.6058400000000002
 30
0.0
 10
0.47512
 20
-1.6058400000000002
 30
0.0
  0
SPLINE
  5
34
100
AcDbEntity
  8
Ebene 1
 62
     7
100
AcDbSpline
210
0.0
220
0.0
230
1.0
 70
     1
 71
     3
 72
    16
 73
    12
 74
     0
 42
0.0000000001
 43
0.0000000001
 40
0.0
 40
0.0
 40
0.0
 40
0.0
 40
0.3333333333333333
 40
0.3333333333333333
 40
0.3333333333333333
 40
0.3333333333333333
 40
0.6666666666666666
 40
0.6666666666666666
 40
0.6666666666666666
 40
0.6666666666666666
 40
1.0
 40
1.0
 40
1.0
 40
1.0
 10
1.6765400000000001
 20
-2.3881600000000001
 30
0.0
 10
1.7070200000000002
 20
-2.3805400000000003
 30
0.0
 10
1.7730600000000001
 20
-2.3830800000000001
 30
0.0
 10
1.7349600000000001
 20
-2.4516600000000004
 30
0.0
 10
1.7349600000000001
 20
-2.4516600000000004
 30
0.0
 10
1.6917800000000001
 20
-2.4669000000000003
 30
0.0
 10
1.5724
 20
-2.52786
 30
0.0
 10
1.6028800000000001
 20
-2.4008600000000002
 30
0.0
 10
1.6028800000000001
 20
-2.4008600000000002
 30
0.0
 10
1.6028800000000001
 20
-2.4008600000000002
 30
0.0
 10
1.6765400000000001
 20
-2.3881600000000001
 30
0.0
 10
1.6765400000000001
 20
-2.3881600000000001
 30
0.0
  0
SPLINE
  5
35
100
AcDbEntity
  8
Ebene 1
 62
     7
100
AcDbSpline
210
0.0
220
0.0
230
1.0
 70
     1
 71
     3
 72
    12
 73
     8
 74
     0
 42
0.0000000001
 43
0.0000000001
 40
0.0
 40
0.0
 40
0.0
 40
0.0
 40
0.5
 40
0.5
 40
0.5
 40
0.5
 40
1.0
 40
1.0
 40
1.0
 40
1.0
 10
1.2447400000000002
 20
-3.0587200000000001
 30
0.0
 10
1.3692000000000002
 20
-3.0688800000000001
 30
0.0
 10
1.61304
 20
-3.0993600000000003
 30
0.0
 10
1.52922
 20
-3.3000200000000004
 30
0.0
 10
1.52922
 20
-3.3000200000000004
 30
0.0
 10
1.4250800000000001
 20
-3.2441400000000002
 30
0.0
 10
1.3031600000000001
 20
-3.1704800000000004
 30
0.0
 10
1.2447400000000002
 20
-3.0587200000000001
 30
0.0
  0
SPLINE
  5
36
100
AcDbEntity
  8
Ebene 1
 62
     7
100
AcDbSpline
210
0.0
220
0.0
230
1.0
 70
     1
 71
     3
 72
    12
 73
     8
 74
     0
 42
0.0000000001
 43
0.0000000001
 40
0.0
 40
0.0
 40
0.0
 40
0.0
 40
0.5
 40
0.5
 40
0.5
 40
0.5
 40
1.0
 40
1.0
 40
1.0
 40
1.0
 10
1.65368
 20
-3.0993600000000003
 30
0.0
 10
1.7832200000000002
 20
-3.0612600000000003
 30
0.0
 10
1.7451200000000002
 20
-3.2365200000000001
 30
0.0
 10
1.65368
 20
-3.2517600000000004
 30
0.0
 10
1.65368
 20
-3.2517600000000004
 30
0.0
 10
1.6105
 20
-3.2314400000000001
 30
0.0
 10
1.6079600000000001
 20
-3.1349200000000002
 30
0.0
 10
1.65368
 20
-3.0993600000000003
 30
0.0
  0
SPLINE
  5
37
100
AcDbEntity
  8
Ebene 1
 62
     7
100
AcDbSpline
210
0.0
220
0.0
230
1.0
 70
     1
 71
     3
 72
    12
 73
     8
 74
     0
 42
0.0000000001
 43
0.0000000001
 40
0.0
 40
0.0
 40
0.0
 40
0.0
 40
0.5
 40
0.5
 40
0.5
 40
0.5
 40
1.0
 40
1.0
 40
1.0
 40
1.0
 10
1.1837800000000001
 20
-3.2365200000000001
 30
0.0
 10
1.3463400000000001
 20
-3.2797000000000001
 30
0.0
 10
1.6232000000000002
 20
-3.3152600000000003
 30
0.0
 10
1.5393800000000002
 20
-3.5895800000000002
 30
0.0
 10
1.5393800000000002
 20
-3.5895800000000002
 30
0.0
 10
1.4123800000000002
 20
-3.5108400000000004
 30
0.0
 10
1.27268
 20
-3.3762200000000004
 30
0.0
 10
1.1837800000000001
 20
-3.2365200000000001
 30
0.0
  0
SPLINE
  5
38
100
AcDbEntity
  8
Ebene 1
 62
     7
100
AcDbSpline
210
0.0
220
0.0
230
1.0
 70
     1
 71
     3
 72
    12
 73
     8
 74
     0
 42
0.0000000001
 43
0.0000000001
 40
0.0
 40
0.0
 40
0.0
 40
0.0
 40
0.5
 40
0.5
 40
0.5
 40
0.5
 40
1.0
 40
1.0
 40
1.0
 40
1.0
 10
1.6435200000000001
 20
-3.3203400000000003
 30
0.0
 10
1.7730600000000001
 20
-3.2949400000000004
 30
0.0
 10
1.6994000000000002
 20
-3.4879800000000003
 30
0.0
 10
1.6333600000000001
 20
-3.5210000000000004
 30
0.0
 10
1.6333600000000001
 20
-3.5210000000000004
 30
0.0
 10
1.6308200000000002
 20
-3.4549600000000003
 30
0.0
 10
1.5927200000000001
 20
-3.3762200000000004
 30
0.0
 10
1.6435200000000001
 20
-3.3203400000000003
 30
0.0
  0
SPLINE
  5
39
100
AcDbEntity
  8
Ebene 1
 62
     7
100
AcDbSpline
210
0.0
220
0.0
230
1.0
 70
     1
 71
     3
 72
    12
 73
     8
 74
     0
 42
0.0000000001
 43
0.0000000001
 40
0.0
 40
0.0
 40
0.0
 40
0.0
 40
0.5
 40
0.5
 40
0.5
 40
0.5
 40
1.0
 40
1.0
 40
1.0
 40
1.0
 10
1.65368
 20
-3.5794200000000003
 30
0.0
 10
1.7375
 20
-3.5946600000000002
 30
0.0
 10
1.6587600000000002
 20
-3.6937200000000003
 30
0.0
 10
1.6181200000000002
 20
-3.7165800000000004
 30
0.0
 10
1.6181200000000002
 20
-3.7165800000000004
 30
0.0
 10
1.5927200000000001
 20
-3.6810200000000002
 30
0.0
 10
1.6181200000000002
 20
-3.6022800000000004
 30
0.0
 10
1.65368
 20
-3.5794200000000003
 30
0.0
  0
SPLINE
  5
3A
100
AcDbEntity
  8
Ebene 1
 62
     7
100
AcDbSpline
210
0.0
220
0.0
230
1.0
 70
     1
 71
     3
 72
    24
 73
    20
 74
     0
 42
0.0000000001
 43
0.0000000001
 40
0.0
 40
0.0
 40
0.0
 40
0.0
 40
0.2
 40
0.2
 40
0.2
 40
0.2
 40
0.4
 40
0.4
 40
0.4
 40
0.4
 40
0.6000000000000001
 40
0.6000000000000001
 40
0.6000000000000001
 40
0.6000000000000001
 40
0.8
 40
0.8
 40
0.8
 40
0.8
 40
1.0
 40
1.0
 40
1.0
 40
1.0
 10
0.38622
 20
-3.6073600000000003
 30
0.0
 10
0.55386
 20
-3.7216600000000004
 30
0.0
 10
0.61736
 20
-3.9197800000000003
 30
0.0
 10
0.7570600000000001
 20
-4.0747200000000001
 30
0.0
 10
0.7570600000000001
 20
-4.0747200000000001
 30
0.0
 10
0.7570600000000001
 20
-4.0747200000000001
 30
0.0
 10
0.7519800000000001
 20
-4.1382200000000005
 30
0.0
 10
0.7519800000000001
 20
-4.1382200000000005
 30
0.0
 10
0.7519800000000001
 20
-4.1382200000000005
 30
0.0
 10
0.9069200000000001
 20
-4.2118800000000007
 30
0.0
 10
1.0136000000000001
 20
-4.4328600000000007
 30
0.0
 10
1.06694
 20
-4.5750999999999999
 30
0.0
 10
1.06694
 20
-4.5750999999999999
 30
0.0
 10
1.02376
 20
-4.5878000000000005
 30
0.0
 10
0.9780400000000001
 20
-4.5776400000000006
 30
0.0
 10
0.9374000000000001
 20
-4.5624000000000002
 30
0.0
 10
0.9374000000000001
 20
-4.5624000000000002
 30
0.0
 10
0.8180200000000001
 20
-4.2093400000000001
 30
0.0
 10
0.5818000000000001
 20
-3.9197800000000003
 30
0.0
 10
0.38622
 20
-3.6073600000000003
 30
0.0
  0
SPLINE
  5
3B
100
AcDbEntity
  8
Ebene 1
 62
     7
100
AcDbSpline
210
0.0
220
0.0
230
1.0
 70
     1
 71
     3
 72
    16
 73
    12
 74
     0
 42
0.0000000001
 43
0.0000000001
 40
0.0
 40
0.0
 40
0.0
 40
0.0
 40
0.3333333333333333
 40
0.3333333333333333
 40
0.3333333333333333
 40
0.3333333333333333
 40
0.6666666666666666
 40
0.6666666666666666
 40
0.6666666666666666
 40
0.6666666666666666
 40
1.0
 40
1.0
 40
1.0
 40
1.0
 10
1.1329800000000001
 20
-3.7292800000000002
 30
0.0
 10
1.2879200000000002
 20
-3.7750000000000004
 30
0.0
 10
1.3692000000000002
 20
-3.8664400000000003
 30
0.0
 10
1.5038200000000002
 20
-3.9655000000000005
 30
0.0
 10
1.5038200000000002
 20
-3.9655000000000005
 30
0.0
 10
1.5012800000000002
 20
-4.0264600000000002
 30
0.0
 10
1.4784200000000001
 20
-4.1001200000000004
 30
0.0
 10
1.44286
 20
-4.1407600000000002
 30
0.0
 10
1.44286
 20
-4.1407600000000002
 30
0.0
 10
1.44286
 20
-4.1407600000000002
 30
0.0
 10
1.1329800000000001
 20
-3.7292800000000002
 30
0.0
 10
1.1329800000000001
 20
-3.7292800000000002
 30
0.0
  0
SPLINE
  5
3C
100
AcDbEntity
  8
Ebene 1
 62
     7
100
AcDbSpline
210
0.0
220
0.0
230
1.0
 70
     1
 71
     3
 72
    12
 73
     8
 74
     0
 42
0.0000000001
 43
0.0000000001
 40
0.0
 40
0.0
 40
0.0
 40
0.0
 40
0.5
 40
0.5
 40
0.5
 40
0.5
 40
1.0
 40
1.0
 40
1.0
 40
1.0
 10
1.6917800000000001
 20
-3.7572200000000002
 30
0.0
 10
1.7832200000000002
 20
-3.8080200000000004
 30
0.0
 10
1.6105
 20
-3.9299400000000002
 30
0.0
 10
1.56986
 20
-3.9731200000000002
 30
0.0
 10
1.56986
 20
-3.9731200000000002
 30
0.0
 10
1.5546200000000001
 20
-3.8740600000000005
 30
0.0
 10
1.5952600000000001
 20
-3.7546800000000005
 30
0.0
 10
1.6917800000000001
 20
-3.7572200000000002
 30
0.0
  0
SPLINE
  5
3D
100
AcDbEntity
  8
Ebene 1
 62
     7
100
AcDbSpline
210
0.0
220
0.0
230
1.0
 70
     1
 71
     3
 72
    16
 73
    12
 74
     0
 42
0.0000000001
 43
0.0000000001
 40
0.0
 40
0.0
 40
0.0
 40
0.0
 40
0.3333333333333333
 40
0.3333333333333333
 40
0.3333333333333333
 40
0.3333333333333333
 40
0.6666666666666666
 40
0.6666666666666666
 40
0.6666666666666666
 40
0.6666666666666666
 40
1.0
 40
1.0
 40
1.0
 40
1.0
 10
0.99582
 20
-3.9096200000000003
 30
0.0
 10
1.1583800000000002
 20
-3.9502600000000001
 30
0.0
 10
1.2980800000000001
 20
-4.0925000000000002
 30
0.0
 10
1.4200000000000002
 20
-4.2093400000000001
 30
0.0
 10
1.4200000000000002
 20
-4.2093400000000001
 30
0.0
 10
1.4200000000000002
 20
-4.2093400000000001
 30
0.0
 10
1.3031600000000001
 20
-4.3846000000000007
 30
0.0
 10
1.3031600000000001
 20
-4.3846000000000007
 30
0.0
 10
1.3031600000000001
 20
-4.3846000000000007
 30
0.0
 10
1.19394
 20
-4.2398199999999999
 30
0.0
 10
1.06186
 20
-4.0848800000000001
 30
0.0
 10
0.99582
 20
-3.9096200000000003
 30
0.0
  0
SPLINE
  5
3E
100
AcDbEntity
  8
Ebene 1
 62
     7
100
AcDbSpline
210
0.0
220
0.0
230
1.0
 70
     1
 71
     3
 72
    16
 73
    12
 74
     0
 42
0.0000000001
 43
0.0000000001
 40
0.0
 40
0.0
 40
0.0
 40
0.0
 40
0.3333333333333333
 40
0.3333333333333333
 40
0.3333333333333333
 40
0.3333333333333333
 40
0.6666666666666666
 40
0.6666666666666666
 40
0.6666666666666666
 40
0.6666666666666666
 40
1.0
 40
1.0
 40
1.0
 40
1.0
 10
1.56732
 20
-4.01884
 30
0.0
 10
1.7095600000000002
 20
-3.9883600000000001
 30
0.0
 10
1.5774800000000002
 20
-4.1306000000000003
 30
0.0
 10
1.5216000000000001
 20
-4.1509200000000002
 30
0.0
 10
1.5216000000000001
 20
-4.1509200000000002
 30
0.0
 10
1.5216000000000001
 20
-4.1509200000000002
 30
0.0
 10
1.5216000000000001
 20
-4.1026600000000002
 30
0.0
 10
1.5216000000000001
 20
-4.1026600000000002
 30
0.0
 10
1.5216000000000001
 20
-4.1026600000000002
 30
0.0
 10
1.5216000000000001
 20
-4.1026600000000002
 30
0.0
 10
1.56732
 20
-4.01884
 30
0.0
 10
1.56732
 20
-4.01884
 30
0.0
  0
SPLINE
  5
3F
100
AcDbEntity
  8
Ebene 1
 62
     7
100
AcDbSpline
210
0.0
220
0.0
230
1.0
 70
     1
 71
     3
 72
    16
 73
    12
 74
     0
 42
0.0000000001
 43
0.0000000001
 40
0.0
 40
0.0
 40
0.0
 40
0.0
 40
0.3333333333333333
 40
0.3333333333333333
 40
0.3333333333333333
 40
0.3333333333333333
 40
0.6666666666666666
 40
0.6666666666666666
 40
0.6666666666666666
 40
0.6666666666666666
 40
1.0
 40
1.0
 40
1.0
 40
1.0
 10
0.8967600000000001
 20
-4.0874200000000007
 30
0.0
 10
1.0390000000000001
 20
-4.1585400000000003
 30
0.0
 10
1.18632
 20
-4.2804600000000006
 30
0.0
 10
1.2676000000000001
 20
-4.4379400000000002
 30
0.0
 10
1.2676000000000001
 20
-4.4379400000000002
 30
0.0
 10
1.2244200000000001
 20
-4.48874
 30
0.0
 10
1.1761600000000001
 20
-4.5090600000000007
 30
0.0
 10
1.1329800000000001
 20
-4.5395400000000006
 30
0.0
 10
1.1329800000000001
 20
-4.5395400000000006
 30
0.0
 10
1.0440800000000001
 20
-4.40238
 30
0.0
 10
0.9272400000000001
 20
-4.2576000000000001
 30
0.0
 10
0.8967600000000001
 20
-4.0874200000000007
 30
0.0
  0
SPLINE
  5
40
100
AcDbEntity
  8
Ebene 1
 62
     7
100
AcDbSpline
210
0.0
220
0.0
230
1.0
 70
     1
 71
     3
 72
    12
 73
     8
 74
     0
 42
0.0000000001
 43
0.0000000001
 40
0.0
 40
0.0
 40
0.0
 40
0.0
 40
0.5
 40
0.5
 40
0.5
 40
0.5
 40
1.0
 40
1.0
 40
1.0
 40
1.0
 10
1.3819000000000001
 20
-4.40238
 30
0.0
 10
1.3819000000000001
 20
-4.40238
 30
0.0
 10
1.52922
 20
-4.2118800000000007
 30
0.0
 10
1.52922
 20
-4.2118800000000007
 30
0.0
 10
1.52922
 20
-4.2118800000000007
 30
0.0
 10
1.4987400000000002
 20
-4.2830000000000004
 30
0.0
 10
1.4555600000000002
 20
-4.3744400000000008
 30
0.0
 10
1.3819000000000001
 20
-4.40238
 30
0.0
  0
ENDSEC
  0
SECTION
  2
OBJECTS
  0
DICTIONARY
  5
19
100
AcDbDictionary
280
     0
281
     1
  3
ACAD_GROUP
350
1A
  3
ACAD_MLINESTYLE
350
1B
  3
ACAD_LAYOUT
350
1E
  3
ACAD_PLOTSETTINGS
350
22
  3
ACAD_PLOTSTYLENAME
350
1F
  3
ACAD_WIPEOUT_VARS
350
23
  0
DICTIONARY
  5
1A
102
{ACAD_REACTORS
330
19
102
}
100
AcDbDictionary
280
     0
281
     1
  0
DICTIONARY
  5
1B
102
{ACAD_REACTORS
330
19
102
}
100
AcDbDictionary
280
     0
281
     1
  3
Standard
350
1C
  0
MLINESTYLE
  5
1C
102
{ACAD_REACTORS
330
1B
102
}
100
AcDbMlineStyle
  2
Standard
 70
     0
  3

 62
     0
 51
90.0
 52
90.0
 71
     2
 49
0.5
 62
   256
  6
BYLAYER
 49
-0.5
 62
   256
  6
BYLAYER
  0
ACDBDICTIONARYWDFLT
  5
1F
102
{ACAD_REACTORS
330
19
102
}
100
AcDbDictionary
281
     1
  3
Normal
350
1D
100
AcDbDictionaryWithDefault
340
1D
  0
ACDBPLACEHOLDER
  5
1D
102
{ACAD_REACTORS
330
1F
102
}
  0
LAYOUT
  5
20
102
{ACAD_REACTORS
330
1E
102
}
100
AcDbPlotSettings
  1

  2

  4

  6

 40
0.0
 41
0.0
 42
0.0
 43
0.0
 44
0.0
 45
0.0
 46
0.0
 47
0.0
 48
0.0
 49
0.0
140
0.0
141
0.0
142
1.0
143
1.0
 70
  1024
 72
     0
 73
     0
 74
     0
  7

 75
     0
147
1.0
148
0.0
149
0.0
100
AcDbLayout
  1
Model
 70
     0
 71
     0
 10
0.0
 20
0.0
 11
0.0
 21
0.0
 12
0.0
 22
0.0
 32
0.0
 14
0.0
 24
0.0
 34
0.0
 15
0.0
 25
0.0
 35
0.0
146
0.0
 13
0.0
 23
0.0
 33
0.0
 16
0.0
 26
0.0
 36
0.0
 17
0.0
 27
0.0
 37
0.0
 76
     0
330
A
331
0
345
0
346
0
  0
LAYOUT
  5
21
102
{ACAD_REACTORS
330
1E
102
}
100
AcDbPlotSettings
  1

  2

  4

  6

 40
0.0
 41
0.0
 42
0.0
 43
0.0
 44
0.0
 45
0.0
 46
0.0
 47
0.0
 48
0.0
 49
0.0
140
0.0
141
0.0
142
1.0
143
1.0
 70
     0
 72
     0
 73
     0
 74
     0
  7

 75
     0
147
1.0
148
0.0
149
0.0
100
AcDbLayout
  1
Layout1
 70
     0
 71
     0
 10
0.0
 20
0.0
 11
0.0
 21
0.0
 12
0.0
 22
0.0
 32
0.0
 14
0.0
 24
0.0
 34
0.0
 15
0.0
 25
0.0
 35
0.0
146
0.0
 13
0.0
 23
0.0
 33
0.0
 16
0.0
 26
0.0
 36
0.0
 17
0.0
 27
0.0
 37
0.0
 76
     0
330
B
331
0
345
0
346
0
  0
DICTIONARY
  5
1E
102
{ACAD_REACTORS
330
19
102
}
100
AcDbDictionary
280
     0
281
     1
  3
Layout1
350
21
  3
Model
350
20
  0
DICTIONARY
  5
22
102
{ACAD_REACTORS
330
19
102
}
100
AcDbDictionary
280
     0
281
     1
  0
WIPEOUTVARIABLES
  5
23
100
AcDbWipeoutVariables
 70
     1
  0
ENDSEC
  0
EOF
