  0
SECTION
  2
HEADER
  9
$ACADVER
  1
AC1015
  9
$ACADMAINTVER
 70
     6
  9
$DWGCODEPAGE
  3
DOS850
  9
$INSBASE
 10
0.0
 20
0.0
 30
0.0
  9
$EXTMIN
 10
-4.73373
 20
-5.32679
 30
1.000000E+20
  9
$EXTMAX
 10
4.73776
 20
5.32073
 30
-1.000000E+20
  9
$LIMMIN
 10
0.0
 20
0.0
  9
$LIMMAX
 10
0.0
 20
0.0
  9
$ORTHOMODE
 70
     0
  9
$REGENMODE
 70
     1
  9
$FILLMODE
 70
     1
  9
$QTEXTMODE
 70
     0
  9
$MIRRTEXT
 70
     1
  9
$LTSCALE
 40
1.0
  9
$ATTMODE
 70
     1
  9
$TEXTSIZE
 40
0.2
  9
$TRACEWID
 40
0.05
  9
$TEXTSTYLE
  7
Standard
  9
$CLAYER
  8
0
  9
$CELTYPE
  6
Continuous
  9
$CECOLOR
 62
   256
  9
$CELTSCALE
 40
1.0
  9
$DISPSILH
 70
     0
  9
$DIMSCALE
 40
1.0
  9
$DIMASZ
 40
0.18
  9
$DIMEXO
 40
0.0625
  9
$DIMDLI
 40
0.38
  9
$DIMRND
 40
0.0
  9
$DIMDLE
 40
0.0
  9
$DIMEXE
 40
0.18
  9
$DIMTP
 40
0.0
  9
$DIMTM
 40
0.0
  9
$DIMTXT
 40
0.18
  9
$DIMCEN
 40
0.09
  9
$DIMTSZ
 40
0.0
  9
$DIMTOL
 70
     0
  9
$DIMLIM
 70
     0
  9
$DIMTIH
 70
     1
  9
$DIMTOH
 70
     1
  9
$DIMSE1
 70
     0
  9
$DIMSE2
 70
     0
  9
$DIMTAD
 70
     0
  9
$DIMZIN
 70
     0
  9
$DIMBLK
  1

  9
$DIMASO
 70
     1
  9
$DIMSHO
 70
     1
  9
$DIMPOST
  1

  9
$DIMAPOST
  1

  9
$DIMALT
 70
     0
  9
$DIMALTD
 70
     2
  9
$DIMALTF
 40
25.4
  9
$DIMLFAC
 40
1.0
  9
$DIMTOFL
 70
     0
  9
$DIMTVP
 40
0.0
  9
$DIMTIX
 70
     0
  9
$DIMSOXD
 70
     0
  9
$DIMSAH
 70
     0
  9
$DIMBLK1
  1

  9
$DIMBLK2
  1

  9
$DIMSTYLE
  2
Standard
  9
$DIMCLRD
 70
     0
  9
$DIMCLRE
 70
     0
  9
$DIMCLRT
 70
     0
  9
$DIMTFAC
 40
1.0
  9
$DIMGAP
 40
0.09
  9
$DIMJUST
 70
     0
  9
$DIMSD1
 70
     0
  9
$DIMSD2
 70
     0
  9
$DIMTOLJ
 70
     1
  9
$DIMTZIN
 70
     0
  9
$DIMALTZ
 70
     0
  9
$DIMALTTZ
 70
     0
  9
$DIMUPT
 70
     0
  9
$DIMDEC
 70
     4
  9
$DIMTDEC
 70
     4
  9
$DIMALTU
 70
     2
  9
$DIMALTTD
 70
     2
  9
$DIMTXSTY
  7
Standard
  9
$DIMAUNIT
 70
     0
  9
$DIMADEC
 70
     0
  9
$DIMALTRND
 40
0.0
  9
$DIMAZIN
 70
     0
  9
$DIMDSEP
 70
     0
  9
$DIMATFIT
 70
     3
  9
$DIMFRAC
 70
     0
  9
$DIMLDRBLK
  1

  9
$DIMLUNIT
 70
     2
  9
$DIMLWD
 70
     0
  9
$DIMLWE
 70
     0
  9
$DIMTMOVE
 70
     0
  9
$LUNITS
 70
     2
  9
$LUPREC
 70
     4
  9
$SKETCHINC
 40
0.1
  9
$FILLETRAD
 40
0.0
  9
$AUNITS
 70
     0
  9
$AUPREC
 70
     0
  9
$MENU
  1
acad
  9
$ELEVATION
 40
0.0
  9
$PELEVATION
 40
0.0
  9
$THICKNESS
 40
0.0
  9
$LIMCHECK
 70
     0
  9
$CHAMFERA
 40
0.0
  9
$CHAMFERB
 40
0.0
  9
$CHAMFERC
 40
0.0
  9
$CHAMFERD
 40
0.0
  9
$SKPOLY
 70
     0
  9
$TDCREATE
 40
0.000000000
  9
$TDUCREATE
 40
0.000000000
  9
$TDUPDATE
 40
0.000000000
  9
$TDUUPDATE
 40
0.000000000
  9
$TDINDWG
 40
0.0000000000
  9
$TDUSRTIMER
 40
0.0000000000
  9
$USRTIMER
 70
     1
  9
$ANGBASE
 50
0.0
  9
$ANGDIR
 70
     0
  9
$PDMODE
 70
     0
  9
$PDSIZE
 40
0.0
  9
$PLINEWID
 40
0.0
  9
$SPLFRAME
 70
     0
  9
$SPLINETYPE
 70
     6
  9
$SPLINESEGS
 70
     8
  9
$HANDSEED
  5
4A
  9
$SURFTAB1
 70
     6
  9
$SURFTAB2
 70
     6
  9
$SURFTYPE
 70
     6
  9
$SURFU
 70
     6
  9
$SURFV
 70
     6
  9
$UCSBASE
  2

  9
$UCSNAME
  2

  9
$UCSORG
 10
0.0
 20
0.0
 30
0.0
  9
$UCSXDIR
 10
1.0
 20
0.0
 30
0.0
  9
$UCSYDIR
 10
0.0
 20
1.0
 30
0.0
  9
$UCSORTHOREF
  2

  9
$UCSORTHOVIEW
 70
     0
  9
$UCSORGTOP
 10
0.0
 20
0.0
 30
0.0
  9
$UCSORGBOTTOM
 10
0.0
 20
0.0
 30
0.0
  9
$UCSORGLEFT
 10
0.0
 20
0.0
 30
0.0
  9
$UCSORGRIGHT
 10
0.0
 20
0.0
 30
0.0
  9
$UCSORGFRONT
 10
0.0
 20
0.0
 30
0.0
  9
$UCSORGBACK
 10
0.0
 20
0.0
 30
0.0
  9
$PUCSBASE
  2

  9
$PUCSNAME
  2

  9
$PUCSORG
 10
0.0
 20
0.0
 30
0.0
  9
$PUCSXDIR
 10
1.0
 20
0.0
 30
0.0
  9
$PUCSYDIR
 10
0.0
 20
1.0
 30
0.0
  9
$PUCSORTHOREF
  2

  9
$PUCSORTHOVIEW
 70
     0
  9
$PUCSORGTOP
 10
0.0
 20
0.0
 30
0.0
  9
$PUCSORGBOTTOM
 10
0.0
 20
0.0
 30
0.0
  9
$PUCSORGLEFT
 10
0.0
 20
0.0
 30
0.0
  9
$PUCSORGRIGHT
 10
0.0
 20
0.0
 30
0.0
  9
$PUCSORGFRONT
 10
0.0
 20
0.0
 30
0.0
  9
$PUCSORGBACK
 10
0.0
 20
0.0
 30
0.0
  9
$USERI1
 70
     0
  9
$USERI2
 70
     0
  9
$USERI3
 70
     0
  9
$USERI4
 70
     0
  9
$USERI5
 70
     0
  9
$USERR1
 40
0.0
  9
$USERR2
 40
0.0
  9
$USERR3
 40
0.0
  9
$USERR4
 40
0.0
  9
$USERR5
 40
0.0
  9
$WORLDVIEW
 70
     1
  9
$SHADEDGE
 70
     3
  9
$SHADEDIF
 70
    70
  9
$TILEMODE
 70
     1
  9
$MAXACTVP
 70
    16
  9
$PINSBASE
 10
0.0
 20
0.0
 30
0.0
  9
$PLIMCHECK
 70
     0
  9
$PEXTMIN
 10
1.000000E+20
 20
1.000000E+20
 30
1.000000E+20
  9
$PEXTMAX
 10
-1.000000E+20
 20
-1.000000E+20
 30
-1.000000E+20
  9
$PLIMMIN
 10
0.0
 20
0.0
  9
$PLIMMAX
 10
12.0
 20
9.0
  9
$UNITMODE
 70
     0
  9
$VISRETAIN
 70
     0
  9
$PLINEGEN
 70
     1
  9
$PSLTSCALE
 70
     0
  9
$TREEDEPTH
 70
  3020
  9
$CMLSTYLE
  2
Standard
  9
$CMLJUST
 70
     0
  9
$CMLSCALE
 40
1.0
  9
$PROXYGRAPHICS
 70
     0
  9
$MEASUREMENT
 70
     0
  9
$CELWEIGHT
370
     0
  9
$ENDCAPS
280
     0
  9
$JOINSTYLE
280
     0
  9
$LWDISPLAY
290
     0
  9
$INSUNITS
 70
     5
  9
$HYPERLINKBASE
  1

  9
$XEDIT
290
     1
  9
$CEPSNTYPE
380
     0
  9
$PSTYLEMODE
290
     1
  9
$FINGERPRINTGUID
  2

  9
$VERSIONGUID
  2

  9
$EXTNAMES
290
     1
  9
$PSVPSCALE
 40
0.0
  0
ENDSEC
  0
SECTION
  2
CLASSES
  0
CLASS
  1
LWPOLYLINE
  2
AcDbPolyline
  3
AutoCAD 2000
 90
    32768
280
     0
281
     1
  0
CLASS
  1
IMAGE
  2
AcDbRasterImage
  3
ISM
 90
    32895
280
     0
281
     1
  0
CLASS
  1
OLE2FRAME
  2
AcDbOle2Frame
  3
AutoCAD 2000
 90
    32768
280
     0
281
     1
  0
CLASS
  1
HATCH
  2
AcDbHatch
  3
AutoCAD 2000
 90
    32768
280
     0
281
     1
  0
CLASS
  1
DICTIONARYVAR
  2
AcDbDictionaryVar
  3
AutoCAD 2000
 90
    32768
280
     0
281
     0
  0
CLASS
  1
RASTERVARIABLES
  2
AcDbRasterVariables
  3
ISM
 90
    32768
280
     0
281
     0
  0
CLASS
  1
IMAGEDEF
  2
AcDbRasterImageDef
  3
ISM
 90
    32768
280
     0
281
     0
  0
CLASS
  1
IMAGEDEF_REACTOR
  2
AcDbRasterImageDefReactor
  3
ISM
 90
    32769
280
     0
281
     0
  0
CLASS
  1
IDBUFFER
  2
AcDbIdBuffer
  3
AutoCAD 2000
 90
    32768
280
     0
281
     0
  0
CLASS
  1
SPATIAL_FILTER
  2
AcDbSpatialFilter
  3
AutoCAD 2000
 90
    32768
280
     0
281
     0
  0
CLASS
  1
XRECORD
  2
AcDbXrecord
  3
AutoCAD 2000
 90
    32768
280
     0
281
     0
  0
CLASS
  1
SORTENTSTABLE
  2
AcDbSortentsTable
  3
AutoCAD 2000
 90
    32768
280
     0
281
     0
  0
CLASS
  1
LAYER_INDEX
  2
AcDbLayerIndex
  3
AutoCAD 2000
 90
    32768
280
     0
281
     0
  0
CLASS
  1
SPATIAL_INDEX
  2
AcDbSpatialIndex
  3
AutoCAD 2000
 90
    32768
280
     0
281
     0
  0
CLASS
  1
OBJECT_PTR
  2
CAseDLPNTableRecord
  3
"ASE-LPNTableRecord"
 90
    32769
280
     0
281
     0
  0
CLASS
  1
LAYOUT
  2
AcDbLayout
  3
AutoCAD 2000
 90
        0
280
     0
281
     0
  0
CLASS
  1
PLOTSETTINGS
  2
AcDbPlotSettings
  3
AutoCAD 2000
 90
    32768
280
     0
281
     0
  0
CLASS
  1
ACDBDICTIONARYWDFLT
  2
AcDbDictionaryWithDefault
  3
AutoCAD 2000
 90
        0
280
     0
281
     0
  0
CLASS
  1
ACDBPLACEHOLDER
  2
AcDbPlaceHolder
  3
AutoCAD 2000
 90
        0
280
     0
281
     0
  0
CLASS
  1
VBA_PROJECT
  2
AcDbVbaProject
  3
acadvba
 90
    32768
280
     0
281
     0
  0
CLASS
  1
WIPEOUT
  2
AcDbWipeout
  3
WipeOut|AutoCAD Express Tool|expresstools@autodesk.com
 90
    32895
280
     0
281
     1
  0
CLASS
  1
WIPEOUTVARIABLES
  2
AcDbWipeoutVariables
  3
WipeOut|AutoCAD Express Tool|expresstools@autodesk.com
 90
        0
280
     0
281
     0
  0
CLASS
  1
RTEXT
  2
RText
  3
RText|AutoCAD Express Tool|expresstools@autodesk.com
 90
    32768
280
     0
281
     1
  0
CLASS
  1
ARCALIGNEDTEXT
  2
AcDbArcAlignedText
  3
ATEXT|AutoCAD Express Tool|expresstools@autodesk.com
 90
    32768
280
     0
281
     1
  0
ENDSEC
  0
SECTION
  2
TABLES
  0
TABLE
  2
VPORT
  5
7
100
AcDbSymbolTable
 70
     1
  0
VPORT
  5
15
100
AcDbSymbolTableRecord
100
AcDbViewportTableRecord
  2
*ACTIVE
 70
     0
 10
0.0
 20
0.0
 11
1.0
 21
1.0
 12
6.591288
 22
4.579184
 13
0.0
 23
0.0
 14
1.0
 24
1.0
 15
0.0
 25
0.0
 16
0.0
 26
0.0
 36
1.0
 17
0.0
 27
0.0
 37
0.0
 40
9.158369
 41
0.688564
 42
50.0
 43
0.0
 44
0.0
 50
0.0
 51
0.0
 71
     0
 72
   100
 73
     1
 74
     1
 75
     0
 76
     0
 77
     0
 78
     0
281
     0
 65
     0
110
0.0
120
0.0
130
0.0
111
1.0
121
0.0
131
0.0
112
0.0
122
1.0
132
0.0
345
0
346
0
 79
     0
146
0.0
  0
ENDTAB
  0
TABLE
  2
LTYPE
  5
4
100
AcDbSymbolTable
 70
     3
  0
LTYPE
  5
11
100
AcDbSymbolTableRecord
100
AcDbLinetypeTableRecord
  2
ByBlock
 70
    64
  3

 72
    65
 73
     0
 40
0.0
  0
LTYPE
  5
12
100
AcDbSymbolTableRecord
100
AcDbLinetypeTableRecord
  2
ByLayer
 70
    64
  3

 72
    65
 73
     0
 40
0.0
  0
LTYPE
  5
13
100
AcDbSymbolTableRecord
100
AcDbLinetypeTableRecord
  2
Continuous
 70
    64
  3
Solid line
 72
    65
 73
     0
 40
0.0
  0
ENDTAB
  0
TABLE
  2
LAYER
  5
2
100
AcDbSymbolTable
 70
     2
  0
LAYER
  5
14
100
AcDbSymbolTableRecord
100
AcDbLayerTableRecord
  2
0
 70
     0
 62
     7
  6
Continuous
290
     1
370
    -3
390
1D
  0
LAYER
  5
24
100
AcDbSymbolTableRecord
100
AcDbLayerTableRecord
  2
Ebene 1
 70
     0
 62
     7
  6
Continuous
290
     1
370
    -3
390
1F
  0
ENDTAB
  0
TABLE
  2
STYLE
  5
3
100
AcDbSymbolTable
 70
     1
  0
STYLE
  5
17
100
AcDbSymbolTableRecord
100
AcDbTextStyleTableRecord
  2
Standard
 70
     0
 40
0.0
 41
1.0
 50
0.0
 71
     0
 42
0.0
  3
txt
  4

  0
ENDTAB
  0
TABLE
  2
VIEW
  5
5
100
AcDbSymbolTable
 70
     0
  0
ENDTAB
  0
TABLE
  2
UCS
  5
6
100
AcDbSymbolTable
 70
     0
  0
ENDTAB
  0
TABLE
  2
APPID
  5
8
100
AcDbSymbolTable
 70
     1
  0
APPID
  5
16
100
AcDbSymbolTableRecord
100
AcDbRegAppTableRecord
  2
ACAD
 70
     0
  0
ENDTAB
  0
TABLE
  2
DIMSTYLE
  5
9
100
AcDbSymbolTable
 70
     1
100
AcDbDimStyleTable
 71
     0
  0
DIMSTYLE
105
18
100
AcDbSymbolTableRecord
100
AcDbDimStyleTableRecord
  2
Standard
 70
     0
  3

  4

 40
1.0
 41
0.18
 42
0.0625
 43
0.38
 44
0.18
 45
0.0
 46
0.0
 47
0.0
 48
0.0
 71
     0
 72
     0
 73
     1
 74
     1
 75
     0
 76
     0
 77
     0
 78
     0
 79
     0
140
0.18
141
0.09
142
0.0
143
25.4
144
1.0
145
0.0
146
1.0
147
0.09
148
0.0
170
     0
171
     2
172
     0
173
     0
174
     0
175
     0
176
     0
177
     0
178
     0
179
     0
271
     4
272
     4
273
     2
274
     2
275
     0
276
     0
277
     2
278
    46
279
     0
280
     0
281
     0
282
     0
283
     1
284
     0
285
     0
286
     0
288
     0
340
17
341
0
342
0
343
0
344
0
371
    -2
372
    -2
  0
ENDTAB
  0
TABLE
  2
BLOCK_RECORD
  5
1
100
AcDbSymbolTable
 70
     0
  0
BLOCK_RECORD
  5
A
100
AcDbSymbolTableRecord
100
AcDbBlockTableRecord
  2
*MODEL_SPACE
340
20
  0
BLOCK_RECORD
  5
B
100
AcDbSymbolTableRecord
100
AcDbBlockTableRecord
  2
*PAPER_SPACE
340
21
  0
ENDTAB
  0
ENDSEC
  0
SECTION
  2
BLOCKS
  0
BLOCK
  5
D
100
AcDbEntity
  8
0
100
AcDbBlockBegin
  2
*MODEL_SPACE
 70
     0
 10
0.0
 20
0.0
 30
0.0
  3
*MODEL_SPACE
  1

  0
ENDBLK
  5
E
100
AcDbEntity
  8
0
100
AcDbBlockEnd
  0
BLOCK
  5
F
100
AcDbEntity
 67
     1
  8
0
100
AcDbBlockBegin
  2
*PAPER_SPACE
 70
     0
 10
0.0
 20
0.0
 30
0.0
  3
*PAPER_SPACE
  1

  0
ENDBLK
  5
10
100
AcDbEntity
 67
     1
  8
0
100
AcDbBlockEnd
  0
ENDSEC
  0
SECTION
  2
ENTITIES
  0
SPLINE
  5
25
100
AcDbEntity
  8
Ebene 1
100
AcDbSpline
210
0.0
220
0.0
230
1.0
 70
     1
 71
     3
 72
    64
 73
    60
 74
     0
 42
0.0000000001
 43
0.0000000001
 40
0.0
 40
0.0
 40
0.0
 40
0.0
 40
0.0666666666666667
 40
0.0666666666666667
 40
0.0666666666666667
 40
0.0666666666666667
 40
0.1333333333333333
 40
0.1333333333333333
 40
0.1333333333333333
 40
0.1333333333333333
 40
0.2
 40
0.2
 40
0.2
 40
0.2
 40
0.2666666666666667
 40
0.2666666666666667
 40
0.2666666666666667
 40
0.2666666666666667
 40
0.3333333333333333
 40
0.3333333333333333
 40
0.3333333333333333
 40
0.3333333333333333
 40
0.4
 40
0.4
 40
0.4
 40
0.4
 40
0.4666666666666666
 40
0.4666666666666666
 40
0.4666666666666666
 40
0.4666666666666666
 40
0.5333333333333333
 40
0.5333333333333333
 40
0.5333333333333333
 40
0.5333333333333333
 40
0.6
 40
0.6
 40
0.6
 40
0.6
 40
0.6666666666666666
 40
0.6666666666666666
 40
0.6666666666666666
 40
0.6666666666666666
 40
0.7333333333333333
 40
0.7333333333333333
 40
0.7333333333333333
 40
0.7333333333333333
 40
0.7999999999999999
 40
0.7999999999999999
 40
0.7999999999999999
 40
0.7999999999999999
 40
0.8666666666666666
 40
0.8666666666666666
 40
0.8666666666666666
 40
0.8666666666666666
 40
0.9333333333333332
 40
0.9333333333333332
 40
0.9333333333333332
 40
0.9333333333333332
 40
1.0
 40
1.0
 40
1.0
 40
1.0
 10
3.2310200000000004
 20
5.3207300000000002
 30
0.0
 10
3.7034600000000002
 20
5.3004100000000003
 30
0.0
 10
4.1936800000000005
 20
5.2445300000000001
 30
0.0
 10
4.6204000000000001
 20
5.0337100000000001
 30
0.0
 10
4.6204000000000001
 20
5.0337100000000001
 30
0.0
 10
5.2477800000000006
 20
3.2912700000000004
 30
0.0
 10
3.0989400000000002
 20
1.52597
 30
0.0
 10
4.4349800000000004
 20
-0.09962
 30
0.0
 10
4.4349800000000004
 20
-0.09962
 30
0.0
 10
4.0260400000000001
 20
-0.5796800000000001
 30
0.0
 10
3.8888800000000003
 20
-1.25024
 30
0.0
 10
3.9574600000000002
 20
-1.8954000000000002
 30
0.0
 10
3.9574600000000002
 20
-1.8954000000000002
 30
0.0
 10
3.7999800000000001
 20
-2.1417800000000002
 30
0.0
 10
3.7161600000000004
 20
-2.4110200000000002
 30
0.0
 10
3.7491800000000004
 20
-2.6853400000000001
 30
0.0
 10
3.7491800000000004
 20
-2.6853400000000001
 30
0.0
 10
3.8126800000000003
 20
-3.2263600000000001
 30
0.0
 10
3.8457000000000003
 20
-3.7699200000000004
 30
0.0
 10
3.5561400000000001
 20
-4.2626800000000005
 30
0.0
 10
3.5561400000000001
 20
-4.2626800000000005
 30
0.0
 10
3.5561400000000001
 20
-4.2626800000000005
 30
0.0
 10
3.6704400000000001
 20
-4.9891200000000007
 30
0.0
 10
3.6704400000000001
 20
-4.9891200000000007
 30
0.0
 10
3.6704400000000001
 20
-4.9891200000000007
 30
0.0
 10
3.6450400000000003
 20
-5.0831000000000008
 30
0.0
 10
3.5332800000000004
 20
-5.0932600000000008
 30
0.0
 10
3.4621600000000003
 20
-5.1415200000000008
 30
0.0
 10
3.4621600000000003
 20
-5.1415200000000008
 30
0.0
 10
1.9686400000000002
 20
-5.7816000000000001
 30
0.0
 10
0.7723000000000001
 20
-4.5954200000000007
 30
0.0
 10
-0.5611900000000001
 20
-4.1991800000000001
 30
0.0
 10
-0.5611900000000001
 20
-4.1991800000000001
 30
0.0
 10
-0.55103
 20
-3.8258000000000005
 30
0.0
 10
-0.45451
 20
-3.4371800000000001
 30
0.0
 10
-0.6094500000000001
 20
-3.0815800000000002
 30
0.0
 10
-0.6094500000000001
 20
-3.0815800000000002
 30
0.0
 10
-1.4019300000000001
 20
-2.8961600000000001
 30
0.0
 10
-2.30871
 20
-2.0808200000000001
 30
0.0
 10
-2.2833100000000002
 20
-1.07498
 30
0.0
 10
-2.2833100000000002
 20
-1.07498
 30
0.0
 10
-2.3468100000000001
 20
-1.0292600000000001
 30
0.0
 10
-2.3976100000000002
 20
-1.00132
 30
0.0
 10
-2.4407900000000002
 20
-0.9251200000000001
 30
0.0
 10
-2.4407900000000002
 20
-0.9251200000000001
 30
0.0
 10
-3.0630900000000003
 20
-1.0165600000000001
 30
0.0
 10
-3.6676100000000003
 20
-0.8590800000000001
 30
0.0
 10
-4.2467300000000003
 20
-0.6482600000000001
 30
0.0
 10
-4.2467300000000003
 20
-0.6482600000000001
 30
0.0
 10
-4.5312100000000006
 20
-0.41966
 30
0.0
 10
-4.7699700000000007
 20
-0.1174
 30
0.0
 10
-4.72933
 20
0.26105
 30
0.0
 10
-4.72933
 20
0.26105
 30
0.0
 10
-4.5261300000000002
 20
0.53791
 30
0.0
 10
-4.1883100000000004
 20
0.6699900000000001
 30
0.0
 10
-3.9393900000000004
 20
0.9062100000000001
 30
0.0
 10
-3.9393900000000004
 20
0.9062100000000001
 30
0.0
 10
-1.4705100000000002
 20
2.21177
 30
0.0
 10
0.23382
 20
5.1861100000000002
 30
0.0
 10
3.2310200000000004
 20
5.3207300000000002
 30
0.0
  0
SPLINE
  5
26
100
AcDbEntity
  8
Ebene 1
 62
     7
100
AcDbSpline
210
0.0
220
0.0
230
1.0
 70
     1
 71
     3
 72
    88
 73
    84
 74
     0
 42
0.0000000001
 43
0.0000000001
 40
0.0
 40
0.0
 40
0.0
 40
0.0
 40
0.0476190476190476
 40
0.0476190476190476
 40
0.0476190476190476
 40
0.0476190476190476
 40
0.0952380952380952
 40
0.0952380952380952
 40
0.0952380952380952
 40
0.0952380952380952
 40
0.1428571428571429
 40
0.1428571428571429
 40
0.1428571428571429
 40
0.1428571428571429
 40
0.1904761904761905
 40
0.1904761904761905
 40
0.1904761904761905
 40
0.1904761904761905
 40
0.2380952380952381
 40
0.2380952380952381
 40
0.2380952380952381
 40
0.2380952380952381
 40
0.2857142857142857
 40
0.2857142857142857
 40
0.2857142857142857
 40
0.2857142857142857
 40
0.3333333333333333
 40
0.3333333333333333
 40
0.3333333333333333
 40
0.3333333333333333
 40
0.3809523809523809
 40
0.3809523809523809
 40
0.3809523809523809
 40
0.3809523809523809
 40
0.4285714285714286
 40
0.4285714285714286
 40
0.4285714285714286
 40
0.4285714285714286
 40
0.4761904761904762
 40
0.4761904761904762
 40
0.4761904761904762
 40
0.4761904761904762
 40
0.5238095238095237
 40
0.5238095238095237
 40
0.5238095238095237
 40
0.5238095238095237
 40
0.5714285714285714
 40
0.5714285714285714
 40
0.5714285714285714
 40
0.5714285714285714
 40
0.6190476190476191
 40
0.6190476190476191
 40
0.6190476190476191
 40
0.6190476190476191
 40
0.6666666666666667
 40
0.6666666666666667
 40
0.6666666666666667
 40
0.6666666666666667
 40
0.7142857142857144
 40
0.7142857142857144
 40
0.7142857142857144
 40
0.7142857142857144
 40
0.7619047619047621
 40
0.7619047619047621
 40
0.7619047619047621
 40
0.7619047619047621
 40
0.8095238095238098
 40
0.8095238095238098
 40
0.8095238095238098
 40
0.8095238095238098
 40
0.8571428571428574
 40
0.8571428571428574
 40
0.8571428571428574
 40
0.8571428571428574
 40
0.9047619047619051
 40
0.9047619047619051
 40
0.9047619047619051
 40
0.9047619047619051
 40
0.9523809523809528
 40
0.9523809523809528
 40
0.9523809523809528
 40
0.9523809523809528
 40
1.0
 40
1.0
 40
1.0
 40
1.0
 10
3.2132400000000003
 20
5.01593
 30
0.0
 10
3.6958400000000005
 20
4.9575100000000001
 30
0.0
 10
4.24702
 20
4.9956100000000001
 30
0.0
 10
4.6204000000000001
 20
4.6527100000000008
 30
0.0
 10
4.6204000000000001
 20
4.6527100000000008
 30
0.0
 10
4.71692
 20
4.4799900000000008
 30
0.0
 10
4.6229400000000007
 20
4.2844100000000003
 30
0.0
 10
4.64072
 20
4.1040700000000001
 30
0.0
 10
4.64072
 20
4.1040700000000001
 30
0.0
 10
4.28512
 20
4.0786700000000007
 30
0.0
 10
3.9879400000000005
 20
4.0050100000000004
 30
0.0
 10
3.8228400000000002
 20
3.7738700000000005
 30
0.0
 10
3.8228400000000002
 20
3.7738700000000005
 30
0.0
 10
3.9701600000000004
 20
4.3529900000000001
 30
0.0
 10
2.7789000000000001
 20
4.1193100000000005
 30
0.0
 10
3.3605600000000004
 20
3.8170500000000005
 30
0.0
 10
3.3605600000000004
 20
3.8170500000000005
 30
0.0
 10
3.3605600000000004
 20
3.8170500000000005
 30
0.0
 10
3.1929200000000004
 20
3.7179900000000004
 30
0.0
 10
3.1929200000000004
 20
3.7179900000000004
 30
0.0
 10
3.1929200000000004
 20
3.7179900000000004
 30
0.0
 10
2.76112
 20
4.1142300000000001
 30
0.0
 10
2.12866
 20
3.8780100000000002
 30
0.0
 10
1.5520800000000001
 20
3.7941900000000004
 30
0.0
 10
1.5520800000000001
 20
3.7941900000000004
 30
0.0
 10
1.7883000000000002
 20
3.5681300000000005
 30
0.0
 10
2.2632800000000004
 20
3.6316300000000004
 30
0.0
 10
2.5299800000000001
 20
3.4538300000000004
 30
0.0
 10
2.5299800000000001
 20
3.4538300000000004
 30
0.0
 10
2.8449400000000002
 20
3.4004900000000005
 30
0.0
 10
3.0989400000000002
 20
3.3801700000000001
 30
0.0
 10
3.3808800000000003
 20
3.2531700000000003
 30
0.0
 10
3.3808800000000003
 20
3.2531700000000003
 30
0.0
 10
3.2208600000000001
 20
3.1693500000000001
 30
0.0
 10
3.1675200000000001
 20
2.9077300000000004
 30
0.0
 10
3.2945200000000003
 20
2.7680300000000004
 30
0.0
 10
3.2945200000000003
 20
2.7680300000000004
 30
0.0
 10
3.6196400000000004
 20
2.5114900000000002
 30
0.0
 10
4.0412800000000004
 20
2.9585300000000001
 30
0.0
 10
3.7720400000000005
 20
3.2531700000000003
 30
0.0
 10
3.7720400000000005
 20
3.2531700000000003
 30
0.0
 10
3.7720400000000005
 20
3.2531700000000003
 30
0.0
 10
4.5645200000000008
 20
3.7687900000000005
 30
0.0
 10
4.5645200000000008
 20
3.7687900000000005
 30
0.0
 10
4.5645200000000008
 20
3.7687900000000005
 30
0.0
 10
4.4832400000000003
 20
3.2887300000000002
 30
0.0
 10
4.3613200000000001
 20
2.7959700000000001
 30
0.0
 10
4.0489000000000006
 20
2.4048100000000003
 30
0.0
 10
4.0489000000000006
 20
2.4048100000000003
 30
0.0
 10
3.8761800000000002
 20
2.2193900000000002
 30
0.0
 10
3.6348800000000003
 20
2.1838300000000004
 30
0.0
 10
3.4037400000000004
 20
2.1508100000000003
 30
0.0
 10
3.4037400000000004
 20
2.1508100000000003
 30
0.0
 10
2.84748
 20
1.9857100000000001
 30
0.0
 10
2.8830400000000003
 20
2.3590900000000001
 30
0.0
 10
3.0202000000000004
 20
2.7223100000000002
 30
0.0
 10
3.0202000000000004
 20
2.7223100000000002
 30
0.0
 10
2.8043
 20
2.5216500000000002
 30
0.0
 10
2.6138000000000003
 20
2.1965300000000001
 30
0.0
 10
2.3115400000000004
 20
2.0238100000000001
 30
0.0
 10
2.3115400000000004
 20
2.0238100000000001
 30
0.0
 10
0.38368
 20
1.56915
 30
0.0
 10
-1.7245100000000002
 20
-1.4813800000000001
 30
0.0
 10
-3.6015700000000002
 20
0.4515500000000001
 30
0.0
 10
-3.6015700000000002
 20
0.4515500000000001
 30
0.0
 10
-3.6066500000000001
 20
1.0128900000000001
 30
0.0
 10
-3.0300700000000003
 20
1.3303900000000002
 30
0.0
 10
-2.6312900000000004
 20
1.6224900000000002
 30
0.0
 10
-2.6312900000000004
 20
1.6224900000000002
 30
0.0
 10
-2.4230100000000001
 20
1.7520300000000002
 30
0.0
 10
-2.2045700000000004
 20
1.9018900000000001
 30
0.0
 10
-1.9835900000000002
 20
1.9958700000000003
 30
0.0
 10
-1.9835900000000002
 20
1.9958700000000003
 30
0.0
 10
-1.9861300000000002
 20
1.8180700000000001
 30
0.0
 10
-2.1867900000000002
 20
1.6377300000000001
 30
0.0
 10
-2.14615
 20
1.4319900000000001
 30
0.0
 10
-2.14615
 20
1.4319900000000001
 30
0.0
 10
-2.14615
 20
1.4319900000000001
 30
0.0
 10
-1.33335
 20
2.5191100000000004
 30
0.0
 10
-1.33335
 20
2.5191100000000004
 30
0.0
 10
-1.33335
 20
2.5191100000000004
 30
0.0
 10
-0.24115
 20
3.9770700000000003
 30
0.0
 10
1.4581000000000002
 20
4.8635300000000008
 30
0.0
 10
3.2132400000000003
 20
5.01593
 30
0.0
  0
SPLINE
  5
27
100
AcDbEntity
  8
Ebene 1
 62
     7
100
AcDbSpline
210
0.0
220
0.0
230
1.0
 70
     1
 71
     3
 72
    88
 73
    84
 74
     0
 42
0.0000000001
 43
0.0000000001
 40
0.0
 40
0.0
 40
0.0
 40
0.0
 40
0.0476190476190476
 40
0.0476190476190476
 40
0.0476190476190476
 40
0.0476190476190476
 40
0.0952380952380952
 40
0.0952380952380952
 40
0.0952380952380952
 40
0.0952380952380952
 40
0.1428571428571429
 40
0.1428571428571429
 40
0.1428571428571429
 40
0.1428571428571429
 40
0.1904761904761905
 40
0.1904761904761905
 40
0.1904761904761905
 40
0.1904761904761905
 40
0.2380952380952381
 40
0.2380952380952381
 40
0.2380952380952381
 40
0.2380952380952381
 40
0.2857142857142857
 40
0.2857142857142857
 40
0.2857142857142857
 40
0.2857142857142857
 40
0.3333333333333333
 40
0.3333333333333333
 40
0.3333333333333333
 40
0.3333333333333333
 40
0.3809523809523809
 40
0.3809523809523809
 40
0.3809523809523809
 40
0.3809523809523809
 40
0.4285714285714286
 40
0.4285714285714286
 40
0.4285714285714286
 40
0.4285714285714286
 40
0.4761904761904762
 40
0.4761904761904762
 40
0.4761904761904762
 40
0.4761904761904762
 40
0.5238095238095237
 40
0.5238095238095237
 40
0.5238095238095237
 40
0.5238095238095237
 40
0.5714285714285714
 40
0.5714285714285714
 40
0.5714285714285714
 40
0.5714285714285714
 40
0.6190476190476191
 40
0.6190476190476191
 40
0.6190476190476191
 40
0.6190476190476191
 40
0.6666666666666667
 40
0.6666666666666667
 40
0.6666666666666667
 40
0.6666666666666667
 40
0.7142857142857144
 40
0.7142857142857144
 40
0.7142857142857144
 40
0.7142857142857144
 40
0.7619047619047621
 40
0.7619047619047621
 40
0.7619047619047621
 40
0.7619047619047621
 40
0.8095238095238098
 40
0.8095238095238098
 40
0.8095238095238098
 40
0.8095238095238098
 40
0.8571428571428574
 40
0.8571428571428574
 40
0.8571428571428574
 40
0.8571428571428574
 40
0.9047619047619051
 40
0.9047619047619051
 40
0.9047619047619051
 40
0.9047619047619051
 40
0.9523809523809528
 40
0.9523809523809528
 40
0.9523809523809528
 40
0.9523809523809528
 40
1.0
 40
1.0
 40
1.0
 40
1.0
 10
3.3834200000000001
 20
4.0608900000000006
 30
0.0
 10
3.4697800000000001
 20
4.0685100000000007
 30
0.0
 10
3.5485200000000003
 20
4.0532700000000004
 30
0.0
 10
3.6298000000000004
 20
4.03803
 30
0.0
 10
3.6298000000000004
 20
4.03803
 30
0.0
 10
3.6348800000000003
 20
3.7179900000000004
 30
0.0
 10
3.9828600000000005
 20
3.5376500000000002
 30
0.0
 10
4.0768400000000007
 20
3.9237300000000004
 30
0.0
 10
4.0768400000000007
 20
3.9237300000000004
 30
0.0
 10
4.0768400000000007
 20
3.9237300000000004
 30
0.0
 10
4.6026199999999999
 20
3.9618300000000004
 30
0.0
 10
4.6026199999999999
 20
3.9618300000000004
 30
0.0
 10
4.6026199999999999
 20
3.9618300000000004
 30
0.0
 10
4.6127800000000008
 20
3.9313500000000001
 30
0.0
 10
4.6127800000000008
 20
3.8932500000000001
 30
0.0
 10
4.5823
 20
3.8754700000000004
 30
0.0
 10
4.5823
 20
3.8754700000000004
 30
0.0
 10
4.2038400000000005
 20
3.8170500000000005
 30
0.0
 10
4.0870000000000006
 20
3.5249500000000005
 30
0.0
 10
3.7517200000000002
 20
3.5224100000000003
 30
0.0
 10
3.7517200000000002
 20
3.5224100000000003
 30
0.0
 10
3.7517200000000002
 20
3.5224100000000003
 30
0.0
 10
3.7517200000000002
 20
3.4538300000000004
 30
0.0
 10
3.7517200000000002
 20
3.4538300000000004
 30
0.0
 10
3.7517200000000002
 20
3.4538300000000004
 30
0.0
 10
3.7974400000000004
 20
3.3496900000000003
 30
0.0
 10
3.5815400000000004
 20
3.2480900000000004
 30
0.0
 10
3.6374200000000001
 20
3.0753700000000004
 30
0.0
 10
3.6374200000000001
 20
3.0753700000000004
 30
0.0
 10
3.9015800000000005
 20
3.1160100000000002
 30
0.0
 10
3.7364800000000002
 20
2.7807300000000001
 30
0.0
 10
3.5764600000000004
 20
2.76295
 30
0.0
 10
3.5764600000000004
 20
2.76295
 30
0.0
 10
3.4672400000000003
 20
2.7375500000000001
 30
0.0
 10
3.3758000000000004
 20
2.8112100000000004
 30
0.0
 10
3.3326200000000004
 20
2.9026500000000004
 30
0.0
 10
3.3326200000000004
 20
2.9026500000000004
 30
0.0
 10
3.2843600000000004
 20
3.0906100000000003
 30
0.0
 10
3.4672400000000003
 20
3.0423500000000003
 30
0.0
 10
3.5561400000000001
 20
3.0474300000000003
 30
0.0
 10
3.5561400000000001
 20
3.0474300000000003
 30
0.0
 10
3.5561400000000001
 20
3.0474300000000003
 30
0.0
 10
3.4774000000000003
 20
3.3496900000000003
 30
0.0
 10
3.4774000000000003
 20
3.3496900000000003
 30
0.0
 10
3.4774000000000003
 20
3.3496900000000003
 30
0.0
 10
3.30722
 20
3.3420700000000001
 30
0.0
 10
3.1776800000000001
 20
3.3649300000000002
 30
0.0
 10
3.2462600000000004
 20
3.5020900000000004
 30
0.0
 10
3.2462600000000004
 20
3.5020900000000004
 30
0.0
 10
3.2462600000000004
 20
3.5020900000000004
 30
0.0
 10
2.6569800000000003
 20
3.4868500000000004
 30
0.0
 10
2.6569800000000003
 20
3.4868500000000004
 30
0.0
 10
2.6569800000000003
 20
3.4868500000000004
 30
0.0
 10
2.63666
 20
3.5122500000000003
 30
0.0
 10
2.5503
 20
3.5020900000000004
 30
0.0
 10
2.5985600000000004
 20
3.5503500000000003
 30
0.0
 10
2.5985600000000004
 20
3.5503500000000003
 30
0.0
 10
3.1141800000000002
 20
3.7637100000000001
 30
0.0
 10
2.30138
 20
3.5909900000000001
 30
0.0
 10
2.1108800000000003
 20
3.6646500000000004
 30
0.0
 10
2.1108800000000003
 20
3.6646500000000004
 30
0.0
 10
2.1820000000000004
 20
3.7459300000000004
 30
0.0
 10
2.3623400000000001
 20
3.6595700000000004
 30
0.0
 10
2.4309200000000004
 20
3.7535500000000002
 30
0.0
 10
2.4309200000000004
 20
3.7535500000000002
 30
0.0
 10
2.3496400000000004
 20
3.8576900000000003
 30
0.0
 10
2.1312000000000002
 20
3.6951300000000002
 30
0.0
 10
2.0143600000000004
 20
3.7789500000000005
 30
0.0
 10
2.0143600000000004
 20
3.7789500000000005
 30
0.0
 10
2.24804
 20
3.8551500000000005
 30
0.0
 10
2.5172800000000004
 20
3.8653100000000005
 30
0.0
 10
2.7687400000000002
 20
3.8653100000000005
 30
0.0
 10
2.7687400000000002
 20
3.8653100000000005
 30
0.0
 10
2.8982800000000002
 20
3.5859100000000002
 30
0.0
 10
3.5307400000000002
 20
3.4944700000000002
 30
0.0
 10
3.4570800000000004
 20
3.9237300000000004
 30
0.0
 10
3.4570800000000004
 20
3.9237300000000004
 30
0.0
 10
3.4570800000000004
 20
3.9237300000000004
 30
0.0
 10
3.2945200000000003
 20
4.0100899999999999
 30
0.0
 10
3.2945200000000003
 20
4.0100899999999999
 30
0.0
 10
3.2945200000000003
 20
4.0100899999999999
 30
0.0
 10
3.2945200000000003
 20
4.0100899999999999
 30
0.0
 10
3.3834200000000001
 20
4.0608900000000006
 30
0.0
 10
3.3834200000000001
 20
4.0608900000000006
 30
0.0
  0
SPLINE
  5
28
100
AcDbEntity
  8
Ebene 1
 62
     7
100
AcDbSpline
210
0.0
220
0.0
230
1.0
 70
     1
 71
     3
 72
    32
 73
    28
 74
     0
 42
0.0000000001
 43
0.0000000001
 40
0.0
 40
0.0
 40
0.0
 40
0.0
 40
0.1428571428571429
 40
0.1428571428571429
 40
0.1428571428571429
 40
0.1428571428571429
 40
0.2857142857142857
 40
0.2857142857142857
 40
0.2857142857142857
 40
0.2857142857142857
 40
0.4285714285714286
 40
0.4285714285714286
 40
0.4285714285714286
 40
0.4285714285714286
 40
0.5714285714285714
 40
0.5714285714285714
 40
0.5714285714285714
 40
0.5714285714285714
 40
0.7142857142857142
 40
0.7142857142857142
 40
0.7142857142857142
 40
0.7142857142857142
 40
0.857142857142857
 40
0.857142857142857
 40
0.857142857142857
 40
0.857142857142857
 40
1.0
 40
1.0
 40
1.0
 40
1.0
 10
3.2894400000000004
 20
2.0161900000000004
 30
0.0
 10
3.2894400000000004
 20
2.0161900000000004
 30
0.0
 10
3.9142800000000002
 20
1.9958700000000003
 30
0.0
 10
3.9142800000000002
 20
1.9958700000000003
 30
0.0
 10
3.9142800000000002
 20
1.9958700000000003
 30
0.0
 10
3.9142800000000002
 20
1.9958700000000003
 30
0.0
 10
3.7999800000000001
 20
0.95447
 30
0.0
 10
3.7999800000000001
 20
0.95447
 30
0.0
 10
3.7999800000000001
 20
0.95447
 30
0.0
 10
2.5706200000000003
 20
0.95447
 30
0.0
 10
1.3692000000000002
 20
0.7080900000000001
 30
0.0
 10
0.277
 20
0.18993
 30
0.0
 10
0.277
 20
0.18993
 30
0.0
 10
0.6910200000000001
 20
0.5429900000000001
 30
0.0
 10
1.2472800000000002
 20
0.6699900000000001
 30
0.0
 10
1.7603600000000001
 20
0.7969900000000001
 30
0.0
 10
1.7603600000000001
 20
0.7969900000000001
 30
0.0
 10
1.7603600000000001
 20
0.7969900000000001
 30
0.0
 10
2.0626200000000003
 20
0.8858900000000001
 30
0.0
 10
2.0626200000000003
 20
0.8858900000000001
 30
0.0
 10
2.0626200000000003
 20
0.8858900000000001
 30
0.0
 10
1.1355200000000001
 20
0.9036700000000001
 30
0.0
 10
0.3455800000000001
 20
0.4109100000000001
 30
0.0
 10
-0.5027700000000001
 20
0.16961
 30
0.0
 10
-0.5027700000000001
 20
0.16961
 30
0.0
 10
0.4497200000000001
 20
1.2465700000000002
 30
0.0
 10
1.9153000000000002
 20
1.7977500000000002
 30
0.0
 10
3.2894400000000004
 20
2.0161900000000004
 30
0.0
  0
SPLINE
  5
29
100
AcDbEntity
  8
Ebene 1
100
AcDbSpline
210
0.0
220
0.0
230
1.0
 70
     1
 71
     3
 72
    12
 73
     8
 74
     0
 42
0.0000000001
 43
0.0000000001
 40
0.0
 40
0.0
 40
0.0
 40
0.0
 40
0.5
 40
0.5
 40
0.5
 40
0.5
 40
1.0
 40
1.0
 40
1.0
 40
1.0
 10
3.4215200000000001
 20
1.8637900000000001
 30
0.0
 10
3.8812600000000002
 20
1.9222100000000002
 30
0.0
 10
3.8761800000000002
 20
1.14497
 30
0.0
 10
3.4418400000000005
 20
1.1398900000000001
 30
0.0
 10
3.4418400000000005
 20
1.1398900000000001
 30
0.0
 10
2.88558
 20
1.0382900000000002
 30
0.0
 10
2.9160600000000003
 20
1.9018900000000001
 30
0.0
 10
3.4215200000000001
 20
1.8637900000000001
 30
0.0
  0
SPLINE
  5
2A
100
AcDbEntity
  8
Ebene 1
 62
     7
100
AcDbSpline
210
0.0
220
0.0
230
1.0
 70
     1
 71
     3
 72
    20
 73
    16
 74
     0
 42
0.0000000001
 43
0.0000000001
 40
0.0
 40
0.0
 40
0.0
 40
0.0
 40
0.25
 40
0.25
 40
0.25
 40
0.25
 40
0.5
 40
0.5
 40
0.5
 40
0.5
 40
0.75
 40
0.75
 40
0.75
 40
0.75
 40
1.0
 40
1.0
 40
1.0
 40
1.0
 10
3.3834200000000001
 20
1.7698100000000001
 30
0.0
 10
3.5282000000000004
 20
1.8028300000000002
 30
0.0
 10
3.6501200000000003
 20
1.7240900000000001
 30
0.0
 10
3.7085400000000002
 20
1.5970900000000001
 30
0.0
 10
3.7085400000000002
 20
1.5970900000000001
 30
0.0
 10
3.6856800000000005
 20
1.4675500000000001
 30
0.0
 10
3.5993200000000001
 20
1.3354700000000002
 30
0.0
 10
3.4621600000000003
 20
1.3126100000000001
 30
0.0
 10
3.4621600000000003
 20
1.3126100000000001
 30
0.0
 10
3.3478600000000003
 20
1.32023
 30
0.0
 10
3.2615000000000003
 20
1.4167500000000002
 30
0.0
 10
3.1929200000000004
 20
1.5005700000000002
 30
0.0
 10
3.1929200000000004
 20
1.5005700000000002
 30
0.0
 10
3.1726000000000001
 20
1.6301100000000002
 30
0.0
 10
3.2970600000000001
 20
1.7139300000000002
 30
0.0
 10
3.3834200000000001
 20
1.7698100000000001
 30
0.0
  0
SPLINE
  5
2B
100
AcDbEntity
  8
Ebene 1
 62
     7
100
AcDbSpline
210
0.0
220
0.0
230
1.0
 70
     1
 71
     3
 72
    20
 73
    16
 74
     0
 42
0.0000000001
 43
0.0000000001
 40
0.0
 40
0.0
 40
0.0
 40
0.0
 40
0.25
 40
0.25
 40
0.25
 40
0.25
 40
0.5
 40
0.5
 40
0.5
 40
0.5
 40
0.75
 40
0.75
 40
0.75
 40
0.75
 40
1.0
 40
1.0
 40
1.0
 40
1.0
 10
2.9643200000000003
 20
0.87065
 30
0.0
 10
2.9643200000000003
 20
0.87065
 30
0.0
 10
3.2843600000000004
 20
0.8681100000000001
 30
0.0
 10
3.2843600000000004
 20
0.8681100000000001
 30
0.0
 10
3.2843600000000004
 20
0.8681100000000001
 30
0.0
 10
3.5434400000000004
 20
0.5074300000000001
 30
0.0
 10
3.8253800000000004
 20
0.14421
 30
0.0
 10
4.0108000000000006
 20
-0.24694
 30
0.0
 10
4.0108000000000006
 20
-0.24694
 30
0.0
 10
4.0108000000000006
 20
-0.24694
 30
0.0
 10
3.7720400000000005
 20
-0.34346
 30
0.0
 10
3.7720400000000005
 20
-0.34346
 30
0.0
 10
3.7720400000000005
 20
-0.34346
 30
0.0
 10
3.5561400000000001
 20
0.08833
 30
0.0
 10
3.1853000000000002
 20
0.4744100000000001
 30
0.0
 10
2.9643200000000003
 20
0.87065
 30
0.0
  0
SPLINE
  5
2C
100
AcDbEntity
  8
Ebene 1
 62
     7
100
AcDbSpline
210
0.0
220
0.0
230
1.0
 70
     1
 71
     3
 72
    20
 73
    16
 74
     0
 42
0.0000000001
 43
0.0000000001
 40
0.0
 40
0.0
 40
0.0
 40
0.0
 40
0.25
 40
0.25
 40
0.25
 40
0.25
 40
0.5
 40
0.5
 40
0.5
 40
0.5
 40
0.75
 40
0.75
 40
0.75
 40
0.75
 40
1.0
 40
1.0
 40
1.0
 40
1.0
 10
3.4977200000000002
 20
0.87065
 30
0.0
 10
3.4977200000000002
 20
0.87065
 30
0.0
 10
3.6475800000000005
 20
0.8681100000000001
 30
0.0
 10
3.6475800000000005
 20
0.8681100000000001
 30
0.0
 10
3.6475800000000005
 20
0.8681100000000001
 30
0.0
 10
3.8660200000000002
 20
0.53283
 30
0.0
 10
4.0997000000000003
 20
0.17977
 30
0.0
 10
4.2394000000000007
 20
-0.18852
 30
0.0
 10
4.2394000000000007
 20
-0.18852
 30
0.0
 10
4.2394000000000007
 20
-0.18852
 30
0.0
 10
4.0971600000000006
 20
-0.20884
 30
0.0
 10
4.0971600000000006
 20
-0.20884
 30
0.0
 10
4.0971600000000006
 20
-0.20884
 30
0.0
 10
3.8965000000000005
 20
0.14421
 30
0.0
 10
3.6780600000000003
 20
0.5023500000000001
 30
0.0
 10
3.4977200000000002
 20
0.87065
 30
0.0
  0
SPLINE
  5
2D
100
AcDbEntity
  8
Ebene 1
 62
     7
100
AcDbSpline
210
0.0
220
0.0
230
1.0
 70
     1
 71
     3
 72
    24
 73
    20
 74
     0
 42
0.0000000001
 43
0.0000000001
 40
0.0
 40
0.0
 40
0.0
 40
0.0
 40
0.2
 40
0.2
 40
0.2
 40
0.2
 40
0.4
 40
0.4
 40
0.4
 40
0.4
 40
0.6000000000000001
 40
0.6000000000000001
 40
0.6000000000000001
 40
0.6000000000000001
 40
0.8
 40
0.8
 40
0.8
 40
0.8
 40
1.0
 40
1.0
 40
1.0
 40
1.0
 10
1.9889600000000001
 20
0.7182500000000001
 30
0.0
 10
1.9889600000000001
 20
0.7182500000000001
 30
0.0
 10
2.1210400000000003
 20
0.7157100000000001
 30
0.0
 10
2.1210400000000003
 20
0.7157100000000001
 30
0.0
 10
2.1210400000000003
 20
0.7157100000000001
 30
0.0
 10
2.1210400000000003
 20
0.7157100000000001
 30
0.0
 10
2.7357200000000002
 20
-0.46284
 30
0.0
 10
2.7357200000000002
 20
-0.46284
 30
0.0
 10
2.7357200000000002
 20
-0.46284
 30
0.0
 10
2.7408000000000001
 20
-0.4857
 30
0.0
 10
2.7281000000000004
 20
-0.5009400000000001
 30
0.0
 10
2.71286
 20
-0.5136400000000001
 30
0.0
 10
2.71286
 20
-0.5136400000000001
 30
0.0
 10
2.6646000000000001
 20
-0.53142
 30
0.0
 10
2.6138000000000003
 20
-0.5187200000000001
 30
0.0
 10
2.5884
 20
-0.47554
 30
0.0
 10
2.5884
 20
-0.47554
 30
0.0
 10
2.4360000000000004
 20
-0.06914
 30
0.0
 10
2.1362800000000002
 20
0.30423
 30
0.0
 10
1.9889600000000001
 20
0.7182500000000001
 30
0.0
  0
SPLINE
  5
2E
100
AcDbEntity
  8
Ebene 1
 62
     7
100
AcDbSpline
210
0.0
220
0.0
230
1.0
 70
     1
 71
     3
 72
    20
 73
    16
 74
     0
 42
0.0000000001
 43
0.0000000001
 40
0.0
 40
0.0
 40
0.0
 40
0.0
 40
0.25
 40
0.25
 40
0.25
 40
0.25
 40
0.5
 40
0.5
 40
0.5
 40
0.5
 40
0.75
 40
0.75
 40
0.75
 40
0.75
 40
1.0
 40
1.0
 40
1.0
 40
1.0
 10
1.78068
 20
0.66237
 30
0.0
 10
1.8060800000000001
 20
0.66491
 30
0.0
 10
1.8365600000000002
 20
0.66491
 30
0.0
 10
1.8518000000000001
 20
0.63951
 30
0.0
 10
1.8518000000000001
 20
0.63951
 30
0.0
 10
1.8518000000000001
 20
0.63951
 30
0.0
 10
2.42584
 20
-0.5136400000000001
 30
0.0
 10
2.42584
 20
-0.5136400000000001
 30
0.0
 10
2.42584
 20
-0.5136400000000001
 30
0.0
 10
2.42584
 20
-0.5136400000000001
 30
0.0
 10
2.33948
 20
-0.5136400000000001
 30
0.0
 10
2.33948
 20
-0.5136400000000001
 30
0.0
 10
2.33948
 20
-0.5136400000000001
 30
0.0
 10
2.2175600000000002
 20
-0.10216
 30
0.0
 10
1.9229200000000002
 20
0.28137
 30
0.0
 10
1.78068
 20
0.66237
 30
0.0
  0
SPLINE
  5
2F
100
AcDbEntity
  8
Ebene 1
 62
     7
100
AcDbSpline
210
0.0
220
0.0
230
1.0
 70
     1
 71
     3
 72
    20
 73
    16
 74
     0
 42
0.0000000001
 43
0.0000000001
 40
0.0
 40
0.0
 40
0.0
 40
0.0
 40
0.25
 40
0.25
 40
0.25
 40
0.25
 40
0.5
 40
0.5
 40
0.5
 40
0.5
 40
0.75
 40
0.75
 40
0.75
 40
0.75
 40
1.0
 40
1.0
 40
1.0
 40
1.0
 10
1.4555600000000002
 20
0.5861700000000001
 30
0.0
 10
1.7349600000000001
 20
0.28137
 30
0.0
 10
1.9381600000000001
 20
-0.14534
 30
0.0
 10
2.1210400000000003
 20
-0.5136400000000001
 30
0.0
 10
2.1210400000000003
 20
-0.5136400000000001
 30
0.0
 10
2.1210400000000003
 20
-0.5136400000000001
 30
0.0
 10
1.9203800000000002
 20
-0.5136400000000001
 30
0.0
 10
1.9203800000000002
 20
-0.5136400000000001
 30
0.0
 10
1.9203800000000002
 20
-0.5136400000000001
 30
0.0
 10
1.7984600000000002
 20
-0.14026
 30
0.0
 10
1.4936600000000002
 20
0.16199
 30
0.0
 10
1.36158
 20
0.5277500000000001
 30
0.0
 10
1.36158
 20
0.5277500000000001
 30
0.0
 10
1.36158
 20
0.5277500000000001
 30
0.0
 10
1.4555600000000002
 20
0.5861700000000001
 30
0.0
 10
1.4555600000000002
 20
0.5861700000000001
 30
0.0
  0
SPLINE
  5
30
100
AcDbEntity
  8
Ebene 1
 62
     7
100
AcDbSpline
210
0.0
220
0.0
230
1.0
 70
     1
 71
     3
 72
    36
 73
    32
 74
     0
 42
0.0000000001
 43
0.0000000001
 40
0.0
 40
0.0
 40
0.0
 40
0.0
 40
0.125
 40
0.125
 40
0.125
 40
0.125
 40
0.25
 40
0.25
 40
0.25
 40
0.25
 40
0.375
 40
0.375
 40
0.375
 40
0.375
 40
0.5
 40
0.5
 40
0.5
 40
0.5
 40
0.625
 40
0.625
 40
0.625
 40
0.625
 40
0.75
 40
0.75
 40
0.75
 40
0.75
 40
0.875
 40
0.875
 40
0.875
 40
0.875
 40
1.0
 40
1.0
 40
1.0
 40
1.0
 10
-0.8507500000000001
 20
0.10865
 30
0.0
 10
-0.8507500000000001
 20
0.10865
 30
0.0
 10
-1.17079
 20
-0.23678
 30
0.0
 10
-1.17079
 20
-0.23678
 30
0.0
 10
-1.17079
 20
-0.23678
 30
0.0
 10
-1.17079
 20
-0.23678
 30
0.0
 10
-1.33335
 20
-0.36124
 30
0.0
 10
-1.33335
 20
-0.36124
 30
0.0
 10
-1.33335
 20
-0.36124
 30
0.0
 10
-1.4984500000000001
 20
-0.50602
 30
0.0
 10
-1.37399
 20
-0.4857
 30
0.0
 10
-1.2342900000000001
 20
-0.44252
 30
0.0
 10
-1.2342900000000001
 20
-0.44252
 30
0.0
 10
-1.0488700000000002
 20
-0.2571
 30
0.0
 10
-0.8304300000000001
 20
-0.27742
 30
0.0
 10
-0.6094500000000001
 20
-0.17074
 30
0.0
 10
-0.6094500000000001
 20
-0.17074
 30
0.0
 10
-0.6094500000000001
 20
-0.17074
 30
0.0
 10
-0.45451
 20
-0.12248
 30
0.0
 10
-0.45451
 20
-0.12248
 30
0.0
 10
-0.45451
 20
-0.12248
 30
0.0
 10
-0.88631
 20
-0.3002800000000001
 30
0.0
 10
-1.2673100000000002
 20
-0.6406400000000001
 30
0.0
 10
-1.7245100000000002
 20
-0.74224
 30
0.0
 10
-1.7245100000000002
 20
-0.74224
 30
0.0
 10
-1.7118100000000001
 20
-0.63556
 30
0.0
 10
-1.6533900000000001
 20
-0.5415800000000001
 30
0.0
 10
-1.5924300000000002
 20
-0.4476000000000001
 30
0.0
 10
-1.5924300000000002
 20
-0.4476000000000001
 30
0.0
 10
-1.5924300000000002
 20
-0.4476000000000001
 30
0.0
 10
-0.8507500000000001
 20
0.10865
 30
0.0
 10
-0.8507500000000001
 20
0.10865
 30
0.0
  0
SPLINE
  5
31
100
AcDbEntity
  8
Ebene 1
 62
     7
100
AcDbSpline
210
0.0
220
0.0
230
1.0
 70
     1
 71
     3
 72
    44
 73
    40
 74
     0
 42
0.0000000001
 43
0.0000000001
 40
0.0
 40
0.0
 40
0.0
 40
0.0
 40
0.1
 40
0.1
 40
0.1
 40
0.1
 40
0.2
 40
0.2
 40
0.2
 40
0.2
 40
0.3
 40
0.3
 40
0.3
 40
0.3
 40
0.4
 40
0.4
 40
0.4
 40
0.4
 40
0.5
 40
0.5
 40
0.5
 40
0.5
 40
0.6
 40
0.6
 40
0.6
 40
0.6
 40
0.7
 40
0.7
 40
0.7
 40
0.7
 40
0.7999999999999999
 40
0.7999999999999999
 40
0.7999999999999999
 40
0.7999999999999999
 40
0.8999999999999999
 40
0.8999999999999999
 40
0.8999999999999999
 40
0.8999999999999999
 40
1.0
 40
1.0
 40
1.0
 40
1.0
 10
-0.03033
 20
-0.06152
 30
0.0
 10
0.00522
 20
-0.06406
 30
0.0
 10
0.06872
 20
-0.08438
 30
0.0
 10
0.0611
 20
-0.13772
 30
0.0
 10
0.0611
 20
-0.13772
 30
0.0
 10
-0.23861
 20
-0.6914400000000001
 30
0.0
 10
0.3455800000000001
 20
-1.08514
 30
0.0
 10
0.27192
 20
-1.6083800000000001
 30
0.0
 10
0.27192
 20
-1.6083800000000001
 30
0.0
 10
0.27192
 20
-1.6083800000000001
 30
0.0
 10
0.34812
 20
-1.7607800000000002
 30
0.0
 10
0.34812
 20
-1.7607800000000002
 30
0.0
 10
0.34812
 20
-1.7607800000000002
 30
0.0
 10
0.25414
 20
-2.23068
 30
0.0
 10
-0.28941
 20
-2.4161000000000001
 30
0.0
 10
-0.6246900000000001
 20
-2.6218400000000002
 30
0.0
 10
-0.6246900000000001
 20
-2.6218400000000002
 30
0.0
 10
-0.5840500000000001
 20
-2.6650200000000002
 30
0.0
 10
-0.5002300000000001
 20
-2.6294600000000004
 30
0.0
 10
-0.45197
 20
-2.6218400000000002
 30
0.0
 10
-0.45197
 20
-2.6218400000000002
 30
0.0
 10
-0.12177
 20
-2.4008600000000002
 30
0.0
 10
0.34304
 20
-2.27894
 30
0.0
 10
0.6122800000000001
 20
-2.6726400000000003
 30
0.0
 10
0.6122800000000001
 20
-2.6726400000000003
 30
0.0
 10
0.15254
 20
-2.6650200000000002
 30
0.0
 10
-0.31989
 20
-2.7971000000000004
 30
0.0
 10
-0.71867
 20
-3.0206200000000001
 30
0.0
 10
-0.71867
 20
-3.0206200000000001
 30
0.0
 10
-0.8634500000000001
 20
-2.9037800000000002
 30
0.0
 10
-0.6094500000000001
 20
-2.86314
 30
0.0
 10
-0.58913
 20
-2.7945600000000002
 30
0.0
 10
-0.58913
 20
-2.7945600000000002
 30
0.0
 10
-1.46035
 20
-2.8707600000000002
 30
0.0
 10
-2.0293100000000002
 20
-1.9792200000000002
 30
0.0
 10
-1.8388100000000001
 20
-1.1740400000000002
 30
0.0
 10
-1.8388100000000001
 20
-1.1740400000000002
 30
0.0
 10
-1.3130300000000001
 20
-0.6685800000000001
 30
0.0
 10
-0.6475500000000001
 20
-0.3942600000000001
 30
0.0
 10
-0.03033
 20
-0.06152
 30
0.0
  0
SPLINE
  5
32
100
AcDbEntity
  8
Ebene 1
 62
     7
100
AcDbSpline
210
0.0
220
0.0
230
1.0
 70
     1
 71
     3
 72
    88
 73
    84
 74
     0
 42
0.0000000001
 43
0.0000000001
 40
0.0
 40
0.0
 40
0.0
 40
0.0
 40
0.0476190476190476
 40
0.0476190476190476
 40
0.0476190476190476
 40
0.0476190476190476
 40
0.0952380952380952
 40
0.0952380952380952
 40
0.0952380952380952
 40
0.0952380952380952
 40
0.1428571428571429
 40
0.1428571428571429
 40
0.1428571428571429
 40
0.1428571428571429
 40
0.1904761904761905
 40
0.1904761904761905
 40
0.1904761904761905
 40
0.1904761904761905
 40
0.2380952380952381
 40
0.2380952380952381
 40
0.2380952380952381
 40
0.2380952380952381
 40
0.2857142857142857
 40
0.2857142857142857
 40
0.2857142857142857
 40
0.2857142857142857
 40
0.3333333333333333
 40
0.3333333333333333
 40
0.3333333333333333
 40
0.3333333333333333
 40
0.3809523809523809
 40
0.3809523809523809
 40
0.3809523809523809
 40
0.3809523809523809
 40
0.4285714285714286
 40
0.4285714285714286
 40
0.4285714285714286
 40
0.4285714285714286
 40
0.4761904761904762
 40
0.4761904761904762
 40
0.4761904761904762
 40
0.4761904761904762
 40
0.5238095238095237
 40
0.5238095238095237
 40
0.5238095238095237
 40
0.5238095238095237
 40
0.5714285714285714
 40
0.5714285714285714
 40
0.5714285714285714
 40
0.5714285714285714
 40
0.6190476190476191
 40
0.6190476190476191
 40
0.6190476190476191
 40
0.6190476190476191
 40
0.6666666666666667
 40
0.6666666666666667
 40
0.6666666666666667
 40
0.6666666666666667
 40
0.7142857142857144
 40
0.7142857142857144
 40
0.7142857142857144
 40
0.7142857142857144
 40
0.7619047619047621
 40
0.7619047619047621
 40
0.7619047619047621
 40
0.7619047619047621
 40
0.8095238095238098
 40
0.8095238095238098
 40
0.8095238095238098
 40
0.8095238095238098
 40
0.8571428571428574
 40
0.8571428571428574
 40
0.8571428571428574
 40
0.8571428571428574
 40
0.9047619047619051
 40
0.9047619047619051
 40
0.9047619047619051
 40
0.9047619047619051
 40
0.9523809523809528
 40
0.9523809523809528
 40
0.9523809523809528
 40
0.9523809523809528
 40
1.0
 40
1.0
 40
1.0
 40
1.0
 10
0.3684400000000001
 20
-0.25202
 30
0.0
 10
0.8383400000000001
 20
-0.50602
 30
0.0
 10
1.36158
 20
-0.59492
 30
0.0
 10
1.9153000000000002
 20
-0.5771400000000001
 30
0.0
 10
1.9153000000000002
 20
-0.5771400000000001
 30
0.0
 10
2.6239600000000003
 20
-0.6076200000000001
 30
0.0
 10
3.3046800000000003
 20
-0.5161800000000001
 30
0.0
 10
3.9727000000000001
 20
-0.4095
 30
0.0
 10
3.9727000000000001
 20
-0.4095
 30
0.0
 10
4.0616000000000003
 20
-0.5136400000000001
 30
0.0
 10
4.04636
 20
-0.7066800000000001
 30
0.0
 10
3.9244400000000002
 20
-0.78034
 30
0.0
 10
3.9244400000000002
 20
-0.78034
 30
0.0
 10
4.04636
 20
-0.2698
 30
0.0
 10
3.6882200000000003
 20
-0.9149600000000001
 30
0.0
 10
3.4088200000000004
 20
-0.8108200000000001
 30
0.0
 10
3.4088200000000004
 20
-0.8108200000000001
 30
0.0
 10
3.3783400000000001
 20
-0.8286000000000001
 30
0.0
 10
3.3783400000000001
 20
-0.8667
 30
0.0
 10
3.3885000000000001
 20
-0.8946400000000001
 30
0.0
 10
3.3885000000000001
 20
-0.8946400000000001
 30
0.0
 10
3.3885000000000001
 20
-0.8946400000000001
 30
0.0
 10
3.5510600000000001
 20
-0.88448
 30
0.0
 10
3.5510600000000001
 20
-0.88448
 30
0.0
 10
3.5510600000000001
 20
-0.88448
 30
0.0
 10
3.5510600000000001
 20
-0.88448
 30
0.0
 10
3.5612200000000005
 20
-1.1435600000000001
 30
0.0
 10
3.5612200000000005
 20
-1.1435600000000001
 30
0.0
 10
3.5612200000000005
 20
-1.1435600000000001
 30
0.0
 10
4.2876600000000007
 20
-1.6744200000000002
 30
0.0
 10
3.3859600000000003
 20
-2.3195800000000002
 30
0.0
 10
3.7288600000000005
 20
-2.9825200000000001
 30
0.0
 10
3.7288600000000005
 20
-2.9825200000000001
 30
0.0
 10
3.7415600000000002
 20
-3.0485600000000002
 30
0.0
 10
3.7085400000000002
 20
-3.0942800000000004
 30
0.0
 10
3.6856800000000005
 20
-3.1476200000000003
 30
0.0
 10
3.6856800000000005
 20
-3.1476200000000003
 30
0.0
 10
3.5155000000000003
 20
-3.0815800000000002
 30
0.0
 10
3.2462600000000004
 20
-3.1019000000000001
 30
0.0
 10
3.0608400000000002
 20
-3.2898600000000005
 30
0.0
 10
3.0608400000000002
 20
-3.2898600000000005
 30
0.0
 10
3.0176600000000002
 20
-3.1654000000000004
 30
0.0
 10
2.9135200000000001
 20
-3.1019000000000001
 30
0.0
 10
2.8347800000000003
 20
-3.2441400000000002
 30
0.0
 10
2.8347800000000003
 20
-3.2441400000000002
 30
0.0
 10
2.8043
 20
-3.0663400000000003
 30
0.0
 10
2.6519000000000004
 20
-3.1577800000000003
 30
0.0
 10
2.5680800000000001
 20
-3.2263600000000001
 30
0.0
 10
2.5680800000000001
 20
-3.2263600000000001
 30
0.0
 10
2.4385400000000002
 20
-3.1298400000000002
 30
0.0
 10
2.6188800000000003
 20
-2.6701000000000001
 30
0.0
 10
2.5045800000000003
 20
-2.8098000000000001
 30
0.0
 10
2.5045800000000003
 20
-2.8098000000000001
 30
0.0
 10
2.5147400000000002
 20
-3.0434800000000002
 30
0.0
 10
2.2124800000000002
 20
-3.3000200000000004
 30
0.0
 10
2.2455000000000003
 20
-2.9952200000000002
 30
0.0
 10
2.2455000000000003
 20
-2.9952200000000002
 30
0.0
 10
2.1489800000000003
 20
-2.9799800000000003
 30
0.0
 10
2.20994
 20
-2.6370800000000001
 30
0.0
 10
2.2582
 20
-2.8301200000000004
 30
0.0
 10
2.2582
 20
-2.8301200000000004
 30
0.0
 10
2.2582
 20
-2.8301200000000004
 30
0.0
 10
2.3191600000000001
 20
-3.0155400000000001
 30
0.0
 10
2.3191600000000001
 20
-3.0155400000000001
 30
0.0
 10
2.3191600000000001
 20
-3.0155400000000001
 30
0.0
 10
2.4664800000000002
 20
-2.7640800000000003
 30
0.0
 10
2.2734400000000003
 20
-2.2002000000000002
 30
0.0
 10
1.9102200000000003
 20
-2.1468600000000002
 30
0.0
 10
1.9102200000000003
 20
-2.1468600000000002
 30
0.0
 10
1.61304
 20
-2.1519400000000002
 30
0.0
 10
1.3920600000000001
 20
-2.3957800000000002
 30
0.0
 10
1.1837800000000001
 20
-2.5939000000000001
 30
0.0
 10
1.1837800000000001
 20
-2.5939000000000001
 30
0.0
 10
0.8739000000000001
 20
-2.64724
 30
0.0
 10
0.5411600000000001
 20
-2.5075400000000001
 30
0.0
 10
0.3354200000000001
 20
-2.2713200000000002
 30
0.0
 10
0.3354200000000001
 20
-2.2713200000000002
 30
0.0
 10
0.531
 20
-1.7938000000000001
 30
0.0
 10
0.5233800000000001
 20
-1.1740400000000002
 30
0.0
 10
0.15762
 20
-0.7676400000000001
 30
0.0
 10
0.15762
 20
-0.7676400000000001
 30
0.0
 10
0.15762
 20
-0.7676400000000001
 30
0.0
 10
0.3684400000000001
 20
-0.25202
 30
0.0
 10
0.3684400000000001
 20
-0.25202
 30
0.0
  0
SPLINE
  5
33
100
AcDbEntity
  8
Ebene 1
100
AcDbSpline
210
0.0
220
0.0
230
1.0
 70
     1
 71
     3
 72
    44
 73
    40
 74
     0
 42
0.0000000001
 43
0.0000000001
 40
0.0
 40
0.0
 40
0.0
 40
0.0
 40
0.1
 40
0.1
 40
0.1
 40
0.1
 40
0.2
 40
0.2
 40
0.2
 40
0.2
 40
0.3
 40
0.3
 40
0.3
 40
0.3
 40
0.4
 40
0.4
 40
0.4
 40
0.4
 40
0.5
 40
0.5
 40
0.5
 40
0.5
 40
0.6
 40
0.6
 40
0.6
 40
0.6
 40
0.7
 40
0.7
 40
0.7
 40
0.7
 40
0.7999999999999999
 40
0.7999999999999999
 40
0.7999999999999999
 40
0.7999999999999999
 40
0.8999999999999999
 40
0.8999999999999999
 40
0.8999999999999999
 40
0.8999999999999999
 40
1.0
 40
1.0
 40
1.0
 40
1.0
 10
1.18886
 20
-0.65334
 30
0.0
 10
1.5520800000000001
 20
-0.6609600000000001
 30
0.0
 10
1.8568800000000001
 20
-0.8743200000000001
 30
0.0
 10
2.1997800000000001
 20
-0.9581400000000001
 30
0.0
 10
2.1997800000000001
 20
-0.9581400000000001
 30
0.0
 10
2.4461600000000003
 20
-0.9962400000000001
 30
0.0
 10
2.6620600000000003
 20
-0.82606
 30
0.0
 10
2.8271600000000001
 20
-0.7320800000000001
 30
0.0
 10
2.8271600000000001
 20
-0.7320800000000001
 30
0.0
 10
2.9973400000000003
 20
-0.9860800000000001
 30
0.0
 10
2.5858600000000003
 20
-1.0267200000000001
 30
0.0
 10
2.41568
 20
-1.03942
 30
0.0
 10
2.41568
 20
-1.03942
 30
0.0
 10
2.41568
 20
-1.03942
 30
0.0
 10
2.3344
 20
-1.1486400000000001
 30
0.0
 10
2.3344
 20
-1.1486400000000001
 30
0.0
 10
2.3344
 20
-1.1486400000000001
 30
0.0
 10
2.24804
 20
-1.2731000000000001
 30
0.0
 10
2.4766400000000002
 20
-1.12578
 30
0.0
 10
2.5401400000000001
 20
-1.1537200000000001
 30
0.0
 10
2.5401400000000001
 20
-1.1537200000000001
 30
0.0
 10
2.5350600000000001
 20
-1.2375400000000001
 30
0.0
 10
2.3674200000000001
 20
-1.2223000000000002
 30
0.0
 10
2.30138
 20
-1.2858000000000001
 30
0.0
 10
2.30138
 20
-1.2858000000000001
 30
0.0
 10
2.2175600000000002
 20
-1.3823200000000002
 30
0.0
 10
2.1032600000000001
 20
-1.4280400000000002
 30
0.0
 10
1.9965800000000002
 20
-1.4788400000000002
 30
0.0
 10
1.9965800000000002
 20
-1.4788400000000002
 30
0.0
 10
1.5038200000000002
 20
-1.9690600000000003
 30
0.0
 10
0.5614800000000001
 20
-1.2705600000000001
 30
0.0
 10
0.93486
 20
-0.8768600000000001
 30
0.0
 10
0.93486
 20
-0.8768600000000001
 30
0.0
 10
0.85104
 20
-0.92766
 30
0.0
 10
0.6300600000000001
 20
-1.1054600000000001
 30
0.0
 10
0.6199
 20
-0.9251200000000001
 30
0.0
 10
0.6199
 20
-0.9251200000000001
 30
0.0
 10
0.8027800000000001
 20
-0.82352
 30
0.0
 10
0.9983600000000001
 20
-0.7244600000000001
 30
0.0
 10
1.18886
 20
-0.65334
 30
0.0
  0
SPLINE
  5
34
100
AcDbEntity
  8
Ebene 1
 62
     7
100
AcDbSpline
210
0.0
220
0.0
230
1.0
 70
     1
 71
     3
 72
    12
 73
     8
 74
     0
 42
0.0000000001
 43
0.0000000001
 40
0.0
 40
0.0
 40
0.0
 40
0.0
 40
0.5
 40
0.5
 40
0.5
 40
0.5
 40
1.0
 40
1.0
 40
1.0
 40
1.0
 10
-2.0750300000000004
 20
-0.7295400000000001
 30
0.0
 10
-2.01661
 20
-0.7752600000000001
 30
0.0
 10
-1.9759700000000002
 20
-0.95052
 30
0.0
 10
-2.0928100000000001
 20
-0.9581400000000001
 30
0.0
 10
-2.0928100000000001
 20
-0.9581400000000001
 30
0.0
 10
-2.1613900000000004
 20
-0.9124200000000001
 30
0.0
 10
-2.11313
 20
-0.7905000000000001
 30
0.0
 10
-2.0750300000000004
 20
-0.7295400000000001
 30
0.0
  0
SPLINE
  5
35
100
AcDbEntity
  8
Ebene 1
 62
     7
100
AcDbSpline
210
0.0
220
0.0
230
1.0
 70
     1
 71
     3
 72
    16
 73
    12
 74
     0
 42
0.0000000001
 43
0.0000000001
 40
0.0
 40
0.0
 40
0.0
 40
0.0
 40
0.3333333333333333
 40
0.3333333333333333
 40
0.3333333333333333
 40
0.3333333333333333
 40
0.6666666666666666
 40
0.6666666666666666
 40
0.6666666666666666
 40
0.6666666666666666
 40
1.0
 40
1.0
 40
1.0
 40
1.0
 10
1.6663800000000002
 20
-1.0927600000000002
 30
0.0
 10
1.7349600000000001
 20
-1.1080000000000001
 30
0.0
 10
1.8086200000000001
 20
-1.1511800000000001
 30
0.0
 10
1.8518000000000001
 20
-1.20198
 30
0.0
 10
1.8518000000000001
 20
-1.20198
 30
0.0
 10
1.8518000000000001
 20
-1.20198
 30
0.0
 10
1.6511400000000001
 20
-1.12578
 30
0.0
 10
1.6511400000000001
 20
-1.12578
 30
0.0
 10
1.6511400000000001
 20
-1.12578
 30
0.0
 10
1.6511400000000001
 20
-1.12578
 30
0.0
 10
1.6663800000000002
 20
-1.0927600000000002
 30
0.0
 10
1.6663800000000002
 20
-1.0927600000000002
 30
0.0
  0
SPLINE
  5
36
100
AcDbEntity
  8
Ebene 1
100
AcDbSpline
210
0.0
220
0.0
230
1.0
 70
     1
 71
     3
 72
    32
 73
    28
 74
     0
 42
0.0000000001
 43
0.0000000001
 40
0.0
 40
0.0
 40
0.0
 40
0.0
 40
0.1428571428571429
 40
0.1428571428571429
 40
0.1428571428571429
 40
0.1428571428571429
 40
0.2857142857142857
 40
0.2857142857142857
 40
0.2857142857142857
 40
0.2857142857142857
 40
0.4285714285714286
 40
0.4285714285714286
 40
0.4285714285714286
 40
0.4285714285714286
 40
0.5714285714285714
 40
0.5714285714285714
 40
0.5714285714285714
 40
0.5714285714285714
 40
0.7142857142857142
 40
0.7142857142857142
 40
0.7142857142857142
 40
0.7142857142857142
 40
0.857142857142857
 40
0.857142857142857
 40
0.857142857142857
 40
0.857142857142857
 40
1.0
 40
1.0
 40
1.0
 40
1.0
 10
3.0989400000000002
 20
-1.3975600000000001
 30
0.0
 10
3.0989400000000002
 20
-1.3975600000000001
 30
0.0
 10
3.4570800000000004
 20
-1.4001000000000001
 30
0.0
 10
3.4570800000000004
 20
-1.4001000000000001
 30
0.0
 10
3.4570800000000004
 20
-1.4001000000000001
 30
0.0
 10
3.5409000000000002
 20
-1.7226800000000002
 30
0.0
 10
3.6018600000000003
 20
-2.0808200000000001
 30
0.0
 10
3.5332800000000004
 20
-2.4237200000000003
 30
0.0
 10
3.5332800000000004
 20
-2.4237200000000003
 30
0.0
 10
3.4570800000000004
 20
-2.4643600000000001
 30
0.0
 10
3.3758000000000004
 20
-2.3729200000000001
 30
0.0
 10
3.3148400000000002
 20
-2.4313400000000001
 30
0.0
 10
3.3148400000000002
 20
-2.4313400000000001
 30
0.0
 10
3.3148400000000002
 20
-2.4313400000000001
 30
0.0
 10
3.2894400000000004
 20
-2.6396200000000003
 30
0.0
 10
3.2894400000000004
 20
-2.6396200000000003
 30
0.0
 10
3.2894400000000004
 20
-2.6396200000000003
 30
0.0
 10
3.2894400000000004
 20
-2.6396200000000003
 30
0.0
 10
3.2665800000000003
 20
-2.4313400000000001
 30
0.0
 10
3.2665800000000003
 20
-2.4313400000000001
 30
0.0
 10
3.2665800000000003
 20
-2.4313400000000001
 30
0.0
 10
3.1954600000000002
 20
-2.4008600000000002
 30
0.0
 10
3.1014800000000005
 20
-2.5100800000000003
 30
0.0
 10
3.0075000000000003
 20
-2.4618200000000003
 30
0.0
 10
3.0075000000000003
 20
-2.4618200000000003
 30
0.0
 10
2.8932000000000002
 20
-2.1113
 30
0.0
 10
3.0379800000000001
 20
-1.7480800000000001
 30
0.0
 10
3.0989400000000002
 20
-1.3975600000000001
 30
0.0
  0
SPLINE
  5
37
100
AcDbEntity
  8
Ebene 1
100
AcDbSpline
210
0.0
220
0.0
230
1.0
 70
     1
 71
     3
 72
    16
 73
    12
 74
     0
 42
0.0000000001
 43
0.0000000001
 40
0.0
 40
0.0
 40
0.0
 40
0.0
 40
0.3333333333333333
 40
0.3333333333333333
 40
0.3333333333333333
 40
0.3333333333333333
 40
0.6666666666666666
 40
0.6666666666666666
 40
0.6666666666666666
 40
0.6666666666666666
 40
1.0
 40
1.0
 40
1.0
 40
1.0
 10
2.4664800000000002
 20
-1.8750800000000001
 30
0.0
 10
2.6239600000000003
 20
-1.9157200000000001
 30
0.0
 10
2.38266
 20
-2.0859000000000001
 30
0.0
 10
2.4055200000000001
 20
-2.1951200000000002
 30
0.0
 10
2.4055200000000001
 20
-2.1951200000000002
 30
0.0
 10
2.4055200000000001
 20
-2.1951200000000002
 30
0.0
 10
2.16676
 20
-2.1163800000000004
 30
0.0
 10
2.16676
 20
-2.1163800000000004
 30
0.0
 10
2.16676
 20
-2.1163800000000004
 30
0.0
 10
2.16676
 20
-2.1163800000000004
 30
0.0
 10
2.4664800000000002
 20
-1.8750800000000001
 30
0.0
 10
2.4664800000000002
 20
-1.8750800000000001
 30
0.0
  0
SPLINE
  5
38
100
AcDbEntity
  8
Ebene 1
 62
     7
100
AcDbSpline
210
0.0
220
0.0
230
1.0
 70
     1
 71
     3
 72
    20
 73
    16
 74
     0
 42
0.0000000001
 43
0.0000000001
 40
0.0
 40
0.0
 40
0.0
 40
0.0
 40
0.25
 40
0.25
 40
0.25
 40
0.25
 40
0.5
 40
0.5
 40
0.5
 40
0.5
 40
0.75
 40
0.75
 40
0.75
 40
0.75
 40
1.0
 40
1.0
 40
1.0
 40
1.0
 10
0.404
 20
-2.8098000000000001
 30
0.0
 10
0.4319400000000001
 20
-2.8098000000000001
 30
0.0
 10
0.4624200000000001
 20
-2.8098000000000001
 30
0.0
 10
0.47766
 20
-2.8326600000000002
 30
0.0
 10
0.47766
 20
-2.8326600000000002
 30
0.0
 10
0.4954400000000001
 20
-3.0561800000000003
 30
0.0
 10
0.51576
 20
-3.3609800000000001
 30
0.0
 10
0.277
 20
-3.4549600000000003
 30
0.0
 10
0.277
 20
-3.4549600000000003
 30
0.0
 10
0.277
 20
-3.4549600000000003
 30
0.0
 10
0.29732
 20
-3.3889200000000002
 30
0.0
 10
0.29732
 20
-3.3889200000000002
 30
0.0
 10
0.29732
 20
-3.3889200000000002
 30
0.0
 10
0.5005200000000001
 20
-3.2492200000000002
 30
0.0
 10
0.38114
 20
-2.9977600000000004
 30
0.0
 10
0.404
 20
-2.8098000000000001
 30
0.0
  0
SPLINE
  5
39
100
AcDbEntity
  8
Ebene 1
 62
     7
100
AcDbSpline
210
0.0
220
0.0
230
1.0
 70
     1
 71
     3
 72
    96
 73
    92
 74
     0
 42
0.0000000001
 43
0.0000000001
 40
0.0
 40
0.0
 40
0.0
 40
0.0
 40
0.0434782608695652
 40
0.0434782608695652
 40
0.0434782608695652
 40
0.0434782608695652
 40
0.0869565217391304
 40
0.0869565217391304
 40
0.0869565217391304
 40
0.0869565217391304
 40
0.1304347826086957
 40
0.1304347826086957
 40
0.1304347826086957
 40
0.1304347826086957
 40
0.1739130434782609
 40
0.1739130434782609
 40
0.1739130434782609
 40
0.1739130434782609
 40
0.2173913043478261
 40
0.2173913043478261
 40
0.2173913043478261
 40
0.2173913043478261
 40
0.2608695652173913
 40
0.2608695652173913
 40
0.2608695652173913
 40
0.2608695652173913
 40
0.3043478260869565
 40
0.3043478260869565
 40
0.3043478260869565
 40
0.3043478260869565
 40
0.3478260869565217
 40
0.3478260869565217
 40
0.3478260869565217
 40
0.3478260869565217
 40
0.3913043478260869
 40
0.3913043478260869
 40
0.3913043478260869
 40
0.3913043478260869
 40
0.4347826086956521
 40
0.4347826086956521
 40
0.4347826086956521
 40
0.4347826086956521
 40
0.4782608695652173
 40
0.4782608695652173
 40
0.4782608695652173
 40
0.4782608695652173
 40
0.5217391304347825
 40
0.5217391304347825
 40
0.5217391304347825
 40
0.5217391304347825
 40
0.5652173913043477
 40
0.5652173913043477
 40
0.5652173913043477
 40
0.5652173913043477
 40
0.6086956521739129
 40
0.6086956521739129
 40
0.6086956521739129
 40
0.6086956521739129
 40
0.6521739130434781
 40
0.6521739130434781
 40
0.6521739130434781
 40
0.6521739130434781
 40
0.6956521739130432
 40
0.6956521739130432
 40
0.6956521739130432
 40
0.6956521739130432
 40
0.7391304347826084
 40
0.7391304347826084
 40
0.7391304347826084
 40
0.7391304347826084
 40
0.7826086956521736
 40
0.7826086956521736
 40
0.7826086956521736
 40
0.7826086956521736
 40
0.8260869565217388
 40
0.8260869565217388
 40
0.8260869565217388
 40
0.8260869565217388
 40
0.869565217391304
 40
0.869565217391304
 40
0.869565217391304
 40
0.869565217391304
 40
0.9130434782608692
 40
0.9130434782608692
 40
0.9130434782608692
 40
0.9130434782608692
 40
0.9565217391304344
 40
0.9565217391304344
 40
0.9565217391304344
 40
0.9565217391304344
 40
1.0
 40
1.0
 40
1.0
 40
1.0
 10
0.7494400000000001
 20
-2.8098000000000001
 30
0.0
 10
0.7494400000000001
 20
-2.8098000000000001
 30
0.0
 10
0.93486
 20
-2.81488
 30
0.0
 10
0.93486
 20
-2.81488
 30
0.0
 10
0.93486
 20
-2.81488
 30
0.0
 10
0.93486
 20
-2.81488
 30
0.0
 10
0.9196200000000001
 20
-3.0587200000000001
 30
0.0
 10
0.9196200000000001
 20
-3.0587200000000001
 30
0.0
 10
0.9196200000000001
 20
-3.0587200000000001
 30
0.0
 10
0.57418
 20
-3.6175200000000003
 30
0.0
 10
1.8518000000000001
 20
-4.3414200000000003
 30
0.0
 10
1.8365600000000002
 20
-3.5743400000000003
 30
0.0
 10
1.8365600000000002
 20
-3.5743400000000003
 30
0.0
 10
2.1439000000000004
 20
-3.7318200000000004
 30
0.0
 10
1.6333600000000001
 20
-4.3896800000000002
 30
0.0
 10
2.0042
 20
-3.9705800000000004
 30
0.0
 10
2.0042
 20
-3.9705800000000004
 30
0.0
 10
2.0042
 20
-3.9705800000000004
 30
0.0
 10
2.00928
 20
-3.8791400000000005
 30
0.0
 10
2.00928
 20
-3.8791400000000005
 30
0.0
 10
2.00928
 20
-3.8791400000000005
 30
0.0
 10
1.9889600000000001
 20
-3.8054800000000002
 30
0.0
 10
2.16168
 20
-3.8054800000000002
 30
0.0
 10
2.1439000000000004
 20
-3.8994600000000004
 30
0.0
 10
2.1439000000000004
 20
-3.8994600000000004
 30
0.0
 10
2.1439000000000004
 20
-3.8994600000000004
 30
0.0
 10
2.1032600000000001
 20
-4.2245800000000004
 30
0.0
 10
2.1032600000000001
 20
-4.2245800000000004
 30
0.0
 10
2.1032600000000001
 20
-4.2245800000000004
 30
0.0
 10
2.25312
 20
-4.0493200000000007
 30
0.0
 10
2.1134200000000001
 20
-3.8258000000000005
 30
0.0
 10
2.3293200000000001
 20
-4.00868
 30
0.0
 10
2.3293200000000001
 20
-4.00868
 30
0.0
 10
2.4182200000000003
 20
-3.7851600000000003
 30
0.0
 10
2.4614000000000003
 20
-3.8766000000000003
 30
0.0
 10
2.5198200000000002
 20
-4.05694
 30
0.0
 10
2.5198200000000002
 20
-4.05694
 30
0.0
 10
2.6290400000000003
 20
-4.1636200000000008
 30
0.0
 10
2.7433400000000003
 20
-3.9909000000000003
 30
0.0
 10
2.8068400000000002
 20
-3.9223200000000005
 30
0.0
 10
2.8068400000000002
 20
-3.9223200000000005
 30
0.0
 10
2.7509600000000001
 20
-4.2042600000000006
 30
0.0
 10
3.0583000000000005
 20
-4.2652200000000002
 30
0.0
 10
3.1522800000000002
 20
-4.0163000000000002
 30
0.0
 10
3.1522800000000002
 20
-4.0163000000000002
 30
0.0
 10
3.1268800000000003
 20
-4.2830000000000004
 30
0.0
 10
3.3758000000000004
 20
-4.2398199999999999
 30
0.0
 10
3.4189800000000004
 20
-4.0366200000000001
 30
0.0
 10
3.4189800000000004
 20
-4.0366200000000001
 30
0.0
 10
3.5307400000000002
 20
-4.1585400000000003
 30
0.0
 10
3.3148400000000002
 20
-4.26776
 30
0.0
 10
3.3707200000000004
 20
-4.4100000000000001
 30
0.0
 10
3.3707200000000004
 20
-4.4100000000000001
 30
0.0
 10
3.6094800000000005
 20
-4.3109400000000004
 30
0.0
 10
3.5205800000000003
 20
-4.8087800000000005
 30
0.0
 10
3.6094800000000005
 20
-4.9637200000000004
 30
0.0
 10
3.6094800000000005
 20
-4.9637200000000004
 30
0.0
 10
3.5612200000000005
 20
-5.0170600000000007
 30
0.0
 10
3.5028000000000001
 20
-5.0526200000000001
 30
0.0
 10
3.4418400000000005
 20
-5.0831000000000008
 30
0.0
 10
3.4418400000000005
 20
-5.0831000000000008
 30
0.0
 10
3.2538800000000001
 20
-5.0958000000000006
 30
0.0
 10
3.3961200000000002
 20
-4.9916600000000004
 30
0.0
 10
3.3275400000000004
 20
-4.9307000000000007
 30
0.0
 10
3.3275400000000004
 20
-4.9307000000000007
 30
0.0
 10
2.7712800000000004
 20
-4.98658
 30
0.0
 10
1.9051400000000001
 20
-5.3929800000000006
 30
0.0
 10
1.4555600000000002
 20
-4.8545000000000007
 30
0.0
 10
1.4555600000000002
 20
-4.8545000000000007
 30
0.0
 10
1.48604
 20
-4.7884600000000006
 30
0.0
 10
1.5978000000000001
 20
-4.8113200000000003
 30
0.0
 10
1.6511400000000001
 20
-4.8291000000000004
 30
0.0
 10
1.6511400000000001
 20
-4.8291000000000004
 30
0.0
 10
1.7832200000000002
 20
-4.8722800000000008
 30
0.0
 10
2.2988400000000002
 20
-4.9611800000000006
 30
0.0
 10
1.9864200000000001
 20
-4.8011600000000003
 30
0.0
 10
1.9864200000000001
 20
-4.8011600000000003
 30
0.0
 10
1.1304400000000001
 20
-4.6944800000000004
 30
0.0
 10
0.2516000000000001
 20
-4.5420800000000003
 30
0.0
 10
-0.46467
 20
-4.0645600000000002
 30
0.0
 10
-0.46467
 20
-4.0645600000000002
 30
0.0
 10
-0.37831
 20
-3.7115000000000005
 30
0.0
 10
-0.5434100000000001
 20
-3.1577800000000003
 30
0.0
 10
-0.25639
 20
-2.9114000000000004
 30
0.0
 10
-0.25639
 20
-2.9114000000000004
 30
0.0
 10
-0.16749
 20
-3.1831800000000001
 30
0.0
 10
-0.02779
 20
-3.6734000000000004
 30
0.0
 10
0.4192400000000001
 20
-3.5108400000000004
 30
0.0
 10
0.4192400000000001
 20
-3.5108400000000004
 30
0.0
 10
0.61736
 20
-3.3152600000000003
 30
0.0
 10
0.5259200000000001
 20
-2.9596600000000004
 30
0.0
 10
0.7494400000000001
 20
-2.8098000000000001
 30
0.0
  0
SPLINE
  5
3A
100
AcDbEntity
  8
Ebene 1
 62
     7
100
AcDbSpline
210
0.0
220
0.0
230
1.0
 70
     1
 71
     3
 72
    16
 73
    12
 74
     0
 42
0.0000000001
 43
0.0000000001
 40
0.0
 40
0.0
 40
0.0
 40
0.0
 40
0.3333333333333333
 40
0.3333333333333333
 40
0.3333333333333333
 40
0.3333333333333333
 40
0.6666666666666666
 40
0.6666666666666666
 40
0.6666666666666666
 40
0.6666666666666666
 40
1.0
 40
1.0
 40
1.0
 40
1.0
 10
2.04738
 20
-2.8301200000000004
 30
0.0
 10
2.20486
 20
-2.8885400000000003
 30
0.0
 10
2.05246
 20
-3.1298400000000002
 30
0.0
 10
1.9508600000000003
 20
-3.1730200000000002
 30
0.0
 10
1.9508600000000003
 20
-3.1730200000000002
 30
0.0
 10
1.8848200000000002
 20
-3.1425400000000003
 30
0.0
 10
1.9000600000000001
 20
-3.1171400000000005
 30
0.0
 10
1.9508600000000003
 20
-3.0968200000000001
 30
0.0
 10
1.9508600000000003
 20
-3.0968200000000001
 30
0.0
 10
1.9508600000000003
 20
-3.0968200000000001
 30
0.0
 10
2.04738
 20
-2.8301200000000004
 30
0.0
 10
2.04738
 20
-2.8301200000000004
 30
0.0
  0
SPLINE
  5
3B
100
AcDbEntity
  8
Ebene 1
 62
     7
100
AcDbSpline
210
0.0
220
0.0
230
1.0
 70
     1
 71
     3
 72
    12
 73
     8
 74
     0
 42
0.0000000001
 43
0.0000000001
 40
0.0
 40
0.0
 40
0.0
 40
0.0
 40
0.5
 40
0.5
 40
0.5
 40
0.5
 40
1.0
 40
1.0
 40
1.0
 40
1.0
 10
2.1820000000000004
 20
-3.0790400000000004
 30
0.0
 10
2.2785200000000003
 20
-3.1171400000000005
 30
0.0
 10
2.2632800000000004
 20
-3.3355800000000002
 30
0.0
 10
2.16168
 20
-3.3838400000000002
 30
0.0
 10
2.16168
 20
-3.3838400000000002
 30
0.0
 10
2.0296000000000003
 20
-3.3101800000000003
 30
0.0
 10
2.1210400000000003
 20
-3.1730200000000002
 30
0.0
 10
2.1820000000000004
 20
-3.0790400000000004
 30
0.0
  0
SPLINE
  5
3C
100
AcDbEntity
  8
Ebene 1
 62
     7
100
AcDbSpline
210
0.0
220
0.0
230
1.0
 70
     1
 71
     3
 72
    12
 73
     8
 74
     0
 42
0.0000000001
 43
0.0000000001
 40
0.0
 40
0.0
 40
0.0
 40
0.0
 40
0.5
 40
0.5
 40
0.5
 40
0.5
 40
1.0
 40
1.0
 40
1.0
 40
1.0
 10
2.4106000000000001
 20
-3.15524
 30
0.0
 10
2.5630000000000002
 20
-3.2085800000000004
 30
0.0
 10
2.5350600000000001
 20
-3.5159200000000004
 30
0.0
 10
2.4487000000000001
 20
-3.6124400000000003
 30
0.0
 10
2.4487000000000001
 20
-3.6124400000000003
 30
0.0
 10
2.2734400000000003
 20
-3.5311600000000003
 30
0.0
 10
2.2937600000000002
 20
-3.2873200000000002
 30
0.0
 10
2.4106000000000001
 20
-3.15524
 30
0.0
  0
SPLINE
  5
3D
100
AcDbEntity
  8
Ebene 1
 62
     7
100
AcDbSpline
210
0.0
220
0.0
230
1.0
 70
     1
 71
     3
 72
    16
 73
    12
 74
     0
 42
0.0000000001
 43
0.0000000001
 40
0.0
 40
0.0
 40
0.0
 40
0.0
 40
0.3333333333333333
 40
0.3333333333333333
 40
0.3333333333333333
 40
0.3333333333333333
 40
0.6666666666666666
 40
0.6666666666666666
 40
0.6666666666666666
 40
0.6666666666666666
 40
1.0
 40
1.0
 40
1.0
 40
1.0
 10
3.5358200000000002
 20
-3.15524
 30
0.0
 10
3.6298000000000004
 20
-3.1654000000000004
 30
0.0
 10
3.6120200000000002
 20
-3.2949400000000004
 30
0.0
 10
3.6145600000000004
 20
-3.3635200000000003
 30
0.0
 10
3.6145600000000004
 20
-3.3635200000000003
 30
0.0
 10
3.7161600000000004
 20
-3.4625800000000004
 30
0.0
 10
3.6094800000000005
 20
-3.5718000000000001
 30
0.0
 10
3.5053400000000003
 20
-3.5895800000000002
 30
0.0
 10
3.5053400000000003
 20
-3.5895800000000002
 30
0.0
 10
3.4291400000000003
 20
-3.4651200000000002
 30
0.0
 10
3.4647000000000001
 20
-3.2746200000000001
 30
0.0
 10
3.5358200000000002
 20
-3.15524
 30
0.0
  0
SPLINE
  5
3E
100
AcDbEntity
  8
Ebene 1
 62
     7
100
AcDbSpline
210
0.0
220
0.0
230
1.0
 70
     1
 71
     3
 72
    16
 73
    12
 74
     0
 42
0.0000000001
 43
0.0000000001
 40
0.0
 40
0.0
 40
0.0
 40
0.0
 40
0.3333333333333333
 40
0.3333333333333333
 40
0.3333333333333333
 40
0.3333333333333333
 40
0.6666666666666666
 40
0.6666666666666666
 40
0.6666666666666666
 40
0.6666666666666666
 40
1.0
 40
1.0
 40
1.0
 40
1.0
 10
2.6976200000000001
 20
-3.2111200000000002
 30
0.0
 10
2.6976200000000001
 20
-3.2111200000000002
 30
0.0
 10
2.7509600000000001
 20
-3.2162000000000002
 30
0.0
 10
2.7509600000000001
 20
-3.2162000000000002
 30
0.0
 10
2.7509600000000001
 20
-3.2162000000000002
 30
0.0
 10
2.7738200000000002
 20
-3.3635200000000003
 30
0.0
 10
2.8271600000000001
 20
-3.5413200000000002
 30
0.0
 10
2.7687400000000002
 20
-3.6835600000000004
 30
0.0
 10
2.7687400000000002
 20
-3.6835600000000004
 30
0.0
 10
2.4969600000000001
 20
-3.7572200000000002
 30
0.0
 10
2.5833200000000001
 20
-3.3254200000000003
 30
0.0
 10
2.6976200000000001
 20
-3.2111200000000002
 30
0.0
  0
SPLINE
  5
3F
100
AcDbEntity
  8
Ebene 1
 62
     7
100
AcDbSpline
210
0.0
220
0.0
230
1.0
 70
     1
 71
     3
 72
    12
 73
     8
 74
     0
 42
0.0000000001
 43
0.0000000001
 40
0.0
 40
0.0
 40
0.0
 40
0.0
 40
0.5
 40
0.5
 40
0.5
 40
0.5
 40
1.0
 40
1.0
 40
1.0
 40
1.0
 10
3.2513400000000003
 20
-3.2111200000000002
 30
0.0
 10
3.4012000000000002
 20
-3.2822400000000003
 30
0.0
 10
3.4596200000000001
 20
-3.7572200000000002
 30
0.0
 10
3.1802200000000003
 20
-3.6632400000000005
 30
0.0
 10
3.1802200000000003
 20
-3.6632400000000005
 30
0.0
 10
3.1345000000000001
 20
-3.5260800000000003
 30
0.0
 10
3.1522800000000002
 20
-3.3305000000000002
 30
0.0
 10
3.2513400000000003
 20
-3.2111200000000002
 30
0.0
  0
SPLINE
  5
40
100
AcDbEntity
  8
Ebene 1
 62
     7
100
AcDbSpline
210
0.0
220
0.0
230
1.0
 70
     1
 71
     3
 72
    12
 73
     8
 74
     0
 42
0.0000000001
 43
0.0000000001
 40
0.0
 40
0.0
 40
0.0
 40
0.0
 40
0.5
 40
0.5
 40
0.5
 40
0.5
 40
1.0
 40
1.0
 40
1.0
 40
1.0
 10
3.7085400000000002
 20
-3.2111200000000002
 30
0.0
 10
3.7644200000000003
 20
-3.2289000000000003
 30
0.0
 10
3.7618800000000001
 20
-3.3254200000000003
 30
0.0
 10
3.7237800000000001
 20
-3.3584400000000003
 30
0.0
 10
3.7237800000000001
 20
-3.3584400000000003
 30
0.0
 10
3.6679000000000004
 20
-3.3432000000000004
 30
0.0
 10
3.6831400000000003
 20
-3.2492200000000002
 30
0.0
 10
3.7085400000000002
 20
-3.2111200000000002
 30
0.0
  0
SPLINE
  5
41
100
AcDbEntity
  8
Ebene 1
 62
     7
100
AcDbSpline
210
0.0
220
0.0
230
1.0
 70
     1
 71
     3
 72
    12
 73
     8
 74
     0
 42
0.0000000001
 43
0.0000000001
 40
0.0
 40
0.0
 40
0.0
 40
0.0
 40
0.5
 40
0.5
 40
0.5
 40
0.5
 40
1.0
 40
1.0
 40
1.0
 40
1.0
 10
1.8365600000000002
 20
-3.2314400000000001
 30
0.0
 10
1.9940400000000003
 20
-3.2060400000000002
 30
0.0
 10
1.9762600000000001
 20
-3.4270200000000002
 30
0.0
 10
1.8899000000000001
 20
-3.4930600000000003
 30
0.0
 10
1.8899000000000001
 20
-3.4930600000000003
 30
0.0
 10
1.8213200000000001
 20
-3.4321000000000002
 30
0.0
 10
1.8365600000000002
 20
-3.3203400000000003
 30
0.0
 10
1.8365600000000002
 20
-3.2314400000000001
 30
0.0
  0
SPLINE
  5
42
100
AcDbEntity
  8
Ebene 1
 62
     7
100
AcDbSpline
210
0.0
220
0.0
230
1.0
 70
     1
 71
     3
 72
    24
 73
    20
 74
     0
 42
0.0000000001
 43
0.0000000001
 40
0.0
 40
0.0
 40
0.0
 40
0.0
 40
0.2
 40
0.2
 40
0.2
 40
0.2
 40
0.4
 40
0.4
 40
0.4
 40
0.4
 40
0.6000000000000001
 40
0.6000000000000001
 40
0.6000000000000001
 40
0.6000000000000001
 40
0.8
 40
0.8
 40
0.8
 40
0.8
 40
1.0
 40
1.0
 40
1.0
 40
1.0
 10
2.9262200000000003
 20
-3.2314400000000001
 30
0.0
 10
3.0354400000000004
 20
-3.3127200000000001
 30
0.0
 10
3.0456000000000003
 20
-3.5108400000000004
 30
0.0
 10
3.0760800000000001
 20
-3.6454600000000004
 30
0.0
 10
3.0760800000000001
 20
-3.6454600000000004
 30
0.0
 10
3.0456000000000003
 20
-3.6937200000000003
 30
0.0
 10
3.0024200000000003
 20
-3.6505400000000003
 30
0.0
 10
2.9643200000000003
 20
-3.6505400000000003
 30
0.0
 10
2.9643200000000003
 20
-3.6505400000000003
 30
0.0
 10
2.9643200000000003
 20
-3.6505400000000003
 30
0.0
 10
2.8932000000000002
 20
-3.7038800000000003
 30
0.0
 10
2.8932000000000002
 20
-3.7038800000000003
 30
0.0
 10
2.8932000000000002
 20
-3.7038800000000003
 30
0.0
 10
2.8601800000000002
 20
-3.6378400000000002
 30
0.0
 10
2.8424
 20
-3.4803600000000001
 30
0.0
 10
2.9033600000000002
 20
-3.4371800000000001
 30
0.0
 10
2.9033600000000002
 20
-3.4371800000000001
 30
0.0
 10
2.8601800000000002
 20
-3.3686000000000003
 30
0.0
 10
2.9084400000000001
 20
-3.2949400000000004
 30
0.0
 10
2.9262200000000003
 20
-3.2314400000000001
 30
0.0
  0
SPLINE
  5
43
100
AcDbEntity
  8
Ebene 1
 62
     7
100
AcDbSpline
210
0.0
220
0.0
230
1.0
 70
     1
 71
     3
 72
    12
 73
     8
 74
     0
 42
0.0000000001
 43
0.0000000001
 40
0.0
 40
0.0
 40
0.0
 40
0.0
 40
0.5
 40
0.5
 40
0.5
 40
0.5
 40
1.0
 40
1.0
 40
1.0
 40
1.0
 10
2.0296000000000003
 20
-3.4041600000000001
 30
0.0
 10
2.1439000000000004
 20
-3.4651200000000002
 30
0.0
 10
2.1947000000000001
 20
-3.6429200000000002
 30
0.0
 10
2.0677000000000003
 20
-3.7267400000000004
 30
0.0
 10
2.0677000000000003
 20
-3.7267400000000004
 30
0.0
 10
1.9991200000000002
 20
-3.6480000000000001
 30
0.0
 10
2.0346800000000003
 20
-3.4930600000000003
 30
0.0
 10
2.0296000000000003
 20
-3.4041600000000001
 30
0.0
  0
SPLINE
  5
44
100
AcDbEntity
  8
Ebene 1
 62
     7
100
AcDbSpline
210
0.0
220
0.0
230
1.0
 70
     1
 71
     3
 72
    16
 73
    12
 74
     0
 42
0.0000000001
 43
0.0000000001
 40
0.0
 40
0.0
 40
0.0
 40
0.0
 40
0.3333333333333333
 40
0.3333333333333333
 40
0.3333333333333333
 40
0.3333333333333333
 40
0.6666666666666666
 40
0.6666666666666666
 40
0.6666666666666666
 40
0.6666666666666666
 40
1.0
 40
1.0
 40
1.0
 40
1.0
 10
2.2201
 20
-3.5946600000000002
 30
0.0
 10
2.2734400000000003
 20
-3.6454600000000004
 30
0.0
 10
2.3369400000000002
 20
-3.6734000000000004
 30
0.0
 10
2.4055200000000001
 20
-3.6937200000000003
 30
0.0
 10
2.4055200000000001
 20
-3.6937200000000003
 30
0.0
 10
2.4080600000000003
 20
-3.7750000000000004
 30
0.0
 10
2.34456
 20
-3.8588200000000001
 30
0.0
 10
2.2963
 20
-3.9197800000000003
 30
0.0
 10
2.2963
 20
-3.9197800000000003
 30
0.0
 10
2.2302600000000004
 20
-3.8334200000000003
 30
0.0
 10
2.2201
 20
-3.7064200000000005
 30
0.0
 10
2.2201
 20
-3.5946600000000002
 30
0.0
  0
SPLINE
  5
45
100
AcDbEntity
  8
Ebene 1
 62
     7
100
AcDbSpline
210
0.0
220
0.0
230
1.0
 70
     1
 71
     3
 72
    12
 73
     8
 74
     0
 42
0.0000000001
 43
0.0000000001
 40
0.0
 40
0.0
 40
0.0
 40
0.0
 40
0.5
 40
0.5
 40
0.5
 40
0.5
 40
1.0
 40
1.0
 40
1.0
 40
1.0
 10
3.5764600000000004
 20
-3.6708600000000002
 30
0.0
 10
3.6831400000000003
 20
-3.7419800000000003
 30
0.0
 10
3.5307400000000002
 20
-3.9197800000000003
 30
0.0
 10
3.5053400000000003
 20
-4.00868
 30
0.0
 10
3.5053400000000003
 20
-4.00868
 30
0.0
 10
3.4799400000000005
 20
-3.9121600000000005
 30
0.0
 10
3.4875600000000002
 20
-3.7546800000000005
 30
0.0
 10
3.5764600000000004
 20
-3.6708600000000002
 30
0.0
  0
SPLINE
  5
46
100
AcDbEntity
  8
Ebene 1
 62
     7
100
AcDbSpline
210
0.0
220
0.0
230
1.0
 70
     1
 71
     3
 72
    12
 73
     8
 74
     0
 42
0.0000000001
 43
0.0000000001
 40
0.0
 40
0.0
 40
0.0
 40
0.0
 40
0.5
 40
0.5
 40
0.5
 40
0.5
 40
1.0
 40
1.0
 40
1.0
 40
1.0
 10
2.1439000000000004
 20
-3.7267400000000004
 30
0.0
 10
2.17184
 20
-3.7318200000000004
 30
0.0
 10
2.1921600000000003
 20
-3.7724600000000001
 30
0.0
 10
2.17692
 20
-3.7978600000000005
 30
0.0
 10
2.17692
 20
-3.7978600000000005
 30
0.0
 10
2.1439000000000004
 20
-3.7978600000000005
 30
0.0
 10
2.1388200000000004
 20
-3.7546800000000005
 30
0.0
 10
2.1439000000000004
 20
-3.7267400000000004
 30
0.0
  0
SPLINE
  5
47
100
AcDbEntity
  8
Ebene 1
 62
     7
100
AcDbSpline
210
0.0
220
0.0
230
1.0
 70
     1
 71
     3
 72
    16
 73
    12
 74
     0
 42
0.0000000001
 43
0.0000000001
 40
0.0
 40
0.0
 40
0.0
 40
0.0
 40
0.3333333333333333
 40
0.3333333333333333
 40
0.3333333333333333
 40
0.3333333333333333
 40
0.6666666666666666
 40
0.6666666666666666
 40
0.6666666666666666
 40
0.6666666666666666
 40
1.0
 40
1.0
 40
1.0
 40
1.0
 10
3.3834200000000001
 20
-3.7267400000000004
 30
0.0
 10
3.4164400000000001
 20
-3.7292800000000002
 30
0.0
 10
3.4545400000000002
 20
-3.7165800000000004
 30
0.0
 10
3.4774000000000003
 20
-3.7496000000000005
 30
0.0
 10
3.4774000000000003
 20
-3.7496000000000005
 30
0.0
 10
3.4139000000000004
 20
-3.8842200000000005
 30
0.0
 10
3.3681800000000002
 20
-4.0670999999999999
 30
0.0
 10
3.2513400000000003
 20
-4.1483800000000004
 30
0.0
 10
3.2513400000000003
 20
-4.1483800000000004
 30
0.0
 10
3.1446600000000005
 20
-4.0112200000000007
 30
0.0
 10
3.1827600000000005
 20
-3.7318200000000004
 30
0.0
 10
3.3834200000000001
 20
-3.7267400000000004
 30
0.0
  0
SPLINE
  5
48
100
AcDbEntity
  8
Ebene 1
 62
     7
100
AcDbSpline
210
0.0
220
0.0
230
1.0
 70
     1
 71
     3
 72
    16
 73
    12
 74
     0
 42
0.0000000001
 43
0.0000000001
 40
0.0
 40
0.0
 40
0.0
 40
0.0
 40
0.3333333333333333
 40
0.3333333333333333
 40
0.3333333333333333
 40
0.3333333333333333
 40
0.6666666666666666
 40
0.6666666666666666
 40
0.6666666666666666
 40
0.6666666666666666
 40
1.0
 40
1.0
 40
1.0
 40
1.0
 10
2.5249000000000001
 20
-3.7470600000000003
 30
0.0
 10
2.5249000000000001
 20
-3.7470600000000003
 30
0.0
 10
2.8119200000000002
 20
-3.8054800000000002
 30
0.0
 10
2.8119200000000002
 20
-3.8054800000000002
 30
0.0
 10
2.8119200000000002
 20
-3.8054800000000002
 30
0.0
 10
2.8119200000000002
 20
-3.8054800000000002
 30
0.0
 10
2.6188800000000003
 20
-4.0137600000000004
 30
0.0
 10
2.6188800000000003
 20
-4.0137600000000004
 30
0.0
 10
2.6188800000000003
 20
-4.0137600000000004
 30
0.0
 10
2.5172800000000004
 20
-3.9909000000000003
 30
0.0
 10
2.4766400000000002
 20
-3.8334200000000003
 30
0.0
 10
2.5249000000000001
 20
-3.7470600000000003
 30
0.0
  0
SPLINE
  5
49
100
AcDbEntity
  8
Ebene 1
 62
     7
100
AcDbSpline
210
0.0
220
0.0
230
1.0
 70
     1
 71
     3
 72
    20
 73
    16
 74
     0
 42
0.0000000001
 43
0.0000000001
 40
0.0
 40
0.0
 40
0.0
 40
0.0
 40
0.25
 40
0.25
 40
0.25
 40
0.25
 40
0.5
 40
0.5
 40
0.5
 40
0.5
 40
0.75
 40
0.75
 40
0.75
 40
0.75
 40
1.0
 40
1.0
 40
1.0
 40
1.0
 10
3.0989400000000002
 20
-3.7470600000000003
 30
0.0
 10
3.1192600000000001
 20
-3.7419800000000003
 30
0.0
 10
3.1370400000000003
 20
-3.7546800000000005
 30
0.0
 10
3.1522800000000002
 20
-3.7699200000000004
 30
0.0
 10
3.1522800000000002
 20
-3.7699200000000004
 30
0.0
 10
3.1294200000000001
 20
-3.8994600000000004
 30
0.0
 10
3.0837000000000003
 20
-4.0721800000000004
 30
0.0
 10
2.9465400000000002
 20
-4.1280600000000005
 30
0.0
 10
2.9465400000000002
 20
-4.1280600000000005
 30
0.0
 10
2.8373200000000001
 20
-4.0645600000000002
 30
0.0
 10
2.8703400000000001
 20
-3.9172400000000005
 30
0.0
 10
2.8728800000000003
 20
-3.8080200000000004
 30
0.0
 10
2.8728800000000003
 20
-3.8080200000000004
 30
0.0
 10
2.8728800000000003
 20
-3.8080200000000004
 30
0.0
 10
3.0989400000000002
 20
-3.7470600000000003
 30
0.0
 10
3.0989400000000002
 20
-3.7470600000000003
 30
0.0
  0
ENDSEC
  0
SECTION
  2
OBJECTS
  0
DICTIONARY
  5
19
100
AcDbDictionary
280
     0
281
     1
  3
ACAD_GROUP
350
1A
  3
ACAD_MLINESTYLE
350
1B
  3
ACAD_LAYOUT
350
1E
  3
ACAD_PLOTSETTINGS
350
22
  3
ACAD_PLOTSTYLENAME
350
1F
  3
ACAD_WIPEOUT_VARS
350
23
  0
DICTIONARY
  5
1A
102
{ACAD_REACTORS
330
19
102
}
100
AcDbDictionary
280
     0
281
     1
  0
DICTIONARY
  5
1B
102
{ACAD_REACTORS
330
19
102
}
100
AcDbDictionary
280
     0
281
     1
  3
Standard
350
1C
  0
MLINESTYLE
  5
1C
102
{ACAD_REACTORS
330
1B
102
}
100
AcDbMlineStyle
  2
Standard
 70
     0
  3

 62
     0
 51
90.0
 52
90.0
 71
     2
 49
0.5
 62
   256
  6
BYLAYER
 49
-0.5
 62
   256
  6
BYLAYER
  0
ACDBDICTIONARYWDFLT
  5
1F
102
{ACAD_REACTORS
330
19
102
}
100
AcDbDictionary
281
     1
  3
Normal
350
1D
100
AcDbDictionaryWithDefault
340
1D
  0
ACDBPLACEHOLDER
  5
1D
102
{ACAD_REACTORS
330
1F
102
}
  0
LAYOUT
  5
20
102
{ACAD_REACTORS
330
1E
102
}
100
AcDbPlotSettings
  1

  2

  4

  6

 40
0.0
 41
0.0
 42
0.0
 43
0.0
 44
0.0
 45
0.0
 46
0.0
 47
0.0
 48
0.0
 49
0.0
140
0.0
141
0.0
142
1.0
143
1.0
 70
  1024
 72
     0
 73
     0
 74
     0
  7

 75
     0
147
1.0
148
0.0
149
0.0
100
AcDbLayout
  1
Model
 70
     0
 71
     0
 10
0.0
 20
0.0
 11
0.0
 21
0.0
 12
0.0
 22
0.0
 32
0.0
 14
0.0
 24
0.0
 34
0.0
 15
0.0
 25
0.0
 35
0.0
146
0.0
 13
0.0
 23
0.0
 33
0.0
 16
0.0
 26
0.0
 36
0.0
 17
0.0
 27
0.0
 37
0.0
 76
     0
330
A
331
0
345
0
346
0
  0
LAYOUT
  5
21
102
{ACAD_REACTORS
330
1E
102
}
100
AcDbPlotSettings
  1

  2

  4

  6

 40
0.0
 41
0.0
 42
0.0
 43
0.0
 44
0.0
 45
0.0
 46
0.0
 47
0.0
 48
0.0
 49
0.0
140
0.0
141
0.0
142
1.0
143
1.0
 70
     0
 72
     0
 73
     0
 74
     0
  7

 75
     0
147
1.0
148
0.0
149
0.0
100
AcDbLayout
  1
Layout1
 70
     0
 71
     0
 10
0.0
 20
0.0
 11
0.0
 21
0.0
 12
0.0
 22
0.0
 32
0.0
 14
0.0
 24
0.0
 34
0.0
 15
0.0
 25
0.0
 35
0.0
146
0.0
 13
0.0
 23
0.0
 33
0.0
 16
0.0
 26
0.0
 36
0.0
 17
0.0
 27
0.0
 37
0.0
 76
     0
330
B
331
0
345
0
346
0
  0
DICTIONARY
  5
1E
102
{ACAD_REACTORS
330
19
102
}
100
AcDbDictionary
280
     0
281
     1
  3
Layout1
350
21
  3
Model
350
20
  0
DICTIONARY
  5
22
102
{ACAD_REACTORS
330
19
102
}
100
AcDbDictionary
280
     0
281
     1
  0
WIPEOUTVARIABLES
  5
23
100
AcDbWipeoutVariables
 70
     1
  0
ENDSEC
  0
EOF
