  0
SECTION
  2
HEADER
  9
$ACADVER
  1
AC1015
  9
$ACADMAINTVER
 70
     6
  9
$DWGCODEPAGE
  3
DOS850
  9
$INSBASE
 10
0.0
 20
0.0
 30
0.0
  9
$EXTMIN
 10
-3.82509
 20
-7.10344
 30
1.000000E+20
  9
$EXTMAX
 10
3.83046
 20
7.09619
 30
-1.000000E+20
  9
$LIMMIN
 10
0.0
 20
0.0
  9
$LIMMAX
 10
0.0
 20
0.0
  9
$ORTHOMODE
 70
     0
  9
$REGENMODE
 70
     1
  9
$FILLMODE
 70
     1
  9
$QTEXTMODE
 70
     0
  9
$MIRRTEXT
 70
     1
  9
$LTSCALE
 40
1.0
  9
$ATTMODE
 70
     1
  9
$TEXTSIZE
 40
0.2
  9
$TRACEWID
 40
0.05
  9
$TEXTSTYLE
  7
Standard
  9
$CLAYER
  8
0
  9
$CELTYPE
  6
Continuous
  9
$CECOLOR
 62
   256
  9
$CELTSCALE
 40
1.0
  9
$DISPSILH
 70
     0
  9
$DIMSCALE
 40
1.0
  9
$DIMASZ
 40
0.18
  9
$DIMEXO
 40
0.0625
  9
$DIMDLI
 40
0.38
  9
$DIMRND
 40
0.0
  9
$DIMDLE
 40
0.0
  9
$DIMEXE
 40
0.18
  9
$DIMTP
 40
0.0
  9
$DIMTM
 40
0.0
  9
$DIMTXT
 40
0.18
  9
$DIMCEN
 40
0.09
  9
$DIMTSZ
 40
0.0
  9
$DIMTOL
 70
     0
  9
$DIMLIM
 70
     0
  9
$DIMTIH
 70
     1
  9
$DIMTOH
 70
     1
  9
$DIMSE1
 70
     0
  9
$DIMSE2
 70
     0
  9
$DIMTAD
 70
     0
  9
$DIMZIN
 70
     0
  9
$DIMBLK
  1

  9
$DIMASO
 70
     1
  9
$DIMSHO
 70
     1
  9
$DIMPOST
  1

  9
$DIMAPOST
  1

  9
$DIMALT
 70
     0
  9
$DIMALTD
 70
     2
  9
$DIMALTF
 40
25.4
  9
$DIMLFAC
 40
1.0
  9
$DIMTOFL
 70
     0
  9
$DIMTVP
 40
0.0
  9
$DIMTIX
 70
     0
  9
$DIMSOXD
 70
     0
  9
$DIMSAH
 70
     0
  9
$DIMBLK1
  1

  9
$DIMBLK2
  1

  9
$DIMSTYLE
  2
Standard
  9
$DIMCLRD
 70
     0
  9
$DIMCLRE
 70
     0
  9
$DIMCLRT
 70
     0
  9
$DIMTFAC
 40
1.0
  9
$DIMGAP
 40
0.09
  9
$DIMJUST
 70
     0
  9
$DIMSD1
 70
     0
  9
$DIMSD2
 70
     0
  9
$DIMTOLJ
 70
     1
  9
$DIMTZIN
 70
     0
  9
$DIMALTZ
 70
     0
  9
$DIMALTTZ
 70
     0
  9
$DIMUPT
 70
     0
  9
$DIMDEC
 70
     4
  9
$DIMTDEC
 70
     4
  9
$DIMALTU
 70
     2
  9
$DIMALTTD
 70
     2
  9
$DIMTXSTY
  7
Standard
  9
$DIMAUNIT
 70
     0
  9
$DIMADEC
 70
     0
  9
$DIMALTRND
 40
0.0
  9
$DIMAZIN
 70
     0
  9
$DIMDSEP
 70
     0
  9
$DIMATFIT
 70
     3
  9
$DIMFRAC
 70
     0
  9
$DIMLDRBLK
  1

  9
$DIMLUNIT
 70
     2
  9
$DIMLWD
 70
     0
  9
$DIMLWE
 70
     0
  9
$DIMTMOVE
 70
     0
  9
$LUNITS
 70
     2
  9
$LUPREC
 70
     4
  9
$SKETCHINC
 40
0.1
  9
$FILLETRAD
 40
0.0
  9
$AUNITS
 70
     0
  9
$AUPREC
 70
     0
  9
$MENU
  1
acad
  9
$ELEVATION
 40
0.0
  9
$PELEVATION
 40
0.0
  9
$THICKNESS
 40
0.0
  9
$LIMCHECK
 70
     0
  9
$CHAMFERA
 40
0.0
  9
$CHAMFERB
 40
0.0
  9
$CHAMFERC
 40
0.0
  9
$CHAMFERD
 40
0.0
  9
$SKPOLY
 70
     0
  9
$TDCREATE
 40
0.000000000
  9
$TDUCREATE
 40
0.000000000
  9
$TDUPDATE
 40
0.000000000
  9
$TDUUPDATE
 40
0.000000000
  9
$TDINDWG
 40
0.0000000000
  9
$TDUSRTIMER
 40
0.0000000000
  9
$USRTIMER
 70
     1
  9
$ANGBASE
 50
0.0
  9
$ANGDIR
 70
     0
  9
$PDMODE
 70
     0
  9
$PDSIZE
 40
0.0
  9
$PLINEWID
 40
0.0
  9
$SPLFRAME
 70
     0
  9
$SPLINETYPE
 70
     6
  9
$SPLINESEGS
 70
     8
  9
$HANDSEED
  5
45
  9
$SURFTAB1
 70
     6
  9
$SURFTAB2
 70
     6
  9
$SURFTYPE
 70
     6
  9
$SURFU
 70
     6
  9
$SURFV
 70
     6
  9
$UCSBASE
  2

  9
$UCSNAME
  2

  9
$UCSORG
 10
0.0
 20
0.0
 30
0.0
  9
$UCSXDIR
 10
1.0
 20
0.0
 30
0.0
  9
$UCSYDIR
 10
0.0
 20
1.0
 30
0.0
  9
$UCSORTHOREF
  2

  9
$UCSORTHOVIEW
 70
     0
  9
$UCSORGTOP
 10
0.0
 20
0.0
 30
0.0
  9
$UCSORGBOTTOM
 10
0.0
 20
0.0
 30
0.0
  9
$UCSORGLEFT
 10
0.0
 20
0.0
 30
0.0
  9
$UCSORGRIGHT
 10
0.0
 20
0.0
 30
0.0
  9
$UCSORGFRONT
 10
0.0
 20
0.0
 30
0.0
  9
$UCSORGBACK
 10
0.0
 20
0.0
 30
0.0
  9
$PUCSBASE
  2

  9
$PUCSNAME
  2

  9
$PUCSORG
 10
0.0
 20
0.0
 30
0.0
  9
$PUCSXDIR
 10
1.0
 20
0.0
 30
0.0
  9
$PUCSYDIR
 10
0.0
 20
1.0
 30
0.0
  9
$PUCSORTHOREF
  2

  9
$PUCSORTHOVIEW
 70
     0
  9
$PUCSORGTOP
 10
0.0
 20
0.0
 30
0.0
  9
$PUCSORGBOTTOM
 10
0.0
 20
0.0
 30
0.0
  9
$PUCSORGLEFT
 10
0.0
 20
0.0
 30
0.0
  9
$PUCSORGRIGHT
 10
0.0
 20
0.0
 30
0.0
  9
$PUCSORGFRONT
 10
0.0
 20
0.0
 30
0.0
  9
$PUCSORGBACK
 10
0.0
 20
0.0
 30
0.0
  9
$USERI1
 70
     0
  9
$USERI2
 70
     0
  9
$USERI3
 70
     0
  9
$USERI4
 70
     0
  9
$USERI5
 70
     0
  9
$USERR1
 40
0.0
  9
$USERR2
 40
0.0
  9
$USERR3
 40
0.0
  9
$USERR4
 40
0.0
  9
$USERR5
 40
0.0
  9
$WORLDVIEW
 70
     1
  9
$SHADEDGE
 70
     3
  9
$SHADEDIF
 70
    70
  9
$TILEMODE
 70
     1
  9
$MAXACTVP
 70
    16
  9
$PINSBASE
 10
0.0
 20
0.0
 30
0.0
  9
$PLIMCHECK
 70
     0
  9
$PEXTMIN
 10
1.000000E+20
 20
1.000000E+20
 30
1.000000E+20
  9
$PEXTMAX
 10
-1.000000E+20
 20
-1.000000E+20
 30
-1.000000E+20
  9
$PLIMMIN
 10
0.0
 20
0.0
  9
$PLIMMAX
 10
12.0
 20
9.0
  9
$UNITMODE
 70
     0
  9
$VISRETAIN
 70
     0
  9
$PLINEGEN
 70
     1
  9
$PSLTSCALE
 70
     0
  9
$TREEDEPTH
 70
  3020
  9
$CMLSTYLE
  2
Standard
  9
$CMLJUST
 70
     0
  9
$CMLSCALE
 40
1.0
  9
$PROXYGRAPHICS
 70
     0
  9
$MEASUREMENT
 70
     0
  9
$CELWEIGHT
370
     0
  9
$ENDCAPS
280
     0
  9
$JOINSTYLE
280
     0
  9
$LWDISPLAY
290
     0
  9
$INSUNITS
 70
     5
  9
$HYPERLINKBASE
  1

  9
$XEDIT
290
     1
  9
$CEPSNTYPE
380
     0
  9
$PSTYLEMODE
290
     1
  9
$FINGERPRINTGUID
  2

  9
$VERSIONGUID
  2

  9
$EXTNAMES
290
     1
  9
$PSVPSCALE
 40
0.0
  0
ENDSEC
  0
SECTION
  2
CLASSES
  0
CLASS
  1
LWPOLYLINE
  2
AcDbPolyline
  3
AutoCAD 2000
 90
    32768
280
     0
281
     1
  0
CLASS
  1
IMAGE
  2
AcDbRasterImage
  3
ISM
 90
    32895
280
     0
281
     1
  0
CLASS
  1
OLE2FRAME
  2
AcDbOle2Frame
  3
AutoCAD 2000
 90
    32768
280
     0
281
     1
  0
CLASS
  1
HATCH
  2
AcDbHatch
  3
AutoCAD 2000
 90
    32768
280
     0
281
     1
  0
CLASS
  1
DICTIONARYVAR
  2
AcDbDictionaryVar
  3
AutoCAD 2000
 90
    32768
280
     0
281
     0
  0
CLASS
  1
RASTERVARIABLES
  2
AcDbRasterVariables
  3
ISM
 90
    32768
280
     0
281
     0
  0
CLASS
  1
IMAGEDEF
  2
AcDbRasterImageDef
  3
ISM
 90
    32768
280
     0
281
     0
  0
CLASS
  1
IMAGEDEF_REACTOR
  2
AcDbRasterImageDefReactor
  3
ISM
 90
    32769
280
     0
281
     0
  0
CLASS
  1
IDBUFFER
  2
AcDbIdBuffer
  3
AutoCAD 2000
 90
    32768
280
     0
281
     0
  0
CLASS
  1
SPATIAL_FILTER
  2
AcDbSpatialFilter
  3
AutoCAD 2000
 90
    32768
280
     0
281
     0
  0
CLASS
  1
XRECORD
  2
AcDbXrecord
  3
AutoCAD 2000
 90
    32768
280
     0
281
     0
  0
CLASS
  1
SORTENTSTABLE
  2
AcDbSortentsTable
  3
AutoCAD 2000
 90
    32768
280
     0
281
     0
  0
CLASS
  1
LAYER_INDEX
  2
AcDbLayerIndex
  3
AutoCAD 2000
 90
    32768
280
     0
281
     0
  0
CLASS
  1
SPATIAL_INDEX
  2
AcDbSpatialIndex
  3
AutoCAD 2000
 90
    32768
280
     0
281
     0
  0
CLASS
  1
OBJECT_PTR
  2
CAseDLPNTableRecord
  3
"ASE-LPNTableRecord"
 90
    32769
280
     0
281
     0
  0
CLASS
  1
LAYOUT
  2
AcDbLayout
  3
AutoCAD 2000
 90
        0
280
     0
281
     0
  0
CLASS
  1
PLOTSETTINGS
  2
AcDbPlotSettings
  3
AutoCAD 2000
 90
    32768
280
     0
281
     0
  0
CLASS
  1
ACDBDICTIONARYWDFLT
  2
AcDbDictionaryWithDefault
  3
AutoCAD 2000
 90
        0
280
     0
281
     0
  0
CLASS
  1
ACDBPLACEHOLDER
  2
AcDbPlaceHolder
  3
AutoCAD 2000
 90
        0
280
     0
281
     0
  0
CLASS
  1
VBA_PROJECT
  2
AcDbVbaProject
  3
acadvba
 90
    32768
280
     0
281
     0
  0
CLASS
  1
WIPEOUT
  2
AcDbWipeout
  3
WipeOut|AutoCAD Express Tool|expresstools@autodesk.com
 90
    32895
280
     0
281
     1
  0
CLASS
  1
WIPEOUTVARIABLES
  2
AcDbWipeoutVariables
  3
WipeOut|AutoCAD Express Tool|expresstools@autodesk.com
 90
        0
280
     0
281
     0
  0
CLASS
  1
RTEXT
  2
RText
  3
RText|AutoCAD Express Tool|expresstools@autodesk.com
 90
    32768
280
     0
281
     1
  0
CLASS
  1
ARCALIGNEDTEXT
  2
AcDbArcAlignedText
  3
ATEXT|AutoCAD Express Tool|expresstools@autodesk.com
 90
    32768
280
     0
281
     1
  0
ENDSEC
  0
SECTION
  2
TABLES
  0
TABLE
  2
VPORT
  5
7
100
AcDbSymbolTable
 70
     1
  0
VPORT
  5
15
100
AcDbSymbolTableRecord
100
AcDbViewportTableRecord
  2
*ACTIVE
 70
     0
 10
0.0
 20
0.0
 11
1.0
 21
1.0
 12
6.591288
 22
4.579184
 13
0.0
 23
0.0
 14
1.0
 24
1.0
 15
0.0
 25
0.0
 16
0.0
 26
0.0
 36
1.0
 17
0.0
 27
0.0
 37
0.0
 40
9.158369
 41
0.688564
 42
50.0
 43
0.0
 44
0.0
 50
0.0
 51
0.0
 71
     0
 72
   100
 73
     1
 74
     1
 75
     0
 76
     0
 77
     0
 78
     0
281
     0
 65
     0
110
0.0
120
0.0
130
0.0
111
1.0
121
0.0
131
0.0
112
0.0
122
1.0
132
0.0
345
0
346
0
 79
     0
146
0.0
  0
ENDTAB
  0
TABLE
  2
LTYPE
  5
4
100
AcDbSymbolTable
 70
     3
  0
LTYPE
  5
11
100
AcDbSymbolTableRecord
100
AcDbLinetypeTableRecord
  2
ByBlock
 70
    64
  3

 72
    65
 73
     0
 40
0.0
  0
LTYPE
  5
12
100
AcDbSymbolTableRecord
100
AcDbLinetypeTableRecord
  2
ByLayer
 70
    64
  3

 72
    65
 73
     0
 40
0.0
  0
LTYPE
  5
13
100
AcDbSymbolTableRecord
100
AcDbLinetypeTableRecord
  2
Continuous
 70
    64
  3
Solid line
 72
    65
 73
     0
 40
0.0
  0
ENDTAB
  0
TABLE
  2
LAYER
  5
2
100
AcDbSymbolTable
 70
     2
  0
LAYER
  5
14
100
AcDbSymbolTableRecord
100
AcDbLayerTableRecord
  2
0
 70
     0
 62
     7
  6
Continuous
290
     1
370
    -3
390
1D
  0
LAYER
  5
24
100
AcDbSymbolTableRecord
100
AcDbLayerTableRecord
  2
Ebene 1
 70
     0
 62
     7
  6
Continuous
290
     1
370
    -3
390
1F
  0
ENDTAB
  0
TABLE
  2
STYLE
  5
3
100
AcDbSymbolTable
 70
     1
  0
STYLE
  5
17
100
AcDbSymbolTableRecord
100
AcDbTextStyleTableRecord
  2
Standard
 70
     0
 40
0.0
 41
1.0
 50
0.0
 71
     0
 42
0.0
  3
txt
  4

  0
ENDTAB
  0
TABLE
  2
VIEW
  5
5
100
AcDbSymbolTable
 70
     0
  0
ENDTAB
  0
TABLE
  2
UCS
  5
6
100
AcDbSymbolTable
 70
     0
  0
ENDTAB
  0
TABLE
  2
APPID
  5
8
100
AcDbSymbolTable
 70
     1
  0
APPID
  5
16
100
AcDbSymbolTableRecord
100
AcDbRegAppTableRecord
  2
ACAD
 70
     0
  0
ENDTAB
  0
TABLE
  2
DIMSTYLE
  5
9
100
AcDbSymbolTable
 70
     1
100
AcDbDimStyleTable
 71
     0
  0
DIMSTYLE
105
18
100
AcDbSymbolTableRecord
100
AcDbDimStyleTableRecord
  2
Standard
 70
     0
  3

  4

 40
1.0
 41
0.18
 42
0.0625
 43
0.38
 44
0.18
 45
0.0
 46
0.0
 47
0.0
 48
0.0
 71
     0
 72
     0
 73
     1
 74
     1
 75
     0
 76
     0
 77
     0
 78
     0
 79
     0
140
0.18
141
0.09
142
0.0
143
25.4
144
1.0
145
0.0
146
1.0
147
0.09
148
0.0
170
     0
171
     2
172
     0
173
     0
174
     0
175
     0
176
     0
177
     0
178
     0
179
     0
271
     4
272
     4
273
     2
274
     2
275
     0
276
     0
277
     2
278
    46
279
     0
280
     0
281
     0
282
     0
283
     1
284
     0
285
     0
286
     0
288
     0
340
17
341
0
342
0
343
0
344
0
371
    -2
372
    -2
  0
ENDTAB
  0
TABLE
  2
BLOCK_RECORD
  5
1
100
AcDbSymbolTable
 70
     0
  0
BLOCK_RECORD
  5
A
100
AcDbSymbolTableRecord
100
AcDbBlockTableRecord
  2
*MODEL_SPACE
340
20
  0
BLOCK_RECORD
  5
B
100
AcDbSymbolTableRecord
100
AcDbBlockTableRecord
  2
*PAPER_SPACE
340
21
  0
ENDTAB
  0
ENDSEC
  0
SECTION
  2
BLOCKS
  0
BLOCK
  5
D
100
AcDbEntity
  8
0
100
AcDbBlockBegin
  2
*MODEL_SPACE
 70
     0
 10
0.0
 20
0.0
 30
0.0
  3
*MODEL_SPACE
  1

  0
ENDBLK
  5
E
100
AcDbEntity
  8
0
100
AcDbBlockEnd
  0
BLOCK
  5
F
100
AcDbEntity
 67
     1
  8
0
100
AcDbBlockBegin
  2
*PAPER_SPACE
 70
     0
 10
0.0
 20
0.0
 30
0.0
  3
*PAPER_SPACE
  1

  0
ENDBLK
  5
10
100
AcDbEntity
 67
     1
  8
0
100
AcDbBlockEnd
  0
ENDSEC
  0
SECTION
  2
ENTITIES
  0
SPLINE
  5
25
100
AcDbEntity
  8
Ebene 1
100
AcDbSpline
210
0.0
220
0.0
230
1.0
 70
     1
 71
     3
 72
   136
 73
   132
 74
     0
 42
0.0000000001
 43
0.0000000001
 40
0.0
 40
0.0
 40
0.0
 40
0.0
 40
0.0303030303030303
 40
0.0303030303030303
 40
0.0303030303030303
 40
0.0303030303030303
 40
0.0606060606060606
 40
0.0606060606060606
 40
0.0606060606060606
 40
0.0606060606060606
 40
0.0909090909090909
 40
0.0909090909090909
 40
0.0909090909090909
 40
0.0909090909090909
 40
0.1212121212121212
 40
0.1212121212121212
 40
0.1212121212121212
 40
0.1212121212121212
 40
0.1515151515151515
 40
0.1515151515151515
 40
0.1515151515151515
 40
0.1515151515151515
 40
0.1818181818181818
 40
0.1818181818181818
 40
0.1818181818181818
 40
0.1818181818181818
 40
0.2121212121212121
 40
0.2121212121212121
 40
0.2121212121212121
 40
0.2121212121212121
 40
0.2424242424242424
 40
0.2424242424242424
 40
0.2424242424242424
 40
0.2424242424242424
 40
0.2727272727272727
 40
0.2727272727272727
 40
0.2727272727272727
 40
0.2727272727272727
 40
0.303030303030303
 40
0.303030303030303
 40
0.303030303030303
 40
0.303030303030303
 40
0.3333333333333333
 40
0.3333333333333333
 40
0.3333333333333333
 40
0.3333333333333333
 40
0.3636363636363635
 40
0.3636363636363635
 40
0.3636363636363635
 40
0.3636363636363635
 40
0.3939393939393938
 40
0.3939393939393938
 40
0.3939393939393938
 40
0.3939393939393938
 40
0.4242424242424241
 40
0.4242424242424241
 40
0.4242424242424241
 40
0.4242424242424241
 40
0.4545454545454544
 40
0.4545454545454544
 40
0.4545454545454544
 40
0.4545454545454544
 40
0.4848484848484846
 40
0.4848484848484846
 40
0.4848484848484846
 40
0.4848484848484846
 40
0.5151515151515149
 40
0.5151515151515149
 40
0.5151515151515149
 40
0.5151515151515149
 40
0.5454545454545452
 40
0.5454545454545452
 40
0.5454545454545452
 40
0.5454545454545452
 40
0.5757575757575755
 40
0.5757575757575755
 40
0.5757575757575755
 40
0.5757575757575755
 40
0.6060606060606057
 40
0.6060606060606057
 40
0.6060606060606057
 40
0.6060606060606057
 40
0.636363636363636
 40
0.636363636363636
 40
0.636363636363636
 40
0.636363636363636
 40
0.6666666666666663
 40
0.6666666666666663
 40
0.6666666666666663
 40
0.6666666666666663
 40
0.6969696969696966
 40
0.6969696969696966
 40
0.6969696969696966
 40
0.6969696969696966
 40
0.7272727272727269
 40
0.7272727272727269
 40
0.7272727272727269
 40
0.7272727272727269
 40
0.7575757575757571
 40
0.7575757575757571
 40
0.7575757575757571
 40
0.7575757575757571
 40
0.7878787878787874
 40
0.7878787878787874
 40
0.7878787878787874
 40
0.7878787878787874
 40
0.8181818181818177
 40
0.8181818181818177
 40
0.8181818181818177
 40
0.8181818181818177
 40
0.848484848484848
 40
0.848484848484848
 40
0.848484848484848
 40
0.848484848484848
 40
0.8787878787878782
 40
0.8787878787878782
 40
0.8787878787878782
 40
0.8787878787878782
 40
0.9090909090909085
 40
0.9090909090909085
 40
0.9090909090909085
 40
0.9090909090909085
 40
0.9393939393939388
 40
0.9393939393939388
 40
0.9393939393939388
 40
0.9393939393939388
 40
0.9696969696969691
 40
0.9696969696969691
 40
0.9696969696969691
 40
0.9696969696969691
 40
1.0
 40
1.0
 40
1.0
 40
1.0
 10
2.2429600000000001
 20
7.0961900000000009
 30
0.0
 10
2.4944200000000003
 20
6.0928900000000006
 30
0.0
 10
1.6003400000000001
 20
5.1911900000000006
 30
0.0
 10
1.4555600000000002
 20
4.2336100000000005
 30
0.0
 10
1.4555600000000002
 20
4.2336100000000005
 30
0.0
 10
1.5952600000000001
 20
4.0253300000000003
 30
0.0
 10
1.8035400000000001
 20
3.9516700000000005
 30
0.0
 10
2.0346800000000003
 20
3.9211900000000002
 30
0.0
 10
2.0346800000000003
 20
3.9211900000000002
 30
0.0
 10
2.4436200000000001
 20
4.5892100000000005
 30
0.0
 10
3.2335600000000002
 20
4.96767
 30
0.0
 10
3.8304600000000004
 20
5.4020100000000006
 30
0.0
 10
3.8304600000000004
 20
5.4020100000000006
 30
0.0
 10
3.6933000000000002
 20
4.6349300000000007
 30
0.0
 10
2.8957400000000004
 20
4.2082100000000002
 30
0.0
 10
2.6976200000000001
 20
3.4741500000000003
 30
0.0
 10
2.6976200000000001
 20
3.4741500000000003
 30
0.0
 10
2.8627200000000004
 20
2.9559900000000003
 30
0.0
 10
3.4774000000000003
 20
3.7814900000000002
 30
0.0
 10
3.8152200000000005
 20
3.9084900000000005
 30
0.0
 10
3.8152200000000005
 20
3.9084900000000005
 30
0.0
 10
3.6653600000000002
 20
3.3039700000000001
 30
0.0
 10
3.2259400000000005
 20
2.7807300000000001
 30
0.0
 10
3.0125800000000003
 20
2.1889100000000004
 30
0.0
 10
3.0125800000000003
 20
2.1889100000000004
 30
0.0
 10
3.1141800000000002
 20
1.9425300000000001
 30
0.0
 10
3.5205800000000003
 20
1.9653900000000002
 30
0.0
 10
3.5637600000000003
 20
1.6605900000000002
 30
0.0
 10
3.5637600000000003
 20
1.6605900000000002
 30
0.0
 10
3.5104200000000003
 20
1.3913500000000001
 30
0.0
 10
3.3173800000000004
 20
1.19323
 30
0.0
 10
3.0938600000000003
 20
1.0357500000000002
 30
0.0
 10
3.0938600000000003
 20
1.0357500000000002
 30
0.0
 10
3.3275400000000004
 20
-0.09962
 30
0.0
 10
2.2175600000000002
 20
-1.11816
 30
0.0
 10
2.7306400000000002
 20
-2.2891000000000004
 30
0.0
 10
2.7306400000000002
 20
-2.2891000000000004
 30
0.0
 10
1.7730600000000001
 20
-3.3609800000000001
 30
0.0
 10
1.0364600000000002
 20
-4.6005000000000003
 30
0.0
 10
0.8942200000000001
 20
-6.1041800000000004
 30
0.0
 10
0.8942200000000001
 20
-6.1041800000000004
 30
0.0
 10
0.44718
 20
-6.4394600000000004
 30
0.0
 10
0.01792
 20
-6.8738000000000001
 30
0.0
 10
-0.49515
 20
-7.094780000000001
 30
0.0
 10
-0.49515
 20
-7.094780000000001
 30
0.0
 10
-0.5637300000000001
 20
-7.1049400000000009
 30
0.0
 10
-0.6653300000000001
 20
-7.1151000000000009
 30
0.0
 10
-0.7110500000000001
 20
-7.0693800000000007
 30
0.0
 10
-0.7110500000000001
 20
-7.0693800000000007
 30
0.0
 10
-0.24623
 20
-6.7391800000000002
 30
0.0
 10
-0.29195
 20
-6.4928000000000008
 30
0.0
 10
-0.6729500000000001
 20
-6.4699400000000002
 30
0.0
 10
-0.6729500000000001
 20
-6.4699400000000002
 30
0.0
 10
-0.7796300000000001
 20
-6.462320000000001
 30
0.0
 10
-0.9142500000000001
 20
-6.5563000000000002
 30
0.0
 10
-1.08443
 20
-6.4902600000000001
 30
0.0
 10
-1.08443
 20
-6.4902600000000001
 30
0.0
 10
-0.59421
 20
-6.3124600000000006
 30
0.0
 10
-0.10145
 20
-5.4666400000000008
 30
0.0
 10
-0.6069100000000001
 20
-5.4920400000000003
 30
0.0
 10
-0.6069100000000001
 20
-5.4920400000000003
 30
0.0
 10
-0.69581
 20
-5.4971200000000007
 30
0.0
 10
-0.8355100000000001
 20
-5.4564800000000009
 30
0.0
 10
-0.8837700000000001
 20
-5.4412400000000005
 30
0.0
 10
-0.8837700000000001
 20
-5.4412400000000005
 30
0.0
 10
-0.4367300000000001
 20
-5.3472600000000003
 30
0.0
 10
-0.40371
 20
-4.5928800000000001
 30
0.0
 10
-0.76439
 20
-4.48874
 30
0.0
 10
-0.76439
 20
-4.48874
 30
0.0
 10
-0.3427500000000001
 20
-3.9401000000000002
 30
0.0
 10
-0.9269500000000001
 20
-3.7292800000000002
 30
0.0
 10
-0.67549
 20
-3.1298400000000002
 30
0.0
 10
-0.67549
 20
-3.1298400000000002
 30
0.0
 10
-1.2368300000000001
 20
-3.3559000000000001
 30
0.0
 10
-0.6856500000000001
 20
-3.9350200000000002
 30
0.0
 10
-0.8736100000000001
 20
-4.3719000000000001
 30
0.0
 10
-0.8736100000000001
 20
-4.3719000000000001
 30
0.0
 10
-1.4273300000000002
 20
-3.3686000000000003
 30
0.0
 10
-2.0724900000000002
 20
-4.4836600000000004
 30
0.0
 10
-2.0445500000000001
 20
-5.2075600000000009
 30
0.0
 10
-2.0445500000000001
 20
-5.2075600000000009
 30
0.0
 10
-2.2071100000000001
 20
-5.1389800000000001
 30
0.0
 10
-2.10805
 20
-4.7910000000000004
 30
0.0
 10
-2.3468100000000001
 20
-4.7351200000000002
 30
0.0
 10
-2.3468100000000001
 20
-4.7351200000000002
 30
0.0
 10
-2.9691100000000001
 20
-4.3236400000000001
 30
0.0
 10
-2.9208500000000002
 20
-5.3675800000000002
 30
0.0
 10
-3.0224500000000001
 20
-5.7536600000000009
 30
0.0
 10
-3.0224500000000001
 20
-5.7536600000000009
 30
0.0
 10
-3.1799300000000001
 20
-5.6876200000000008
 30
0.0
 10
-3.1342100000000004
 20
-5.3193200000000003
 30
0.0
 10
-3.2586700000000004
 20
-5.1516800000000007
 30
0.0
 10
-3.2586700000000004
 20
-5.1516800000000007
 30
0.0
 10
-3.5025100000000005
 20
-5.3650400000000005
 30
0.0
 10
-3.4263100000000004
 20
-5.7638200000000008
 30
0.0
 10
-3.4974300000000005
 20
-6.0432200000000007
 30
0.0
 10
-3.4974300000000005
 20
-6.0432200000000007
 30
0.0
 10
-3.7234900000000004
 20
-5.8857400000000002
 30
0.0
 10
-3.5380700000000003
 20
-4.8849800000000005
 30
0.0
 10
-3.7311100000000001
 20
-5.2888400000000004
 30
0.0
 10
-3.7311100000000001
 20
-5.2888400000000004
 30
0.0
 10
-3.7869900000000003
 20
-5.3294800000000002
 30
0.0
 10
-3.7336500000000004
 20
-5.5453800000000006
 30
0.0
 10
-3.8250900000000003
 20
-5.4768000000000008
 30
0.0
 10
-3.8250900000000003
 20
-5.4768000000000008
 30
0.0
 10
-3.6726900000000002
 20
-4.6259000000000006
 30
0.0
 10
-3.5914100000000002
 20
-3.7800800000000003
 30
0.0
 10
-3.6853900000000004
 20
-2.9266400000000004
 30
0.0
 10
-3.6853900000000004
 20
-2.9266400000000004
 30
0.0
 10
-3.1443700000000003
 20
-1.7099800000000001
 30
0.0
 10
-3.1494500000000003
 20
-0.3968
 30
0.0
 10
-2.5601700000000003
 20
0.8350900000000001
 30
0.0
 10
-2.5601700000000003
 20
0.8350900000000001
 30
0.0
 10
-2.5373100000000002
 20
1.06623
 30
0.0
 10
-2.9157700000000002
 20
1.1170300000000002
 30
0.0
 10
-2.8243300000000002
 20
1.3761100000000002
 30
0.0
 10
-2.8243300000000002
 20
1.3761100000000002
 30
0.0
 10
-1.8870700000000002
 20
1.9628500000000002
 30
0.0
 10
-2.2172700000000001
 20
3.3420700000000001
 30
0.0
 10
-1.3460500000000002
 20
4.0812100000000004
 30
0.0
 10
-1.3460500000000002
 20
4.0812100000000004
 30
0.0
 10
-0.84821
 20
4.3301300000000005
 30
0.0
 10
-0.14463
 20
3.6265500000000004
 30
0.0
 10
0.00522
 20
4.5358700000000001
 30
0.0
 10
0.00522
 20
4.5358700000000001
 30
0.0
 10
0.21604
 20
4.3555300000000008
 30
0.0
 10
0.13984
 20
4.0532700000000004
 30
0.0
 10
0.4675
 20
4.4012500000000001
 30
0.0
 10
0.4675
 20
4.4012500000000001
 30
0.0
 10
0.7342000000000001
 20
5.4858300000000009
 30
0.0
 10
1.8543400000000001
 20
6.0751100000000005
 30
0.0
 10
2.2429600000000001
 20
7.0961900000000009
 30
0.0
  0
SPLINE
  5
26
100
AcDbEntity
  8
Ebene 1
100
AcDbSpline
210
0.0
220
0.0
230
1.0
 70
     1
 71
     3
 72
    52
 73
    48
 74
     0
 42
0.0000000001
 43
0.0000000001
 40
0.0
 40
0.0
 40
0.0
 40
0.0
 40
0.0833333333333333
 40
0.0833333333333333
 40
0.0833333333333333
 40
0.0833333333333333
 40
0.1666666666666667
 40
0.1666666666666667
 40
0.1666666666666667
 40
0.1666666666666667
 40
0.25
 40
0.25
 40
0.25
 40
0.25
 40
0.3333333333333333
 40
0.3333333333333333
 40
0.3333333333333333
 40
0.3333333333333333
 40
0.4166666666666666
 40
0.4166666666666666
 40
0.4166666666666666
 40
0.4166666666666666
 40
0.4999999999999999
 40
0.4999999999999999
 40
0.4999999999999999
 40
0.4999999999999999
 40
0.5833333333333333
 40
0.5833333333333333
 40
0.5833333333333333
 40
0.5833333333333333
 40
0.6666666666666666
 40
0.6666666666666666
 40
0.6666666666666666
 40
0.6666666666666666
 40
0.75
 40
0.75
 40
0.75
 40
0.75
 40
0.8333333333333334
 40
0.8333333333333334
 40
0.8333333333333334
 40
0.8333333333333334
 40
0.9166666666666667
 40
0.9166666666666667
 40
0.9166666666666667
 40
0.9166666666666667
 40
1.0
 40
1.0
 40
1.0
 40
1.0
 10
1.3819000000000001
 20
-0.5796800000000001
 30
0.0
 10
0.9501000000000001
 20
-0.7981200000000001
 30
0.0
 10
1.6079600000000001
 20
-1.0292600000000001
 30
0.0
 10
1.4936600000000002
 20
-1.3645400000000001
 30
0.0
 10
1.4936600000000002
 20
-1.3645400000000001
 30
0.0
 10
1.2955400000000001
 20
-1.0902200000000002
 30
0.0
 10
0.8612000000000001
 20
-0.95052
 30
0.0
 10
0.7545200000000001
 20
-1.3696200000000001
 30
0.0
 10
0.7545200000000001
 20
-1.3696200000000001
 30
0.0
 10
0.912
 20
-1.5804400000000001
 30
0.0
 10
1.09996
 20
-1.8090400000000002
 30
0.0
 10
1.0644
 20
-2.0833600000000003
 30
0.0
 10
1.0644
 20
-2.0833600000000003
 30
0.0
 10
0.91454
 20
-2.0706600000000002
 30
0.0
 10
0.8154800000000001
 20
-1.8065000000000002
 30
0.0
 10
0.6326000000000001
 20
-1.7938000000000001
 30
0.0
 10
0.6326000000000001
 20
-1.7938000000000001
 30
0.0
 10
0.6503800000000001
 20
-2.90124
 30
0.0
 10
-0.06589
 20
-4.0010600000000007
 30
0.0
 10
0.3913
 20
-5.0856400000000006
 30
0.0
 10
0.3913
 20
-5.0856400000000006
 30
0.0
 10
0.5691000000000001
 20
-4.8900600000000001
 30
0.0
 10
0.55132
 20
-4.5243000000000002
 30
0.0
 10
0.6707000000000001
 20
-4.2652200000000002
 30
0.0
 10
0.6707000000000001
 20
-4.2652200000000002
 30
0.0
 10
0.5614800000000001
 20
-4.0721800000000004
 30
0.0
 10
0.5056000000000001
 20
-3.8562800000000004
 30
0.0
 10
0.55386
 20
-3.6276800000000002
 30
0.0
 10
0.55386
 20
-3.6276800000000002
 30
0.0
 10
0.658
 20
-3.5972000000000004
 30
0.0
 10
0.70118
 20
-3.7851600000000003
 30
0.0
 10
0.7951600000000001
 20
-3.8283400000000003
 30
0.0
 10
0.7951600000000001
 20
-3.8283400000000003
 30
0.0
 10
1.06694
 20
-3.5565600000000002
 30
0.0
 10
0.6834
 20
-3.1603200000000005
 30
0.0
 10
0.7799200000000001
 20
-2.8225000000000002
 30
0.0
 10
0.7799200000000001
 20
-2.8225000000000002
 30
0.0
 10
0.9094600000000001
 20
-2.85806
 30
0.0
 10
0.9856600000000001
 20
-3.0333200000000002
 30
0.0
 10
1.1533
 20
-3.0333200000000002
 30
0.0
 10
1.1533
 20
-3.0333200000000002
 30
0.0
 10
1.3768200000000002
 20
-2.7590000000000003
 30
0.0
 10
1.0847200000000001
 20
-2.4237200000000003
 30
0.0
 10
1.19394
 20
-2.1036800000000002
 30
0.0
 10
1.19394
 20
-2.1036800000000002
 30
0.0
 10
2.1693000000000002
 20
-2.3526000000000002
 30
0.0
 10
1.6282800000000002
 20
-0.9987800000000001
 30
0.0
 10
1.3819000000000001
 20
-0.5796800000000001
 30
0.0
  0
SPLINE
  5
27
100
AcDbEntity
  8
Ebene 1
 62
     7
100
AcDbSpline
210
0.0
220
0.0
230
1.0
 70
     1
 71
     3
 72
    40
 73
    36
 74
     0
 42
0.0000000001
 43
0.0000000001
 40
0.0
 40
0.0
 40
0.0
 40
0.0
 40
0.1111111111111111
 40
0.1111111111111111
 40
0.1111111111111111
 40
0.1111111111111111
 40
0.2222222222222222
 40
0.2222222222222222
 40
0.2222222222222222
 40
0.2222222222222222
 40
0.3333333333333333
 40
0.3333333333333333
 40
0.3333333333333333
 40
0.3333333333333333
 40
0.4444444444444444
 40
0.4444444444444444
 40
0.4444444444444444
 40
0.4444444444444444
 40
0.5555555555555556
 40
0.5555555555555556
 40
0.5555555555555556
 40
0.5555555555555556
 40
0.6666666666666667
 40
0.6666666666666667
 40
0.6666666666666667
 40
0.6666666666666667
 40
0.7777777777777779
 40
0.7777777777777779
 40
0.7777777777777779
 40
0.7777777777777779
 40
0.8888888888888891
 40
0.8888888888888891
 40
0.8888888888888891
 40
0.8888888888888891
 40
1.0
 40
1.0
 40
1.0
 40
1.0
 10
2.0804
 20
6.5145300000000006
 30
0.0
 10
2.0626200000000003
 20
5.6356900000000003
 30
0.0
 10
1.5190600000000001
 20
4.8254300000000008
 30
0.0
 10
1.0517000000000001
 20
4.1040700000000001
 30
0.0
 10
1.0517000000000001
 20
4.1040700000000001
 30
0.0
 10
0.88914
 20
4.0227900000000005
 30
0.0
 10
0.7291200000000001
 20
4.0126300000000006
 30
0.0
 10
0.5894200000000001
 20
4.1142300000000001
 30
0.0
 10
0.5894200000000001
 20
4.1142300000000001
 30
0.0
 10
0.5462400000000001
 20
4.49777
 30
0.0
 10
0.88914
 20
4.7746300000000002
 30
0.0
 10
1.0313800000000002
 20
5.0895900000000003
 30
0.0
 10
1.0313800000000002
 20
5.0895900000000003
 30
0.0
 10
0.9856600000000001
 20
5.1149900000000006
 30
0.0
 10
0.9602600000000001
 20
5.0514900000000003
 30
0.0
 10
0.9399400000000001
 20
5.0260900000000008
 30
0.0
 10
0.9399400000000001
 20
5.0260900000000008
 30
0.0
 10
0.9399400000000001
 20
5.0260900000000008
 30
0.0
 10
0.76722
 20
4.8305100000000003
 30
0.0
 10
0.76722
 20
4.8305100000000003
 30
0.0
 10
0.76722
 20
4.8305100000000003
 30
0.0
 10
0.88914
 20
5.1226100000000008
 30
0.0
 10
1.0872600000000001
 20
5.3740700000000006
 30
0.0
 10
1.3361800000000001
 20
5.5950500000000005
 30
0.0
 10
1.3361800000000001
 20
5.5950500000000005
 30
0.0
 10
1.4987400000000002
 20
5.8134900000000007
 30
0.0
 10
1.44286
 20
5.5239300000000009
 30
0.0
 10
1.36158
 20
5.4147100000000004
 30
0.0
 10
1.36158
 20
5.4147100000000004
 30
0.0
 10
1.36158
 20
5.4147100000000004
 30
0.0
 10
1.2015600000000002
 20
4.9727500000000004
 30
0.0
 10
1.2015600000000002
 20
4.9727500000000004
 30
0.0
 10
1.2015600000000002
 20
4.9727500000000004
 30
0.0
 10
1.4987400000000002
 20
5.4451900000000002
 30
0.0
 10
1.6384400000000001
 20
6.0954300000000003
 30
0.0
 10
2.0804
 20
6.5145300000000006
 30
0.0
  0
SPLINE
  5
28
100
AcDbEntity
  8
Ebene 1
 62
     7
100
AcDbSpline
210
0.0
220
0.0
230
1.0
 70
     1
 71
     3
 72
    28
 73
    24
 74
     0
 42
0.0000000001
 43
0.0000000001
 40
0.0
 40
0.0
 40
0.0
 40
0.0
 40
0.1666666666666667
 40
0.1666666666666667
 40
0.1666666666666667
 40
0.1666666666666667
 40
0.3333333333333333
 40
0.3333333333333333
 40
0.3333333333333333
 40
0.3333333333333333
 40
0.5
 40
0.5
 40
0.5
 40
0.5
 40
0.6666666666666666
 40
0.6666666666666666
 40
0.6666666666666666
 40
0.6666666666666666
 40
0.8333333333333333
 40
0.8333333333333333
 40
0.8333333333333333
 40
0.8333333333333333
 40
1.0
 40
1.0
 40
1.0
 40
1.0
 10
3.5332800000000004
 20
5.0591100000000004
 30
0.0
 10
3.4418400000000005
 20
4.63239
 30
0.0
 10
2.9414600000000002
 20
4.29711
 30
0.0
 10
2.6874600000000002
 20
3.9008700000000003
 30
0.0
 10
2.6874600000000002
 20
3.9008700000000003
 30
0.0
 10
2.63158
 20
3.8551500000000005
 30
0.0
 10
2.5757000000000003
 20
3.8221300000000005
 30
0.0
 10
2.50712
 20
3.8018100000000001
 30
0.0
 10
2.50712
 20
3.8018100000000001
 30
0.0
 10
2.4080600000000003
 20
3.8170500000000005
 30
0.0
 10
2.3140800000000001
 20
3.8627700000000003
 30
0.0
 10
2.2353400000000003
 20
3.9110300000000002
 30
0.0
 10
2.2353400000000003
 20
3.9110300000000002
 30
0.0
 10
2.4436200000000001
 20
4.2056700000000005
 30
0.0
 10
2.6341200000000002
 20
4.50793
 30
0.0
 10
2.9795600000000002
 20
4.6933500000000006
 30
0.0
 10
2.9795600000000002
 20
4.6933500000000006
 30
0.0
 10
2.9592400000000003
 20
4.55619
 30
0.0
 10
2.7687400000000002
 20
4.3885500000000004
 30
0.0
 10
2.8220800000000001
 20
4.2793300000000007
 30
0.0
 10
2.8220800000000001
 20
4.2793300000000007
 30
0.0
 10
3.0735400000000004
 20
4.5333300000000003
 30
0.0
 10
3.2056200000000001
 20
4.8762300000000005
 30
0.0
 10
3.5332800000000004
 20
5.0591100000000004
 30
0.0
  0
SPLINE
  5
29
100
AcDbEntity
  8
Ebene 1
 62
     7
100
AcDbSpline
210
0.0
220
0.0
230
1.0
 70
     1
 71
     3
 72
    20
 73
    16
 74
     0
 42
0.0000000001
 43
0.0000000001
 40
0.0
 40
0.0
 40
0.0
 40
0.0
 40
0.25
 40
0.25
 40
0.25
 40
0.25
 40
0.5
 40
0.5
 40
0.5
 40
0.5
 40
0.75
 40
0.75
 40
0.75
 40
0.75
 40
1.0
 40
1.0
 40
1.0
 40
1.0
 10
0.00776
 20
4.3377500000000007
 30
0.0
 10
0.16524
 20
4.1091500000000005
 30
0.0
 10
0.2389
 20
3.4614500000000001
 30
0.0
 10
-0.17257
 20
3.4436700000000005
 30
0.0
 10
-0.17257
 20
3.4436700000000005
 30
0.0
 10
-0.19289
 20
3.6748100000000004
 30
0.0
 10
-0.01001
 20
3.9135700000000004
 30
0.0
 10
-0.03287
 20
4.1421700000000001
 30
0.0
 10
-0.03287
 20
4.1421700000000001
 30
0.0
 10
-0.18019
 20
3.9923100000000002
 30
0.0
 10
-0.25131
 20
3.7078300000000004
 30
0.0
 10
-0.34783
 20
3.5173300000000003
 30
0.0
 10
-0.34783
 20
3.5173300000000003
 30
0.0
 10
-0.35291
 20
3.8195900000000003
 30
0.0
 10
-0.14209
 20
4.07613
 30
0.0
 10
0.00776
 20
4.3377500000000007
 30
0.0
  0
SPLINE
  5
2A
100
AcDbEntity
  8
Ebene 1
 62
     7
100
AcDbSpline
210
0.0
220
0.0
230
1.0
 70
     1
 71
     3
 72
   216
 73
   212
 74
     0
 42
0.0000000001
 43
0.0000000001
 40
0.0
 40
0.0
 40
0.0
 40
0.0
 40
0.0188679245283019
 40
0.0188679245283019
 40
0.0188679245283019
 40
0.0188679245283019
 40
0.0377358490566038
 40
0.0377358490566038
 40
0.0377358490566038
 40
0.0377358490566038
 40
0.0566037735849057
 40
0.0566037735849057
 40
0.0566037735849057
 40
0.0566037735849057
 40
0.0754716981132075
 40
0.0754716981132075
 40
0.0754716981132075
 40
0.0754716981132075
 40
0.0943396226415094
 40
0.0943396226415094
 40
0.0943396226415094
 40
0.0943396226415094
 40
0.1132075471698113
 40
0.1132075471698113
 40
0.1132075471698113
 40
0.1132075471698113
 40
0.1320754716981132
 40
0.1320754716981132
 40
0.1320754716981132
 40
0.1320754716981132
 40
0.1509433962264151
 40
0.1509433962264151
 40
0.1509433962264151
 40
0.1509433962264151
 40
0.169811320754717
 40
0.169811320754717
 40
0.169811320754717
 40
0.169811320754717
 40
0.1886792452830189
 40
0.1886792452830189
 40
0.1886792452830189
 40
0.1886792452830189
 40
0.2075471698113207
 40
0.2075471698113207
 40
0.2075471698113207
 40
0.2075471698113207
 40
0.2264150943396226
 40
0.2264150943396226
 40
0.2264150943396226
 40
0.2264150943396226
 40
0.2452830188679245
 40
0.2452830188679245
 40
0.2452830188679245
 40
0.2452830188679245
 40
0.2641509433962264
 40
0.2641509433962264
 40
0.2641509433962264
 40
0.2641509433962264
 40
0.2830188679245283
 40
0.2830188679245283
 40
0.2830188679245283
 40
0.2830188679245283
 40
0.3018867924528302
 40
0.3018867924528302
 40
0.3018867924528302
 40
0.3018867924528302
 40
0.3207547169811321
 40
0.3207547169811321
 40
0.3207547169811321
 40
0.3207547169811321
 40
0.3396226415094339
 40
0.3396226415094339
 40
0.3396226415094339
 40
0.3396226415094339
 40
0.3584905660377358
 40
0.3584905660377358
 40
0.3584905660377358
 40
0.3584905660377358
 40
0.3773584905660377
 40
0.3773584905660377
 40
0.3773584905660377
 40
0.3773584905660377
 40
0.3962264150943396
 40
0.3962264150943396
 40
0.3962264150943396
 40
0.3962264150943396
 40
0.4150943396226415
 40
0.4150943396226415
 40
0.4150943396226415
 40
0.4150943396226415
 40
0.4339622641509434
 40
0.4339622641509434
 40
0.4339622641509434
 40
0.4339622641509434
 40
0.4528301886792452
 40
0.4528301886792452
 40
0.4528301886792452
 40
0.4528301886792452
 40
0.4716981132075471
 40
0.4716981132075471
 40
0.4716981132075471
 40
0.4716981132075471
 40
0.490566037735849
 40
0.490566037735849
 40
0.490566037735849
 40
0.490566037735849
 40
0.5094339622641509
 40
0.5094339622641509
 40
0.5094339622641509
 40
0.5094339622641509
 40
0.5283018867924528
 40
0.5283018867924528
 40
0.5283018867924528
 40
0.5283018867924528
 40
0.5471698113207547
 40
0.5471698113207547
 40
0.5471698113207547
 40
0.5471698113207547
 40
0.5660377358490566
 40
0.5660377358490566
 40
0.5660377358490566
 40
0.5660377358490566
 40
0.5849056603773585
 40
0.5849056603773585
 40
0.5849056603773585
 40
0.5849056603773585
 40
0.6037735849056604
 40
0.6037735849056604
 40
0.6037735849056604
 40
0.6037735849056604
 40
0.6226415094339622
 40
0.6226415094339622
 40
0.6226415094339622
 40
0.6226415094339622
 40
0.6415094339622641
 40
0.6415094339622641
 40
0.6415094339622641
 40
0.6415094339622641
 40
0.660377358490566
 40
0.660377358490566
 40
0.660377358490566
 40
0.660377358490566
 40
0.6792452830188679
 40
0.6792452830188679
 40
0.6792452830188679
 40
0.6792452830188679
 40
0.6981132075471698
 40
0.6981132075471698
 40
0.6981132075471698
 40
0.6981132075471698
 40
0.7169811320754717
 40
0.7169811320754717
 40
0.7169811320754717
 40
0.7169811320754717
 40
0.7358490566037735
 40
0.7358490566037735
 40
0.7358490566037735
 40
0.7358490566037735
 40
0.7547169811320754
 40
0.7547169811320754
 40
0.7547169811320754
 40
0.7547169811320754
 40
0.7735849056603773
 40
0.7735849056603773
 40
0.7735849056603773
 40
0.7735849056603773
 40
0.7924528301886792
 40
0.7924528301886792
 40
0.7924528301886792
 40
0.7924528301886792
 40
0.8113207547169811
 40
0.8113207547169811
 40
0.8113207547169811
 40
0.8113207547169811
 40
0.830188679245283
 40
0.830188679245283
 40
0.830188679245283
 40
0.830188679245283
 40
0.8490566037735848
 40
0.8490566037735848
 40
0.8490566037735848
 40
0.8490566037735848
 40
0.8679245283018867
 40
0.8679245283018867
 40
0.8679245283018867
 40
0.8679245283018867
 40
0.8867924528301886
 40
0.8867924528301886
 40
0.8867924528301886
 40
0.8867924528301886
 40
0.9056603773584905
 40
0.9056603773584905
 40
0.9056603773584905
 40
0.9056603773584905
 40
0.9245283018867924
 40
0.9245283018867924
 40
0.9245283018867924
 40
0.9245283018867924
 40
0.9433962264150942
 40
0.9433962264150942
 40
0.9433962264150942
 40
0.9433962264150942
 40
0.9622641509433961
 40
0.9622641509433961
 40
0.9622641509433961
 40
0.9622641509433961
 40
0.981132075471698
 40
0.981132075471698
 40
0.981132075471698
 40
0.981132075471698
 40
1.0
 40
1.0
 40
1.0
 40
1.0
 10
1.3184
 20
4.0964499999999999
 30
0.0
 10
1.6003400000000001
 20
3.9313500000000001
 30
0.0
 10
1.3107800000000001
 20
3.6621100000000002
 30
0.0
 10
1.27014
 20
3.4843100000000002
 30
0.0
 10
1.27014
 20
3.4843100000000002
 30
0.0
 10
1.4225400000000001
 20
3.6113100000000005
 30
0.0
 10
1.5216000000000001
 20
3.8449900000000001
 30
0.0
 10
1.7552800000000002
 20
3.8348300000000002
 30
0.0
 10
1.7552800000000002
 20
3.8348300000000002
 30
0.0
 10
2.4055200000000001
 20
3.9237300000000004
 30
0.0
 10
2.8195400000000004
 20
3.3827100000000003
 30
0.0
 10
2.7154000000000003
 20
2.7324700000000002
 30
0.0
 10
2.7154000000000003
 20
2.7324700000000002
 30
0.0
 10
2.8652600000000001
 20
2.4733900000000002
 30
0.0
 10
2.9668600000000001
 20
2.59531
 30
0.0
 10
2.8627200000000004
 20
2.8315300000000003
 30
0.0
 10
2.8627200000000004
 20
2.8315300000000003
 30
0.0
 10
2.8678000000000003
 20
2.8670900000000001
 30
0.0
 10
2.8576400000000004
 20
2.9178900000000003
 30
0.0
 10
2.8957400000000004
 20
2.9407500000000004
 30
0.0
 10
2.8957400000000004
 20
2.9407500000000004
 30
0.0
 10
3.4367600000000005
 20
2.5064100000000002
 30
0.0
 10
2.3547200000000004
 20
1.86633
 30
0.0
 10
2.5604600000000004
 20
1.19577
 30
0.0
 10
2.5604600000000004
 20
1.19577
 30
0.0
 10
2.5858600000000003
 20
1.6402700000000001
 30
0.0
 10
3.2005400000000002
 20
2.3336900000000003
 30
0.0
 10
3.4748600000000005
 20
1.6224900000000002
 30
0.0
 10
3.4748600000000005
 20
1.6224900000000002
 30
0.0
 10
3.3885000000000001
 20
1.36087
 30
0.0
 10
2.7865200000000003
 20
0.8757300000000001
 30
0.0
 10
2.9135200000000001
 20
1.3253100000000002
 30
0.0
 10
2.9135200000000001
 20
1.3253100000000002
 30
0.0
 10
2.7077800000000001
 20
1.02813
 30
0.0
 10
2.5833200000000001
 20
0.61919
 30
0.0
 10
2.2556600000000002
 20
0.4312300000000001
 30
0.0
 10
2.2556600000000002
 20
0.4312300000000001
 30
0.0
 10
2.0702400000000001
 20
0.5404500000000001
 30
0.0
 10
1.8137000000000001
 20
0.76905
 30
0.0
 10
1.5749400000000002
 20
0.59633
 30
0.0
 10
1.5749400000000002
 20
0.59633
 30
0.0
 10
1.4098400000000002
 20
0.13151
 30
0.0
 10
1.7552800000000002
 20
-0.4247400000000001
 30
0.0
 10
1.1685400000000001
 20
-0.6660400000000001
 30
0.0
 10
1.1685400000000001
 20
-0.6660400000000001
 30
0.0
 10
1.0974200000000001
 20
-0.5619000000000001
 30
0.0
 10
1.14314
 20
-0.4907800000000001
 30
0.0
 10
1.1380600000000001
 20
-0.39934
 30
0.0
 10
1.1380600000000001
 20
-0.39934
 30
0.0
 10
1.0313800000000002
 20
-0.6228600000000001
 30
0.0
 10
0.9577200000000001
 20
-0.69652
 30
0.0
 10
0.8789800000000001
 20
-0.8946400000000001
 30
0.0
 10
0.8789800000000001
 20
-0.8946400000000001
 30
0.0
 10
0.85104
 20
-0.9606800000000001
 30
0.0
 10
0.8231000000000001
 20
-1.1130800000000001
 30
0.0
 10
0.7951600000000001
 20
-1.1918200000000001
 30
0.0
 10
0.7951600000000001
 20
-1.1918200000000001
 30
0.0
 10
0.5411600000000001
 20
-1.4737600000000002
 30
0.0
 10
0.8866000000000001
 20
-0.3942600000000001
 30
0.0
 10
0.7545200000000001
 20
-0.74224
 30
0.0
 10
0.7545200000000001
 20
-0.74224
 30
0.0
 10
0.7545200000000001
 20
-0.74224
 30
0.0
 10
0.66054
 20
-0.8794000000000001
 30
0.0
 10
0.66054
 20
-0.8794000000000001
 30
0.0
 10
0.66054
 20
-0.8794000000000001
 30
0.0
 10
0.6453000000000001
 20
-0.9987800000000001
 30
0.0
 10
0.5868800000000001
 20
-1.1334000000000002
 30
0.0
 10
0.6046600000000001
 20
-1.24516
 30
0.0
 10
0.6046600000000001
 20
-1.24516
 30
0.0
 10
0.45988
 20
-1.1943600000000001
 30
0.0
 10
0.29478
 20
-1.4128000000000001
 30
0.0
 10
0.37352
 20
-1.58806
 30
0.0
 10
0.37352
 20
-1.58806
 30
0.0
 10
0.4192400000000001
 20
-1.12324
 30
0.0
 10
0.7723000000000001
 20
-1.5017
 30
0.0
 10
0.8205600000000001
 20
-1.7607800000000002
 30
0.0
 10
0.8205600000000001
 20
-1.7607800000000002
 30
0.0
 10
0.46496
 20
-1.2807200000000001
 30
0.0
 10
0.20588
 20
-2.2103600000000001
 30
0.0
 10
-0.21575
 20
-1.8623800000000001
 30
0.0
 10
-0.21575
 20
-1.8623800000000001
 30
0.0
 10
-0.03541
 20
-2.0706600000000002
 30
0.0
 10
0.17286
 20
-2.3348200000000001
 30
0.0
 10
0.2008
 20
-2.6193000000000004
 30
0.0
 10
0.2008
 20
-2.6193000000000004
 30
0.0
 10
-0.29195
 20
-2.1367000000000003
 30
0.0
 10
-0.29195
 20
-2.6650200000000002
 30
0.0
 10
-0.36307
 20
-1.7455400000000001
 30
0.0
 10
-0.36307
 20
-1.7455400000000001
 30
0.0
 10
-0.41895
 20
-1.6388600000000002
 30
0.0
 10
-0.44689
 20
-1.9563600000000001
 30
0.0
 10
-0.46721
 20
-2.0884400000000003
 30
0.0
 10
-0.46721
 20
-2.0884400000000003
 30
0.0
 10
-0.55611
 20
-2.6599400000000002
 30
0.0
 10
-0.7567700000000001
 20
-3.4117800000000003
 30
0.0
 10
-1.3079500000000002
 20
-3.1095200000000003
 30
0.0
 10
-1.3079500000000002
 20
-3.1095200000000003
 30
0.0
 10
-1.1580900000000001
 20
-3.3686000000000003
 30
0.0
 10
-0.90917
 20
-3.6480000000000001
 30
0.0
 10
-0.9396500000000001
 20
-4.1128200000000001
 30
0.0
 10
-0.9396500000000001
 20
-4.1128200000000001
 30
0.0
 10
-1.07681
 20
-3.7927800000000005
 30
0.0
 10
-1.42225
 20
-3.5692600000000003
 30
0.0
 10
-1.4501900000000001
 20
-3.2289000000000003
 30
0.0
 10
-1.4501900000000001
 20
-3.2289000000000003
 30
0.0
 10
-1.58735
 20
-3.2314400000000001
 30
0.0
 10
-1.4959100000000001
 20
-3.4117800000000003
 30
0.0
 10
-1.5187700000000002
 20
-3.5159200000000004
 30
0.0
 10
-1.5187700000000002
 20
-3.5159200000000004
 30
0.0
 10
-1.5975100000000002
 20
-3.8842200000000005
 30
0.0
 10
-1.8261100000000001
 20
-4.2652200000000002
 30
0.0
 10
-1.9429500000000002
 20
-3.7496000000000005
 30
0.0
 10
-1.9429500000000002
 20
-3.7496000000000005
 30
0.0
 10
-2.10805
 20
-4.1153599999999999
 30
0.0
 10
-1.9226300000000001
 20
-4.51668
 30
0.0
 10
-2.10805
 20
-4.8799000000000001
 30
0.0
 10
-2.10805
 20
-4.8799000000000001
 30
0.0
 10
-2.2401300000000002
 20
-4.6005000000000003
 30
0.0
 10
-2.4331700000000001
 20
-4.3566600000000006
 30
0.0
 10
-2.1766300000000003
 20
-4.0721800000000004
 30
0.0
 10
-2.1766300000000003
 20
-4.0721800000000004
 30
0.0
 10
-2.36205
 20
-4.1433
 30
0.0
 10
-2.39507
 20
-4.4506399999999999
 30
0.0
 10
-2.6084300000000002
 20
-4.52684
 30
0.0
 10
-2.6084300000000002
 20
-4.52684
 30
0.0
 10
-2.9132300000000004
 20
-4.6487600000000002
 30
0.0
 10
-2.85989
 20
-4.39222
 30
0.0
 10
-2.9437100000000003
 20
-4.2042600000000006
 30
0.0
 10
-2.9437100000000003
 20
-4.2042600000000006
 30
0.0
 10
-2.9843500000000001
 20
-4.5776400000000006
 30
0.0
 10
-2.8675100000000002
 20
-5.0119800000000003
 30
0.0
 10
-3.0681700000000003
 20
-5.3447200000000006
 30
0.0
 10
-3.0681700000000003
 20
-5.3447200000000006
 30
0.0
 10
-3.2942300000000002
 20
-4.7833800000000002
 30
0.0
 10
-3.5025100000000005
 20
-4.9129200000000006
 30
0.0
 10
-3.5431500000000002
 20
-5.5149000000000008
 30
0.0
 10
-3.5431500000000002
 20
-5.5149000000000008
 30
0.0
 10
-3.6676100000000003
 20
-4.6741600000000005
 30
0.0
 10
-3.5228300000000004
 20
-3.7724600000000001
 30
0.0
 10
-3.6168100000000001
 20
-2.9190200000000002
 30
0.0
 10
-3.6168100000000001
 20
-2.9190200000000002
 30
0.0
 10
-3.6168100000000001
 20
-2.9190200000000002
 30
0.0
 10
-3.5329900000000003
 20
-2.7158200000000003
 30
0.0
 10
-3.5329900000000003
 20
-2.7158200000000003
 30
0.0
 10
-3.5329900000000003
 20
-2.7158200000000003
 30
0.0
 10
-3.4923500000000001
 20
-2.6828000000000003
 30
0.0
 10
-3.4364700000000004
 20
-2.5126200000000001
 30
0.0
 10
-3.3932900000000004
 20
-2.6142200000000004
 30
0.0
 10
-3.3932900000000004
 20
-2.6142200000000004
 30
0.0
 10
-3.3475700000000002
 20
-2.69042
 30
0.0
 10
-3.4313900000000004
 20
-2.7945600000000002
 30
0.0
 10
-3.3704300000000003
 20
-2.8326600000000002
 30
0.0
 10
-3.3704300000000003
 20
-2.8326600000000002
 30
0.0
 10
-3.1545300000000003
 20
-2.13924
 30
0.0
 10
-3.2612100000000002
 20
-1.3670800000000001
 30
0.0
 10
-2.7913100000000002
 20
-0.7778000000000001
 30
0.0
 10
-2.7913100000000002
 20
-0.7778000000000001
 30
0.0
 10
-2.8954500000000003
 20
-0.7066800000000001
 30
0.0
 10
-2.9310100000000001
 20
-0.9937
 30
0.0
 10
-3.0478500000000004
 20
-0.9733800000000001
 30
0.0
 10
-3.0478500000000004
 20
-0.9733800000000001
 30
0.0
 10
-2.8675100000000002
 20
-0.5009400000000001
 30
0.0
 10
-2.8294100000000002
 20
0.08579
 30
0.0
 10
-2.5754100000000002
 20
0.5480700000000001
 30
0.0
 10
-2.5754100000000002
 20
0.5480700000000001
 30
0.0
 10
-2.3976100000000002
 20
0.9493900000000001
 30
0.0
 10
-1.8515100000000002
 20
0.7792100000000001
 30
0.0
 10
-1.7651500000000002
 20
1.2491100000000002
 30
0.0
 10
-1.7651500000000002
 20
1.2491100000000002
 30
0.0
 10
-1.7524500000000001
 20
1.3430900000000001
 30
0.0
 10
-1.7499100000000001
 20
1.4396100000000001
 30
0.0
 10
-1.6991100000000001
 20
1.5158100000000001
 30
0.0
 10
-1.6991100000000001
 20
1.5158100000000001
 30
0.0
 10
-1.7372100000000001
 20
1.8637900000000001
 30
0.0
 10
-1.9886700000000002
 20
0.7411100000000001
 30
0.0
 10
-2.3874500000000003
 20
1.06877
 30
0.0
 10
-2.3874500000000003
 20
1.06877
 30
0.0
 10
-2.5322300000000002
 20
1.40405
 30
0.0
 10
-2.11313
 20
2.24987
 30
0.0
 10
-2.0039100000000003
 20
1.8536300000000001
 30
0.0
 10
-2.0039100000000003
 20
1.8536300000000001
 30
0.0
 10
-2.05979
 20
2.3514700000000004
 30
0.0
 10
-2.1055100000000002
 20
2.9991700000000003
 30
0.0
 10
-1.63053
 20
3.3293700000000004
 30
0.0
 10
-1.63053
 20
3.3293700000000004
 30
0.0
 10
-1.63053
 20
3.3293700000000004
 30
0.0
 10
-1.3612900000000001
 20
3.2684100000000003
 30
0.0
 10
-1.3612900000000001
 20
3.2684100000000003
 30
0.0
 10
-1.3612900000000001
 20
3.2684100000000003
 30
0.0
 10
-1.9200900000000001
 20
3.5071700000000003
 30
0.0
 10
-0.92949
 20
4.5003100000000007
 30
0.0
 10
-0.8126500000000001
 20
3.7103700000000002
 30
0.0
 10
-0.8126500000000001
 20
3.7103700000000002
 30
0.0
 10
-0.72121
 20
3.6062300000000005
 30
0.0
 10
-0.5205500000000001
 20
3.9491300000000003
 30
0.0
 10
-0.33513
 20
3.9110300000000002
 30
0.0
 10
-0.33513
 20
3.9110300000000002
 30
0.0
 10
-0.4367300000000001
 20
3.6036900000000003
 30
0.0
 10
-0.8634500000000001
 20
3.4157300000000004
 30
0.0
 10
-0.72375
 20
2.9915500000000002
 30
0.0
 10
-0.72375
 20
2.9915500000000002
 30
0.0
 10
-0.7034300000000001
 20
3.6621100000000002
 30
0.0
 10
0.46496
 20
3.0271100000000004
 30
0.0
 10
0.19572
 20
3.9770700000000003
 30
0.0
 10
0.19572
 20
3.9770700000000003
 30
0.0
 10
0.2262
 20
4.0659700000000001
 30
0.0
 10
0.277
 20
4.1497900000000003
 30
0.0
 10
0.36336
 20
4.2031300000000007
 30
0.0
 10
0.36336
 20
4.2031300000000007
 30
0.0
 10
0.4929000000000001
 20
3.8322900000000004
 30
0.0
 10
1.0415400000000001
 20
3.9084900000000005
 30
0.0
 10
1.3184
 20
4.0964499999999999
 30
0.0
  0
SPLINE
  5
2B
100
AcDbEntity
  8
Ebene 1
 62
     7
100
AcDbSpline
210
0.0
220
0.0
230
1.0
 70
     1
 71
     3
 72
    32
 73
    28
 74
     0
 42
0.0000000001
 43
0.0000000001
 40
0.0
 40
0.0
 40
0.0
 40
0.0
 40
0.1428571428571429
 40
0.1428571428571429
 40
0.1428571428571429
 40
0.1428571428571429
 40
0.2857142857142857
 40
0.2857142857142857
 40
0.2857142857142857
 40
0.2857142857142857
 40
0.4285714285714286
 40
0.4285714285714286
 40
0.4285714285714286
 40
0.4285714285714286
 40
0.5714285714285714
 40
0.5714285714285714
 40
0.5714285714285714
 40
0.5714285714285714
 40
0.7142857142857142
 40
0.7142857142857142
 40
0.7142857142857142
 40
0.7142857142857142
 40
0.857142857142857
 40
0.857142857142857
 40
0.857142857142857
 40
0.857142857142857
 40
1.0
 40
1.0
 40
1.0
 40
1.0
 10
3.6094800000000005
 20
3.6392500000000001
 30
0.0
 10
3.5561400000000001
 20
3.3674700000000004
 30
0.0
 10
3.3834200000000001
 20
3.0753700000000004
 30
0.0
 10
3.1548200000000004
 20
2.8823300000000001
 30
0.0
 10
3.1548200000000004
 20
2.8823300000000001
 30
0.0
 10
2.9490800000000004
 20
2.9585300000000001
 30
0.0
 10
3.0735400000000004
 20
3.1363300000000001
 30
0.0
 10
3.1675200000000001
 20
3.2226900000000001
 30
0.0
 10
3.1675200000000001
 20
3.2226900000000001
 30
0.0
 10
3.1370400000000003
 20
3.2379300000000004
 30
0.0
 10
3.1192600000000001
 20
3.2328500000000004
 30
0.0
 10
3.0989400000000002
 20
3.2150700000000003
 30
0.0
 10
3.0989400000000002
 20
3.2150700000000003
 30
0.0
 10
3.0989400000000002
 20
3.2150700000000003
 30
0.0
 10
2.9440000000000004
 20
3.1769700000000003
 30
0.0
 10
2.9440000000000004
 20
3.1769700000000003
 30
0.0
 10
2.9440000000000004
 20
3.1769700000000003
 30
0.0
 10
3.0608400000000002
 20
3.3065100000000003
 30
0.0
 10
3.2107000000000001
 20
3.4157300000000004
 30
0.0
 10
3.3707200000000004
 20
3.4817700000000005
 30
0.0
 10
3.3707200000000004
 20
3.4817700000000005
 30
0.0
 10
3.3707200000000004
 20
3.4817700000000005
 30
0.0
 10
3.2056200000000001
 20
3.2607900000000001
 30
0.0
 10
3.2056200000000001
 20
3.2607900000000001
 30
0.0
 10
3.2056200000000001
 20
3.2607900000000001
 30
0.0
 10
3.3935800000000005
 20
3.2811100000000004
 30
0.0
 10
3.4774000000000003
 20
3.5173300000000003
 30
0.0
 10
3.6094800000000005
 20
3.6392500000000001
 30
0.0
  0
SPLINE
  5
2C
100
AcDbEntity
  8
Ebene 1
100
AcDbSpline
210
0.0
220
0.0
230
1.0
 70
     1
 71
     3
 72
    64
 73
    60
 74
     0
 42
0.0000000001
 43
0.0000000001
 40
0.0
 40
0.0
 40
0.0
 40
0.0
 40
0.0666666666666667
 40
0.0666666666666667
 40
0.0666666666666667
 40
0.0666666666666667
 40
0.1333333333333333
 40
0.1333333333333333
 40
0.1333333333333333
 40
0.1333333333333333
 40
0.2
 40
0.2
 40
0.2
 40
0.2
 40
0.2666666666666667
 40
0.2666666666666667
 40
0.2666666666666667
 40
0.2666666666666667
 40
0.3333333333333333
 40
0.3333333333333333
 40
0.3333333333333333
 40
0.3333333333333333
 40
0.4
 40
0.4
 40
0.4
 40
0.4
 40
0.4666666666666666
 40
0.4666666666666666
 40
0.4666666666666666
 40
0.4666666666666666
 40
0.5333333333333333
 40
0.5333333333333333
 40
0.5333333333333333
 40
0.5333333333333333
 40
0.6
 40
0.6
 40
0.6
 40
0.6
 40
0.6666666666666666
 40
0.6666666666666666
 40
0.6666666666666666
 40
0.6666666666666666
 40
0.7333333333333333
 40
0.7333333333333333
 40
0.7333333333333333
 40
0.7333333333333333
 40
0.7999999999999999
 40
0.7999999999999999
 40
0.7999999999999999
 40
0.7999999999999999
 40
0.8666666666666666
 40
0.8666666666666666
 40
0.8666666666666666
 40
0.8666666666666666
 40
0.9333333333333332
 40
0.9333333333333332
 40
0.9333333333333332
 40
0.9333333333333332
 40
1.0
 40
1.0
 40
1.0
 40
1.0
 10
1.8314800000000002
 20
3.1541100000000002
 30
0.0
 10
2.0575400000000004
 20
3.0804500000000004
 30
0.0
 10
1.3742800000000002
 20
2.8696300000000003
 30
0.0
 10
1.6740000000000002
 20
2.8569300000000002
 30
0.0
 10
1.6740000000000002
 20
2.8569300000000002
 30
0.0
 10
1.6740000000000002
 20
2.8569300000000002
 30
0.0
 10
2.0829400000000002
 20
2.7807300000000001
 30
0.0
 10
2.0829400000000002
 20
2.7807300000000001
 30
0.0
 10
2.0829400000000002
 20
2.7807300000000001
 30
0.0
 10
1.8975200000000001
 20
2.6511900000000002
 30
0.0
 10
1.6054200000000001
 20
2.8493100000000005
 30
0.0
 10
1.4149200000000002
 20
2.6715100000000001
 30
0.0
 10
1.4149200000000002
 20
2.6715100000000001
 30
0.0
 10
1.4149200000000002
 20
2.6715100000000001
 30
0.0
 10
1.7984600000000002
 20
2.5318100000000001
 30
0.0
 10
1.7984600000000002
 20
2.5318100000000001
 30
0.0
 10
1.7984600000000002
 20
2.5318100000000001
 30
0.0
 10
1.9026000000000001
 20
1.6809100000000001
 30
0.0
 10
0.82564
 20
1.4116700000000002
 30
0.0
 10
0.17286
 20
1.4497700000000002
 30
0.0
 10
0.17286
 20
1.4497700000000002
 30
0.0
 10
0.02808
 20
1.4345300000000001
 30
0.0
 10
0.06364
 20
1.31769
 30
0.0
 10
0.19572
 20
1.3557900000000001
 30
0.0
 10
0.19572
 20
1.3557900000000001
 30
0.0
 10
0.4319400000000001
 20
1.36341
 30
0.0
 10
0.6834
 20
1.3557900000000001
 30
0.0
 10
0.9094600000000001
 20
1.4091300000000002
 30
0.0
 10
0.9094600000000001
 20
1.4091300000000002
 30
0.0
 10
0.74436
 20
1.3049900000000001
 30
0.0
 10
0.5487800000000001
 20
1.2186300000000001
 30
0.0
 10
0.31764
 20
1.2567300000000001
 30
0.0
 10
0.31764
 20
1.2567300000000001
 30
0.0
 10
-0.12431
 20
1.32023
 30
0.0
 10
-0.18527
 20
0.72079
 30
0.0
 10
-0.57643
 20
0.6750700000000001
 30
0.0
 10
-0.57643
 20
0.6750700000000001
 30
0.0
 10
-0.40371
 20
0.8452500000000001
 30
0.0
 10
-0.16749
 20
1.0078100000000001
 30
0.0
 10
-0.11669
 20
1.2643500000000001
 30
0.0
 10
-0.11669
 20
1.2643500000000001
 30
0.0
 10
-0.00747
 20
1.44215
 30
0.0
 10
0.05602
 20
1.6478900000000001
 30
0.0
 10
0.1119
 20
1.8561700000000001
 30
0.0
 10
0.1119
 20
1.8561700000000001
 30
0.0
 10
0.1119
 20
1.8561700000000001
 30
0.0
 10
0.11952
 20
1.9349100000000001
 30
0.0
 10
0.11952
 20
1.9349100000000001
 30
0.0
 10
0.11952
 20
1.9349100000000001
 30
0.0
 10
-0.11415
 20
1.8587100000000001
 30
0.0
 10
-0.24877
 20
1.57169
 30
0.0
 10
-0.4697500000000001
 20
1.4675500000000001
 30
0.0
 10
-0.4697500000000001
 20
1.4675500000000001
 30
0.0
 10
-0.23607
 20
1.9501500000000001
 30
0.0
 10
0.23636
 20
2.2193900000000002
 30
0.0
 10
0.7469
 20
2.3286100000000003
 30
0.0
 10
0.7469
 20
2.3286100000000003
 30
0.0
 10
1.10504
 20
2.6080100000000002
 30
0.0
 10
1.4200000000000002
 20
2.9636100000000001
 30
0.0
 10
1.8314800000000002
 20
3.1541100000000002
 30
0.0
  0
SPLINE
  5
2D
100
AcDbEntity
  8
Ebene 1
100
AcDbSpline
210
0.0
220
0.0
230
1.0
 70
     1
 71
     3
 72
    20
 73
    16
 74
     0
 42
0.0000000001
 43
0.0000000001
 40
0.0
 40
0.0
 40
0.0
 40
0.0
 40
0.25
 40
0.25
 40
0.25
 40
0.25
 40
0.5
 40
0.5
 40
0.5
 40
0.5
 40
0.75
 40
0.75
 40
0.75
 40
0.75
 40
1.0
 40
1.0
 40
1.0
 40
1.0
 10
0.9170800000000001
 20
3.2252300000000003
 30
0.0
 10
0.9501000000000001
 20
3.2226900000000001
 30
0.0
 10
1.0009000000000001
 20
3.2226900000000001
 30
0.0
 10
0.99582
 20
3.1820500000000003
 30
0.0
 10
0.99582
 20
3.1820500000000003
 30
0.0
 10
0.5843400000000001
 20
2.9458300000000004
 30
0.0
 10
0.17794
 20
2.5546700000000002
 30
0.0
 10
-0.31735
 20
2.6054700000000004
 30
0.0
 10
-0.31735
 20
2.6054700000000004
 30
0.0
 10
-0.3224300000000001
 20
2.63341
 30
0.0
 10
-0.31989
 20
2.6664300000000001
 30
0.0
 10
-0.29195
 20
2.6791300000000002
 30
0.0
 10
-0.29195
 20
2.6791300000000002
 30
0.0
 10
0.16016
 20
2.71469
 30
0.0
 10
0.4802
 20
3.1617300000000004
 30
0.0
 10
0.9170800000000001
 20
3.2252300000000003
 30
0.0
  0
SPLINE
  5
2E
100
AcDbEntity
  8
Ebene 1
100
AcDbSpline
210
0.0
220
0.0
230
1.0
 70
     1
 71
     3
 72
    20
 73
    16
 74
     0
 42
0.0000000001
 43
0.0000000001
 40
0.0
 40
0.0
 40
0.0
 40
0.0
 40
0.25
 40
0.25
 40
0.25
 40
0.25
 40
0.5
 40
0.5
 40
0.5
 40
0.5
 40
0.75
 40
0.75
 40
0.75
 40
0.75
 40
1.0
 40
1.0
 40
1.0
 40
1.0
 10
-0.9574300000000001
 20
3.1236300000000004
 30
0.0
 10
-0.6272300000000001
 20
2.9051900000000002
 30
0.0
 10
-0.7288300000000001
 20
1.8637900000000001
 30
0.0
 10
-1.29271
 20
2.21685
 30
0.0
 10
-1.29271
 20
2.21685
 30
0.0
 10
-1.4273300000000002
 20
2.1914500000000001
 30
0.0
 10
-1.4247900000000002
 20
1.9272900000000002
 30
0.0
 10
-1.50353
 20
1.8180700000000001
 30
0.0
 10
-1.50353
 20
1.8180700000000001
 30
0.0
 10
-1.5263900000000001
 20
2.26003
 30
0.0
 10
-1.1072900000000001
 20
2.5546700000000002
 30
0.0
 10
-1.0615700000000001
 20
2.9864700000000002
 30
0.0
 10
-1.0615700000000001
 20
2.9864700000000002
 30
0.0
 10
-1.0133100000000002
 20
3.0271100000000004
 30
0.0
 10
-0.9777500000000001
 20
3.0652100000000004
 30
0.0
 10
-0.9574300000000001
 20
3.1236300000000004
 30
0.0
  0
SPLINE
  5
2F
100
AcDbEntity
  8
Ebene 1
 62
     7
100
AcDbSpline
210
0.0
220
0.0
230
1.0
 70
     1
 71
     3
 72
    20
 73
    16
 74
     0
 42
0.0000000001
 43
0.0000000001
 40
0.0
 40
0.0
 40
0.0
 40
0.0
 40
0.25
 40
0.25
 40
0.25
 40
0.25
 40
0.5
 40
0.5
 40
0.5
 40
0.5
 40
0.75
 40
0.75
 40
0.75
 40
0.75
 40
1.0
 40
1.0
 40
1.0
 40
1.0
 10
-0.95235
 20
2.9229700000000003
 30
0.0
 10
-0.8151900000000001
 20
2.7248500000000004
 30
0.0
 10
-0.7339100000000001
 20
2.2574900000000002
 30
0.0
 10
-1.07681
 20
2.2041500000000003
 30
0.0
 10
-1.07681
 20
2.2041500000000003
 30
0.0
 10
-1.0641100000000001
 20
2.3184500000000003
 30
0.0
 10
-0.92949
 20
2.4835500000000001
 30
0.0
 10
-0.9980700000000001
 20
2.5749900000000001
 30
0.0
 10
-0.9980700000000001
 20
2.5749900000000001
 30
0.0
 10
-0.9980700000000001
 20
2.5749900000000001
 30
0.0
 10
-1.1352300000000002
 20
2.3082900000000004
 30
0.0
 10
-1.1352300000000002
 20
2.3082900000000004
 30
0.0
 10
-1.1352300000000002
 20
2.3082900000000004
 30
0.0
 10
-1.1352300000000002
 20
2.50895
 30
0.0
 10
-1.0260100000000001
 20
2.7299300000000004
 30
0.0
 10
-0.95235
 20
2.9229700000000003
 30
0.0
  0
SPLINE
  5
30
100
AcDbEntity
  8
Ebene 1
100
AcDbSpline
210
0.0
220
0.0
230
1.0
 70
     1
 71
     3
 72
    20
 73
    16
 74
     0
 42
0.0000000001
 43
0.0000000001
 40
0.0
 40
0.0
 40
0.0
 40
0.0
 40
0.25
 40
0.25
 40
0.25
 40
0.25
 40
0.5
 40
0.5
 40
0.5
 40
0.5
 40
0.75
 40
0.75
 40
0.75
 40
0.75
 40
1.0
 40
1.0
 40
1.0
 40
1.0
 10
2.0550000000000002
 20
2.1838300000000004
 30
0.0
 10
2.1032600000000001
 20
2.16859
 30
0.0
 10
2.0981800000000002
 20
2.1228700000000003
 30
0.0
 10
2.09056
 20
2.0771500000000001
 30
0.0
 10
2.09056
 20
2.0771500000000001
 30
0.0
 10
1.8949800000000001
 20
1.8637900000000001
 30
0.0
 10
1.6613000000000002
 20
1.6301100000000002
 30
0.0
 10
1.3793600000000001
 20
1.5335900000000002
 30
0.0
 10
1.3793600000000001
 20
1.5335900000000002
 30
0.0
 10
1.36158
 20
1.53105
 30
0.0
 10
1.3463400000000001
 20
1.5437500000000002
 30
0.0
 10
1.3336400000000002
 20
1.5615300000000001
 30
0.0
 10
1.3336400000000002
 20
1.5615300000000001
 30
0.0
 10
1.52922
 20
1.7748900000000001
 30
0.0
 10
1.8695800000000002
 20
1.9247500000000002
 30
0.0
 10
2.0550000000000002
 20
2.1838300000000004
 30
0.0
  0
SPLINE
  5
31
100
AcDbEntity
  8
Ebene 1
100
AcDbSpline
210
0.0
220
0.0
230
1.0
 70
     1
 71
     3
 72
    12
 73
     8
 74
     0
 42
0.0000000001
 43
0.0000000001
 40
0.0
 40
0.0
 40
0.0
 40
0.0
 40
0.5
 40
0.5
 40
0.5
 40
0.5
 40
1.0
 40
1.0
 40
1.0
 40
1.0
 10
2.0702400000000001
 20
1.5412100000000002
 30
0.0
 10
2.0270600000000001
 20
1.48787
 30
0.0
 10
1.9381600000000001
 20
1.4319900000000001
 30
0.0
 10
1.8543400000000001
 20
1.44215
 30
0.0
 10
1.8543400000000001
 20
1.44215
 30
0.0
 10
1.8797400000000002
 20
1.5107300000000001
 30
0.0
 10
2.0016600000000002
 20
1.5335900000000002
 30
0.0
 10
2.0702400000000001
 20
1.5412100000000002
 30
0.0
  0
SPLINE
  5
32
100
AcDbEntity
  8
Ebene 1
100
AcDbSpline
210
0.0
220
0.0
230
1.0
 70
     1
 71
     3
 72
    24
 73
    20
 74
     0
 42
0.0000000001
 43
0.0000000001
 40
0.0
 40
0.0
 40
0.0
 40
0.0
 40
0.2
 40
0.2
 40
0.2
 40
0.2
 40
0.4
 40
0.4
 40
0.4
 40
0.4
 40
0.6000000000000001
 40
0.6000000000000001
 40
0.6000000000000001
 40
0.6000000000000001
 40
0.8
 40
0.8
 40
0.8
 40
0.8
 40
1.0
 40
1.0
 40
1.0
 40
1.0
 10
-1.04125
 20
1.5056500000000002
 30
0.0
 10
-1.04125
 20
1.5056500000000002
 30
0.0
 10
-0.9777500000000001
 20
1.4929500000000002
 30
0.0
 10
-0.9777500000000001
 20
1.4929500000000002
 30
0.0
 10
-0.9777500000000001
 20
1.4929500000000002
 30
0.0
 10
-0.97267
 20
1.2414900000000002
 30
0.0
 10
-1.1403100000000002
 20
0.91129
 30
0.0
 10
-0.8431300000000001
 20
0.7538100000000001
 30
0.0
 10
-0.8431300000000001
 20
0.7538100000000001
 30
0.0
 10
-0.8431300000000001
 20
0.7538100000000001
 30
0.0
 10
-0.84821
 20
0.7106300000000001
 30
0.0
 10
-0.84821
 20
0.7106300000000001
 30
0.0
 10
-0.84821
 20
0.7106300000000001
 30
0.0
 10
-0.9879100000000001
 20
0.7131700000000001
 30
0.0
 10
-1.1834900000000002
 20
0.70555
 30
0.0
 10
-1.2266700000000001
 20
0.8757300000000001
 30
0.0
 10
-1.2266700000000001
 20
0.8757300000000001
 30
0.0
 10
-1.1530100000000001
 20
1.0789300000000002
 30
0.0
 10
-1.0920500000000002
 20
1.2897500000000002
 30
0.0
 10
-1.04125
 20
1.5056500000000002
 30
0.0
  0
SPLINE
  5
33
100
AcDbEntity
  8
Ebene 1
 62
     7
100
AcDbSpline
210
0.0
220
0.0
230
1.0
 70
     1
 71
     3
 72
    16
 73
    12
 74
     0
 42
0.0000000001
 43
0.0000000001
 40
0.0
 40
0.0
 40
0.0
 40
0.0
 40
0.3333333333333333
 40
0.3333333333333333
 40
0.3333333333333333
 40
0.3333333333333333
 40
0.6666666666666666
 40
0.6666666666666666
 40
0.6666666666666666
 40
0.6666666666666666
 40
1.0
 40
1.0
 40
1.0
 40
1.0
 10
-2.5576300000000001
 20
1.4726300000000001
 30
0.0
 10
-2.5576300000000001
 20
1.4726300000000001
 30
0.0
 10
-2.5119100000000003
 20
1.4650100000000001
 30
0.0
 10
-2.5119100000000003
 20
1.4650100000000001
 30
0.0
 10
-2.5119100000000003
 20
1.4650100000000001
 30
0.0
 10
-2.52461
 20
1.35833
 30
0.0
 10
-2.5017500000000004
 20
1.19069
 30
0.0
 10
-2.6414500000000003
 20
1.18815
 30
0.0
 10
-2.6414500000000003
 20
1.18815
 30
0.0
 10
-2.7684500000000001
 20
1.2872100000000002
 30
0.0
 10
-2.6566900000000002
 20
1.4116700000000002
 30
0.0
 10
-2.5576300000000001
 20
1.4726300000000001
 30
0.0
  0
SPLINE
  5
34
100
AcDbEntity
  8
Ebene 1
 62
     7
100
AcDbSpline
210
0.0
220
0.0
230
1.0
 70
     1
 71
     3
 72
   148
 73
   144
 74
     0
 42
0.0000000001
 43
0.0000000001
 40
0.0
 40
0.0
 40
0.0
 40
0.0
 40
0.0277777777777778
 40
0.0277777777777778
 40
0.0277777777777778
 40
0.0277777777777778
 40
0.0555555555555556
 40
0.0555555555555556
 40
0.0555555555555556
 40
0.0555555555555556
 40
0.0833333333333333
 40
0.0833333333333333
 40
0.0833333333333333
 40
0.0833333333333333
 40
0.1111111111111111
 40
0.1111111111111111
 40
0.1111111111111111
 40
0.1111111111111111
 40
0.1388888888888889
 40
0.1388888888888889
 40
0.1388888888888889
 40
0.1388888888888889
 40
0.1666666666666667
 40
0.1666666666666667
 40
0.1666666666666667
 40
0.1666666666666667
 40
0.1944444444444445
 40
0.1944444444444445
 40
0.1944444444444445
 40
0.1944444444444445
 40
0.2222222222222223
 40
0.2222222222222223
 40
0.2222222222222223
 40
0.2222222222222223
 40
0.2500000000000001
 40
0.2500000000000001
 40
0.2500000000000001
 40
0.2500000000000001
 40
0.2777777777777779
 40
0.2777777777777779
 40
0.2777777777777779
 40
0.2777777777777779
 40
0.3055555555555556
 40
0.3055555555555556
 40
0.3055555555555556
 40
0.3055555555555556
 40
0.3333333333333334
 40
0.3333333333333334
 40
0.3333333333333334
 40
0.3333333333333334
 40
0.3611111111111112
 40
0.3611111111111112
 40
0.3611111111111112
 40
0.3611111111111112
 40
0.388888888888889
 40
0.388888888888889
 40
0.388888888888889
 40
0.388888888888889
 40
0.4166666666666668
 40
0.4166666666666668
 40
0.4166666666666668
 40
0.4166666666666668
 40
0.4444444444444446
 40
0.4444444444444446
 40
0.4444444444444446
 40
0.4444444444444446
 40
0.4722222222222224
 40
0.4722222222222224
 40
0.4722222222222224
 40
0.4722222222222224
 40
0.5000000000000001
 40
0.5000000000000001
 40
0.5000000000000001
 40
0.5000000000000001
 40
0.5277777777777779
 40
0.5277777777777779
 40
0.5277777777777779
 40
0.5277777777777779
 40
0.5555555555555557
 40
0.5555555555555557
 40
0.5555555555555557
 40
0.5555555555555557
 40
0.5833333333333335
 40
0.5833333333333335
 40
0.5833333333333335
 40
0.5833333333333335
 40
0.6111111111111113
 40
0.6111111111111113
 40
0.6111111111111113
 40
0.6111111111111113
 40
0.6388888888888891
 40
0.6388888888888891
 40
0.6388888888888891
 40
0.6388888888888891
 40
0.6666666666666669
 40
0.6666666666666669
 40
0.6666666666666669
 40
0.6666666666666669
 40
0.6944444444444446
 40
0.6944444444444446
 40
0.6944444444444446
 40
0.6944444444444446
 40
0.7222222222222224
 40
0.7222222222222224
 40
0.7222222222222224
 40
0.7222222222222224
 40
0.7500000000000002
 40
0.7500000000000002
 40
0.7500000000000002
 40
0.7500000000000002
 40
0.777777777777778
 40
0.777777777777778
 40
0.777777777777778
 40
0.777777777777778
 40
0.8055555555555558
 40
0.8055555555555558
 40
0.8055555555555558
 40
0.8055555555555558
 40
0.8333333333333336
 40
0.8333333333333336
 40
0.8333333333333336
 40
0.8333333333333336
 40
0.8611111111111114
 40
0.8611111111111114
 40
0.8611111111111114
 40
0.8611111111111114
 40
0.8888888888888892
 40
0.8888888888888892
 40
0.8888888888888892
 40
0.8888888888888892
 40
0.916666666666667
 40
0.916666666666667
 40
0.916666666666667
 40
0.916666666666667
 40
0.9444444444444448
 40
0.9444444444444448
 40
0.9444444444444448
 40
0.9444444444444448
 40
0.9722222222222225
 40
0.9722222222222225
 40
0.9722222222222225
 40
0.9722222222222225
 40
1.0
 40
1.0
 40
1.0
 40
1.0
 10
0.19572
 20
-5.2939200000000008
 30
0.0
 10
0.3024
 20
-5.3853600000000004
 30
0.0
 10
0.48782
 20
-5.3879000000000001
 30
0.0
 10
0.27954
 20
-5.2913800000000002
 30
0.0
 10
0.27954
 20
-5.2913800000000002
 30
0.0
 10
0.24144
 20
-5.1974
 30
0.0
 10
0.05856
 20
-5.1974
 30
0.0
 10
0.10936
 20
-5.0678600000000005
 30
0.0
 10
0.10936
 20
-5.0678600000000005
 30
0.0
 10
0.23636
 20
-5.1085000000000003
 30
0.0
 10
0.39638
 20
-5.1694600000000008
 30
0.0
 10
0.5411600000000001
 20
-5.1008800000000001
 30
0.0
 10
0.5411600000000001
 20
-5.1008800000000001
 30
0.0
 10
0.6326000000000001
 20
-4.7986200000000006
 30
0.0
 10
0.6656200000000001
 20
-4.43032
 30
0.0
 10
0.9196200000000001
 20
-4.2830000000000004
 30
0.0
 10
0.9196200000000001
 20
-4.2830000000000004
 30
0.0
 10
0.7570600000000001
 20
-4.3668200000000006
 30
0.0
 10
0.6859400000000001
 20
-4.0163000000000002
 30
0.0
 10
0.658
 20
-3.8613600000000003
 30
0.0
 10
0.658
 20
-3.8613600000000003
 30
0.0
 10
0.70118
 20
-3.9045400000000003
 30
0.0
 10
0.82818
 20
-3.9756600000000004
 30
0.0
 10
0.9247000000000001
 20
-4.0010600000000007
 30
0.0
 10
0.9247000000000001
 20
-4.0010600000000007
 30
0.0
 10
0.9475600000000001
 20
-4.0798000000000005
 30
0.0
 10
0.85104
 20
-4.1737800000000007
 30
0.0
 10
0.8739000000000001
 20
-4.2423600000000006
 30
0.0
 10
0.8739000000000001
 20
-4.2423600000000006
 30
0.0
 10
1.1685400000000001
 20
-4.1077400000000006
 30
0.0
 10
1.0364600000000002
 20
-3.8740600000000005
 30
0.0
 10
1.0390000000000001
 20
-3.7038800000000003
 30
0.0
 10
1.0390000000000001
 20
-3.7038800000000003
 30
0.0
 10
1.0390000000000001
 20
-3.6276800000000002
 30
0.0
 10
1.27014
 20
-3.6226000000000003
 30
0.0
 10
1.1736200000000001
 20
-3.5133800000000002
 30
0.0
 10
1.1736200000000001
 20
-3.5133800000000002
 30
0.0
 10
0.9678800000000001
 20
-3.5489400000000004
 30
0.0
 10
0.9501000000000001
 20
-3.3051000000000004
 30
0.0
 10
0.9221600000000001
 20
-3.1400000000000001
 30
0.0
 10
0.9221600000000001
 20
-3.1400000000000001
 30
0.0
 10
1.0771000000000002
 20
-2.9850600000000003
 30
0.0
 10
1.2879200000000002
 20
-3.15524
 30
0.0
 10
1.2828400000000002
 20
-3.3355800000000002
 30
0.0
 10
1.2828400000000002
 20
-3.3355800000000002
 30
0.0
 10
1.3946000000000001
 20
-3.3838400000000002
 30
0.0
 10
1.3285600000000002
 20
-3.2162000000000002
 30
0.0
 10
1.3260200000000002
 20
-3.1628600000000002
 30
0.0
 10
1.3260200000000002
 20
-3.1628600000000002
 30
0.0
 10
1.31332
 20
-2.8733000000000004
 30
0.0
 10
1.3768200000000002
 20
-2.7513800000000002
 30
0.0
 10
1.6638400000000002
 20
-2.6167600000000002
 30
0.0
 10
1.6638400000000002
 20
-2.6167600000000002
 30
0.0
 10
1.4809600000000001
 20
-2.7234400000000001
 30
0.0
 10
1.19394
 20
-2.4796
 30
0.0
 10
1.2625200000000001
 20
-2.2281400000000002
 30
0.0
 10
1.2625200000000001
 20
-2.2281400000000002
 30
0.0
 10
1.40222
 20
-2.1875
 30
0.0
 10
1.4911200000000002
 20
-2.4008600000000002
 30
0.0
 10
1.6028800000000001
 20
-2.4542000000000002
 30
0.0
 10
1.6028800000000001
 20
-2.4542000000000002
 30
0.0
 10
2.1845400000000001
 20
-1.6109200000000001
 30
0.0
 10
1.3793600000000001
 20
-0.47554
 30
0.0
 10
1.6765400000000001
 20
0.4845700000000001
 30
0.0
 10
1.6765400000000001
 20
0.4845700000000001
 30
0.0
 10
2.2988400000000002
 20
0.74365
 30
0.0
 10
1.69686
 20
-0.49332
 30
0.0
 10
2.2607400000000002
 20
-0.29012
 30
0.0
 10
2.2607400000000002
 20
-0.29012
 30
0.0
 10
2.5528400000000002
 20
-0.12756
 30
0.0
 10
2.4106000000000001
 20
0.32201
 30
0.0
 10
2.5731600000000001
 20
0.53283
 30
0.0
 10
2.5731600000000001
 20
0.53283
 30
0.0
 10
2.6442800000000002
 20
0.06547
 30
0.0
 10
2.3598000000000003
 20
-0.31298
 30
0.0
 10
2.2810600000000001
 20
-0.7676400000000001
 30
0.0
 10
2.2810600000000001
 20
-0.7676400000000001
 30
0.0
 10
2.2810600000000001
 20
-0.7676400000000001
 30
0.0
 10
2.2810600000000001
 20
-0.8971800000000001
 30
0.0
 10
2.2810600000000001
 20
-0.8971800000000001
 30
0.0
 10
2.2810600000000001
 20
-0.8971800000000001
 30
0.0
 10
2.4715600000000002
 20
-0.34346
 30
0.0
 10
2.6849200000000004
 20
0.24327
 30
0.0
 10
2.9694000000000003
 20
0.7309500000000001
 30
0.0
 10
2.9694000000000003
 20
0.7309500000000001
 30
0.0
 10
3.2488000000000001
 20
-0.18598
 30
0.0
 10
2.12866
 20
-1.03688
 30
0.0
 10
2.2201
 20
-1.9690600000000003
 30
0.0
 10
2.2201
 20
-1.9690600000000003
 30
0.0
 10
2.2759800000000001
 20
-1.8014200000000002
 30
0.0
 10
2.3979000000000004
 20
-1.2807200000000001
 30
0.0
 10
2.5045800000000003
 20
-1.3518400000000002
 30
0.0
 10
2.5045800000000003
 20
-1.3518400000000002
 30
0.0
 10
2.4969600000000001
 20
-1.42042
 30
0.0
 10
2.4868000000000001
 20
-1.4890000000000001
 30
0.0
 10
2.4944200000000003
 20
-1.5525000000000002
 30
0.0
 10
2.4944200000000003
 20
-1.5525000000000002
 30
0.0
 10
2.50204
 20
-1.6287
 30
0.0
 10
2.4918800000000001
 20
-1.7049000000000001
 30
0.0
 10
2.5147400000000002
 20
-1.7734800000000002
 30
0.0
 10
2.5147400000000002
 20
-1.7734800000000002
 30
0.0
 10
2.4664800000000002
 20
-1.8877800000000002
 30
0.0
 10
2.4461600000000003
 20
-2.0554200000000002
 30
0.0
 10
2.4614000000000003
 20
-2.1697200000000003
 30
0.0
 10
2.4614000000000003
 20
-2.1697200000000003
 30
0.0
 10
2.5401400000000001
 20
-1.8471400000000002
 30
0.0
 10
2.6569800000000003
 20
-2.10114
 30
0.0
 10
2.5757000000000003
 20
-2.3195800000000002
 30
0.0
 10
2.5757000000000003
 20
-2.3195800000000002
 30
0.0
 10
2.4233000000000002
 20
-2.6243800000000004
 30
0.0
 10
2.13374
 20
-2.81488
 30
0.0
 10
1.8899000000000001
 20
-3.1806400000000004
 30
0.0
 10
1.8899000000000001
 20
-3.1806400000000004
 30
0.0
 10
1.7070200000000002
 20
-3.2949400000000004
 30
0.0
 10
1.9711800000000002
 20
-2.9520400000000002
 30
0.0
 10
1.9305400000000001
 20
-2.8733000000000004
 30
0.0
 10
1.9305400000000001
 20
-2.8733000000000004
 30
0.0
 10
1.5978000000000001
 20
-3.2873200000000002
 30
0.0
 10
1.2650600000000001
 20
-4.2017200000000008
 30
0.0
 10
1.0339200000000002
 20
-4.9332400000000005
 30
0.0
 10
1.0339200000000002
 20
-4.9332400000000005
 30
0.0
 10
0.91454
 20
-5.3040800000000008
 30
0.0
 10
0.8967600000000001
 20
-5.7130200000000002
 30
0.0
 10
0.7342000000000001
 20
-6.0508400000000009
 30
0.0
 10
0.7342000000000001
 20
-6.0508400000000009
 30
0.0
 10
0.6910200000000001
 20
-5.9873400000000006
 30
0.0
 10
0.8104000000000001
 20
-5.7308000000000003
 30
0.0
 10
0.6478400000000001
 20
-5.9289200000000006
 30
0.0
 10
0.6478400000000001
 20
-5.9289200000000006
 30
0.0
 10
0.57164
 20
-6.1168800000000001
 30
0.0
 10
0.47766
 20
-6.3251600000000003
 30
0.0
 10
0.27954
 20
-6.4267600000000007
 30
0.0
 10
0.27954
 20
-6.4267600000000007
 30
0.0
 10
0.28462
 20
-6.0102000000000002
 30
0.0
 10
0.34812
 20
-5.6596800000000007
 30
0.0
 10
0.59958
 20
-5.3015400000000001
 30
0.0
 10
0.59958
 20
-5.3015400000000001
 30
0.0
 10
0.51576
 20
-5.2863000000000007
 30
0.0
 10
0.49798
 20
-5.4158400000000002
 30
0.0
 10
0.42686
 20
-5.4539400000000002
 30
0.0
 10
0.42686
 20
-5.4539400000000002
 30
0.0
 10
0.33796
 20
-5.4768000000000008
 30
0.0
 10
0.18302
 20
-5.3980600000000001
 30
0.0
 10
0.19572
 20
-5.2939200000000008
 30
0.0
  0
SPLINE
  5
35
100
AcDbEntity
  8
Ebene 1
100
AcDbSpline
210
0.0
220
0.0
230
1.0
 70
     1
 71
     3
 72
    20
 73
    16
 74
     0
 42
0.0000000001
 43
0.0000000001
 40
0.0
 40
0.0
 40
0.0
 40
0.0
 40
0.25
 40
0.25
 40
0.25
 40
0.25
 40
0.5
 40
0.5
 40
0.5
 40
0.5
 40
0.75
 40
0.75
 40
0.75
 40
0.75
 40
1.0
 40
1.0
 40
1.0
 40
1.0
 10
1.5622400000000001
 20
0.7715900000000001
 30
0.0
 10
1.5622400000000001
 20
0.7715900000000001
 30
0.0
 10
1.6435200000000001
 20
0.7563500000000001
 30
0.0
 10
1.6435200000000001
 20
0.7563500000000001
 30
0.0
 10
1.6435200000000001
 20
0.7563500000000001
 30
0.0
 10
1.5038200000000002
 20
0.70555
 30
0.0
 10
1.3869800000000001
 20
0.5861700000000001
 30
0.0
 10
1.27522
 20
0.5074300000000001
 30
0.0
 10
1.27522
 20
0.5074300000000001
 30
0.0
 10
1.23712
 20
0.5912500000000001
 30
0.0
 10
1.2168000000000001
 20
0.70301
 30
0.0
 10
1.2142600000000001
 20
0.7969900000000001
 30
0.0
 10
1.2142600000000001
 20
0.7969900000000001
 30
0.0
 10
1.3234800000000002
 20
0.7334900000000001
 30
0.0
 10
1.4581000000000002
 20
0.74365
 30
0.0
 10
1.5622400000000001
 20
0.7715900000000001
 30
0.0
  0
SPLINE
  5
36
100
AcDbEntity
  8
Ebene 1
100
AcDbSpline
210
0.0
220
0.0
230
1.0
 70
     1
 71
     3
 72
    24
 73
    20
 74
     0
 42
0.0000000001
 43
0.0000000001
 40
0.0
 40
0.0
 40
0.0
 40
0.0
 40
0.2
 40
0.2
 40
0.2
 40
0.2
 40
0.4
 40
0.4
 40
0.4
 40
0.4
 40
0.6000000000000001
 40
0.6000000000000001
 40
0.6000000000000001
 40
0.6000000000000001
 40
0.8
 40
0.8
 40
0.8
 40
0.8
 40
1.0
 40
1.0
 40
1.0
 40
1.0
 10
0.05094
 20
0.63697
 30
0.0
 10
0.20842
 20
0.6318900000000001
 30
0.0
 10
0.3455800000000001
 20
0.5861700000000001
 30
0.0
 10
0.46496
 20
0.47695
 30
0.0
 10
0.46496
 20
0.47695
 30
0.0
 10
0.9094600000000001
 20
-0.6025400000000001
 30
0.0
 10
-0.5459500000000001
 20
-1.0597400000000001
 30
0.0
 10
-1.2622300000000002
 20
-1.49916
 30
0.0
 10
-1.2622300000000002
 20
-1.49916
 30
0.0
 10
-1.4044700000000001
 20
-1.4890000000000001
 30
0.0
 10
-1.5314700000000001
 20
-1.4864600000000001
 30
0.0
 10
-1.6660900000000001
 20
-1.4458200000000001
 30
0.0
 10
-1.6660900000000001
 20
-1.4458200000000001
 30
0.0
 10
-1.7499100000000001
 20
-1.3848600000000002
 30
0.0
 10
-1.7854700000000001
 20
-1.29342
 30
0.0
 10
-1.7905500000000001
 20
-1.1969000000000001
 30
0.0
 10
-1.7905500000000001
 20
-1.1969000000000001
 30
0.0
 10
-1.4476500000000001
 20
-0.4374400000000001
 30
0.0
 10
-0.7720100000000001
 20
0.40583
 30
0.0
 10
0.05094
 20
0.63697
 30
0.0
  0
SPLINE
  5
37
100
AcDbEntity
  8
Ebene 1
100
AcDbSpline
210
0.0
220
0.0
230
1.0
 70
     1
 71
     3
 72
    16
 73
    12
 74
     0
 42
0.0000000001
 43
0.0000000001
 40
0.0
 40
0.0
 40
0.0
 40
0.0
 40
0.3333333333333333
 40
0.3333333333333333
 40
0.3333333333333333
 40
0.3333333333333333
 40
0.6666666666666666
 40
0.6666666666666666
 40
0.6666666666666666
 40
0.6666666666666666
 40
1.0
 40
1.0
 40
1.0
 40
1.0
 10
-1.7524500000000001
 20
0.82747
 30
0.0
 10
-1.7168900000000002
 20
0.8350900000000001
 30
0.0
 10
-1.7219700000000002
 20
0.7969900000000001
 30
0.0
 10
-1.7270500000000002
 20
0.7741300000000001
 30
0.0
 10
-1.7270500000000002
 20
0.7741300000000001
 30
0.0
 10
-1.9048500000000002
 20
0.61919
 30
0.0
 10
-1.9632700000000001
 20
0.3905900000000001
 30
0.0
 10
-2.0572500000000002
 20
0.19755
 30
0.0
 10
-2.0572500000000002
 20
0.19755
 30
0.0
 10
-2.06487
 20
0.42869
 30
0.0
 10
-1.9861300000000002
 20
0.7157100000000001
 30
0.0
 10
-1.7524500000000001
 20
0.82747
 30
0.0
  0
SPLINE
  5
38
100
AcDbEntity
  8
Ebene 1
 62
     7
100
AcDbSpline
210
0.0
220
0.0
230
1.0
 70
     1
 71
     3
 72
    24
 73
    20
 74
     0
 42
0.0000000001
 43
0.0000000001
 40
0.0
 40
0.0
 40
0.0
 40
0.0
 40
0.2
 40
0.2
 40
0.2
 40
0.2
 40
0.4
 40
0.4
 40
0.4
 40
0.4
 40
0.6000000000000001
 40
0.6000000000000001
 40
0.6000000000000001
 40
0.6000000000000001
 40
0.8
 40
0.8
 40
0.8
 40
0.8
 40
1.0
 40
1.0
 40
1.0
 40
1.0
 10
0.16524
 20
0.48711
 30
0.0
 10
0.16524
 20
0.48711
 30
0.0
 10
0.27446
 20
0.46933
 30
0.0
 10
0.27446
 20
0.46933
 30
0.0
 10
0.27446
 20
0.46933
 30
0.0
 10
0.8459600000000001
 20
-0.20122
 30
0.0
 10
-0.04811
 20
-0.7981200000000001
 30
0.0
 10
-0.61453
 20
-1.0470400000000002
 30
0.0
 10
-0.61453
 20
-1.0470400000000002
 30
0.0
 10
-0.8329700000000001
 20
-1.1511800000000001
 30
0.0
 10
-1.04379
 20
-1.3264400000000001
 30
0.0
 10
-1.2825500000000001
 20
-1.3442200000000002
 30
0.0
 10
-1.2825500000000001
 20
-1.3442200000000002
 30
0.0
 10
-0.6094500000000001
 20
-1.04196
 30
0.0
 10
0.1373
 20
-0.5746
 30
0.0
 10
0.29478
 20
0.20263
 30
0.0
 10
0.29478
 20
0.20263
 30
0.0
 10
0.31002
 20
0.3270900000000001
 30
0.0
 10
0.09158
 20
0.4210700000000001
 30
0.0
 10
0.16524
 20
0.48711
 30
0.0
  0
SPLINE
  5
39
100
AcDbEntity
  8
Ebene 1
100
AcDbSpline
210
0.0
220
0.0
230
1.0
 70
     1
 71
     3
 72
    12
 73
     8
 74
     0
 42
0.0000000001
 43
0.0000000001
 40
0.0
 40
0.0
 40
0.0
 40
0.0
 40
0.5
 40
0.5
 40
0.5
 40
0.5
 40
1.0
 40
1.0
 40
1.0
 40
1.0
 10
-1.5924300000000002
 20
0.63951
 30
0.0
 10
-1.5213100000000002
 20
0.6547500000000001
 30
0.0
 10
-1.5390900000000001
 20
0.5277500000000001
 30
0.0
 10
-1.5924300000000002
 20
0.5201300000000001
 30
0.0
 10
-1.5924300000000002
 20
0.5201300000000001
 30
0.0
 10
-1.5924300000000002
 20
0.5201300000000001
 30
0.0
 10
-1.5924300000000002
 20
0.63951
 30
0.0
 10
-1.5924300000000002
 20
0.63951
 30
0.0
  0
SPLINE
  5
3A
100
AcDbEntity
  8
Ebene 1
 62
     7
100
AcDbSpline
210
0.0
220
0.0
230
1.0
 70
     1
 71
     3
 72
    16
 73
    12
 74
     0
 42
0.0000000001
 43
0.0000000001
 40
0.0
 40
0.0
 40
0.0
 40
0.0
 40
0.3333333333333333
 40
0.3333333333333333
 40
0.3333333333333333
 40
0.3333333333333333
 40
0.6666666666666666
 40
0.6666666666666666
 40
0.6666666666666666
 40
0.6666666666666666
 40
1.0
 40
1.0
 40
1.0
 40
1.0
 10
1.3412600000000001
 20
-1.1308600000000002
 30
0.0
 10
1.1990200000000002
 20
-1.0648200000000001
 30
0.0
 10
0.785
 20
-1.0267200000000001
 30
0.0
 10
0.9856600000000001
 20
-0.78288
 30
0.0
 10
0.9856600000000001
 20
-0.78288
 30
0.0
 10
0.9856600000000001
 20
-0.78288
 30
0.0
 10
1.0517000000000001
 20
-0.7905000000000001
 30
0.0
 10
1.0517000000000001
 20
-0.7905000000000001
 30
0.0
 10
1.0517000000000001
 20
-0.7905000000000001
 30
0.0
 10
1.0517000000000001
 20
-0.7905000000000001
 30
0.0
 10
1.3412600000000001
 20
-1.1308600000000002
 30
0.0
 10
1.3412600000000001
 20
-1.1308600000000002
 30
0.0
  0
SPLINE
  5
3B
100
AcDbEntity
  8
Ebene 1
100
AcDbSpline
210
0.0
220
0.0
230
1.0
 70
     1
 71
     3
 72
    20
 73
    16
 74
     0
 42
0.0000000001
 43
0.0000000001
 40
0.0
 40
0.0
 40
0.0
 40
0.0
 40
0.25
 40
0.25
 40
0.25
 40
0.25
 40
0.5
 40
0.5
 40
0.5
 40
0.5
 40
0.75
 40
0.75
 40
0.75
 40
0.75
 40
1.0
 40
1.0
 40
1.0
 40
1.0
 10
-1.8489700000000002
 20
-0.7524000000000001
 30
0.0
 10
-1.7854700000000001
 20
-0.7651000000000001
 30
0.0
 10
-1.8896100000000002
 20
-0.84384
 30
0.0
 10
-1.8718300000000001
 20
-0.8946400000000001
 30
0.0
 10
-1.8718300000000001
 20
-0.8946400000000001
 30
0.0
 10
-2.1994900000000004
 20
-1.1842000000000001
 30
0.0
 10
-2.1715500000000003
 20
-1.6591800000000001
 30
0.0
 10
-2.3061700000000003
 20
-2.0351000000000004
 30
0.0
 10
-2.3061700000000003
 20
-2.0351000000000004
 30
0.0
 10
-2.3595100000000002
 20
-1.9970000000000001
 30
0.0
 10
-2.3214100000000002
 20
-1.8725400000000001
 30
0.0
 10
-2.3239500000000004
 20
-1.7988800000000003
 30
0.0
 10
-2.3239500000000004
 20
-1.7988800000000003
 30
0.0
 10
-2.4585700000000004
 20
-1.37978
 30
0.0
 10
-2.15123
 20
-0.9962400000000001
 30
0.0
 10
-1.8489700000000002
 20
-0.7524000000000001
 30
0.0
  0
SPLINE
  5
3C
100
AcDbEntity
  8
Ebene 1
100
AcDbSpline
210
0.0
220
0.0
230
1.0
 70
     1
 71
     3
 72
    24
 73
    20
 74
     0
 42
0.0000000001
 43
0.0000000001
 40
0.0
 40
0.0
 40
0.0
 40
0.0
 40
0.2
 40
0.2
 40
0.2
 40
0.2
 40
0.4
 40
0.4
 40
0.4
 40
0.4
 40
0.6000000000000001
 40
0.6000000000000001
 40
0.6000000000000001
 40
0.6000000000000001
 40
0.8
 40
0.8
 40
0.8
 40
0.8
 40
1.0
 40
1.0
 40
1.0
 40
1.0
 10
-1.0310900000000001
 20
-1.9360400000000002
 30
0.0
 10
-1.0183900000000001
 20
-1.9436600000000002
 30
0.0
 10
-0.9828300000000001
 20
-1.9335000000000002
 30
0.0
 10
-0.9853700000000001
 20
-1.9614400000000001
 30
0.0
 10
-0.9853700000000001
 20
-1.9614400000000001
 30
0.0
 10
-1.04379
 20
-2.09606
 30
0.0
 10
-1.2850900000000001
 20
-2.1621000000000001
 30
0.0
 10
-1.2215900000000002
 20
-2.3475200000000003
 30
0.0
 10
-1.2215900000000002
 20
-2.3475200000000003
 30
0.0
 10
-1.2215900000000002
 20
-2.3475200000000003
 30
0.0
 10
-1.24699
 20
-2.4135600000000004
 30
0.0
 10
-1.24699
 20
-2.4135600000000004
 30
0.0
 10
-1.24699
 20
-2.4135600000000004
 30
0.0
 10
-1.33081
 20
-2.3424400000000003
 30
0.0
 10
-1.3663700000000001
 20
-2.19258
 30
0.0
 10
-1.3663700000000001
 20
-2.0808200000000001
 30
0.0
 10
-1.3663700000000001
 20
-2.0808200000000001
 30
0.0
 10
-1.2393700000000001
 20
-2.0833600000000003
 30
0.0
 10
-1.1174500000000001
 20
-2.0300200000000004
 30
0.0
 10
-1.0310900000000001
 20
-1.9360400000000002
 30
0.0
  0
SPLINE
  5
3D
100
AcDbEntity
  8
Ebene 1
100
AcDbSpline
210
0.0
220
0.0
230
1.0
 70
     1
 71
     3
 72
    24
 73
    20
 74
     0
 42
0.0000000001
 43
0.0000000001
 40
0.0
 40
0.0
 40
0.0
 40
0.0
 40
0.2
 40
0.2
 40
0.2
 40
0.2
 40
0.4
 40
0.4
 40
0.4
 40
0.4
 40
0.6000000000000001
 40
0.6000000000000001
 40
0.6000000000000001
 40
0.6000000000000001
 40
0.8
 40
0.8
 40
0.8
 40
0.8
 40
1.0
 40
1.0
 40
1.0
 40
1.0
 10
-1.7778500000000002
 20
-1.9893800000000001
 30
0.0
 10
-1.7473700000000001
 20
-1.9970000000000001
 30
0.0
 10
-1.6889500000000002
 20
-1.9868400000000002
 30
0.0
 10
-1.6864100000000002
 20
-2.0300200000000004
 30
0.0
 10
-1.6864100000000002
 20
-2.0300200000000004
 30
0.0
 10
-2.01661
 20
-2.1570200000000002
 30
0.0
 10
-2.4230100000000001
 20
-2.3576800000000002
 30
0.0
 10
-2.48651
 20
-2.7463000000000002
 30
0.0
 10
-2.48651
 20
-2.7463000000000002
 30
0.0
 10
-2.48651
 20
-2.7463000000000002
 30
0.0
 10
-2.6312900000000004
 20
-2.9672800000000001
 30
0.0
 10
-2.6312900000000004
 20
-2.9672800000000001
 30
0.0
 10
-2.6312900000000004
 20
-2.9672800000000001
 30
0.0
 10
-2.64907
 20
-2.7564600000000001
 30
0.0
 10
-2.5601700000000003
 20
-2.52786
 30
0.0
 10
-2.4738100000000003
 20
-2.3348200000000001
 30
0.0
 10
-2.4738100000000003
 20
-2.3348200000000001
 30
0.0
 10
-2.2807700000000004
 20
-2.1621000000000001
 30
0.0
 10
-2.0089900000000003
 20
-2.0859000000000001
 30
0.0
 10
-1.7778500000000002
 20
-1.9893800000000001
 30
0.0
  0
SPLINE
  5
3E
100
AcDbEntity
  8
Ebene 1
100
AcDbSpline
210
0.0
220
0.0
230
1.0
 70
     1
 71
     3
 72
    40
 73
    36
 74
     0
 42
0.0000000001
 43
0.0000000001
 40
0.0
 40
0.0
 40
0.0
 40
0.0
 40
0.1111111111111111
 40
0.1111111111111111
 40
0.1111111111111111
 40
0.1111111111111111
 40
0.2222222222222222
 40
0.2222222222222222
 40
0.2222222222222222
 40
0.2222222222222222
 40
0.3333333333333333
 40
0.3333333333333333
 40
0.3333333333333333
 40
0.3333333333333333
 40
0.4444444444444444
 40
0.4444444444444444
 40
0.4444444444444444
 40
0.4444444444444444
 40
0.5555555555555556
 40
0.5555555555555556
 40
0.5555555555555556
 40
0.5555555555555556
 40
0.6666666666666667
 40
0.6666666666666667
 40
0.6666666666666667
 40
0.6666666666666667
 40
0.7777777777777779
 40
0.7777777777777779
 40
0.7777777777777779
 40
0.7777777777777779
 40
0.8888888888888891
 40
0.8888888888888891
 40
0.8888888888888891
 40
0.8888888888888891
 40
1.0
 40
1.0
 40
1.0
 40
1.0
 10
-1.67117
 20
-2.5735800000000002
 30
0.0
 10
-1.3663700000000001
 20
-2.5735800000000002
 30
0.0
 10
-1.4324100000000002
 20
-2.8987000000000003
 30
0.0
 10
-1.5644900000000002
 20
-3.0612600000000003
 30
0.0
 10
-1.5644900000000002
 20
-3.0612600000000003
 30
0.0
 10
-1.7041900000000001
 20
-3.2593800000000002
 30
0.0
 10
-1.5822700000000001
 20
-2.9596600000000004
 30
0.0
 10
-1.5619500000000002
 20
-2.8733000000000004
 30
0.0
 10
-1.5619500000000002
 20
-2.8733000000000004
 30
0.0
 10
-1.5213100000000002
 20
-2.7971000000000004
 30
0.0
 10
-1.6787900000000002
 20
-2.6878800000000003
 30
0.0
 10
-1.6356100000000002
 20
-2.81488
 30
0.0
 10
-1.6356100000000002
 20
-2.81488
 30
0.0
 10
-1.6889500000000002
 20
-3.2009600000000002
 30
0.0
 10
-2.0242300000000002
 20
-3.5489400000000004
 30
0.0
 10
-2.4077700000000002
 20
-3.6048200000000001
 30
0.0
 10
-2.4077700000000002
 20
-3.6048200000000001
 30
0.0
 10
-2.4331700000000001
 20
-3.6226000000000003
 30
0.0
 10
-2.4534900000000004
 20
-3.6480000000000001
 30
0.0
 10
-2.4560300000000002
 20
-3.6784800000000004
 30
0.0
 10
-2.4560300000000002
 20
-3.6784800000000004
 30
0.0
 10
-2.40523
 20
-3.8232600000000003
 30
0.0
 10
-2.1740900000000001
 20
-3.5286200000000001
 30
0.0
 10
-2.1969500000000002
 20
-3.7089600000000003
 30
0.0
 10
-2.1969500000000002
 20
-3.7089600000000003
 30
0.0
 10
-2.31887
 20
-3.7394400000000001
 30
0.0
 10
-2.4230100000000001
 20
-3.8385000000000002
 30
0.0
 10
-2.5576300000000001
 20
-3.7978600000000005
 30
0.0
 10
-2.5576300000000001
 20
-3.7978600000000005
 30
0.0
 10
-2.6160500000000004
 20
-3.7851600000000003
 30
0.0
 10
-2.5931900000000003
 20
-3.7318200000000004
 30
0.0
 10
-2.61097
 20
-3.6911800000000001
 30
0.0
 10
-2.61097
 20
-3.6911800000000001
 30
0.0
 10
-2.5144500000000001
 20
-3.2060400000000002
 30
0.0
 10
-2.1207500000000001
 20
-2.7590000000000003
 30
0.0
 10
-1.67117
 20
-2.5735800000000002
 30
0.0
  0
SPLINE
  5
3F
100
AcDbEntity
  8
Ebene 1
100
AcDbSpline
210
0.0
220
0.0
230
1.0
 70
     1
 71
     3
 72
    20
 73
    16
 74
     0
 42
0.0000000001
 43
0.0000000001
 40
0.0
 40
0.0
 40
0.0
 40
0.0
 40
0.25
 40
0.25
 40
0.25
 40
0.25
 40
0.5
 40
0.5
 40
0.5
 40
0.5
 40
0.75
 40
0.75
 40
0.75
 40
0.75
 40
1.0
 40
1.0
 40
1.0
 40
1.0
 10
-3.2459700000000002
 20
-4.1610800000000001
 30
0.0
 10
-3.2281900000000001
 20
-4.1661600000000005
 30
0.0
 10
-3.2180300000000002
 20
-4.1814
 30
0.0
 10
-3.2154900000000004
 20
-4.1991800000000001
 30
0.0
 10
-3.2154900000000004
 20
-4.1991800000000001
 30
0.0
 10
-3.3018500000000004
 20
-4.3515800000000002
 30
0.0
 10
-3.2129500000000002
 20
-4.5547800000000001
 30
0.0
 10
-3.3043900000000002
 20
-4.7021000000000006
 30
0.0
 10
-3.3043900000000002
 20
-4.7021000000000006
 30
0.0
 10
-3.3196300000000001
 20
-4.7046400000000004
 30
0.0
 10
-3.3297900000000005
 20
-4.6843200000000005
 30
0.0
 10
-3.3297900000000005
 20
-4.6716200000000008
 30
0.0
 10
-3.3297900000000005
 20
-4.6716200000000008
 30
0.0
 10
-3.3297900000000005
 20
-4.6716200000000008
 30
0.0
 10
-3.2459700000000002
 20
-4.1610800000000001
 30
0.0
 10
-3.2459700000000002
 20
-4.1610800000000001
 30
0.0
  0
SPLINE
  5
40
100
AcDbEntity
  8
Ebene 1
 62
     7
100
AcDbSpline
210
0.0
220
0.0
230
1.0
 70
     1
 71
     3
 72
     8
 73
     4
 74
     0
 42
0.0000000001
 43
0.0000000001
 40
0.0
 40
0.0
 40
0.0
 40
0.0
 40
1.0
 40
1.0
 40
1.0
 40
1.0
 10
0.19572
 20
-5.2939200000000008
 30
0.0
 10
0.1627
 20
-5.2913800000000002
 30
0.0
 10
0.2008
 20
-5.2634400000000001
 30
0.0
 10
0.19572
 20
-5.2939200000000008
 30
0.0
  0
SPLINE
  5
41
100
AcDbEntity
  8
Ebene 1
 62
     7
100
AcDbSpline
210
0.0
220
0.0
230
1.0
 70
     1
 71
     3
 72
    20
 73
    16
 74
     0
 42
0.0000000001
 43
0.0000000001
 40
0.0
 40
0.0
 40
0.0
 40
0.0
 40
0.25
 40
0.25
 40
0.25
 40
0.25
 40
0.5
 40
0.5
 40
0.5
 40
0.5
 40
0.75
 40
0.75
 40
0.75
 40
0.75
 40
1.0
 40
1.0
 40
1.0
 40
1.0
 10
0.10428
 20
-6.0635400000000006
 30
0.0
 10
0.32272
 20
-6.3150000000000004
 30
0.0
 10
0.02046
 20
-6.4928000000000008
 30
0.0
 10
-0.19543
 20
-6.4877200000000004
 30
0.0
 10
-0.19543
 20
-6.4877200000000004
 30
0.0
 10
-0.14971
 20
-6.5131200000000007
 30
0.0
 10
-0.17003
 20
-6.5461400000000003
 30
0.0
 10
-0.22083
 20
-6.5486800000000009
 30
0.0
 10
-0.22083
 20
-6.5486800000000009
 30
0.0
 10
-0.22083
 20
-6.5486800000000009
 30
0.0
 10
-0.35291
 20
-6.5258200000000004
 30
0.0
 10
-0.35291
 20
-6.5258200000000004
 30
0.0
 10
-0.35291
 20
-6.5258200000000004
 30
0.0
 10
-0.19289
 20
-6.3429400000000005
 30
0.0
 10
-0.05065
 20
-6.2388000000000003
 30
0.0
 10
0.10428
 20
-6.0635400000000006
 30
0.0
  0
SPLINE
  5
42
100
AcDbEntity
  8
Ebene 1
 62
     7
100
AcDbSpline
210
0.0
220
0.0
230
1.0
 70
     1
 71
     3
 72
    16
 73
    12
 74
     0
 42
0.0000000001
 43
0.0000000001
 40
0.0
 40
0.0
 40
0.0
 40
0.0
 40
0.3333333333333333
 40
0.3333333333333333
 40
0.3333333333333333
 40
0.3333333333333333
 40
0.6666666666666666
 40
0.6666666666666666
 40
0.6666666666666666
 40
0.6666666666666666
 40
1.0
 40
1.0
 40
1.0
 40
1.0
 10
-0.05319
 20
-5.9695600000000004
 30
0.0
 10
-0.03795
 20
-5.9695600000000004
 30
0.0
 10
-0.02017
 20
-5.9695600000000004
 30
0.0
 10
-0.02271
 20
-5.9873400000000006
 30
0.0
 10
-0.02271
 20
-5.9873400000000006
 30
0.0
 10
-0.13701
 20
-6.2057800000000007
 30
0.0
 10
-0.37069
 20
-6.3277000000000001
 30
0.0
 10
-0.6043700000000001
 20
-6.3429400000000005
 30
0.0
 10
-0.6043700000000001
 20
-6.3429400000000005
 30
0.0
 10
-0.4595900000000001
 20
-6.2007000000000003
 30
0.0
 10
-0.21829
 20
-6.0686200000000001
 30
0.0
 10
-0.05319
 20
-5.9695600000000004
 30
0.0
  0
SPLINE
  5
43
100
AcDbEntity
  8
Ebene 1
 62
     7
100
AcDbSpline
210
0.0
220
0.0
230
1.0
 70
     1
 71
     3
 72
    24
 73
    20
 74
     0
 42
0.0000000001
 43
0.0000000001
 40
0.0
 40
0.0
 40
0.0
 40
0.0
 40
0.2
 40
0.2
 40
0.2
 40
0.2
 40
0.4
 40
0.4
 40
0.4
 40
0.4
 40
0.6000000000000001
 40
0.6000000000000001
 40
0.6000000000000001
 40
0.6000000000000001
 40
0.8
 40
0.8
 40
0.8
 40
0.8
 40
1.0
 40
1.0
 40
1.0
 40
1.0
 10
-0.25131
 20
-6.8966600000000007
 30
0.0
 10
-0.25131
 20
-6.7798200000000008
 30
0.0
 10
-0.35799
 20
-6.9474600000000004
 30
0.0
 10
-0.3960900000000001
 20
-6.9728600000000007
 30
0.0
 10
-0.3960900000000001
 20
-6.9728600000000007
 30
0.0
 10
-0.46721
 20
-7.0008000000000008
 30
0.0
 10
-0.5434100000000001
 20
-7.0668400000000009
 30
0.0
 10
-0.6246900000000001
 20
-7.0439800000000004
 30
0.0
 10
-0.6246900000000001
 20
-7.0439800000000004
 30
0.0
 10
-0.34783
 20
-6.8636400000000002
 30
0.0
 10
-0.14971
 20
-6.5182000000000002
 30
0.0
 10
0.1754
 20
-6.4547000000000008
 30
0.0
 10
0.1754
 20
-6.4547000000000008
 30
0.0
 10
0.16016
 20
-6.5664600000000002
 30
0.0
 10
0.09666
 20
-6.6579000000000006
 30
0.0
 10
0.00522
 20
-6.7341000000000006
 30
0.0
 10
0.00522
 20
-6.7341000000000006
 30
0.0
 10
-0.06843
 20
-6.797600000000001
 30
0.0
 10
-0.16241
 20
-6.8661800000000008
 30
0.0
 10
-0.25131
 20
-6.8966600000000007
 30
0.0
  0
SPLINE
  5
44
100
AcDbEntity
  8
Ebene 1
 62
     7
100
AcDbSpline
210
0.0
220
0.0
230
1.0
 70
     1
 71
     3
 72
     8
 73
     4
 74
     0
 42
0.0000000001
 43
0.0000000001
 40
0.0
 40
0.0
 40
0.0
 40
0.0
 40
1.0
 40
1.0
 40
1.0
 40
1.0
 10
-0.25131
 20
-6.8966600000000007
 30
0.0
 10
-0.25639
 20
-6.9271400000000005
 30
0.0
 10
-0.28433
 20
-6.8915800000000003
 30
0.0
 10
-0.25131
 20
-6.8966600000000007
 30
0.0
  0
ENDSEC
  0
SECTION
  2
OBJECTS
  0
DICTIONARY
  5
19
100
AcDbDictionary
280
     0
281
     1
  3
ACAD_GROUP
350
1A
  3
ACAD_MLINESTYLE
350
1B
  3
ACAD_LAYOUT
350
1E
  3
ACAD_PLOTSETTINGS
350
22
  3
ACAD_PLOTSTYLENAME
350
1F
  3
ACAD_WIPEOUT_VARS
350
23
  0
DICTIONARY
  5
1A
102
{ACAD_REACTORS
330
19
102
}
100
AcDbDictionary
280
     0
281
     1
  0
DICTIONARY
  5
1B
102
{ACAD_REACTORS
330
19
102
}
100
AcDbDictionary
280
     0
281
     1
  3
Standard
350
1C
  0
MLINESTYLE
  5
1C
102
{ACAD_REACTORS
330
1B
102
}
100
AcDbMlineStyle
  2
Standard
 70
     0
  3

 62
     0
 51
90.0
 52
90.0
 71
     2
 49
0.5
 62
   256
  6
BYLAYER
 49
-0.5
 62
   256
  6
BYLAYER
  0
ACDBDICTIONARYWDFLT
  5
1F
102
{ACAD_REACTORS
330
19
102
}
100
AcDbDictionary
281
     1
  3
Normal
350
1D
100
AcDbDictionaryWithDefault
340
1D
  0
ACDBPLACEHOLDER
  5
1D
102
{ACAD_REACTORS
330
1F
102
}
  0
LAYOUT
  5
20
102
{ACAD_REACTORS
330
1E
102
}
100
AcDbPlotSettings
  1

  2

  4

  6

 40
0.0
 41
0.0
 42
0.0
 43
0.0
 44
0.0
 45
0.0
 46
0.0
 47
0.0
 48
0.0
 49
0.0
140
0.0
141
0.0
142
1.0
143
1.0
 70
  1024
 72
     0
 73
     0
 74
     0
  7

 75
     0
147
1.0
148
0.0
149
0.0
100
AcDbLayout
  1
Model
 70
     0
 71
     0
 10
0.0
 20
0.0
 11
0.0
 21
0.0
 12
0.0
 22
0.0
 32
0.0
 14
0.0
 24
0.0
 34
0.0
 15
0.0
 25
0.0
 35
0.0
146
0.0
 13
0.0
 23
0.0
 33
0.0
 16
0.0
 26
0.0
 36
0.0
 17
0.0
 27
0.0
 37
0.0
 76
     0
330
A
331
0
345
0
346
0
  0
LAYOUT
  5
21
102
{ACAD_REACTORS
330
1E
102
}
100
AcDbPlotSettings
  1

  2

  4

  6

 40
0.0
 41
0.0
 42
0.0
 43
0.0
 44
0.0
 45
0.0
 46
0.0
 47
0.0
 48
0.0
 49
0.0
140
0.0
141
0.0
142
1.0
143
1.0
 70
     0
 72
     0
 73
     0
 74
     0
  7

 75
     0
147
1.0
148
0.0
149
0.0
100
AcDbLayout
  1
Layout1
 70
     0
 71
     0
 10
0.0
 20
0.0
 11
0.0
 21
0.0
 12
0.0
 22
0.0
 32
0.0
 14
0.0
 24
0.0
 34
0.0
 15
0.0
 25
0.0
 35
0.0
146
0.0
 13
0.0
 23
0.0
 33
0.0
 16
0.0
 26
0.0
 36
0.0
 17
0.0
 27
0.0
 37
0.0
 76
     0
330
B
331
0
345
0
346
0
  0
DICTIONARY
  5
1E
102
{ACAD_REACTORS
330
19
102
}
100
AcDbDictionary
280
     0
281
     1
  3
Layout1
350
21
  3
Model
350
20
  0
DICTIONARY
  5
22
102
{ACAD_REACTORS
330
19
102
}
100
AcDbDictionary
280
     0
281
     1
  0
WIPEOUTVARIABLES
  5
23
100
AcDbWipeoutVariables
 70
     1
  0
ENDSEC
  0
EOF
