  0
SECTION
  2
HEADER
  9
$ACADVER
  1
AC1015
  9
$ACADMAINTVER
 70
     6
  9
$DWGCODEPAGE
  3
DOS850
  9
$INSBASE
 10
0.0
 20
0.0
 30
0.0
  9
$EXTMIN
 10
-3.19023
 20
-6.89158
 30
1.000000E+20
  9
$EXTMAX
 10
3.19615
 20
6.88427
 30
-1.000000E+20
  9
$LIMMIN
 10
0.0
 20
0.0
  9
$LIMMAX
 10
0.0
 20
0.0
  9
$ORTHOMODE
 70
     0
  9
$REGENMODE
 70
     1
  9
$FILLMODE
 70
     1
  9
$QTEXTMODE
 70
     0
  9
$MIRRTEXT
 70
     1
  9
$LTSCALE
 40
1.0
  9
$ATTMODE
 70
     1
  9
$TEXTSIZE
 40
0.2
  9
$TRACEWID
 40
0.05
  9
$TEXTSTYLE
  7
Standard
  9
$CLAYER
  8
0
  9
$CELTYPE
  6
Continuous
  9
$CECOLOR
 62
   256
  9
$CELTSCALE
 40
1.0
  9
$DISPSILH
 70
     0
  9
$DIMSCALE
 40
1.0
  9
$DIMASZ
 40
0.18
  9
$DIMEXO
 40
0.0625
  9
$DIMDLI
 40
0.38
  9
$DIMRND
 40
0.0
  9
$DIMDLE
 40
0.0
  9
$DIMEXE
 40
0.18
  9
$DIMTP
 40
0.0
  9
$DIMTM
 40
0.0
  9
$DIMTXT
 40
0.18
  9
$DIMCEN
 40
0.09
  9
$DIMTSZ
 40
0.0
  9
$DIMTOL
 70
     0
  9
$DIMLIM
 70
     0
  9
$DIMTIH
 70
     1
  9
$DIMTOH
 70
     1
  9
$DIMSE1
 70
     0
  9
$DIMSE2
 70
     0
  9
$DIMTAD
 70
     0
  9
$DIMZIN
 70
     0
  9
$DIMBLK
  1

  9
$DIMASO
 70
     1
  9
$DIMSHO
 70
     1
  9
$DIMPOST
  1

  9
$DIMAPOST
  1

  9
$DIMALT
 70
     0
  9
$DIMALTD
 70
     2
  9
$DIMALTF
 40
25.4
  9
$DIMLFAC
 40
1.0
  9
$DIMTOFL
 70
     0
  9
$DIMTVP
 40
0.0
  9
$DIMTIX
 70
     0
  9
$DIMSOXD
 70
     0
  9
$DIMSAH
 70
     0
  9
$DIMBLK1
  1

  9
$DIMBLK2
  1

  9
$DIMSTYLE
  2
Standard
  9
$DIMCLRD
 70
     0
  9
$DIMCLRE
 70
     0
  9
$DIMCLRT
 70
     0
  9
$DIMTFAC
 40
1.0
  9
$DIMGAP
 40
0.09
  9
$DIMJUST
 70
     0
  9
$DIMSD1
 70
     0
  9
$DIMSD2
 70
     0
  9
$DIMTOLJ
 70
     1
  9
$DIMTZIN
 70
     0
  9
$DIMALTZ
 70
     0
  9
$DIMALTTZ
 70
     0
  9
$DIMUPT
 70
     0
  9
$DIMDEC
 70
     4
  9
$DIMTDEC
 70
     4
  9
$DIMALTU
 70
     2
  9
$DIMALTTD
 70
     2
  9
$DIMTXSTY
  7
Standard
  9
$DIMAUNIT
 70
     0
  9
$DIMADEC
 70
     0
  9
$DIMALTRND
 40
0.0
  9
$DIMAZIN
 70
     0
  9
$DIMDSEP
 70
     0
  9
$DIMATFIT
 70
     3
  9
$DIMFRAC
 70
     0
  9
$DIMLDRBLK
  1

  9
$DIMLUNIT
 70
     2
  9
$DIMLWD
 70
     0
  9
$DIMLWE
 70
     0
  9
$DIMTMOVE
 70
     0
  9
$LUNITS
 70
     2
  9
$LUPREC
 70
     4
  9
$SKETCHINC
 40
0.1
  9
$FILLETRAD
 40
0.0
  9
$AUNITS
 70
     0
  9
$AUPREC
 70
     0
  9
$MENU
  1
acad
  9
$ELEVATION
 40
0.0
  9
$PELEVATION
 40
0.0
  9
$THICKNESS
 40
0.0
  9
$LIMCHECK
 70
     0
  9
$CHAMFERA
 40
0.0
  9
$CHAMFERB
 40
0.0
  9
$CHAMFERC
 40
0.0
  9
$CHAMFERD
 40
0.0
  9
$SKPOLY
 70
     0
  9
$TDCREATE
 40
0.000000000
  9
$TDUCREATE
 40
0.000000000
  9
$TDUPDATE
 40
0.000000000
  9
$TDUUPDATE
 40
0.000000000
  9
$TDINDWG
 40
0.0000000000
  9
$TDUSRTIMER
 40
0.0000000000
  9
$USRTIMER
 70
     1
  9
$ANGBASE
 50
0.0
  9
$ANGDIR
 70
     0
  9
$PDMODE
 70
     0
  9
$PDSIZE
 40
0.0
  9
$PLINEWID
 40
0.0
  9
$SPLFRAME
 70
     0
  9
$SPLINETYPE
 70
     6
  9
$SPLINESEGS
 70
     8
  9
$HANDSEED
  5
4F
  9
$SURFTAB1
 70
     6
  9
$SURFTAB2
 70
     6
  9
$SURFTYPE
 70
     6
  9
$SURFU
 70
     6
  9
$SURFV
 70
     6
  9
$UCSBASE
  2

  9
$UCSNAME
  2

  9
$UCSORG
 10
0.0
 20
0.0
 30
0.0
  9
$UCSXDIR
 10
1.0
 20
0.0
 30
0.0
  9
$UCSYDIR
 10
0.0
 20
1.0
 30
0.0
  9
$UCSORTHOREF
  2

  9
$UCSORTHOVIEW
 70
     0
  9
$UCSORGTOP
 10
0.0
 20
0.0
 30
0.0
  9
$UCSORGBOTTOM
 10
0.0
 20
0.0
 30
0.0
  9
$UCSORGLEFT
 10
0.0
 20
0.0
 30
0.0
  9
$UCSORGRIGHT
 10
0.0
 20
0.0
 30
0.0
  9
$UCSORGFRONT
 10
0.0
 20
0.0
 30
0.0
  9
$UCSORGBACK
 10
0.0
 20
0.0
 30
0.0
  9
$PUCSBASE
  2

  9
$PUCSNAME
  2

  9
$PUCSORG
 10
0.0
 20
0.0
 30
0.0
  9
$PUCSXDIR
 10
1.0
 20
0.0
 30
0.0
  9
$PUCSYDIR
 10
0.0
 20
1.0
 30
0.0
  9
$PUCSORTHOREF
  2

  9
$PUCSORTHOVIEW
 70
     0
  9
$PUCSORGTOP
 10
0.0
 20
0.0
 30
0.0
  9
$PUCSORGBOTTOM
 10
0.0
 20
0.0
 30
0.0
  9
$PUCSORGLEFT
 10
0.0
 20
0.0
 30
0.0
  9
$PUCSORGRIGHT
 10
0.0
 20
0.0
 30
0.0
  9
$PUCSORGFRONT
 10
0.0
 20
0.0
 30
0.0
  9
$PUCSORGBACK
 10
0.0
 20
0.0
 30
0.0
  9
$USERI1
 70
     0
  9
$USERI2
 70
     0
  9
$USERI3
 70
     0
  9
$USERI4
 70
     0
  9
$USERI5
 70
     0
  9
$USERR1
 40
0.0
  9
$USERR2
 40
0.0
  9
$USERR3
 40
0.0
  9
$USERR4
 40
0.0
  9
$USERR5
 40
0.0
  9
$WORLDVIEW
 70
     1
  9
$SHADEDGE
 70
     3
  9
$SHADEDIF
 70
    70
  9
$TILEMODE
 70
     1
  9
$MAXACTVP
 70
    16
  9
$PINSBASE
 10
0.0
 20
0.0
 30
0.0
  9
$PLIMCHECK
 70
     0
  9
$PEXTMIN
 10
1.000000E+20
 20
1.000000E+20
 30
1.000000E+20
  9
$PEXTMAX
 10
-1.000000E+20
 20
-1.000000E+20
 30
-1.000000E+20
  9
$PLIMMIN
 10
0.0
 20
0.0
  9
$PLIMMAX
 10
12.0
 20
9.0
  9
$UNITMODE
 70
     0
  9
$VISRETAIN
 70
     0
  9
$PLINEGEN
 70
     1
  9
$PSLTSCALE
 70
     0
  9
$TREEDEPTH
 70
  3020
  9
$CMLSTYLE
  2
Standard
  9
$CMLJUST
 70
     0
  9
$CMLSCALE
 40
1.0
  9
$PROXYGRAPHICS
 70
     0
  9
$MEASUREMENT
 70
     0
  9
$CELWEIGHT
370
     0
  9
$ENDCAPS
280
     0
  9
$JOINSTYLE
280
     0
  9
$LWDISPLAY
290
     0
  9
$INSUNITS
 70
     5
  9
$HYPERLINKBASE
  1

  9
$XEDIT
290
     1
  9
$CEPSNTYPE
380
     0
  9
$PSTYLEMODE
290
     1
  9
$FINGERPRINTGUID
  2

  9
$VERSIONGUID
  2

  9
$EXTNAMES
290
     1
  9
$PSVPSCALE
 40
0.0
  0
ENDSEC
  0
SECTION
  2
CLASSES
  0
CLASS
  1
LWPOLYLINE
  2
AcDbPolyline
  3
AutoCAD 2000
 90
    32768
280
     0
281
     1
  0
CLASS
  1
IMAGE
  2
AcDbRasterImage
  3
ISM
 90
    32895
280
     0
281
     1
  0
CLASS
  1
OLE2FRAME
  2
AcDbOle2Frame
  3
AutoCAD 2000
 90
    32768
280
     0
281
     1
  0
CLASS
  1
HATCH
  2
AcDbHatch
  3
AutoCAD 2000
 90
    32768
280
     0
281
     1
  0
CLASS
  1
DICTIONARYVAR
  2
AcDbDictionaryVar
  3
AutoCAD 2000
 90
    32768
280
     0
281
     0
  0
CLASS
  1
RASTERVARIABLES
  2
AcDbRasterVariables
  3
ISM
 90
    32768
280
     0
281
     0
  0
CLASS
  1
IMAGEDEF
  2
AcDbRasterImageDef
  3
ISM
 90
    32768
280
     0
281
     0
  0
CLASS
  1
IMAGEDEF_REACTOR
  2
AcDbRasterImageDefReactor
  3
ISM
 90
    32769
280
     0
281
     0
  0
CLASS
  1
IDBUFFER
  2
AcDbIdBuffer
  3
AutoCAD 2000
 90
    32768
280
     0
281
     0
  0
CLASS
  1
SPATIAL_FILTER
  2
AcDbSpatialFilter
  3
AutoCAD 2000
 90
    32768
280
     0
281
     0
  0
CLASS
  1
XRECORD
  2
AcDbXrecord
  3
AutoCAD 2000
 90
    32768
280
     0
281
     0
  0
CLASS
  1
SORTENTSTABLE
  2
AcDbSortentsTable
  3
AutoCAD 2000
 90
    32768
280
     0
281
     0
  0
CLASS
  1
LAYER_INDEX
  2
AcDbLayerIndex
  3
AutoCAD 2000
 90
    32768
280
     0
281
     0
  0
CLASS
  1
SPATIAL_INDEX
  2
AcDbSpatialIndex
  3
AutoCAD 2000
 90
    32768
280
     0
281
     0
  0
CLASS
  1
OBJECT_PTR
  2
CAseDLPNTableRecord
  3
"ASE-LPNTableRecord"
 90
    32769
280
     0
281
     0
  0
CLASS
  1
LAYOUT
  2
AcDbLayout
  3
AutoCAD 2000
 90
        0
280
     0
281
     0
  0
CLASS
  1
PLOTSETTINGS
  2
AcDbPlotSettings
  3
AutoCAD 2000
 90
    32768
280
     0
281
     0
  0
CLASS
  1
ACDBDICTIONARYWDFLT
  2
AcDbDictionaryWithDefault
  3
AutoCAD 2000
 90
        0
280
     0
281
     0
  0
CLASS
  1
ACDBPLACEHOLDER
  2
AcDbPlaceHolder
  3
AutoCAD 2000
 90
        0
280
     0
281
     0
  0
CLASS
  1
VBA_PROJECT
  2
AcDbVbaProject
  3
acadvba
 90
    32768
280
     0
281
     0
  0
CLASS
  1
WIPEOUT
  2
AcDbWipeout
  3
WipeOut|AutoCAD Express Tool|expresstools@autodesk.com
 90
    32895
280
     0
281
     1
  0
CLASS
  1
WIPEOUTVARIABLES
  2
AcDbWipeoutVariables
  3
WipeOut|AutoCAD Express Tool|expresstools@autodesk.com
 90
        0
280
     0
281
     0
  0
CLASS
  1
RTEXT
  2
RText
  3
RText|AutoCAD Express Tool|expresstools@autodesk.com
 90
    32768
280
     0
281
     1
  0
CLASS
  1
ARCALIGNEDTEXT
  2
AcDbArcAlignedText
  3
ATEXT|AutoCAD Express Tool|expresstools@autodesk.com
 90
    32768
280
     0
281
     1
  0
ENDSEC
  0
SECTION
  2
TABLES
  0
TABLE
  2
VPORT
  5
7
100
AcDbSymbolTable
 70
     1
  0
VPORT
  5
15
100
AcDbSymbolTableRecord
100
AcDbViewportTableRecord
  2
*ACTIVE
 70
     0
 10
0.0
 20
0.0
 11
1.0
 21
1.0
 12
6.591288
 22
4.579184
 13
0.0
 23
0.0
 14
1.0
 24
1.0
 15
0.0
 25
0.0
 16
0.0
 26
0.0
 36
1.0
 17
0.0
 27
0.0
 37
0.0
 40
9.158369
 41
0.688564
 42
50.0
 43
0.0
 44
0.0
 50
0.0
 51
0.0
 71
     0
 72
   100
 73
     1
 74
     1
 75
     0
 76
     0
 77
     0
 78
     0
281
     0
 65
     0
110
0.0
120
0.0
130
0.0
111
1.0
121
0.0
131
0.0
112
0.0
122
1.0
132
0.0
345
0
346
0
 79
     0
146
0.0
  0
ENDTAB
  0
TABLE
  2
LTYPE
  5
4
100
AcDbSymbolTable
 70
     3
  0
LTYPE
  5
11
100
AcDbSymbolTableRecord
100
AcDbLinetypeTableRecord
  2
ByBlock
 70
    64
  3

 72
    65
 73
     0
 40
0.0
  0
LTYPE
  5
12
100
AcDbSymbolTableRecord
100
AcDbLinetypeTableRecord
  2
ByLayer
 70
    64
  3

 72
    65
 73
     0
 40
0.0
  0
LTYPE
  5
13
100
AcDbSymbolTableRecord
100
AcDbLinetypeTableRecord
  2
Continuous
 70
    64
  3
Solid line
 72
    65
 73
     0
 40
0.0
  0
ENDTAB
  0
TABLE
  2
LAYER
  5
2
100
AcDbSymbolTable
 70
     2
  0
LAYER
  5
14
100
AcDbSymbolTableRecord
100
AcDbLayerTableRecord
  2
0
 70
     0
 62
     7
  6
Continuous
290
     1
370
    -3
390
1D
  0
LAYER
  5
24
100
AcDbSymbolTableRecord
100
AcDbLayerTableRecord
  2
Ebene 1
 70
     0
 62
     7
  6
Continuous
290
     1
370
    -3
390
1F
  0
ENDTAB
  0
TABLE
  2
STYLE
  5
3
100
AcDbSymbolTable
 70
     1
  0
STYLE
  5
17
100
AcDbSymbolTableRecord
100
AcDbTextStyleTableRecord
  2
Standard
 70
     0
 40
0.0
 41
1.0
 50
0.0
 71
     0
 42
0.0
  3
txt
  4

  0
ENDTAB
  0
TABLE
  2
VIEW
  5
5
100
AcDbSymbolTable
 70
     0
  0
ENDTAB
  0
TABLE
  2
UCS
  5
6
100
AcDbSymbolTable
 70
     0
  0
ENDTAB
  0
TABLE
  2
APPID
  5
8
100
AcDbSymbolTable
 70
     1
  0
APPID
  5
16
100
AcDbSymbolTableRecord
100
AcDbRegAppTableRecord
  2
ACAD
 70
     0
  0
ENDTAB
  0
TABLE
  2
DIMSTYLE
  5
9
100
AcDbSymbolTable
 70
     1
100
AcDbDimStyleTable
 71
     0
  0
DIMSTYLE
105
18
100
AcDbSymbolTableRecord
100
AcDbDimStyleTableRecord
  2
Standard
 70
     0
  3

  4

 40
1.0
 41
0.18
 42
0.0625
 43
0.38
 44
0.18
 45
0.0
 46
0.0
 47
0.0
 48
0.0
 71
     0
 72
     0
 73
     1
 74
     1
 75
     0
 76
     0
 77
     0
 78
     0
 79
     0
140
0.18
141
0.09
142
0.0
143
25.4
144
1.0
145
0.0
146
1.0
147
0.09
148
0.0
170
     0
171
     2
172
     0
173
     0
174
     0
175
     0
176
     0
177
     0
178
     0
179
     0
271
     4
272
     4
273
     2
274
     2
275
     0
276
     0
277
     2
278
    46
279
     0
280
     0
281
     0
282
     0
283
     1
284
     0
285
     0
286
     0
288
     0
340
17
341
0
342
0
343
0
344
0
371
    -2
372
    -2
  0
ENDTAB
  0
TABLE
  2
BLOCK_RECORD
  5
1
100
AcDbSymbolTable
 70
     0
  0
BLOCK_RECORD
  5
A
100
AcDbSymbolTableRecord
100
AcDbBlockTableRecord
  2
*MODEL_SPACE
340
20
  0
BLOCK_RECORD
  5
B
100
AcDbSymbolTableRecord
100
AcDbBlockTableRecord
  2
*PAPER_SPACE
340
21
  0
ENDTAB
  0
ENDSEC
  0
SECTION
  2
BLOCKS
  0
BLOCK
  5
D
100
AcDbEntity
  8
0
100
AcDbBlockBegin
  2
*MODEL_SPACE
 70
     0
 10
0.0
 20
0.0
 30
0.0
  3
*MODEL_SPACE
  1

  0
ENDBLK
  5
E
100
AcDbEntity
  8
0
100
AcDbBlockEnd
  0
BLOCK
  5
F
100
AcDbEntity
 67
     1
  8
0
100
AcDbBlockBegin
  2
*PAPER_SPACE
 70
     0
 10
0.0
 20
0.0
 30
0.0
  3
*PAPER_SPACE
  1

  0
ENDBLK
  5
10
100
AcDbEntity
 67
     1
  8
0
100
AcDbBlockEnd
  0
ENDSEC
  0
SECTION
  2
ENTITIES
  0
SPLINE
  5
25
100
AcDbEntity
  8
Ebene 1
100
AcDbSpline
210
0.0
220
0.0
230
1.0
 70
     1
 71
     3
 72
   160
 73
   156
 74
     0
 42
0.0000000001
 43
0.0000000001
 40
0.0
 40
0.0
 40
0.0
 40
0.0
 40
0.0256410256410256
 40
0.0256410256410256
 40
0.0256410256410256
 40
0.0256410256410256
 40
0.0512820512820513
 40
0.0512820512820513
 40
0.0512820512820513
 40
0.0512820512820513
 40
0.0769230769230769
 40
0.0769230769230769
 40
0.0769230769230769
 40
0.0769230769230769
 40
0.1025641025641026
 40
0.1025641025641026
 40
0.1025641025641026
 40
0.1025641025641026
 40
0.1282051282051282
 40
0.1282051282051282
 40
0.1282051282051282
 40
0.1282051282051282
 40
0.1538461538461538
 40
0.1538461538461538
 40
0.1538461538461538
 40
0.1538461538461538
 40
0.1794871794871795
 40
0.1794871794871795
 40
0.1794871794871795
 40
0.1794871794871795
 40
0.2051282051282051
 40
0.2051282051282051
 40
0.2051282051282051
 40
0.2051282051282051
 40
0.2307692307692307
 40
0.2307692307692307
 40
0.2307692307692307
 40
0.2307692307692307
 40
0.2564102564102564
 40
0.2564102564102564
 40
0.2564102564102564
 40
0.2564102564102564
 40
0.2820512820512821
 40
0.2820512820512821
 40
0.2820512820512821
 40
0.2820512820512821
 40
0.3076923076923077
 40
0.3076923076923077
 40
0.3076923076923077
 40
0.3076923076923077
 40
0.3333333333333334
 40
0.3333333333333334
 40
0.3333333333333334
 40
0.3333333333333334
 40
0.358974358974359
 40
0.358974358974359
 40
0.358974358974359
 40
0.358974358974359
 40
0.3846153846153847
 40
0.3846153846153847
 40
0.3846153846153847
 40
0.3846153846153847
 40
0.4102564102564104
 40
0.4102564102564104
 40
0.4102564102564104
 40
0.4102564102564104
 40
0.435897435897436
 40
0.435897435897436
 40
0.435897435897436
 40
0.435897435897436
 40
0.4615384615384617
 40
0.4615384615384617
 40
0.4615384615384617
 40
0.4615384615384617
 40
0.4871794871794873
 40
0.4871794871794873
 40
0.4871794871794873
 40
0.4871794871794873
 40
0.512820512820513
 40
0.512820512820513
 40
0.512820512820513
 40
0.512820512820513
 40
0.5384615384615387
 40
0.5384615384615387
 40
0.5384615384615387
 40
0.5384615384615387
 40
0.5641025641025643
 40
0.5641025641025643
 40
0.5641025641025643
 40
0.5641025641025643
 40
0.58974358974359
 40
0.58974358974359
 40
0.58974358974359
 40
0.58974358974359
 40
0.6153846153846156
 40
0.6153846153846156
 40
0.6153846153846156
 40
0.6153846153846156
 40
0.6410256410256413
 40
0.6410256410256413
 40
0.6410256410256413
 40
0.6410256410256413
 40
0.666666666666667
 40
0.666666666666667
 40
0.666666666666667
 40
0.666666666666667
 40
0.6923076923076926
 40
0.6923076923076926
 40
0.6923076923076926
 40
0.6923076923076926
 40
0.7179487179487183
 40
0.7179487179487183
 40
0.7179487179487183
 40
0.7179487179487183
 40
0.743589743589744
 40
0.743589743589744
 40
0.743589743589744
 40
0.743589743589744
 40
0.7692307692307696
 40
0.7692307692307696
 40
0.7692307692307696
 40
0.7692307692307696
 40
0.7948717948717953
 40
0.7948717948717953
 40
0.7948717948717953
 40
0.7948717948717953
 40
0.8205128205128209
 40
0.8205128205128209
 40
0.8205128205128209
 40
0.8205128205128209
 40
0.8461538461538466
 40
0.8461538461538466
 40
0.8461538461538466
 40
0.8461538461538466
 40
0.8717948717948723
 40
0.8717948717948723
 40
0.8717948717948723
 40
0.8717948717948723
 40
0.8974358974358979
 40
0.8974358974358979
 40
0.8974358974358979
 40
0.8974358974358979
 40
0.9230769230769236
 40
0.9230769230769236
 40
0.9230769230769236
 40
0.9230769230769236
 40
0.9487179487179492
 40
0.9487179487179492
 40
0.9487179487179492
 40
0.9487179487179492
 40
0.9743589743589749
 40
0.9743589743589749
 40
0.9743589743589749
 40
0.9743589743589749
 40
1.0
 40
1.0
 40
1.0
 40
1.0
 10
0.21604
 20
6.8802900000000005
 30
0.0
 10
0.9704200000000001
 20
6.9285500000000004
 30
0.0
 10
1.6206600000000002
 20
6.5373900000000003
 30
0.0
 10
2.0880200000000002
 20
6.0446300000000006
 30
0.0
 10
2.0880200000000002
 20
6.0446300000000006
 30
0.0
 10
2.2607400000000002
 20
5.7576100000000006
 30
0.0
 10
2.3902800000000002
 20
5.4629700000000003
 30
0.0
 10
2.4893400000000003
 20
5.1530900000000006
 30
0.0
 10
2.4893400000000003
 20
5.1530900000000006
 30
0.0
 10
2.5426800000000003
 20
4.24885
 30
0.0
 10
2.4842600000000004
 20
3.3496900000000003
 30
0.0
 10
3.1141800000000002
 20
2.5927700000000002
 30
0.0
 10
3.1141800000000002
 20
2.5927700000000002
 30
0.0
 10
3.0227400000000002
 20
2.5013300000000003
 30
0.0
 10
2.8957400000000004
 20
2.6918300000000004
 30
0.0
 10
2.8068400000000002
 20
2.7400900000000004
 30
0.0
 10
2.8068400000000002
 20
2.7400900000000004
 30
0.0
 10
3.6069400000000003
 20
1.3405500000000001
 30
0.0
 10
2.9998800000000001
 20
-0.19868
 30
0.0
 10
2.5376000000000003
 20
-1.5677400000000001
 30
0.0
 10
2.5376000000000003
 20
-1.5677400000000001
 30
0.0
 10
2.4537800000000001
 20
-1.5093200000000002
 30
0.0
 10
2.4868000000000001
 20
-1.1588000000000001
 30
0.0
 10
2.3852000000000002
 20
-1.1486400000000001
 30
0.0
 10
2.3852000000000002
 20
-1.1486400000000001
 30
0.0
 10
2.4385400000000002
 20
-1.7277600000000002
 30
0.0
 10
2.46394
 20
-2.3297400000000001
 30
0.0
 10
2.1210400000000003
 20
-2.8250400000000004
 30
0.0
 10
2.1210400000000003
 20
-2.8250400000000004
 30
0.0
 10
1.8975200000000001
 20
-2.8987000000000003
 30
0.0
 10
2.2632800000000004
 20
-2.4491200000000002
 30
0.0
 10
2.2124800000000002
 20
-2.2840200000000004
 30
0.0
 10
2.2124800000000002
 20
-2.2840200000000004
 30
0.0
 10
2.1007200000000004
 20
-2.27386
 30
0.0
 10
2.1388200000000004
 20
-2.5380200000000004
 30
0.0
 10
2.00928
 20
-2.5380200000000004
 30
0.0
 10
2.00928
 20
-2.5380200000000004
 30
0.0
 10
2.0778600000000003
 20
-2.1417800000000002
 30
0.0
 10
2.0194400000000003
 20
-1.71252
 30
0.0
 10
1.7959200000000002
 20
-1.3747
 30
0.0
 10
1.7959200000000002
 20
-1.3747
 30
0.0
 10
1.6460600000000001
 20
-1.6947400000000001
 30
0.0
 10
1.56732
 20
-1.9385800000000002
 30
0.0
 10
1.5241400000000001
 20
-1.4686800000000002
 30
0.0
 10
1.5241400000000001
 20
-1.4686800000000002
 30
0.0
 10
1.40476
 20
-1.8598400000000002
 30
0.0
 10
1.52668
 20
-2.4135600000000004
 30
0.0
 10
1.2117200000000001
 20
-2.69042
 30
0.0
 10
1.2117200000000001
 20
-2.69042
 30
0.0
 10
1.23458
 20
-2.56596
 30
0.0
 10
1.2879200000000002
 20
-2.4491200000000002
 30
0.0
 10
1.27522
 20
-2.3145000000000002
 30
0.0
 10
1.27522
 20
-2.3145000000000002
 30
0.0
 10
1.2930000000000001
 20
-2.2154400000000001
 30
0.0
 10
1.18886
 20
-2.2078200000000003
 30
0.0
 10
1.2218800000000001
 20
-2.3145000000000002
 30
0.0
 10
1.2218800000000001
 20
-2.3145000000000002
 30
0.0
 10
1.2041000000000002
 20
-2.52786
 30
0.0
 10
0.9247000000000001
 20
-3.0714200000000003
 30
0.0
 10
0.9678800000000001
 20
-2.5888200000000001
 30
0.0
 10
0.9678800000000001
 20
-2.5888200000000001
 30
0.0
 10
0.8637400000000001
 20
-2.7844000000000002
 30
0.0
 10
0.74436
 20
-2.9799800000000003
 30
0.0
 10
0.70372
 20
-3.1933400000000001
 30
0.0
 10
0.70372
 20
-3.1933400000000001
 30
0.0
 10
0.66308
 20
-3.4295600000000004
 30
0.0
 10
1.0390000000000001
 20
-4.04678
 30
0.0
 10
0.6681600000000001
 20
-3.7089600000000003
 30
0.0
 10
0.6681600000000001
 20
-3.7089600000000003
 30
0.0
 10
0.6681600000000001
 20
-3.7089600000000003
 30
0.0
 10
0.6681600000000001
 20
-3.8740600000000005
 30
0.0
 10
0.6681600000000001
 20
-3.8740600000000005
 30
0.0
 10
0.6681600000000001
 20
-3.8740600000000005
 30
0.0
 10
1.1533
 20
-4.9967400000000008
 30
0.0
 10
0.8332600000000001
 20
-5.1770800000000001
 30
0.0
 10
0.63514
 20
-5.7765200000000005
 30
0.0
 10
0.63514
 20
-5.7765200000000005
 30
0.0
 10
0.47512
 20
-6.2515000000000009
 30
0.0
 10
0.5005200000000001
 20
-6.6706000000000003
 30
0.0
 10
0.7545200000000001
 20
-6.8915800000000003
 30
0.0
 10
0.7545200000000001
 20
-6.8915800000000003
 30
0.0
 10
0.3405
 20
-6.7137800000000007
 30
0.0
 10
0.2643
 20
-6.2642000000000007
 30
0.0
 10
0.3913
 20
-5.9517800000000003
 30
0.0
 10
0.3913
 20
-5.9517800000000003
 30
0.0
 10
1.06186
 20
-4.5370000000000008
 30
0.0
 10
-0.8583700000000001
 20
-4.1026600000000002
 30
0.0
 10
-0.82535
 20
-2.6675600000000004
 30
0.0
 10
-0.82535
 20
-2.6675600000000004
 30
0.0
 10
-1.1936500000000001
 20
-3.0561800000000003
 30
0.0
 10
-0.82789
 20
-2.0909800000000001
 30
0.0
 10
-1.16825
 20
-1.9512800000000001
 30
0.0
 10
-1.16825
 20
-1.9512800000000001
 30
0.0
 10
-1.2292100000000001
 20
-2.2027400000000004
 30
0.0
 10
-1.2393700000000001
 20
-2.2840200000000004
 30
0.0
 10
-1.3409700000000002
 20
-1.9817600000000002
 30
0.0
 10
-1.3409700000000002
 20
-1.9817600000000002
 30
0.0
 10
-1.4070100000000001
 20
-2.1494
 30
0.0
 10
-1.3028700000000002
 20
-2.4643600000000001
 30
0.0
 10
-1.4578100000000001
 20
-2.5532600000000003
 30
0.0
 10
-1.4578100000000001
 20
-2.5532600000000003
 30
0.0
 10
-1.4247900000000002
 20
-2.3627600000000002
 30
0.0
 10
-1.58989
 20
-1.5956800000000002
 30
0.0
 10
-1.6406900000000002
 20
-2.0986000000000002
 30
0.0
 10
-1.6406900000000002
 20
-2.0986000000000002
 30
0.0
 10
-1.6838700000000002
 20
-2.1189200000000001
 30
0.0
 10
-1.7041900000000001
 20
-2.0782800000000003
 30
0.0
 10
-1.7194300000000002
 20
-2.05288
 30
0.0
 10
-1.7194300000000002
 20
-2.05288
 30
0.0
 10
-1.7067300000000001
 20
-1.8496800000000002
 30
0.0
 10
-1.7956300000000001
 20
-1.54234
 30
0.0
 10
-1.9099300000000001
 20
-1.7938000000000001
 30
0.0
 10
-1.9099300000000001
 20
-1.7938000000000001
 30
0.0
 10
-1.9912100000000001
 20
-1.6515600000000001
 30
0.0
 10
-1.9708900000000003
 20
-1.4128000000000001
 30
0.0
 10
-2.1563100000000004
 20
-1.3594600000000001
 30
0.0
 10
-2.1563100000000004
 20
-1.3594600000000001
 30
0.0
 10
-2.2020300000000002
 20
-1.5931400000000002
 30
0.0
 10
-2.2452100000000002
 20
-1.9208000000000001
 30
0.0
 10
-2.4128500000000002
 20
-2.0833600000000003
 30
0.0
 10
-2.4128500000000002
 20
-2.0833600000000003
 30
0.0
 10
-2.39507
 20
-1.8522200000000002
 30
0.0
 10
-2.36205
 20
-1.6160000000000001
 30
0.0
 10
-2.4357100000000003
 20
-1.3899400000000002
 30
0.0
 10
-2.4357100000000003
 20
-1.3899400000000002
 30
0.0
 10
-2.5474700000000001
 20
-1.1461000000000001
 30
0.0
 10
-2.7684500000000001
 20
-0.29012
 30
0.0
 10
-3.0021300000000002
 20
-0.7498600000000001
 30
0.0
 10
-3.0021300000000002
 20
-0.7498600000000001
 30
0.0
 10
-3.1011900000000003
 20
-0.23678
 30
0.0
 10
-3.3145500000000001
 20
0.41853
 30
0.0
 10
-3.0935700000000002
 20
0.8858900000000001
 30
0.0
 10
-3.0935700000000002
 20
0.8858900000000001
 30
0.0
 10
-2.8852900000000004
 20
1.3253100000000002
 30
0.0
 10
-2.9487900000000002
 20
1.6351900000000001
 30
0.0
 10
-2.7684500000000001
 20
2.04413
 30
0.0
 10
-2.7684500000000001
 20
2.04413
 30
0.0
 10
-2.7684500000000001
 20
2.04413
 30
0.0
 10
-2.9386300000000003
 20
1.8180700000000001
 30
0.0
 10
-2.9386300000000003
 20
1.8180700000000001
 30
0.0
 10
-2.9386300000000003
 20
1.8180700000000001
 30
0.0
 10
-2.94625
 20
1.7571100000000002
 30
0.0
 10
-3.0453100000000002
 20
1.7037700000000002
 30
0.0
 10
-3.0249900000000003
 20
1.8028300000000002
 30
0.0
 10
-3.0249900000000003
 20
1.8028300000000002
 30
0.0
 10
-2.2909300000000004
 20
2.8086700000000002
 30
0.0
 10
-2.3036300000000001
 20
4.0050100000000004
 30
0.0
 10
-2.3645900000000002
 20
5.1683300000000001
 30
0.0
 10
-2.3645900000000002
 20
5.1683300000000001
 30
0.0
 10
-2.30871
 20
5.4858300000000009
 30
0.0
 10
-2.1664700000000003
 20
5.7753900000000007
 30
0.0
 10
-1.9607300000000001
 20
6.0446300000000006
 30
0.0
 10
-1.9607300000000001
 20
6.0446300000000006
 30
0.0
 10
-1.4374900000000002
 20
6.654230000000001
 30
0.0
 10
-0.5611900000000001
 20
6.8879100000000006
 30
0.0
 10
0.21604
 20
6.8802900000000005
 30
0.0
  0
SPLINE
  5
26
100
AcDbEntity
  8
Ebene 1
 62
     7
100
AcDbSpline
210
0.0
220
0.0
230
1.0
 70
     1
 71
     3
 72
   140
 73
   136
 74
     0
 42
0.0000000001
 43
0.0000000001
 40
0.0
 40
0.0
 40
0.0
 40
0.0
 40
0.0294117647058824
 40
0.0294117647058824
 40
0.0294117647058824
 40
0.0294117647058824
 40
0.0588235294117647
 40
0.0588235294117647
 40
0.0588235294117647
 40
0.0588235294117647
 40
0.0882352941176471
 40
0.0882352941176471
 40
0.0882352941176471
 40
0.0882352941176471
 40
0.1176470588235294
 40
0.1176470588235294
 40
0.1176470588235294
 40
0.1176470588235294
 40
0.1470588235294118
 40
0.1470588235294118
 40
0.1470588235294118
 40
0.1470588235294118
 40
0.1764705882352941
 40
0.1764705882352941
 40
0.1764705882352941
 40
0.1764705882352941
 40
0.2058823529411765
 40
0.2058823529411765
 40
0.2058823529411765
 40
0.2058823529411765
 40
0.2352941176470589
 40
0.2352941176470589
 40
0.2352941176470589
 40
0.2352941176470589
 40
0.2647058823529412
 40
0.2647058823529412
 40
0.2647058823529412
 40
0.2647058823529412
 40
0.2941176470588235
 40
0.2941176470588235
 40
0.2941176470588235
 40
0.2941176470588235
 40
0.3235294117647059
 40
0.3235294117647059
 40
0.3235294117647059
 40
0.3235294117647059
 40
0.3529411764705883
 40
0.3529411764705883
 40
0.3529411764705883
 40
0.3529411764705883
 40
0.3823529411764706
 40
0.3823529411764706
 40
0.3823529411764706
 40
0.3823529411764706
 40
0.411764705882353
 40
0.411764705882353
 40
0.411764705882353
 40
0.411764705882353
 40
0.4411764705882353
 40
0.4411764705882353
 40
0.4411764705882353
 40
0.4411764705882353
 40
0.4705882352941177
 40
0.4705882352941177
 40
0.4705882352941177
 40
0.4705882352941177
 40
0.5
 40
0.5
 40
0.5
 40
0.5
 40
0.5294117647058824
 40
0.5294117647058824
 40
0.5294117647058824
 40
0.5294117647058824
 40
0.5588235294117647
 40
0.5588235294117647
 40
0.5588235294117647
 40
0.5588235294117647
 40
0.5882352941176471
 40
0.5882352941176471
 40
0.5882352941176471
 40
0.5882352941176471
 40
0.6176470588235294
 40
0.6176470588235294
 40
0.6176470588235294
 40
0.6176470588235294
 40
0.6470588235294118
 40
0.6470588235294118
 40
0.6470588235294118
 40
0.6470588235294118
 40
0.6764705882352942
 40
0.6764705882352942
 40
0.6764705882352942
 40
0.6764705882352942
 40
0.7058823529411765
 40
0.7058823529411765
 40
0.7058823529411765
 40
0.7058823529411765
 40
0.7352941176470589
 40
0.7352941176470589
 40
0.7352941176470589
 40
0.7352941176470589
 40
0.7647058823529412
 40
0.7647058823529412
 40
0.7647058823529412
 40
0.7647058823529412
 40
0.7941176470588236
 40
0.7941176470588236
 40
0.7941176470588236
 40
0.7941176470588236
 40
0.823529411764706
 40
0.823529411764706
 40
0.823529411764706
 40
0.823529411764706
 40
0.8529411764705883
 40
0.8529411764705883
 40
0.8529411764705883
 40
0.8529411764705883
 40
0.8823529411764707
 40
0.8823529411764707
 40
0.8823529411764707
 40
0.8823529411764707
 40
0.911764705882353
 40
0.911764705882353
 40
0.911764705882353
 40
0.911764705882353
 40
0.9411764705882354
 40
0.9411764705882354
 40
0.9411764705882354
 40
0.9411764705882354
 40
0.9705882352941178
 40
0.9705882352941178
 40
0.9705882352941178
 40
0.9705882352941178
 40
1.0
 40
1.0
 40
1.0
 40
1.0
 10
0.61482
 20
6.8345700000000003
 30
0.0
 10
1.2904600000000002
 20
6.6847100000000008
 30
0.0
 10
2.00928
 20
6.2376700000000005
 30
0.0
 10
2.1743800000000002
 20
5.6128300000000007
 30
0.0
 10
2.1743800000000002
 20
5.6128300000000007
 30
0.0
 10
2.0981800000000002
 20
5.6026700000000007
 30
0.0
 10
2.0499200000000002
 20
5.8592100000000009
 30
0.0
 10
2.0219800000000001
 20
5.6991900000000006
 30
0.0
 10
2.0219800000000001
 20
5.6991900000000006
 30
0.0
 10
2.0219800000000001
 20
5.6991900000000006
 30
0.0
 10
2.0550000000000002
 20
5.5772700000000004
 30
0.0
 10
2.0550000000000002
 20
5.5772700000000004
 30
0.0
 10
2.0550000000000002
 20
5.5772700000000004
 30
0.0
 10
2.2328000000000001
 20
5.2800900000000004
 30
0.0
 10
2.30138
 20
4.89147
 30
0.0
 10
2.17692
 20
4.5765100000000007
 30
0.0
 10
2.17692
 20
4.5765100000000007
 30
0.0
 10
1.9965800000000002
 20
4.7289099999999999
 30
0.0
 10
2.0931000000000002
 20
5.5239300000000009
 30
0.0
 10
1.9356200000000001
 20
5.3054900000000007
 30
0.0
 10
1.9356200000000001
 20
5.3054900000000007
 30
0.0
 10
1.9457800000000001
 20
5.0235500000000002
 30
0.0
 10
2.12358
 20
4.2336100000000005
 30
0.0
 10
1.7603600000000001
 20
4.4723700000000006
 30
0.0
 10
1.7603600000000001
 20
4.4723700000000006
 30
0.0
 10
1.8187800000000001
 20
3.7789500000000005
 30
0.0
 10
1.9483200000000001
 20
3.0804500000000004
 30
0.0
 10
1.8264000000000002
 20
2.3997300000000004
 30
0.0
 10
1.8264000000000002
 20
2.3997300000000004
 30
0.0
 10
1.5241400000000001
 20
2.0796900000000003
 30
0.0
 10
1.1761600000000001
 20
2.0339700000000001
 30
0.0
 10
0.7951600000000001
 20
2.12033
 30
0.0
 10
0.7951600000000001
 20
2.12033
 30
0.0
 10
0.86882
 20
2.0288900000000001
 30
0.0
 10
0.7494400000000001
 20
1.8587100000000001
 30
0.0
 10
0.7723000000000001
 20
1.5767700000000002
 30
0.0
 10
0.7723000000000001
 20
1.5767700000000002
 30
0.0
 10
0.7900800000000001
 20
1.7215500000000001
 30
0.0
 10
0.86882
 20
1.8460100000000002
 30
0.0
 10
0.9628000000000001
 20
1.9399900000000001
 30
0.0
 10
0.9628000000000001
 20
1.9399900000000001
 30
0.0
 10
0.8154800000000001
 20
1.7875900000000002
 30
0.0
 10
1.02122
 20
1.2491100000000002
 30
0.0
 10
0.8561200000000001
 20
1.36341
 30
0.0
 10
0.8561200000000001
 20
1.36341
 30
0.0
 10
0.8205600000000001
 20
1.3862700000000001
 30
0.0
 10
0.86882
 20
1.5462900000000002
 30
0.0
 10
0.80786
 20
1.4700900000000001
 30
0.0
 10
0.80786
 20
1.4700900000000001
 30
0.0
 10
0.82818
 20
1.0916300000000001
 30
0.0
 10
0.66054
 20
1.1170300000000002
 30
0.0
 10
0.6326000000000001
 20
0.8198500000000001
 30
0.0
 10
0.6326000000000001
 20
0.8198500000000001
 30
0.0
 10
0.4954400000000001
 20
0.9519300000000001
 30
0.0
 10
0.39638
 20
0.9163700000000001
 30
0.0
 10
0.40654
 20
1.10687
 30
0.0
 10
0.40654
 20
1.10687
 30
0.0
 10
0.32018
 20
1.0560700000000001
 30
0.0
 10
0.39384
 20
0.95701
 30
0.0
 10
0.38622
 20
0.8554100000000001
 30
0.0
 10
0.38622
 20
0.8554100000000001
 30
0.0
 10
0.3024
 20
0.9493900000000001
 30
0.0
 10
0.16778
 20
0.93669
 30
0.0
 10
0.19572
 20
1.0890900000000001
 30
0.0
 10
0.19572
 20
1.0890900000000001
 30
0.0
 10
0.09158
 20
1.0433700000000001
 30
0.0
 10
0.2008
 20
0.93415
 30
0.0
 10
0.17794
 20
0.8554100000000001
 30
0.0
 10
0.17794
 20
0.8554100000000001
 30
0.0
 10
0.11952
 20
1.0027300000000001
 30
0.0
 10
-0.13701
 20
0.78937
 30
0.0
 10
-0.14971
 20
1.0128900000000001
 30
0.0
 10
-0.14971
 20
1.0128900000000001
 30
0.0
 10
-0.24369
 20
0.8046100000000001
 30
0.0
 10
-0.43419
 20
1.0916300000000001
 30
0.0
 10
-0.35545
 20
1.2694300000000001
 30
0.0
 10
-0.35545
 20
1.2694300000000001
 30
0.0
 10
-0.35545
 20
1.2694300000000001
 30
0.0
 10
-0.41895
 20
1.22879
 30
0.0
 10
-0.41895
 20
1.22879
 30
0.0
 10
-0.41895
 20
1.22879
 30
0.0
 10
-0.41895
 20
1.22879
 30
0.0
 10
-0.44435
 20
1.0357500000000002
 30
0.0
 10
-0.44435
 20
1.0357500000000002
 30
0.0
 10
-0.44435
 20
1.0357500000000002
 30
0.0
 10
-0.6475500000000001
 20
1.27959
 30
0.0
 10
-0.46467
 20
1.6097900000000001
 30
0.0
 10
-0.57389
 20
1.9374500000000001
 30
0.0
 10
-0.57389
 20
1.9374500000000001
 30
0.0
 10
-0.5180100000000001
 20
1.9399900000000001
 30
0.0
 10
-0.51039
 20
1.8485500000000001
 30
0.0
 10
-0.45197
 20
1.8917300000000001
 30
0.0
 10
-0.45197
 20
1.8917300000000001
 30
0.0
 10
-0.45197
 20
1.8917300000000001
 30
0.0
 10
-0.47737
 20
2.0136500000000002
 30
0.0
 10
-0.47737
 20
2.0136500000000002
 30
0.0
 10
-0.47737
 20
2.0136500000000002
 30
0.0
 10
-0.65263
 20
2.1965300000000001
 30
0.0
 10
-0.86599
 20
2.0568300000000002
 30
0.0
 10
-1.0107700000000002
 20
1.9247500000000002
 30
0.0
 10
-1.0107700000000002
 20
1.9247500000000002
 30
0.0
 10
-1.2571500000000002
 20
2.0136500000000002
 30
0.0
 10
-1.4705100000000002
 20
2.1431900000000002
 30
0.0
 10
-1.6660900000000001
 20
2.3082900000000004
 30
0.0
 10
-1.6660900000000001
 20
2.3082900000000004
 30
0.0
 10
-1.6660900000000001
 20
2.3082900000000004
 30
0.0
 10
-1.9480300000000002
 20
4.5155500000000002
 30
0.0
 10
-1.9480300000000002
 20
4.5155500000000002
 30
0.0
 10
-1.9480300000000002
 20
4.5155500000000002
 30
0.0
 10
-2.0470900000000003
 20
4.5612700000000004
 30
0.0
 10
-2.0064500000000001
 20
4.3707700000000003
 30
0.0
 10
-2.06995
 20
4.33521
 30
0.0
 10
-2.06995
 20
4.33521
 30
0.0
 10
-2.1613900000000004
 20
4.6908100000000008
 30
0.0
 10
-2.1207500000000001
 20
5.1149900000000006
 30
0.0
 10
-1.8438900000000003
 20
5.3943900000000005
 30
0.0
 10
-1.8438900000000003
 20
5.3943900000000005
 30
0.0
 10
-2.0089900000000003
 20
5.4147100000000004
 30
0.0
 10
-2.1156700000000002
 20
5.1099100000000002
 30
0.0
 10
-2.2045700000000004
 20
4.9905300000000006
 30
0.0
 10
-2.2045700000000004
 20
4.9905300000000006
 30
0.0
 10
-2.3163300000000002
 20
5.8922300000000005
 30
0.0
 10
-1.4374900000000002
 20
6.6339100000000002
 30
0.0
 10
-0.47483
 20
6.7736100000000006
 30
0.0
 10
-0.47483
 20
6.7736100000000006
 30
0.0
 10
-0.22845
 20
6.8345700000000003
 30
0.0
 10
0.00014
 20
6.7482100000000003
 30
0.0
 10
0.03824
 20
6.5729500000000005
 30
0.0
 10
0.03824
 20
6.5729500000000005
 30
0.0
 10
0.05602
 20
6.5018300000000009
 30
0.0
 10
-0.00747
 20
6.2706900000000001
 30
0.0
 10
0.11952
 20
6.4586500000000004
 30
0.0
 10
0.11952
 20
6.4586500000000004
 30
0.0
 10
-0.00747
 20
6.7482100000000003
 30
0.0
 10
0.30748
 20
6.8675900000000007
 30
0.0
 10
0.61482
 20
6.8345700000000003
 30
0.0
  0
SPLINE
  5
27
100
AcDbEntity
  8
Ebene 1
 62
     7
100
AcDbSpline
210
0.0
220
0.0
230
1.0
 70
     1
 71
     3
 72
    92
 73
    88
 74
     0
 42
0.0000000001
 43
0.0000000001
 40
0.0
 40
0.0
 40
0.0
 40
0.0
 40
0.0454545454545455
 40
0.0454545454545455
 40
0.0454545454545455
 40
0.0454545454545455
 40
0.0909090909090909
 40
0.0909090909090909
 40
0.0909090909090909
 40
0.0909090909090909
 40
0.1363636363636364
 40
0.1363636363636364
 40
0.1363636363636364
 40
0.1363636363636364
 40
0.1818181818181818
 40
0.1818181818181818
 40
0.1818181818181818
 40
0.1818181818181818
 40
0.2272727272727273
 40
0.2272727272727273
 40
0.2272727272727273
 40
0.2272727272727273
 40
0.2727272727272728
 40
0.2727272727272728
 40
0.2727272727272728
 40
0.2727272727272728
 40
0.3181818181818182
 40
0.3181818181818182
 40
0.3181818181818182
 40
0.3181818181818182
 40
0.3636363636363637
 40
0.3636363636363637
 40
0.3636363636363637
 40
0.3636363636363637
 40
0.4090909090909092
 40
0.4090909090909092
 40
0.4090909090909092
 40
0.4090909090909092
 40
0.4545454545454546
 40
0.4545454545454546
 40
0.4545454545454546
 40
0.4545454545454546
 40
0.5000000000000001
 40
0.5000000000000001
 40
0.5000000000000001
 40
0.5000000000000001
 40
0.5454545454545455
 40
0.5454545454545455
 40
0.5454545454545455
 40
0.5454545454545455
 40
0.5909090909090909
 40
0.5909090909090909
 40
0.5909090909090909
 40
0.5909090909090909
 40
0.6363636363636364
 40
0.6363636363636364
 40
0.6363636363636364
 40
0.6363636363636364
 40
0.6818181818181818
 40
0.6818181818181818
 40
0.6818181818181818
 40
0.6818181818181818
 40
0.7272727272727272
 40
0.7272727272727272
 40
0.7272727272727272
 40
0.7272727272727272
 40
0.7727272727272726
 40
0.7727272727272726
 40
0.7727272727272726
 40
0.7727272727272726
 40
0.818181818181818
 40
0.818181818181818
 40
0.818181818181818
 40
0.818181818181818
 40
0.8636363636363634
 40
0.8636363636363634
 40
0.8636363636363634
 40
0.8636363636363634
 40
0.9090909090909088
 40
0.9090909090909088
 40
0.9090909090909088
 40
0.9090909090909088
 40
0.9545454545454543
 40
0.9545454545454543
 40
0.9545454545454543
 40
0.9545454545454543
 40
1.0
 40
1.0
 40
1.0
 40
1.0
 10
2.2886800000000003
 20
3.8246700000000002
 30
0.0
 10
2.2937600000000002
 20
4.1574100000000005
 30
0.0
 10
2.2683600000000004
 20
4.5053900000000002
 30
0.0
 10
2.3674200000000001
 20
4.8203500000000004
 30
0.0
 10
2.3674200000000001
 20
4.8203500000000004
 30
0.0
 10
2.5426800000000003
 20
3.8068900000000001
 30
0.0
 10
2.4487000000000001
 20
3.0702900000000004
 30
0.0
 10
2.9567000000000001
 20
2.1533500000000001
 30
0.0
 10
2.9567000000000001
 20
2.1533500000000001
 30
0.0
 10
3.0024200000000003
 20
2.0161900000000004
 30
0.0
 10
3.0583000000000005
 20
1.8510900000000001
 30
0.0
 10
3.01004
 20
1.7139300000000002
 30
0.0
 10
3.01004
 20
1.7139300000000002
 30
0.0
 10
2.7916000000000003
 20
1.9323700000000001
 30
0.0
 10
2.8347800000000003
 20
2.2651100000000004
 30
0.0
 10
2.6950800000000004
 20
2.5292700000000004
 30
0.0
 10
2.6950800000000004
 20
2.5292700000000004
 30
0.0
 10
2.6950800000000004
 20
2.5292700000000004
 30
0.0
 10
2.4766400000000002
 20
3.0296500000000002
 30
0.0
 10
2.4766400000000002
 20
3.0296500000000002
 30
0.0
 10
2.4766400000000002
 20
3.0296500000000002
 30
0.0
 10
2.6620600000000003
 20
2.1990700000000003
 30
0.0
 10
3.1980000000000004
 20
1.39897
 30
0.0
 10
3.0278200000000002
 20
0.5480700000000001
 30
0.0
 10
3.0278200000000002
 20
0.5480700000000001
 30
0.0
 10
2.9389200000000004
 20
0.6699900000000001
 30
0.0
 10
2.9973400000000003
 20
1.18815
 30
0.0
 10
2.8703400000000001
 20
1.0763900000000002
 30
0.0
 10
2.8703400000000001
 20
1.0763900000000002
 30
0.0
 10
3.0405200000000003
 20
0.4413900000000001
 30
0.0
 10
3.0456000000000003
 20
-0.27996
 30
0.0
 10
2.5807800000000003
 20
-0.7930400000000001
 30
0.0
 10
2.5807800000000003
 20
-0.7930400000000001
 30
0.0
 10
2.46902
 20
-0.5822200000000001
 30
0.0
 10
2.7204800000000002
 20
-0.27234
 30
0.0
 10
2.6442800000000002
 20
-0.13264
 30
0.0
 10
2.6442800000000002
 20
-0.13264
 30
0.0
 10
2.4131400000000003
 20
-0.3841000000000001
 30
0.0
 10
2.3699600000000003
 20
-0.7244600000000001
 30
0.0
 10
2.3318600000000003
 20
-1.04196
 30
0.0
 10
2.3318600000000003
 20
-1.04196
 30
0.0
 10
2.3369400000000002
 20
-1.4559800000000001
 30
0.0
 10
2.41568
 20
-1.9106400000000001
 30
0.0
 10
2.2810600000000001
 20
-2.2992600000000003
 30
0.0
 10
2.2810600000000001
 20
-2.2992600000000003
 30
0.0
 10
2.2201
 20
-1.8877800000000002
 30
0.0
 10
1.8619600000000001
 20
-1.07752
 30
0.0
 10
2.1032600000000001
 20
-0.39934
 30
0.0
 10
2.1032600000000001
 20
-0.39934
 30
0.0
 10
2.2886800000000003
 20
0.07055
 30
0.0
 10
2.1515200000000001
 20
0.55823
 30
0.0
 10
2.2632800000000004
 20
1.0001900000000001
 30
0.0
 10
2.2632800000000004
 20
1.0001900000000001
 30
0.0
 10
2.3191600000000001
 20
0.9798700000000001
 30
0.0
 10
2.2658200000000002
 20
0.8681100000000001
 30
0.0
 10
2.3293200000000001
 20
0.8681100000000001
 30
0.0
 10
2.3293200000000001
 20
0.8681100000000001
 30
0.0
 10
2.3293200000000001
 20
0.8681100000000001
 30
0.0
 10
2.3318600000000003
 20
0.9265300000000001
 30
0.0
 10
2.3318600000000003
 20
0.9265300000000001
 30
0.0
 10
2.3318600000000003
 20
0.9265300000000001
 30
0.0
 10
2.3191600000000001
 20
1.0459100000000001
 30
0.0
 10
2.2632800000000004
 20
1.18815
 30
0.0
 10
2.3166200000000003
 20
1.3049900000000001
 30
0.0
 10
2.3166200000000003
 20
1.3049900000000001
 30
0.0
 10
2.3953600000000002
 20
1.2135500000000001
 30
0.0
 10
2.4487000000000001
 20
1.0916300000000001
 30
0.0
 10
2.4766400000000002
 20
0.9747900000000001
 30
0.0
 10
2.4766400000000002
 20
0.9747900000000001
 30
0.0
 10
2.4766400000000002
 20
0.9747900000000001
 30
0.0
 10
2.6112600000000001
 20
0.28899
 30
0.0
 10
2.6112600000000001
 20
0.28899
 30
0.0
 10
2.6112600000000001
 20
0.28899
 30
0.0
 10
2.7738200000000002
 20
0.93415
 30
0.0
 10
2.4385400000000002
 20
1.5335900000000002
 30
0.0
 10
2.1591400000000003
 20
2.09239
 30
0.0
 10
2.1591400000000003
 20
2.09239
 30
0.0
 10
2.17692
 20
2.8035900000000002
 30
0.0
 10
1.8365600000000002
 20
3.5757500000000002
 30
0.0
 10
2.1083400000000001
 20
4.2742500000000003
 30
0.0
 10
2.1083400000000001
 20
4.2742500000000003
 30
0.0
 10
2.2124800000000002
 20
4.1370900000000006
 30
0.0
 10
2.2175600000000002
 20
3.9592900000000002
 30
0.0
 10
2.2328000000000001
 20
3.7891100000000004
 30
0.0
 10
2.2328000000000001
 20
3.7891100000000004
 30
0.0
 10
2.2759800000000001
 20
3.3547700000000003
 30
0.0
 10
2.2836000000000003
 20
3.6341700000000001
 30
0.0
 10
2.2886800000000003
 20
3.8246700000000002
 30
0.0
  0
SPLINE
  5
28
100
AcDbEntity
  8
Ebene 1
 62
     7
100
AcDbSpline
210
0.0
220
0.0
230
1.0
 70
     1
 71
     3
 72
    16
 73
    12
 74
     0
 42
0.0000000001
 43
0.0000000001
 40
0.0
 40
0.0
 40
0.0
 40
0.0
 40
0.3333333333333333
 40
0.3333333333333333
 40
0.3333333333333333
 40
0.3333333333333333
 40
0.6666666666666666
 40
0.6666666666666666
 40
0.6666666666666666
 40
0.6666666666666666
 40
1.0
 40
1.0
 40
1.0
 40
1.0
 10
-2.2782300000000002
 20
4.5765100000000007
 30
0.0
 10
-2.2502900000000001
 20
4.5765100000000007
 30
0.0
 10
-2.2147300000000003
 20
4.58413
 30
0.0
 10
-2.1969500000000002
 20
4.5587300000000006
 30
0.0
 10
-2.1969500000000002
 20
4.5587300000000006
 30
0.0
 10
-2.2071100000000001
 20
4.21075
 30
0.0
 10
-2.0191500000000002
 20
3.8881700000000001
 30
0.0
 10
-2.0902700000000003
 20
3.5681300000000005
 30
0.0
 10
-2.0902700000000003
 20
3.5681300000000005
 30
0.0
 10
-2.18933
 20
3.8805500000000004
 30
0.0
 10
-2.2629900000000003
 20
4.2310700000000008
 30
0.0
 10
-2.2782300000000002
 20
4.5765100000000007
 30
0.0
  0
SPLINE
  5
29
100
AcDbEntity
  8
Ebene 1
100
AcDbSpline
210
0.0
220
0.0
230
1.0
 70
     1
 71
     3
 72
    24
 73
    20
 74
     0
 42
0.0000000001
 43
0.0000000001
 40
0.0
 40
0.0
 40
0.0
 40
0.0
 40
0.2
 40
0.2
 40
0.2
 40
0.2
 40
0.4
 40
0.4
 40
0.4
 40
0.4
 40
0.6000000000000001
 40
0.6000000000000001
 40
0.6000000000000001
 40
0.6000000000000001
 40
0.8
 40
0.8
 40
0.8
 40
0.8
 40
1.0
 40
1.0
 40
1.0
 40
1.0
 10
-1.25461
 20
4.2132900000000006
 30
0.0
 10
-1.11999
 20
3.9618300000000004
 30
0.0
 10
-0.78217
 20
3.8170500000000005
 30
0.0
 10
-0.51293
 20
3.6951300000000002
 30
0.0
 10
-0.51293
 20
3.6951300000000002
 30
0.0
 10
-0.51293
 20
3.6951300000000002
 30
0.0
 10
-0.47737
 20
3.5960700000000001
 30
0.0
 10
-0.47737
 20
3.5960700000000001
 30
0.0
 10
-0.47737
 20
3.5960700000000001
 30
0.0
 10
-0.47737
 20
3.5960700000000001
 30
0.0
 10
-0.59167
 20
3.5960700000000001
 30
0.0
 10
-0.59167
 20
3.5960700000000001
 30
0.0
 10
-0.59167
 20
3.5960700000000001
 30
0.0
 10
-0.8177300000000001
 20
3.7840300000000004
 30
0.0
 10
-1.1352300000000002
 20
3.8932500000000001
 30
0.0
 10
-1.29017
 20
4.1370900000000006
 30
0.0
 10
-1.29017
 20
4.1370900000000006
 30
0.0
 10
-1.3054100000000002
 20
4.17265
 30
0.0
 10
-1.2698500000000001
 20
4.1878900000000003
 30
0.0
 10
-1.25461
 20
4.2132900000000006
 30
0.0
  0
SPLINE
  5
2A
100
AcDbEntity
  8
Ebene 1
100
AcDbSpline
210
0.0
220
0.0
230
1.0
 70
     1
 71
     3
 72
    32
 73
    28
 74
     0
 42
0.0000000001
 43
0.0000000001
 40
0.0
 40
0.0
 40
0.0
 40
0.0
 40
0.1428571428571429
 40
0.1428571428571429
 40
0.1428571428571429
 40
0.1428571428571429
 40
0.2857142857142857
 40
0.2857142857142857
 40
0.2857142857142857
 40
0.2857142857142857
 40
0.4285714285714286
 40
0.4285714285714286
 40
0.4285714285714286
 40
0.4285714285714286
 40
0.5714285714285714
 40
0.5714285714285714
 40
0.5714285714285714
 40
0.5714285714285714
 40
0.7142857142857142
 40
0.7142857142857142
 40
0.7142857142857142
 40
0.7142857142857142
 40
0.857142857142857
 40
0.857142857142857
 40
0.857142857142857
 40
0.857142857142857
 40
1.0
 40
1.0
 40
1.0
 40
1.0
 10
1.27522
 20
4.2132900000000006
 30
0.0
 10
1.3412600000000001
 20
4.21075
 30
0.0
 10
1.4174600000000002
 20
4.2310700000000008
 30
0.0
 10
1.4657200000000001
 20
4.1828099999999999
 30
0.0
 10
1.4657200000000001
 20
4.1828099999999999
 30
0.0
 10
1.5038200000000002
 20
4.1802700000000002
 30
0.0
 10
1.5520800000000001
 20
4.1599500000000003
 30
0.0
 10
1.56732
 20
4.1269300000000007
 30
0.0
 10
1.56732
 20
4.1269300000000007
 30
0.0
 10
1.5470000000000002
 20
4.1015300000000003
 30
0.0
 10
1.5114400000000001
 20
4.1091500000000005
 30
0.0
 10
1.4835
 20
4.1066100000000008
 30
0.0
 10
1.4835
 20
4.1066100000000008
 30
0.0
 10
1.1177400000000002
 20
4.2031300000000007
 30
0.0
 10
0.9043800000000001
 20
3.8246700000000002
 30
0.0
 10
0.5868800000000001
 20
3.7789500000000005
 30
0.0
 10
0.5868800000000001
 20
3.7789500000000005
 30
0.0
 10
0.5868800000000001
 20
3.7789500000000005
 30
0.0
 10
0.66308
 20
3.8703900000000004
 30
0.0
 10
0.66308
 20
3.8703900000000004
 30
0.0
 10
0.66308
 20
3.8703900000000004
 30
0.0
 10
0.66308
 20
3.8703900000000004
 30
0.0
 10
0.9247000000000001
 20
4.0507300000000006
 30
0.0
 10
0.9247000000000001
 20
4.0507300000000006
 30
0.0
 10
0.9247000000000001
 20
4.0507300000000006
 30
0.0
 10
1.0263
 20
4.1294700000000004
 30
0.0
 10
1.1533
 20
4.1878900000000003
 30
0.0
 10
1.27522
 20
4.2132900000000006
 30
0.0
  0
SPLINE
  5
2B
100
AcDbEntity
  8
Ebene 1
100
AcDbSpline
210
0.0
220
0.0
230
1.0
 70
     1
 71
     3
 72
    20
 73
    16
 74
     0
 42
0.0000000001
 43
0.0000000001
 40
0.0
 40
0.0
 40
0.0
 40
0.0
 40
0.25
 40
0.25
 40
0.25
 40
0.25
 40
0.5
 40
0.5
 40
0.5
 40
0.5
 40
0.75
 40
0.75
 40
0.75
 40
0.75
 40
1.0
 40
1.0
 40
1.0
 40
1.0
 10
-1.4984500000000001
 20
4.1523300000000001
 30
0.0
 10
-1.4044700000000001
 20
4.1650300000000007
 30
0.0
 10
-1.3003300000000002
 20
4.1574100000000005
 30
0.0
 10
-1.3460500000000002
 20
4.0507300000000006
 30
0.0
 10
-1.3460500000000002
 20
4.0507300000000006
 30
0.0
 10
-1.4679700000000002
 20
4.0735900000000003
 30
0.0
 10
-1.5670300000000001
 20
4.0329500000000005
 30
0.0
 10
-1.6660900000000001
 20
3.9770700000000003
 30
0.0
 10
-1.6660900000000001
 20
3.9770700000000003
 30
0.0
 10
-1.6762500000000002
 20
4.0050100000000004
 30
0.0
 10
-1.6787900000000002
 20
4.04819
 30
0.0
 10
-1.6406900000000002
 20
4.0659700000000001
 30
0.0
 10
-1.6406900000000002
 20
4.0659700000000001
 30
0.0
 10
-1.6406900000000002
 20
4.0659700000000001
 30
0.0
 10
-1.4984500000000001
 20
4.1523300000000001
 30
0.0
 10
-1.4984500000000001
 20
4.1523300000000001
 30
0.0
  0
SPLINE
  5
2C
100
AcDbEntity
  8
Ebene 1
100
AcDbSpline
210
0.0
220
0.0
230
1.0
 70
     1
 71
     3
 72
    20
 73
    16
 74
     0
 42
0.0000000001
 43
0.0000000001
 40
0.0
 40
0.0
 40
0.0
 40
0.0
 40
0.25
 40
0.25
 40
0.25
 40
0.25
 40
0.5
 40
0.5
 40
0.5
 40
0.5
 40
0.75
 40
0.75
 40
0.75
 40
0.75
 40
1.0
 40
1.0
 40
1.0
 40
1.0
 10
-0.19797
 20
3.6062300000000005
 30
0.0
 10
-0.19797
 20
3.6062300000000005
 30
0.0
 10
-0.14971
 20
3.6036900000000003
 30
0.0
 10
-0.14971
 20
3.6036900000000003
 30
0.0
 10
-0.14971
 20
3.6036900000000003
 30
0.0
 10
-0.18527
 20
3.4055700000000004
 30
0.0
 10
0.00268
 20
3.2353900000000002
 30
0.0
 10
-0.06081
 20
3.0220300000000004
 30
0.0
 10
-0.06081
 20
3.0220300000000004
 30
0.0
 10
-0.14971
 20
2.9026500000000004
 30
0.0
 10
-0.29703
 20
2.9839300000000004
 30
0.0
 10
-0.38339
 20
3.0499700000000001
 30
0.0
 10
-0.38339
 20
3.0499700000000001
 30
0.0
 10
-0.12685
 20
3.1617300000000004
 30
0.0
 10
-0.31481
 20
3.4157300000000004
 30
0.0
 10
-0.19797
 20
3.6062300000000005
 30
0.0
  0
SPLINE
  5
2D
100
AcDbEntity
  8
Ebene 1
100
AcDbSpline
210
0.0
220
0.0
230
1.0
 70
     1
 71
     3
 72
    20
 73
    16
 74
     0
 42
0.0000000001
 43
0.0000000001
 40
0.0
 40
0.0
 40
0.0
 40
0.0
 40
0.25
 40
0.25
 40
0.25
 40
0.25
 40
0.5
 40
0.5
 40
0.5
 40
0.5
 40
0.75
 40
0.75
 40
0.75
 40
0.75
 40
1.0
 40
1.0
 40
1.0
 40
1.0
 10
0.4421000000000001
 20
3.6062300000000005
 30
0.0
 10
0.53608
 20
3.4665300000000001
 30
0.0
 10
0.3455800000000001
 20
3.1261700000000001
 30
0.0
 10
0.66308
 20
3.0956900000000003
 30
0.0
 10
0.66308
 20
3.0956900000000003
 30
0.0
 10
0.66308
 20
3.0956900000000003
 30
0.0
 10
0.6478400000000001
 20
3.0652100000000004
 30
0.0
 10
0.6478400000000001
 20
3.0652100000000004
 30
0.0
 10
0.6478400000000001
 20
3.0652100000000004
 30
0.0
 10
0.51068
 20
3.0956900000000003
 30
0.0
 10
0.50814
 20
2.9280500000000003
 30
0.0
 10
0.39638
 20
2.9458300000000004
 30
0.0
 10
0.39638
 20
2.9458300000000004
 30
0.0
 10
0.22874
 20
3.1490300000000002
 30
0.0
 10
0.3887600000000001
 20
3.3877900000000003
 30
0.0
 10
0.4421000000000001
 20
3.6062300000000005
 30
0.0
  0
SPLINE
  5
2E
100
AcDbEntity
  8
Ebene 1
 62
     7
100
AcDbSpline
210
0.0
220
0.0
230
1.0
 70
     1
 71
     3
 72
   144
 73
   140
 74
     0
 42
0.0000000001
 43
0.0000000001
 40
0.0
 40
0.0
 40
0.0
 40
0.0
 40
0.0285714285714286
 40
0.0285714285714286
 40
0.0285714285714286
 40
0.0285714285714286
 40
0.0571428571428571
 40
0.0571428571428571
 40
0.0571428571428571
 40
0.0571428571428571
 40
0.0857142857142857
 40
0.0857142857142857
 40
0.0857142857142857
 40
0.0857142857142857
 40
0.1142857142857143
 40
0.1142857142857143
 40
0.1142857142857143
 40
0.1142857142857143
 40
0.1428571428571429
 40
0.1428571428571429
 40
0.1428571428571429
 40
0.1428571428571429
 40
0.1714285714285714
 40
0.1714285714285714
 40
0.1714285714285714
 40
0.1714285714285714
 40
0.2
 40
0.2
 40
0.2
 40
0.2
 40
0.2285714285714286
 40
0.2285714285714286
 40
0.2285714285714286
 40
0.2285714285714286
 40
0.2571428571428572
 40
0.2571428571428572
 40
0.2571428571428572
 40
0.2571428571428572
 40
0.2857142857142858
 40
0.2857142857142858
 40
0.2857142857142858
 40
0.2857142857142858
 40
0.3142857142857143
 40
0.3142857142857143
 40
0.3142857142857143
 40
0.3142857142857143
 40
0.3428571428571429
 40
0.3428571428571429
 40
0.3428571428571429
 40
0.3428571428571429
 40
0.3714285714285715
 40
0.3714285714285715
 40
0.3714285714285715
 40
0.3714285714285715
 40
0.4000000000000001
 40
0.4000000000000001
 40
0.4000000000000001
 40
0.4000000000000001
 40
0.4285714285714287
 40
0.4285714285714287
 40
0.4285714285714287
 40
0.4285714285714287
 40
0.4571428571428572
 40
0.4571428571428572
 40
0.4571428571428572
 40
0.4571428571428572
 40
0.4857142857142858
 40
0.4857142857142858
 40
0.4857142857142858
 40
0.4857142857142858
 40
0.5142857142857144
 40
0.5142857142857144
 40
0.5142857142857144
 40
0.5142857142857144
 40
0.5428571428571429
 40
0.5428571428571429
 40
0.5428571428571429
 40
0.5428571428571429
 40
0.5714285714285715
 40
0.5714285714285715
 40
0.5714285714285715
 40
0.5714285714285715
 40
0.6000000000000001
 40
0.6000000000000001
 40
0.6000000000000001
 40
0.6000000000000001
 40
0.6285714285714287
 40
0.6285714285714287
 40
0.6285714285714287
 40
0.6285714285714287
 40
0.6571428571428573
 40
0.6571428571428573
 40
0.6571428571428573
 40
0.6571428571428573
 40
0.6857142857142858
 40
0.6857142857142858
 40
0.6857142857142858
 40
0.6857142857142858
 40
0.7142857142857144
 40
0.7142857142857144
 40
0.7142857142857144
 40
0.7142857142857144
 40
0.742857142857143
 40
0.742857142857143
 40
0.742857142857143
 40
0.742857142857143
 40
0.7714285714285716
 40
0.7714285714285716
 40
0.7714285714285716
 40
0.7714285714285716
 40
0.8000000000000002
 40
0.8000000000000002
 40
0.8000000000000002
 40
0.8000000000000002
 40
0.8285714285714287
 40
0.8285714285714287
 40
0.8285714285714287
 40
0.8285714285714287
 40
0.8571428571428573
 40
0.8571428571428573
 40
0.8571428571428573
 40
0.8571428571428573
 40
0.8857142857142859
 40
0.8857142857142859
 40
0.8857142857142859
 40
0.8857142857142859
 40
0.9142857142857145
 40
0.9142857142857145
 40
0.9142857142857145
 40
0.9142857142857145
 40
0.9428571428571431
 40
0.9428571428571431
 40
0.9428571428571431
 40
0.9428571428571431
 40
0.9714285714285716
 40
0.9714285714285716
 40
0.9714285714285716
 40
0.9714285714285716
 40
1.0
 40
1.0
 40
1.0
 40
1.0
 10
-1.9200900000000001
 20
-0.5238
 30
0.0
 10
-1.8032500000000002
 20
-0.44252
 30
0.0
 10
-1.4806700000000002
 20
-1.03434
 30
0.0
 10
-1.4501900000000001
 20
-1.3391400000000002
 30
0.0
 10
-1.4501900000000001
 20
-1.3391400000000002
 30
0.0
 10
-1.4501900000000001
 20
-1.3391400000000002
 30
0.0
 10
-1.63053
 20
-1.1892800000000001
 30
0.0
 10
-1.63053
 20
-1.1892800000000001
 30
0.0
 10
-1.63053
 20
-1.1892800000000001
 30
0.0
 10
-1.67117
 20
-1.1486400000000001
 30
0.0
 10
-1.7727700000000002
 20
-1.0241800000000001
 30
0.0
 10
-1.8108700000000002
 20
-1.1029200000000001
 30
0.0
 10
-1.8108700000000002
 20
-1.1029200000000001
 30
0.0
 10
-1.8134100000000002
 20
-1.1384800000000002
 30
0.0
 10
-1.7753100000000002
 20
-1.16388
 30
0.0
 10
-1.7600700000000002
 20
-1.1943600000000001
 30
0.0
 10
-1.7600700000000002
 20
-1.1943600000000001
 30
0.0
 10
-1.7118100000000001
 20
-1.3137400000000001
 30
0.0
 10
-1.7067300000000001
 20
-1.3975600000000001
 30
0.0
 10
-1.7600700000000002
 20
-1.5067800000000002
 30
0.0
 10
-1.7600700000000002
 20
-1.5067800000000002
 30
0.0
 10
-1.8134100000000002
 20
-1.4915400000000001
 30
0.0
 10
-1.8083300000000002
 20
-1.4331200000000002
 30
0.0
 10
-1.8134100000000002
 20
-1.3924800000000002
 30
0.0
 10
-1.8134100000000002
 20
-1.3924800000000002
 30
0.0
 10
-2.0140700000000002
 20
-1.4712200000000002
 30
0.0
 10
-1.9937500000000001
 20
-1.2096
 30
0.0
 10
-2.1004300000000002
 20
-1.0978400000000001
 30
0.0
 10
-2.1004300000000002
 20
-1.0978400000000001
 30
0.0
 10
-2.1004300000000002
 20
-1.0978400000000001
 30
0.0
 10
-2.1918700000000002
 20
-0.9962400000000001
 30
0.0
 10
-2.1918700000000002
 20
-0.9962400000000001
 30
0.0
 10
-2.1918700000000002
 20
-0.9962400000000001
 30
0.0
 10
-2.2452100000000002
 20
-1.20198
 30
0.0
 10
-2.1994900000000004
 20
-1.4966200000000001
 30
0.0
 10
-2.3264900000000002
 20
-1.6744200000000002
 30
0.0
 10
-2.3264900000000002
 20
-1.6744200000000002
 30
0.0
 10
-2.2147300000000003
 20
-1.0470400000000002
 30
0.0
 10
-2.9513300000000005
 20
-0.6812800000000001
 30
0.0
 10
-2.7633700000000001
 20
-0.07168
 30
0.0
 10
-2.7633700000000001
 20
-0.07168
 30
0.0
 10
-2.7633700000000001
 20
-0.07168
 30
0.0
 10
-2.7684500000000001
 20
0.19501
 30
0.0
 10
-2.7684500000000001
 20
0.19501
 30
0.0
 10
-2.7684500000000001
 20
0.19501
 30
0.0
 10
-2.8802100000000004
 20
0.07309
 30
0.0
 10
-2.77861
 20
-0.2317
 30
0.0
 10
-2.90307
 20
-0.39172
 30
0.0
 10
-2.90307
 20
-0.39172
 30
0.0
 10
-2.9386300000000003
 20
-0.11486
 30
0.0
 10
-3.1215100000000002
 20
0.14675
 30
0.0
 10
-2.9564100000000004
 20
0.42615
 30
0.0
 10
-2.9564100000000004
 20
0.42615
 30
0.0
 10
-2.8522700000000003
 20
0.5887100000000001
 30
0.0
 10
-2.7887700000000004
 20
0.93669
 30
0.0
 10
-2.9386300000000003
 20
0.5912500000000001
 30
0.0
 10
-2.9386300000000003
 20
0.5912500000000001
 30
0.0
 10
-2.9386300000000003
 20
0.5912500000000001
 30
0.0
 10
-3.0580100000000003
 20
0.2737500000000001
 30
0.0
 10
-3.0580100000000003
 20
0.2737500000000001
 30
0.0
 10
-3.0580100000000003
 20
0.2737500000000001
 30
0.0
 10
-3.2281900000000001
 20
0.83001
 30
0.0
 10
-2.0470900000000003
 20
2.4886300000000001
 30
0.0
 10
-2.8624300000000003
 20
1.4599300000000002
 30
0.0
 10
-2.8624300000000003
 20
1.4599300000000002
 30
0.0
 10
-2.8294100000000002
 20
1.9069700000000001
 30
0.0
 10
-2.43825
 20
2.3209900000000001
 30
0.0
 10
-2.2985500000000001
 20
2.7553300000000003
 30
0.0
 10
-2.2985500000000001
 20
2.7553300000000003
 30
0.0
 10
-2.2985500000000001
 20
2.7553300000000003
 30
0.0
 10
-2.6211300000000004
 20
2.3768700000000003
 30
0.0
 10
-2.6211300000000004
 20
2.3768700000000003
 30
0.0
 10
-2.6211300000000004
 20
2.3768700000000003
 30
0.0
 10
-2.7379700000000002
 20
2.2701900000000004
 30
0.0
 10
-2.4077700000000002
 20
2.7172300000000003
 30
0.0
 10
-2.4458700000000002
 20
2.80105
 30
0.0
 10
-2.4458700000000002
 20
2.80105
 30
0.0
 10
-2.3391900000000003
 20
2.9940900000000004
 30
0.0
 10
-2.2782300000000002
 20
3.2099900000000003
 30
0.0
 10
-2.22235
 20
3.4233500000000001
 30
0.0
 10
-2.22235
 20
3.4233500000000001
 30
0.0
 10
-2.0369300000000004
 20
3.1820500000000003
 30
0.0
 10
-2.1791700000000001
 20
2.8747100000000003
 30
0.0
 10
-2.2121900000000001
 20
2.5978500000000002
 30
0.0
 10
-2.2121900000000001
 20
2.5978500000000002
 30
0.0
 10
-2.2502900000000001
 20
2.3260700000000001
 30
0.0
 10
-2.2629900000000003
 20
2.0263500000000003
 30
0.0
 10
-2.3772900000000003
 20
1.7647300000000001
 30
0.0
 10
-2.3772900000000003
 20
1.7647300000000001
 30
0.0
 10
-2.2452100000000002
 20
1.8815700000000002
 30
0.0
 10
-2.2147300000000003
 20
2.1431900000000002
 30
0.0
 10
-2.1918700000000002
 20
2.3336900000000003
 30
0.0
 10
-2.1918700000000002
 20
2.3336900000000003
 30
0.0
 10
-2.1918700000000002
 20
2.3336900000000003
 30
0.0
 10
-1.9480300000000002
 20
3.5173300000000003
 30
0.0
 10
-1.9480300000000002
 20
3.5173300000000003
 30
0.0
 10
-1.9480300000000002
 20
3.5173300000000003
 30
0.0
 10
-1.8667500000000001
 20
2.7807300000000001
 30
0.0
 10
-1.8946900000000002
 20
1.9780900000000001
 30
0.0
 10
-2.4458700000000002
 20
1.3938900000000001
 30
0.0
 10
-2.4458700000000002
 20
1.3938900000000001
 30
0.0
 10
-2.4458700000000002
 20
1.3938900000000001
 30
0.0
 10
-2.5398500000000004
 20
1.0916300000000001
 30
0.0
 10
-2.5398500000000004
 20
1.0916300000000001
 30
0.0
 10
-2.5398500000000004
 20
1.0916300000000001
 30
0.0
 10
-2.3925300000000003
 20
1.0459100000000001
 30
0.0
 10
-2.3772900000000003
 20
1.4624700000000002
 30
0.0
 10
-2.1436100000000002
 20
1.52851
 30
0.0
 10
-2.1436100000000002
 20
1.52851
 30
0.0
 10
-2.0902700000000003
 20
1.2084700000000002
 30
0.0
 10
-2.1664700000000003
 20
0.7080900000000001
 30
0.0
 10
-2.5906500000000001
 20
0.3804300000000001
 30
0.0
 10
-2.5906500000000001
 20
0.3804300000000001
 30
0.0
 10
-2.5119100000000003
 20
0.26867
 30
0.0
 10
-2.3798300000000001
 20
0.4947300000000001
 30
0.0
 10
-2.26553
 20
0.48203
 30
0.0
 10
-2.26553
 20
0.48203
 30
0.0
 10
-2.35189
 20
0.22041
 30
0.0
 10
-2.4788900000000003
 20
-0.04374
 30
0.0
 10
-2.39507
 20
-0.32568
 30
0.0
 10
-2.39507
 20
-0.32568
 30
0.0
 10
-2.3010900000000003
 20
-0.33838
 30
0.0
 10
-2.3747500000000001
 20
-0.2063
 30
0.0
 10
-2.3315700000000001
 20
-0.16312
 30
0.0
 10
-2.3315700000000001
 20
-0.16312
 30
0.0
 10
-2.23759
 20
0.22803
 30
0.0
 10
-2.2248900000000003
 20
-0.7117600000000001
 30
0.0
 10
-2.05471
 20
-0.5873
 30
0.0
 10
-2.05471
 20
-0.5873
 30
0.0
 10
-2.05471
 20
-0.5873
 30
0.0
 10
-2.1055100000000002
 20
-0.37648
 30
0.0
 10
-2.1055100000000002
 20
-0.37648
 30
0.0
 10
-2.1055100000000002
 20
-0.37648
 30
0.0
 10
-2.1055100000000002
 20
-0.37648
 30
0.0
 10
-2.0394700000000001
 20
-0.4222
 30
0.0
 10
-2.0394700000000001
 20
-0.4222
 30
0.0
 10
-2.0394700000000001
 20
-0.4222
 30
0.0
 10
-1.9073900000000001
 20
-0.8286000000000001
 30
0.0
 10
-1.5797300000000001
 20
-0.9962400000000001
 30
0.0
 10
-1.9200900000000001
 20
-0.5238
 30
0.0
  0
SPLINE
  5
2F
100
AcDbEntity
  8
Ebene 1
100
AcDbSpline
210
0.0
220
0.0
230
1.0
 70
     1
 71
     3
 72
    48
 73
    44
 74
     0
 42
0.0000000001
 43
0.0000000001
 40
0.0
 40
0.0
 40
0.0
 40
0.0
 40
0.0909090909090909
 40
0.0909090909090909
 40
0.0909090909090909
 40
0.0909090909090909
 40
0.1818181818181818
 40
0.1818181818181818
 40
0.1818181818181818
 40
0.1818181818181818
 40
0.2727272727272727
 40
0.2727272727272727
 40
0.2727272727272727
 40
0.2727272727272727
 40
0.3636363636363637
 40
0.3636363636363637
 40
0.3636363636363637
 40
0.3636363636363637
 40
0.4545454545454546
 40
0.4545454545454546
 40
0.4545454545454546
 40
0.4545454545454546
 40
0.5454545454545455
 40
0.5454545454545455
 40
0.5454545454545455
 40
0.5454545454545455
 40
0.6363636363636365
 40
0.6363636363636365
 40
0.6363636363636365
 40
0.6363636363636365
 40
0.7272727272727274
 40
0.7272727272727274
 40
0.7272727272727274
 40
0.7272727272727274
 40
0.8181818181818183
 40
0.8181818181818183
 40
0.8181818181818183
 40
0.8181818181818183
 40
0.9090909090909093
 40
0.9090909090909093
 40
0.9090909090909093
 40
0.9090909090909093
 40
1.0
 40
1.0
 40
1.0
 40
1.0
 10
1.4987400000000002
 20
3.3954100000000005
 30
0.0
 10
1.5952600000000001
 20
3.3954100000000005
 30
0.0
 10
1.7019400000000002
 20
3.4081100000000002
 30
0.0
 10
1.7756000000000001
 20
3.3471500000000001
 30
0.0
 10
1.7756000000000001
 20
3.3471500000000001
 30
0.0
 10
1.8035400000000001
 20
3.2303100000000002
 30
0.0
 10
1.7070200000000002
 20
3.3293700000000004
 30
0.0
 10
1.6740000000000002
 20
3.3039700000000001
 30
0.0
 10
1.6740000000000002
 20
3.3039700000000001
 30
0.0
 10
1.7476600000000002
 20
3.1337900000000003
 30
0.0
 10
1.7044800000000002
 20
2.9407500000000004
 30
0.0
 10
1.6105
 20
2.7858100000000001
 30
0.0
 10
1.6105
 20
2.7858100000000001
 30
0.0
 10
1.6105
 20
2.7858100000000001
 30
0.0
 10
1.5749400000000002
 20
2.7019900000000003
 30
0.0
 10
1.5749400000000002
 20
2.7019900000000003
 30
0.0
 10
1.5749400000000002
 20
2.7019900000000003
 30
0.0
 10
1.5749400000000002
 20
2.7019900000000003
 30
0.0
 10
1.7044800000000002
 20
2.7553300000000003
 30
0.0
 10
1.7044800000000002
 20
2.7553300000000003
 30
0.0
 10
1.7044800000000002
 20
2.7553300000000003
 30
0.0
 10
1.7349600000000001
 20
2.6410300000000002
 30
0.0
 10
1.3692000000000002
 20
2.5343500000000003
 30
0.0
 10
1.4962000000000002
 20
2.6715100000000001
 30
0.0
 10
1.4962000000000002
 20
2.6715100000000001
 30
0.0
 10
1.5114400000000001
 20
2.6918300000000004
 30
0.0
 10
1.48604
 20
2.7045300000000001
 30
0.0
 10
1.4657200000000001
 20
2.6994500000000001
 30
0.0
 10
1.4657200000000001
 20
2.6994500000000001
 30
0.0
 10
1.2015600000000002
 20
2.68167
 30
0.0
 10
0.8485
 20
2.7070700000000003
 30
0.0
 10
0.6910200000000001
 20
2.9077300000000004
 30
0.0
 10
0.6910200000000001
 20
2.9077300000000004
 30
0.0
 10
0.68086
 20
2.7731100000000004
 30
0.0
 10
0.9221600000000001
 20
2.7223100000000002
 30
0.0
 10
0.9628000000000001
 20
2.6689700000000003
 30
0.0
 10
0.9628000000000001
 20
2.6689700000000003
 30
0.0
 10
0.7494400000000001
 20
2.6537300000000004
 30
0.0
 10
0.6326000000000001
 20
2.8162900000000004
 30
0.0
 10
0.5691000000000001
 20
2.9686900000000001
 30
0.0
 10
0.5691000000000001
 20
2.9686900000000001
 30
0.0
 10
0.9170800000000001
 20
3.0194900000000002
 30
0.0
 10
1.1761600000000001
 20
3.2988900000000001
 30
0.0
 10
1.4987400000000002
 20
3.3954100000000005
 30
0.0
  0
SPLINE
  5
30
100
AcDbEntity
  8
Ebene 1
100
AcDbSpline
210
0.0
220
0.0
230
1.0
 70
     1
 71
     3
 72
    56
 73
    52
 74
     0
 42
0.0000000001
 43
0.0000000001
 40
0.0
 40
0.0
 40
0.0
 40
0.0
 40
0.0769230769230769
 40
0.0769230769230769
 40
0.0769230769230769
 40
0.0769230769230769
 40
0.1538461538461539
 40
0.1538461538461539
 40
0.1538461538461539
 40
0.1538461538461539
 40
0.2307692307692308
 40
0.2307692307692308
 40
0.2307692307692308
 40
0.2307692307692308
 40
0.3076923076923077
 40
0.3076923076923077
 40
0.3076923076923077
 40
0.3076923076923077
 40
0.3846153846153846
 40
0.3846153846153846
 40
0.3846153846153846
 40
0.3846153846153846
 40
0.4615384615384616
 40
0.4615384615384616
 40
0.4615384615384616
 40
0.4615384615384616
 40
0.5384615384615386
 40
0.5384615384615386
 40
0.5384615384615386
 40
0.5384615384615386
 40
0.6153846153846154
 40
0.6153846153846154
 40
0.6153846153846154
 40
0.6153846153846154
 40
0.6923076923076923
 40
0.6923076923076923
 40
0.6923076923076923
 40
0.6923076923076923
 40
0.7692307692307692
 40
0.7692307692307692
 40
0.7692307692307692
 40
0.7692307692307692
 40
0.846153846153846
 40
0.846153846153846
 40
0.846153846153846
 40
0.846153846153846
 40
0.9230769230769229
 40
0.9230769230769229
 40
0.9230769230769229
 40
0.9230769230769229
 40
1.0
 40
1.0
 40
1.0
 40
1.0
 10
-0.68057
 20
2.7858100000000001
 30
0.0
 10
-0.8990100000000001
 20
2.5597500000000002
 30
0.0
 10
-1.2317500000000001
 20
2.42767
 30
0.0
 10
-1.54417
 20
2.6130900000000001
 30
0.0
 10
-1.54417
 20
2.6130900000000001
 30
0.0
 10
-1.54417
 20
2.6130900000000001
 30
0.0
 10
-1.54417
 20
2.6638900000000003
 30
0.0
 10
-1.54417
 20
2.6638900000000003
 30
0.0
 10
-1.54417
 20
2.6638900000000003
 30
0.0
 10
-1.4552700000000001
 20
2.6791300000000002
 30
0.0
 10
-1.4120900000000001
 20
2.5724500000000003
 30
0.0
 10
-1.3231900000000001
 20
2.5775300000000003
 30
0.0
 10
-1.3231900000000001
 20
2.5775300000000003
 30
0.0
 10
-1.2800100000000001
 20
2.5775300000000003
 30
0.0
 10
-1.2165100000000002
 20
2.5699100000000001
 30
0.0
 10
-1.1885700000000001
 20
2.6054700000000004
 30
0.0
 10
-1.1885700000000001
 20
2.6054700000000004
 30
0.0
 10
-1.3892300000000002
 20
2.59023
 30
0.0
 10
-1.50607
 20
2.7172300000000003
 30
0.0
 10
-1.5314700000000001
 20
2.8797900000000003
 30
0.0
 10
-1.5314700000000001
 20
2.8797900000000003
 30
0.0
 10
-1.5594100000000002
 20
2.9712300000000003
 30
0.0
 10
-1.5670300000000001
 20
3.0702900000000004
 30
0.0
 10
-1.5670300000000001
 20
3.1668100000000003
 30
0.0
 10
-1.5670300000000001
 20
3.1668100000000003
 30
0.0
 10
-1.5721100000000001
 20
3.2912700000000004
 30
0.0
 10
-1.6381500000000002
 20
3.1033100000000005
 30
0.0
 10
-1.6838700000000002
 20
3.1566500000000004
 30
0.0
 10
-1.6838700000000002
 20
3.1566500000000004
 30
0.0
 10
-1.6864100000000002
 20
3.2404700000000002
 30
0.0
 10
-1.6178300000000001
 20
3.3065100000000003
 30
0.0
 10
-1.54417
 20
3.3623900000000004
 30
0.0
 10
-1.54417
 20
3.3623900000000004
 30
0.0
 10
-1.1123700000000001
 20
3.3522300000000005
 30
0.0
 10
-0.7999500000000001
 20
3.0169500000000005
 30
0.0
 10
-0.37323
 20
2.9686900000000001
 30
0.0
 10
-0.37323
 20
2.9686900000000001
 30
0.0
 10
-0.37323
 20
2.9686900000000001
 30
0.0
 10
-0.37323
 20
2.93059
 30
0.0
 10
-0.37323
 20
2.93059
 30
0.0
 10
-0.37323
 20
2.93059
 30
0.0
 10
-0.5205500000000001
 20
2.9788500000000004
 30
0.0
 10
-0.46467
 20
2.80105
 30
0.0
 10
-0.55611
 20
2.7400900000000004
 30
0.0
 10
-0.55611
 20
2.7400900000000004
 30
0.0
 10
-0.67803
 20
2.6740500000000003
 30
0.0
 10
-0.63231
 20
2.7324700000000002
 30
0.0
 10
-0.59167
 20
2.7959700000000001
 30
0.0
 10
-0.59167
 20
2.7959700000000001
 30
0.0
 10
-0.5027700000000001
 20
2.9407500000000004
 30
0.0
 10
-0.61199
 20
2.8543900000000004
 30
0.0
 10
-0.68057
 20
2.7858100000000001
 30
0.0
  0
SPLINE
  5
31
100
AcDbEntity
  8
Ebene 1
 62
     7
100
AcDbSpline
210
0.0
220
0.0
230
1.0
 70
     1
 71
     3
 72
    12
 73
     8
 74
     0
 42
0.0000000001
 43
0.0000000001
 40
0.0
 40
0.0
 40
0.0
 40
0.0
 40
0.5
 40
0.5
 40
0.5
 40
0.5
 40
1.0
 40
1.0
 40
1.0
 40
1.0
 10
2.59348
 20
3.4131900000000002
 30
0.0
 10
2.6696800000000001
 20
3.2734900000000002
 30
0.0
 10
2.7433400000000003
 20
3.0499700000000001
 30
0.0
 10
2.7966800000000003
 20
2.9001100000000002
 30
0.0
 10
2.7966800000000003
 20
2.9001100000000002
 30
0.0
 10
2.6595200000000001
 20
3.01187
 30
0.0
 10
2.6011000000000002
 20
3.2684100000000003
 30
0.0
 10
2.59348
 20
3.4131900000000002
 30
0.0
  0
SPLINE
  5
32
100
AcDbEntity
  8
Ebene 1
100
AcDbSpline
210
0.0
220
0.0
230
1.0
 70
     1
 71
     3
 72
    40
 73
    36
 74
     0
 42
0.0000000001
 43
0.0000000001
 40
0.0
 40
0.0
 40
0.0
 40
0.0
 40
0.1111111111111111
 40
0.1111111111111111
 40
0.1111111111111111
 40
0.1111111111111111
 40
0.2222222222222222
 40
0.2222222222222222
 40
0.2222222222222222
 40
0.2222222222222222
 40
0.3333333333333333
 40
0.3333333333333333
 40
0.3333333333333333
 40
0.3333333333333333
 40
0.4444444444444444
 40
0.4444444444444444
 40
0.4444444444444444
 40
0.4444444444444444
 40
0.5555555555555556
 40
0.5555555555555556
 40
0.5555555555555556
 40
0.5555555555555556
 40
0.6666666666666667
 40
0.6666666666666667
 40
0.6666666666666667
 40
0.6666666666666667
 40
0.7777777777777779
 40
0.7777777777777779
 40
0.7777777777777779
 40
0.7777777777777779
 40
0.8888888888888891
 40
0.8888888888888891
 40
0.8888888888888891
 40
0.8888888888888891
 40
1.0
 40
1.0
 40
1.0
 40
1.0
 10
0.23382
 20
2.6537300000000004
 30
0.0
 10
0.23382
 20
2.6537300000000004
 30
0.0
 10
0.29986
 20
2.6486500000000004
 30
0.0
 10
0.29986
 20
2.6486500000000004
 30
0.0
 10
0.29986
 20
2.6486500000000004
 30
0.0
 10
0.46496
 20
2.37941
 30
0.0
 10
0.531
 20
2.0695300000000003
 30
0.0
 10
0.61482
 20
1.7748900000000001
 30
0.0
 10
0.61482
 20
1.7748900000000001
 30
0.0
 10
0.53354
 20
1.5920100000000001
 30
0.0
 10
0.2643
 20
1.6834500000000001
 30
0.0
 10
0.14746
 20
1.7875900000000002
 30
0.0
 10
0.14746
 20
1.7875900000000002
 30
0.0
 10
0.14746
 20
1.7875900000000002
 30
0.0
 10
0.14238
 20
1.5970900000000001
 30
0.0
 10
0.14238
 20
1.5970900000000001
 30
0.0
 10
0.14238
 20
1.5970900000000001
 30
0.0
 10
0.07126
 20
1.6199500000000002
 30
0.0
 10
0.15
 20
1.7190100000000001
 30
0.0
 10
0.09158
 20
1.7571100000000002
 30
0.0
 10
0.09158
 20
1.7571100000000002
 30
0.0
 10
0.09158
 20
1.7571100000000002
 30
0.0
 10
-0.19289
 20
1.6580500000000002
 30
0.0
 10
-0.19289
 20
1.6580500000000002
 30
0.0
 10
-0.19289
 20
1.6580500000000002
 30
0.0
 10
-0.34783
 20
1.9526900000000003
 30
0.0
 10
-0.21575
 20
2.34639
 30
0.0
 10
-0.08875
 20
2.63341
 30
0.0
 10
-0.08875
 20
2.63341
 30
0.0
 10
-0.01255
 20
2.6537300000000004
 30
0.0
 10
0.05094
 20
2.6232500000000001
 30
0.0
 10
0.1119
 20
2.5927700000000002
 30
0.0
 10
0.1119
 20
2.5927700000000002
 30
0.0
 10
0.1119
 20
2.5927700000000002
 30
0.0
 10
0.23382
 20
2.6537300000000004
 30
0.0
 10
0.23382
 20
2.6537300000000004
 30
0.0
  0
SPLINE
  5
33
100
AcDbEntity
  8
Ebene 1
 62
     7
100
AcDbSpline
210
0.0
220
0.0
230
1.0
 70
     1
 71
     3
 72
   284
 73
   280
 74
     0
 42
0.0000000001
 43
0.0000000001
 40
0.0
 40
0.0
 40
0.0
 40
0.0
 40
0.0142857142857143
 40
0.0142857142857143
 40
0.0142857142857143
 40
0.0142857142857143
 40
0.0285714285714286
 40
0.0285714285714286
 40
0.0285714285714286
 40
0.0285714285714286
 40
0.0428571428571429
 40
0.0428571428571429
 40
0.0428571428571429
 40
0.0428571428571429
 40
0.0571428571428571
 40
0.0571428571428571
 40
0.0571428571428571
 40
0.0571428571428571
 40
0.0714285714285714
 40
0.0714285714285714
 40
0.0714285714285714
 40
0.0714285714285714
 40
0.0857142857142857
 40
0.0857142857142857
 40
0.0857142857142857
 40
0.0857142857142857
 40
0.1
 40
0.1
 40
0.1
 40
0.1
 40
0.1142857142857143
 40
0.1142857142857143
 40
0.1142857142857143
 40
0.1142857142857143
 40
0.1285714285714286
 40
0.1285714285714286
 40
0.1285714285714286
 40
0.1285714285714286
 40
0.1428571428571429
 40
0.1428571428571429
 40
0.1428571428571429
 40
0.1428571428571429
 40
0.1571428571428572
 40
0.1571428571428572
 40
0.1571428571428572
 40
0.1571428571428572
 40
0.1714285714285715
 40
0.1714285714285715
 40
0.1714285714285715
 40
0.1714285714285715
 40
0.1857142857142858
 40
0.1857142857142858
 40
0.1857142857142858
 40
0.1857142857142858
 40
0.2
 40
0.2
 40
0.2
 40
0.2
 40
0.2142857142857143
 40
0.2142857142857143
 40
0.2142857142857143
 40
0.2142857142857143
 40
0.2285714285714286
 40
0.2285714285714286
 40
0.2285714285714286
 40
0.2285714285714286
 40
0.2428571428571429
 40
0.2428571428571429
 40
0.2428571428571429
 40
0.2428571428571429
 40
0.2571428571428572
 40
0.2571428571428572
 40
0.2571428571428572
 40
0.2571428571428572
 40
0.2714285714285715
 40
0.2714285714285715
 40
0.2714285714285715
 40
0.2714285714285715
 40
0.2857142857142858
 40
0.2857142857142858
 40
0.2857142857142858
 40
0.2857142857142858
 40
0.3
 40
0.3
 40
0.3
 40
0.3
 40
0.3142857142857143
 40
0.3142857142857143
 40
0.3142857142857143
 40
0.3142857142857143
 40
0.3285714285714286
 40
0.3285714285714286
 40
0.3285714285714286
 40
0.3285714285714286
 40
0.3428571428571429
 40
0.3428571428571429
 40
0.3428571428571429
 40
0.3428571428571429
 40
0.3571428571428572
 40
0.3571428571428572
 40
0.3571428571428572
 40
0.3571428571428572
 40
0.3714285714285715
 40
0.3714285714285715
 40
0.3714285714285715
 40
0.3714285714285715
 40
0.3857142857142858
 40
0.3857142857142858
 40
0.3857142857142858
 40
0.3857142857142858
 40
0.4000000000000001
 40
0.4000000000000001
 40
0.4000000000000001
 40
0.4000000000000001
 40
0.4142857142857144
 40
0.4142857142857144
 40
0.4142857142857144
 40
0.4142857142857144
 40
0.4285714285714287
 40
0.4285714285714287
 40
0.4285714285714287
 40
0.4285714285714287
 40
0.442857142857143
 40
0.442857142857143
 40
0.442857142857143
 40
0.442857142857143
 40
0.4571428571428572
 40
0.4571428571428572
 40
0.4571428571428572
 40
0.4571428571428572
 40
0.4714285714285715
 40
0.4714285714285715
 40
0.4714285714285715
 40
0.4714285714285715
 40
0.4857142857142858
 40
0.4857142857142858
 40
0.4857142857142858
 40
0.4857142857142858
 40
0.5000000000000001
 40
0.5000000000000001
 40
0.5000000000000001
 40
0.5000000000000001
 40
0.5142857142857144
 40
0.5142857142857144
 40
0.5142857142857144
 40
0.5142857142857144
 40
0.5285714285714286
 40
0.5285714285714286
 40
0.5285714285714286
 40
0.5285714285714286
 40
0.5428571428571428
 40
0.5428571428571428
 40
0.5428571428571428
 40
0.5428571428571428
 40
0.5571428571428571
 40
0.5571428571428571
 40
0.5571428571428571
 40
0.5571428571428571
 40
0.5714285714285713
 40
0.5714285714285713
 40
0.5714285714285713
 40
0.5714285714285713
 40
0.5857142857142855
 40
0.5857142857142855
 40
0.5857142857142855
 40
0.5857142857142855
 40
0.5999999999999998
 40
0.5999999999999998
 40
0.5999999999999998
 40
0.5999999999999998
 40
0.614285714285714
 40
0.614285714285714
 40
0.614285714285714
 40
0.614285714285714
 40
0.6285714285714282
 40
0.6285714285714282
 40
0.6285714285714282
 40
0.6285714285714282
 40
0.6428571428571425
 40
0.6428571428571425
 40
0.6428571428571425
 40
0.6428571428571425
 40
0.6571428571428567
 40
0.6571428571428567
 40
0.6571428571428567
 40
0.6571428571428567
 40
0.6714285714285709
 40
0.6714285714285709
 40
0.6714285714285709
 40
0.6714285714285709
 40
0.6857142857142852
 40
0.6857142857142852
 40
0.6857142857142852
 40
0.6857142857142852
 40
0.6999999999999994
 40
0.6999999999999994
 40
0.6999999999999994
 40
0.6999999999999994
 40
0.7142857142857136
 40
0.7142857142857136
 40
0.7142857142857136
 40
0.7142857142857136
 40
0.7285714285714279
 40
0.7285714285714279
 40
0.7285714285714279
 40
0.7285714285714279
 40
0.7428571428571421
 40
0.7428571428571421
 40
0.7428571428571421
 40
0.7428571428571421
 40
0.7571428571428563
 40
0.7571428571428563
 40
0.7571428571428563
 40
0.7571428571428563
 40
0.7714285714285706
 40
0.7714285714285706
 40
0.7714285714285706
 40
0.7714285714285706
 40
0.7857142857142848
 40
0.7857142857142848
 40
0.7857142857142848
 40
0.7857142857142848
 40
0.7999999999999991
 40
0.7999999999999991
 40
0.7999999999999991
 40
0.7999999999999991
 40
0.8142857142857133
 40
0.8142857142857133
 40
0.8142857142857133
 40
0.8142857142857133
 40
0.8285714285714275
 40
0.8285714285714275
 40
0.8285714285714275
 40
0.8285714285714275
 40
0.8428571428571418
 40
0.8428571428571418
 40
0.8428571428571418
 40
0.8428571428571418
 40
0.857142857142856
 40
0.857142857142856
 40
0.857142857142856
 40
0.857142857142856
 40
0.8714285714285702
 40
0.8714285714285702
 40
0.8714285714285702
 40
0.8714285714285702
 40
0.8857142857142845
 40
0.8857142857142845
 40
0.8857142857142845
 40
0.8857142857142845
 40
0.8999999999999987
 40
0.8999999999999987
 40
0.8999999999999987
 40
0.8999999999999987
 40
0.9142857142857129
 40
0.9142857142857129
 40
0.9142857142857129
 40
0.9142857142857129
 40
0.9285714285714272
 40
0.9285714285714272
 40
0.9285714285714272
 40
0.9285714285714272
 40
0.9428571428571414
 40
0.9428571428571414
 40
0.9428571428571414
 40
0.9428571428571414
 40
0.9571428571428556
 40
0.9571428571428556
 40
0.9571428571428556
 40
0.9571428571428556
 40
0.9714285714285699
 40
0.9714285714285699
 40
0.9714285714285699
 40
0.9714285714285699
 40
0.9857142857142841
 40
0.9857142857142841
 40
0.9857142857142841
 40
0.9857142857142841
 40
1.0
 40
1.0
 40
1.0
 40
1.0
 10
-0.08875
 20
-1.42042
 30
0.0
 10
-0.13701
 20
-1.5398000000000001
 30
0.0
 10
-0.09383
 20
-1.8268200000000001
 30
0.0
 10
-0.09891
 20
-1.9614400000000001
 30
0.0
 10
-0.09891
 20
-1.9614400000000001
 30
0.0
 10
0.10174
 20
-1.9944600000000001
 30
0.0
 10
-0.09383
 20
-1.12578
 30
0.0
 10
0.07888
 20
-1.0267200000000001
 30
0.0
 10
0.07888
 20
-1.0267200000000001
 30
0.0
 10
0.07888
 20
-1.0267200000000001
 30
0.0
 10
0.09412
 20
-0.7397
 30
0.0
 10
0.09412
 20
-0.7397
 30
0.0
 10
0.09412
 20
-0.7397
 30
0.0
 10
0.16016
 20
-1.3670800000000001
 30
0.0
 10
0.10428
 20
-1.7480800000000001
 30
0.0
 10
0.3354200000000001
 20
-2.3856200000000003
 30
0.0
 10
0.3354200000000001
 20
-2.3856200000000003
 30
0.0
 10
0.3786000000000001
 20
-2.2408400000000004
 30
0.0
 10
0.30748
 20
-2.0732000000000004
 30
0.0
 10
0.28208
 20
-1.92334
 30
0.0
 10
0.28208
 20
-1.92334
 30
0.0
 10
0.21858
 20
-1.7633200000000002
 30
0.0
 10
0.1881
 20
-1.5931400000000002
 30
0.0
 10
0.23382
 20
-1.42042
 30
0.0
 10
0.23382
 20
-1.42042
 30
0.0
 10
0.23382
 20
-1.42042
 30
0.0
 10
0.2516000000000001
 20
-0.57206
 30
0.0
 10
0.2516000000000001
 20
-0.57206
 30
0.0
 10
0.2516000000000001
 20
-0.57206
 30
0.0
 10
0.2516000000000001
 20
-0.57206
 30
0.0
 10
0.12968
 20
-0.13264
 30
0.0
 10
0.12968
 20
-0.13264
 30
0.0
 10
0.12968
 20
-0.13264
 30
0.0
 10
0.12968
 20
-0.13264
 30
0.0
 10
0.09412
 20
0.09341
 30
0.0
 10
0.09412
 20
0.09341
 30
0.0
 10
0.09412
 20
0.09341
 30
0.0
 10
0.43448
 20
0.55061
 30
0.0
 10
0.21604
 20
-0.3637800000000001
 30
0.0
 10
0.40654
 20
-0.29774
 30
0.0
 10
0.40654
 20
-0.29774
 30
0.0
 10
0.40654
 20
-0.29774
 30
0.0
 10
0.4548
 20
-0.39172
 30
0.0
 10
0.4548
 20
-0.39172
 30
0.0
 10
0.4548
 20
-0.39172
 30
0.0
 10
0.5386200000000001
 20
-0.59492
 30
0.0
 10
0.50814
 20
-0.33584
 30
0.0
 10
0.45988
 20
-0.25456
 30
0.0
 10
0.45988
 20
-0.25456
 30
0.0
 10
0.48528
 20
-0.25964
 30
0.0
 10
0.7748400000000001
 20
-0.34092
 30
0.0
 10
0.7265800000000001
 20
-0.20376
 30
0.0
 10
0.7265800000000001
 20
-0.20376
 30
0.0
 10
0.47766
 20
-0.1682
 30
0.0
 10
0.6910200000000001
 20
-0.13518
 30
0.0
 10
0.8205600000000001
 20
-0.11232
 30
0.0
 10
0.8205600000000001
 20
-0.11232
 30
0.0
 10
0.9450200000000001
 20
-0.13518
 30
0.0
 10
0.6910200000000001
 20
-0.5644400000000001
 30
0.0
 10
0.7951600000000001
 20
-0.4679200000000001
 30
0.0
 10
0.7951600000000001
 20
-0.4679200000000001
 30
0.0
 10
0.8231000000000001
 20
-0.47046
 30
0.0
 10
0.82818
 20
-0.50602
 30
0.0
 10
0.8231000000000001
 20
-0.52634
 30
0.0
 10
0.8231000000000001
 20
-0.52634
 30
0.0
 10
0.8434200000000001
 20
-1.4509000000000001
 30
0.0
 10
0.86882
 20
-0.02342
 30
0.0
 10
1.0847200000000001
 20
0.25851
 30
0.0
 10
1.0847200000000001
 20
0.25851
 30
0.0
 10
1.0796400000000002
 20
0.55315
 30
0.0
 10
1.0466200000000001
 20
0.8223900000000001
 30
0.0
 10
1.0720200000000002
 20
1.10433
 30
0.0
 10
1.0720200000000002
 20
1.10433
 30
0.0
 10
1.18632
 20
0.9798700000000001
 30
0.0
 10
1.1025
 20
0.68523
 30
0.0
 10
1.23712
 20
0.5658500000000001
 30
0.0
 10
1.23712
 20
0.5658500000000001
 30
0.0
 10
1.05932
 20
1.0509900000000001
 30
0.0
 10
1.3387200000000001
 20
1.4624700000000002
 30
0.0
 10
1.3438000000000001
 20
1.9552300000000002
 30
0.0
 10
1.3438000000000001
 20
1.9552300000000002
 30
0.0
 10
1.4682600000000001
 20
1.48533
 30
0.0
 10
1.3692000000000002
 20
0.85033
 30
0.0
 10
1.5825600000000002
 20
0.37027
 30
0.0
 10
1.5825600000000002
 20
0.37027
 30
0.0
 10
1.5825600000000002
 20
0.37027
 30
0.0
 10
1.56732
 20
0.61919
 30
0.0
 10
1.56732
 20
0.61919
 30
0.0
 10
1.56732
 20
0.61919
 30
0.0
 10
1.4936600000000002
 20
1.0459100000000001
 30
0.0
 10
1.3539600000000001
 20
1.5462900000000002
 30
0.0
 10
1.5749400000000002
 20
1.9526900000000003
 30
0.0
 10
1.5749400000000002
 20
1.9526900000000003
 30
0.0
 10
2.0346800000000003
 20
0.6496700000000001
 30
0.0
 10
1.4733400000000001
 20
-0.7447800000000001
 30
0.0
 10
1.3234800000000002
 20
-2.0833600000000003
 30
0.0
 10
1.3234800000000002
 20
-2.0833600000000003
 30
0.0
 10
1.2625200000000001
 20
-2.06304
 30
0.0
 10
1.3107800000000001
 20
-1.9411200000000002
 30
0.0
 10
1.2574400000000001
 20
-1.8903200000000002
 30
0.0
 10
1.2574400000000001
 20
-1.8903200000000002
 30
0.0
 10
1.1710800000000001
 20
-1.7938000000000001
 30
0.0
 10
1.0872600000000001
 20
-1.9589000000000001
 30
0.0
 10
1.1533
 20
-2.0554200000000002
 30
0.0
 10
1.1533
 20
-2.0554200000000002
 30
0.0
 10
1.1787000000000001
 20
-2.13924
 30
0.0
 10
1.1710800000000001
 20
-2.2256
 30
0.0
 10
1.1710800000000001
 20
-2.3145000000000002
 30
0.0
 10
1.1710800000000001
 20
-2.3145000000000002
 30
0.0
 10
1.1710800000000001
 20
-2.3145000000000002
 30
0.0
 10
1.1329800000000001
 20
-2.4161000000000001
 30
0.0
 10
1.1329800000000001
 20
-2.4161000000000001
 30
0.0
 10
1.1329800000000001
 20
-2.4161000000000001
 30
0.0
 10
0.99582
 20
-2.7412200000000002
 30
0.0
 10
1.1329800000000001
 20
-2.0401800000000003
 30
0.0
 10
1.01614
 20
-2.2383000000000002
 30
0.0
 10
1.01614
 20
-2.2383000000000002
 30
0.0
 10
1.01614
 20
-2.2383000000000002
 30
0.0
 10
1.0034400000000001
 20
-2.3475200000000003
 30
0.0
 10
1.0034400000000001
 20
-2.3475200000000003
 30
0.0
 10
1.0034400000000001
 20
-2.3475200000000003
 30
0.0
 10
0.9932800000000001
 20
-2.3881600000000001
 30
0.0
 10
0.9907400000000001
 20
-2.4313400000000001
 30
0.0
 10
0.9602600000000001
 20
-2.4618200000000003
 30
0.0
 10
0.9602600000000001
 20
-2.4618200000000003
 30
0.0
 10
0.9602600000000001
 20
-2.4618200000000003
 30
0.0
 10
0.89168
 20
-2.5735800000000002
 30
0.0
 10
0.89168
 20
-2.5735800000000002
 30
0.0
 10
0.89168
 20
-2.5735800000000002
 30
0.0
 10
0.65546
 20
-2.9418800000000003
 30
0.0
 10
0.9374000000000001
 20
-2.01986
 30
0.0
 10
1.0313800000000002
 20
-1.8293600000000001
 30
0.0
 10
1.0313800000000002
 20
-1.8293600000000001
 30
0.0
 10
1.0542400000000001
 20
-1.7709400000000002
 30
0.0
 10
1.0923400000000001
 20
-1.6845800000000002
 30
0.0
 10
1.0491600000000001
 20
-1.63124
 30
0.0
 10
1.0491600000000001
 20
-1.63124
 30
0.0
 10
0.7596000000000001
 20
-2.1849600000000002
 30
0.0
 10
0.5564
 20
-2.8783800000000004
 30
0.0
 10
0.68086
 20
-3.5210000000000004
 30
0.0
 10
0.68086
 20
-3.5210000000000004
 30
0.0
 10
0.57926
 20
-3.4295600000000004
 30
0.0
 10
0.5411600000000001
 20
-3.2136600000000004
 30
0.0
 10
0.5208400000000001
 20
-3.0409400000000004
 30
0.0
 10
0.5208400000000001
 20
-3.0409400000000004
 30
0.0
 10
0.5005200000000001
 20
-2.8529800000000001
 30
0.0
 10
0.47766
 20
-2.5253200000000002
 30
0.0
 10
0.40654
 20
-2.7234400000000001
 30
0.0
 10
0.40654
 20
-2.7234400000000001
 30
0.0
 10
0.53354
 20
-3.5006800000000005
 30
0.0
 10
0.26938
 20
-3.0180800000000003
 30
0.0
 10
0.49036
 20
-3.7115000000000005
 30
0.0
 10
0.49036
 20
-3.7115000000000005
 30
0.0
 10
0.6300600000000001
 20
-4.1890200000000002
 30
0.0
 10
0.9374000000000001
 20
-4.4811200000000007
 30
0.0
 10
0.8586600000000001
 20
-5.1161200000000004
 30
0.0
 10
0.8586600000000001
 20
-5.1161200000000004
 30
0.0
 10
0.8358000000000001
 20
-5.0602400000000003
 30
0.0
 10
0.7799200000000001
 20
-4.7783000000000007
 30
0.0
 10
0.7088000000000001
 20
-4.8189400000000004
 30
0.0
 10
0.7088000000000001
 20
-4.8189400000000004
 30
0.0
 10
0.7215
 20
-5.0704000000000002
 30
0.0
 10
0.785
 20
-5.3980600000000001
 30
0.0
 10
0.5945
 20
-5.6012600000000008
 30
0.0
 10
0.5945
 20
-5.6012600000000008
 30
0.0
 10
0.7215
 20
-4.3947600000000007
 30
0.0
 10
-0.16495
 20
-3.8562800000000004
 30
0.0
 10
-0.38339
 20
-3.0536400000000001
 30
0.0
 10
-0.38339
 20
-3.0536400000000001
 30
0.0
 10
-0.40117
 20
-2.9876
 30
0.0
 10
-0.40371
 20
-2.9215600000000004
 30
0.0
 10
-0.4392700000000001
 20
-2.8606000000000003
 30
0.0
 10
-0.4392700000000001
 20
-2.8606000000000003
 30
0.0
 10
-0.51039
 20
-2.5685000000000002
 30
0.0
 10
-0.66025
 20
-2.48468
 30
0.0
 10
-0.53071
 20
-2.8326600000000002
 30
0.0
 10
-0.53071
 20
-2.8326600000000002
 30
0.0
 10
-0.4367300000000001
 20
-3.2974800000000002
 30
0.0
 10
-0.18781
 20
-3.6962600000000001
 30
0.0
 10
0.04078
 20
-4.1128200000000001
 30
0.0
 10
0.04078
 20
-4.1128200000000001
 30
0.0
 10
-0.9574300000000001
 20
-3.3482800000000004
 30
0.0
 10
-0.70089
 20
-2.5151600000000003
 30
0.0
 10
-0.9802900000000001
 20
-1.6820400000000002
 30
0.0
 10
-0.9802900000000001
 20
-1.6820400000000002
 30
0.0
 10
-1.0666500000000001
 20
-1.7049000000000001
 30
0.0
 10
-1.0285500000000001
 20
-1.9639800000000001
 30
0.0
 10
-1.08189
 20
-1.7074400000000001
 30
0.0
 10
-1.08189
 20
-1.7074400000000001
 30
0.0
 10
-1.2292100000000001
 20
-1.4128000000000001
 30
0.0
 10
-1.0666500000000001
 20
-1.29088
 30
0.0
 10
-0.9040900000000001
 20
-1.6134600000000001
 30
0.0
 10
-0.9040900000000001
 20
-1.6134600000000001
 30
0.0
 10
-0.7466100000000001
 20
-1.8471400000000002
 30
0.0
 10
-0.65771
 20
-2.1138400000000002
 30
0.0
 10
-0.5815100000000001
 20
-2.35514
 30
0.0
 10
-0.5815100000000001
 20
-2.35514
 30
0.0
 10
-0.5027700000000001
 20
-1.5271000000000001
 30
0.0
 10
-1.8464300000000002
 20
-1.0191000000000001
 30
0.0
 10
-1.25461
 20
-0.17836
 30
0.0
 10
-1.25461
 20
-0.17836
 30
0.0
 10
-1.3257300000000001
 20
-0.02342
 30
0.0
 10
-1.4908300000000001
 20
-0.61778
 30
0.0
 10
-1.54925
 20
-0.7701800000000001
 30
0.0
 10
-1.54925
 20
-0.7701800000000001
 30
0.0
 10
-1.9226300000000001
 20
-0.50856
 30
0.0
 10
-1.4705100000000002
 20
0.05531
 30
0.0
 10
-1.5187700000000002
 20
0.18739
 30
0.0
 10
-1.5187700000000002
 20
0.18739
 30
0.0
 10
-1.6483100000000002
 20
0.02991
 30
0.0
 10
-1.7041900000000001
 20
-0.17328
 30
0.0
 10
-1.7880100000000001
 20
-0.34092
 30
0.0
 10
-1.7880100000000001
 20
-0.34092
 30
0.0
 10
-1.9353300000000002
 20
-0.00056
 30
0.0
 10
-1.9073900000000001
 20
0.4109100000000001
 30
0.0
 10
-1.67117
 20
0.7131700000000001
 30
0.0
 10
-1.67117
 20
0.7131700000000001
 30
0.0
 10
-1.6508500000000002
 20
0.76651
 30
0.0
 10
-1.7295900000000002
 20
0.7741300000000001
 30
0.0
 10
-1.7372100000000001
 20
0.72587
 30
0.0
 10
-1.7372100000000001
 20
0.72587
 30
0.0
 10
-1.9150100000000001
 20
0.59887
 30
0.0
 10
-1.6533900000000001
 20
0.8681100000000001
 30
0.0
 10
-1.6533900000000001
 20
0.9417700000000001
 30
0.0
 10
-1.6533900000000001
 20
0.9417700000000001
 30
0.0
 10
-1.71435
 20
1.02813
 30
0.0
 10
-1.7854700000000001
 20
0.8858900000000001
 30
0.0
 10
-1.8388100000000001
 20
0.8833500000000001
 30
0.0
 10
-1.8388100000000001
 20
0.8833500000000001
 30
0.0
 10
-1.7245100000000002
 20
1.3354700000000002
 30
0.0
 10
-1.3917700000000002
 20
2.4149700000000003
 30
0.0
 10
-1.4806700000000002
 20
1.4091300000000002
 30
0.0
 10
-1.4806700000000002
 20
1.4091300000000002
 30
0.0
 10
-1.46543
 20
1.3964300000000001
 30
0.0
 10
-1.4349500000000002
 20
1.4954900000000002
 30
0.0
 10
-1.4298700000000002
 20
1.53105
 30
0.0
 10
-1.4298700000000002
 20
1.53105
 30
0.0
 10
-1.4298700000000002
 20
1.53105
 30
0.0
 10
-1.3943100000000002
 20
1.69869
 30
0.0
 10
-1.3943100000000002
 20
1.69869
 30
0.0
 10
-1.3943100000000002
 20
1.69869
 30
0.0
 10
-1.20635
 20
2.1914500000000001
 30
0.0
 10
-1.33589
 20
1.0814700000000002
 30
0.0
 10
-1.2215900000000002
 20
1.4548500000000002
 30
0.0
 10
-1.2215900000000002
 20
1.4548500000000002
 30
0.0
 10
-1.1885700000000001
 20
1.4954900000000002
 30
0.0
 10
-1.20889
 20
1.5462900000000002
 30
0.0
 10
-1.20381
 20
1.5920100000000001
 30
0.0
 10
-1.20381
 20
1.5920100000000001
 30
0.0
 10
-1.20635
 20
1.6910700000000001
 30
0.0
 10
-1.1606300000000001
 20
1.9323700000000001
 30
0.0
 10
-0.9980700000000001
 20
1.8307700000000002
 30
0.0
 10
-0.9980700000000001
 20
1.8307700000000002
 30
0.0
 10
-0.8964700000000001
 20
1.2643500000000001
 30
0.0
 10
-0.8837700000000001
 20
0.6699900000000001
 30
0.0
 10
-1.0285500000000001
 20
0.10865
 30
0.0
 10
-1.0285500000000001
 20
0.10865
 30
0.0
 10
-0.9218700000000001
 20
0.13913
 30
0.0
 10
-0.9701300000000001
 20
0.39567
 30
0.0
 10
-0.8583700000000001
 20
0.48203
 30
0.0
 10
-0.8583700000000001
 20
0.48203
 30
0.0
 10
-0.9701300000000001
 20
-0.22916
 30
0.0
 10
-0.5637300000000001
 20
-0.75748
 30
0.0
 10
-0.61707
 20
-1.4763000000000002
 30
0.0
 10
-0.61707
 20
-1.4763000000000002
 30
0.0
 10
-0.5434100000000001
 20
-1.0927600000000002
 30
0.0
 10
-0.6424700000000001
 20
-0.69652
 30
0.0
 10
-0.71613
 20
-0.3307600000000001
 30
0.0
 10
-0.71613
 20
-0.3307600000000001
 30
0.0
 10
-0.7669300000000001
 20
-0.19868
 30
0.0
 10
-0.7567700000000001
 20
-0.05136
 30
0.0
 10
-0.7466100000000001
 20
0.08833
 30
0.0
 10
-0.7466100000000001
 20
0.08833
 30
0.0
 10
-0.37069
 20
-0.55428
 30
0.0
 10
-0.09129
 20
0.00705
 30
0.0
 10
-0.00747
 20
-0.80066
 30
0.0
 10
-0.00747
 20
-0.80066
 30
0.0
 10
-0.01509
 20
-0.9149600000000001
 30
0.0
 10
-0.10907
 20
-1.2985000000000002
 30
0.0
 10
-0.08875
 20
-1.42042
 30
0.0
  0
SPLINE
  5
34
100
AcDbEntity
  8
Ebene 1
100
AcDbSpline
210
0.0
220
0.0
230
1.0
 70
     1
 71
     3
 72
    12
 73
     8
 74
     0
 42
0.0000000001
 43
0.0000000001
 40
0.0
 40
0.0
 40
0.0
 40
0.0
 40
0.5
 40
0.5
 40
0.5
 40
0.5
 40
1.0
 40
1.0
 40
1.0
 40
1.0
 10
-2.57287
 20
1.6072500000000001
 30
0.0
 10
-2.5449300000000004
 20
1.7037700000000002
 30
0.0
 10
-2.5169900000000003
 20
1.8104500000000001
 30
0.0
 10
-2.4687300000000003
 20
1.8968100000000001
 30
0.0
 10
-2.4687300000000003
 20
1.8968100000000001
 30
0.0
 10
-2.4636500000000003
 20
1.8180700000000001
 30
0.0
 10
-2.4966700000000004
 20
1.6758300000000002
 30
0.0
 10
-2.57287
 20
1.6072500000000001
 30
0.0
  0
SPLINE
  5
35
100
AcDbEntity
  8
Ebene 1
 62
     7
100
AcDbSpline
210
0.0
220
0.0
230
1.0
 70
     1
 71
     3
 72
    32
 73
    28
 74
     0
 42
0.0000000001
 43
0.0000000001
 40
0.0
 40
0.0
 40
0.0
 40
0.0
 40
0.1428571428571429
 40
0.1428571428571429
 40
0.1428571428571429
 40
0.1428571428571429
 40
0.2857142857142857
 40
0.2857142857142857
 40
0.2857142857142857
 40
0.2857142857142857
 40
0.4285714285714286
 40
0.4285714285714286
 40
0.4285714285714286
 40
0.4285714285714286
 40
0.5714285714285714
 40
0.5714285714285714
 40
0.5714285714285714
 40
0.5714285714285714
 40
0.7142857142857142
 40
0.7142857142857142
 40
0.7142857142857142
 40
0.7142857142857142
 40
0.857142857142857
 40
0.857142857142857
 40
0.857142857142857
 40
0.857142857142857
 40
1.0
 40
1.0
 40
1.0
 40
1.0
 10
1.8111600000000001
 20
1.8815700000000002
 30
0.0
 10
1.8365600000000002
 20
1.6377300000000001
 30
0.0
 10
1.9584800000000002
 20
1.3278500000000002
 30
0.0
 10
1.8822800000000002
 20
1.10687
 30
0.0
 10
1.8822800000000002
 20
1.10687
 30
0.0
 10
1.9610200000000002
 20
0.8681100000000001
 30
0.0
 10
2.1007200000000004
 20
0.64205
 30
0.0
 10
2.1032600000000001
 20
0.38551
 30
0.0
 10
2.1032600000000001
 20
0.38551
 30
0.0
 10
2.0296000000000003
 20
0.38805
 30
0.0
 10
1.9737200000000001
 20
0.6293500000000001
 30
0.0
 10
1.9178400000000002
 20
0.48711
 30
0.0
 10
1.9178400000000002
 20
0.48711
 30
0.0
 10
2.2251800000000004
 20
0.01213
 30
0.0
 10
1.8899000000000001
 20
-0.55428
 30
0.0
 10
1.6409800000000001
 20
-0.9810000000000001
 30
0.0
 10
1.6409800000000001
 20
-0.9810000000000001
 30
0.0
 10
1.61304
 20
-0.73716
 30
0.0
 10
1.6917800000000001
 20
-0.49332
 30
0.0
 10
1.7375
 20
-0.2444
 30
0.0
 10
1.7375
 20
-0.2444
 30
0.0
 10
1.7730600000000001
 20
-0.04374
 30
0.0
 10
1.7629000000000001
 20
0.15945
 30
0.0
 10
1.8289400000000002
 20
0.34995
 30
0.0
 10
1.8289400000000002
 20
0.34995
 30
0.0
 10
1.7984600000000002
 20
0.87065
 30
0.0
 10
1.7197200000000001
 20
1.3710300000000002
 30
0.0
 10
1.8111600000000001
 20
1.8815700000000002
 30
0.0
  0
SPLINE
  5
36
100
AcDbEntity
  8
Ebene 1
 62
     7
100
AcDbSpline
210
0.0
220
0.0
230
1.0
 70
     1
 71
     3
 72
    12
 73
     8
 74
     0
 42
0.0000000001
 43
0.0000000001
 40
0.0
 40
0.0
 40
0.0
 40
0.0
 40
0.5
 40
0.5
 40
0.5
 40
0.5
 40
1.0
 40
1.0
 40
1.0
 40
1.0
 10
-0.6297700000000001
 20
1.6351900000000001
 30
0.0
 10
-0.6069100000000001
 20
1.5666100000000001
 30
0.0
 10
-0.54849
 20
1.4700900000000001
 30
0.0
 10
-0.6297700000000001
 20
1.40659
 30
0.0
 10
-0.6297700000000001
 20
1.40659
 30
0.0
 10
-0.6627900000000001
 20
1.4650100000000001
 30
0.0
 10
-0.65771
 20
1.56915
 30
0.0
 10
-0.6297700000000001
 20
1.6351900000000001
 30
0.0
  0
SPLINE
  5
37
100
AcDbEntity
  8
Ebene 1
 62
     7
100
AcDbSpline
210
0.0
220
0.0
230
1.0
 70
     1
 71
     3
 72
    12
 73
     8
 74
     0
 42
0.0000000001
 43
0.0000000001
 40
0.0
 40
0.0
 40
0.0
 40
0.0
 40
0.5
 40
0.5
 40
0.5
 40
0.5
 40
1.0
 40
1.0
 40
1.0
 40
1.0
 10
-0.6831100000000001
 20
1.3354700000000002
 30
0.0
 10
-0.5865900000000001
 20
1.3126100000000001
 30
0.0
 10
-0.6627900000000001
 20
1.2008500000000002
 30
0.0
 10
-0.6678700000000001
 20
1.1424300000000001
 30
0.0
 10
-0.6678700000000001
 20
1.1424300000000001
 30
0.0
 10
-0.7466100000000001
 20
1.1856100000000001
 30
0.0
 10
-0.70089
 20
1.27197
 30
0.0
 10
-0.6831100000000001
 20
1.3354700000000002
 30
0.0
  0
SPLINE
  5
38
100
AcDbEntity
  8
Ebene 1
 62
     7
100
AcDbSpline
210
0.0
220
0.0
230
1.0
 70
     1
 71
     3
 72
    12
 73
     8
 74
     0
 42
0.0000000001
 43
0.0000000001
 40
0.0
 40
0.0
 40
0.0
 40
0.0
 40
0.5
 40
0.5
 40
0.5
 40
0.5
 40
1.0
 40
1.0
 40
1.0
 40
1.0
 10
0.9272400000000001
 20
1.2592700000000001
 30
0.0
 10
0.9755
 20
1.2668900000000001
 30
0.0
 10
0.9932800000000001
 20
1.2160900000000001
 30
0.0
 10
0.9755
 20
1.18815
 30
0.0
 10
0.9755
 20
1.18815
 30
0.0
 10
0.9374000000000001
 20
1.1754500000000001
 30
0.0
 10
0.9272400000000001
 20
1.23387
 30
0.0
 10
0.9272400000000001
 20
1.2592700000000001
 30
0.0
  0
SPLINE
  5
39
100
AcDbEntity
  8
Ebene 1
 62
     7
100
AcDbSpline
210
0.0
220
0.0
230
1.0
 70
     1
 71
     3
 72
    12
 73
     8
 74
     0
 42
0.0000000001
 43
0.0000000001
 40
0.0
 40
0.0
 40
0.0
 40
0.0
 40
0.5
 40
0.5
 40
0.5
 40
0.5
 40
1.0
 40
1.0
 40
1.0
 40
1.0
 10
0.8231000000000001
 20
1.2440300000000002
 30
0.0
 10
0.9272400000000001
 20
1.1754500000000001
 30
0.0
 10
1.0136000000000001
 20
1.0052700000000001
 30
0.0
 10
0.8586600000000001
 20
0.9265300000000001
 30
0.0
 10
0.8586600000000001
 20
0.9265300000000001
 30
0.0
 10
0.8154800000000001
 20
1.0154300000000001
 30
0.0
 10
0.8129400000000001
 20
1.14497
 30
0.0
 10
0.8231000000000001
 20
1.2440300000000002
 30
0.0
  0
SPLINE
  5
3A
100
AcDbEntity
  8
Ebene 1
 62
     7
100
AcDbSpline
210
0.0
220
0.0
230
1.0
 70
     1
 71
     3
 72
    12
 73
     8
 74
     0
 42
0.0000000001
 43
0.0000000001
 40
0.0
 40
0.0
 40
0.0
 40
0.0
 40
0.5
 40
0.5
 40
0.5
 40
0.5
 40
1.0
 40
1.0
 40
1.0
 40
1.0
 10
-0.5611900000000001
 20
1.1373500000000001
 30
0.0
 10
-0.47737
 20
1.0763900000000002
 30
0.0
 10
-0.48753
 20
0.9214500000000001
 30
0.0
 10
-0.46213
 20
0.8249300000000001
 30
0.0
 10
-0.46213
 20
0.8249300000000001
 30
0.0
 10
-0.57135
 20
0.8782700000000001
 30
0.0
 10
-0.6627900000000001
 20
1.02813
 30
0.0
 10
-0.5611900000000001
 20
1.1373500000000001
 30
0.0
  0
SPLINE
  5
3B
100
AcDbEntity
  8
Ebene 1
 62
     7
100
AcDbSpline
210
0.0
220
0.0
230
1.0
 70
     1
 71
     3
 72
    12
 73
     8
 74
     0
 42
0.0000000001
 43
0.0000000001
 40
0.0
 40
0.0
 40
0.0
 40
0.0
 40
0.5
 40
0.5
 40
0.5
 40
0.5
 40
1.0
 40
1.0
 40
1.0
 40
1.0
 10
0.9628000000000001
 20
0.9697100000000001
 30
0.0
 10
0.9780400000000001
 20
0.99765
 30
0.0
 10
0.9932800000000001
 20
1.0357500000000002
 30
0.0
 10
1.02884
 20
1.0433700000000001
 30
0.0
 10
1.02884
 20
1.0433700000000001
 30
0.0
 10
1.0491600000000001
 20
1.0052700000000001
 30
0.0
 10
1.0136000000000001
 20
0.95701
 30
0.0
 10
0.9628000000000001
 20
0.9697100000000001
 30
0.0
  0
SPLINE
  5
3C
100
AcDbEntity
  8
Ebene 1
 62
     7
100
AcDbSpline
210
0.0
220
0.0
230
1.0
 70
     1
 71
     3
 72
    12
 73
     8
 74
     0
 42
0.0000000001
 43
0.0000000001
 40
0.0
 40
0.0
 40
0.0
 40
0.0
 40
0.5
 40
0.5
 40
0.5
 40
0.5
 40
1.0
 40
1.0
 40
1.0
 40
1.0
 10
-0.71613
 20
1.0154300000000001
 30
0.0
 10
-0.6475500000000001
 20
0.99765
 30
0.0
 10
-0.6500900000000001
 20
0.89351
 30
0.0
 10
-0.63485
 20
0.8401700000000001
 30
0.0
 10
-0.63485
 20
0.8401700000000001
 30
0.0
 10
-0.7135900000000001
 20
0.8350900000000001
 30
0.0
 10
-0.70089
 20
0.9595500000000001
 30
0.0
 10
-0.71613
 20
1.0154300000000001
 30
0.0
  0
SPLINE
  5
3D
100
AcDbEntity
  8
Ebene 1
 62
     7
100
AcDbSpline
210
0.0
220
0.0
230
1.0
 70
     1
 71
     3
 72
    16
 73
    12
 74
     0
 42
0.0000000001
 43
0.0000000001
 40
0.0
 40
0.0
 40
0.0
 40
0.0
 40
0.3333333333333333
 40
0.3333333333333333
 40
0.3333333333333333
 40
0.3333333333333333
 40
0.6666666666666666
 40
0.6666666666666666
 40
0.6666666666666666
 40
0.6666666666666666
 40
1.0
 40
1.0
 40
1.0
 40
1.0
 10
-0.80503
 20
1.0001900000000001
 30
0.0
 10
-0.80503
 20
1.0001900000000001
 30
0.0
 10
-0.7745500000000001
 20
0.99765
 30
0.0
 10
-0.7745500000000001
 20
0.99765
 30
0.0
 10
-0.7745500000000001
 20
0.99765
 30
0.0
 10
-0.7745500000000001
 20
0.8681100000000001
 30
0.0
 10
-0.7567700000000001
 20
0.7131700000000001
 30
0.0
 10
-0.82281
 20
0.6064900000000001
 30
0.0
 10
-0.82281
 20
0.6064900000000001
 30
0.0
 10
-0.82281
 20
0.6064900000000001
 30
0.0
 10
-0.80503
 20
1.0001900000000001
 30
0.0
 10
-0.80503
 20
1.0001900000000001
 30
0.0
  0
SPLINE
  5
3E
100
AcDbEntity
  8
Ebene 1
 62
     7
100
AcDbSpline
210
0.0
220
0.0
230
1.0
 70
     1
 71
     3
 72
    12
 73
     8
 74
     0
 42
0.0000000001
 43
0.0000000001
 40
0.0
 40
0.0
 40
0.0
 40
0.0
 40
0.5
 40
0.5
 40
0.5
 40
0.5
 40
1.0
 40
1.0
 40
1.0
 40
1.0
 10
0.7367400000000001
 20
0.9697100000000001
 30
0.0
 10
0.785
 20
0.9290700000000001
 30
0.0
 10
0.8027800000000001
 20
0.8554100000000001
 30
0.0
 10
0.7494400000000001
 20
0.80969
 30
0.0
 10
0.7494400000000001
 20
0.80969
 30
0.0
 10
0.6961000000000001
 20
0.8350900000000001
 30
0.0
 10
0.7164200000000001
 20
0.9265300000000001
 30
0.0
 10
0.7367400000000001
 20
0.9697100000000001
 30
0.0
  0
SPLINE
  5
3F
100
AcDbEntity
  8
Ebene 1
 62
     7
100
AcDbSpline
210
0.0
220
0.0
230
1.0
 70
     1
 71
     3
 72
    12
 73
     8
 74
     0
 42
0.0000000001
 43
0.0000000001
 40
0.0
 40
0.0
 40
0.0
 40
0.0
 40
0.5
 40
0.5
 40
0.5
 40
0.5
 40
1.0
 40
1.0
 40
1.0
 40
1.0
 10
0.9475600000000001
 20
0.9443100000000001
 30
0.0
 10
0.95518
 20
0.8985900000000001
 30
0.0
 10
0.9450200000000001
 20
0.8808100000000001
 30
0.0
 10
0.91454
 20
0.8554100000000001
 30
0.0
 10
0.91454
 20
0.8554100000000001
 30
0.0
 10
0.8993000000000001
 20
0.8960500000000001
 30
0.0
 10
0.9170800000000001
 20
0.9189100000000001
 30
0.0
 10
0.9475600000000001
 20
0.9443100000000001
 30
0.0
  0
SPLINE
  5
40
100
AcDbEntity
  8
Ebene 1
 62
     7
100
AcDbSpline
210
0.0
220
0.0
230
1.0
 70
     1
 71
     3
 72
    16
 73
    12
 74
     0
 42
0.0000000001
 43
0.0000000001
 40
0.0
 40
0.0
 40
0.0
 40
0.0
 40
0.3333333333333333
 40
0.3333333333333333
 40
0.3333333333333333
 40
0.3333333333333333
 40
0.6666666666666666
 40
0.6666666666666666
 40
0.6666666666666666
 40
0.6666666666666666
 40
1.0
 40
1.0
 40
1.0
 40
1.0
 10
-0.3021100000000001
 20
0.91129
 30
0.0
 10
-0.3021100000000001
 20
0.91129
 30
0.0
 10
-0.26909
 20
0.9062100000000001
 30
0.0
 10
-0.26909
 20
0.9062100000000001
 30
0.0
 10
-0.26909
 20
0.9062100000000001
 30
0.0
 10
-0.26655
 20
0.8350900000000001
 30
0.0
 10
-0.18527
 20
0.74365
 30
0.0
 10
-0.26655
 20
0.68269
 30
0.0
 10
-0.26655
 20
0.68269
 30
0.0
 10
-0.3224300000000001
 20
0.7360300000000001
 30
0.0
 10
-0.32497
 20
0.8401700000000001
 30
0.0
 10
-0.3021100000000001
 20
0.91129
 30
0.0
  0
SPLINE
  5
41
100
AcDbEntity
  8
Ebene 1
 62
     7
100
AcDbSpline
210
0.0
220
0.0
230
1.0
 70
     1
 71
     3
 72
    12
 73
     8
 74
     0
 42
0.0000000001
 43
0.0000000001
 40
0.0
 40
0.0
 40
0.0
 40
0.0
 40
0.5
 40
0.5
 40
0.5
 40
0.5
 40
1.0
 40
1.0
 40
1.0
 40
1.0
 10
0.52846
 20
0.8808100000000001
 30
0.0
 10
0.6199
 20
0.7944500000000001
 30
0.0
 10
0.6681600000000001
 20
0.55315
 30
0.0
 10
0.46496
 20
0.55061
 30
0.0
 10
0.46496
 20
0.55061
 30
0.0
 10
0.43702
 20
0.6699900000000001
 30
0.0
 10
0.4725800000000001
 20
0.7792100000000001
 30
0.0
 10
0.52846
 20
0.8808100000000001
 30
0.0
  0
SPLINE
  5
42
100
AcDbEntity
  8
Ebene 1
 62
     7
100
AcDbSpline
210
0.0
220
0.0
230
1.0
 70
     1
 71
     3
 72
    16
 73
    12
 74
     0
 42
0.0000000001
 43
0.0000000001
 40
0.0
 40
0.0
 40
0.0
 40
0.0
 40
0.3333333333333333
 40
0.3333333333333333
 40
0.3333333333333333
 40
0.3333333333333333
 40
0.6666666666666666
 40
0.6666666666666666
 40
0.6666666666666666
 40
0.6666666666666666
 40
1.0
 40
1.0
 40
1.0
 40
1.0
 10
0.2516000000000001
 20
0.8655700000000001
 30
0.0
 10
0.27192
 20
0.8681100000000001
 30
0.0
 10
0.28716
 20
0.8604900000000001
 30
0.0
 10
0.29986
 20
0.84779
 30
0.0
 10
0.29986
 20
0.84779
 30
0.0
 10
0.28208
 20
0.7309500000000001
 30
0.0
 10
0.47512
 20
0.5226700000000001
 30
0.0
 10
0.26938
 20
0.5023500000000001
 30
0.0
 10
0.26938
 20
0.5023500000000001
 30
0.0
 10
0.16016
 20
0.59887
 30
0.0
 10
0.1881
 20
0.74619
 30
0.0
 10
0.2516000000000001
 20
0.8655700000000001
 30
0.0
  0
SPLINE
  5
43
100
AcDbEntity
  8
Ebene 1
 62
     7
100
AcDbSpline
210
0.0
220
0.0
230
1.0
 70
     1
 71
     3
 72
    16
 73
    12
 74
     0
 42
0.0000000001
 43
0.0000000001
 40
0.0
 40
0.0
 40
0.0
 40
0.0
 40
0.3333333333333333
 40
0.3333333333333333
 40
0.3333333333333333
 40
0.3333333333333333
 40
0.6666666666666666
 40
0.6666666666666666
 40
0.6666666666666666
 40
0.6666666666666666
 40
1.0
 40
1.0
 40
1.0
 40
1.0
 10
-0.02271
 20
0.8350900000000001
 30
0.0
 10
0.05094
 20
0.74619
 30
0.0
 10
0.08396
 20
0.61919
 30
0.0
 10
0.09158
 20
0.5048900000000001
 30
0.0
 10
0.09158
 20
0.5048900000000001
 30
0.0
 10
0.00268
 20
0.47949
 30
0.0
 10
-0.13193
 20
0.53029
 30
0.0
 10
-0.07605
 20
0.62173
 30
0.0
 10
-0.07605
 20
0.62173
 30
0.0
 10
-0.12939
 20
0.6979300000000001
 30
0.0
 10
-0.07351
 20
0.7741300000000001
 30
0.0
 10
-0.02271
 20
0.8350900000000001
 30
0.0
  0
SPLINE
  5
44
100
AcDbEntity
  8
Ebene 1
 62
     7
100
AcDbSpline
210
0.0
220
0.0
230
1.0
 70
     1
 71
     3
 72
    28
 73
    24
 74
     0
 42
0.0000000001
 43
0.0000000001
 40
0.0
 40
0.0
 40
0.0
 40
0.0
 40
0.1666666666666667
 40
0.1666666666666667
 40
0.1666666666666667
 40
0.1666666666666667
 40
0.3333333333333333
 40
0.3333333333333333
 40
0.3333333333333333
 40
0.3333333333333333
 40
0.5
 40
0.5
 40
0.5
 40
0.5
 40
0.6666666666666666
 40
0.6666666666666666
 40
0.6666666666666666
 40
0.6666666666666666
 40
0.8333333333333333
 40
0.8333333333333333
 40
0.8333333333333333
 40
0.8333333333333333
 40
1.0
 40
1.0
 40
1.0
 40
1.0
 10
0.9094600000000001
 20
0.78937
 30
0.0
 10
0.9094600000000001
 20
0.78937
 30
0.0
 10
0.9755
 20
0.78683
 30
0.0
 10
0.9755
 20
0.78683
 30
0.0
 10
0.9755
 20
0.78683
 30
0.0
 10
0.9755
 20
0.78683
 30
0.0
 10
0.9983600000000001
 20
0.21279
 30
0.0
 10
0.9983600000000001
 20
0.21279
 30
0.0
 10
0.9983600000000001
 20
0.21279
 30
0.0
 10
0.9043800000000001
 20
0.08071
 30
0.0
 10
0.7697600000000001
 20
-0.16058
 30
0.0
 10
0.55132
 20
-0.08184
 30
0.0
 10
0.55132
 20
-0.08184
 30
0.0
 10
0.4497200000000001
 20
0.00197
 30
0.0
 10
0.47766
 20
0.13913
 30
0.0
 10
0.4827400000000001
 20
0.25597
 30
0.0
 10
0.4827400000000001
 20
0.25597
 30
0.0
 10
0.6326000000000001
 20
0.23819
 30
0.0
 10
0.65546
 20
0.40329
 30
0.0
 10
0.6910200000000001
 20
0.4972700000000001
 30
0.0
 10
0.6910200000000001
 20
0.4972700000000001
 30
0.0
 10
0.8637400000000001
 20
0.29407
 30
0.0
 10
0.8612000000000001
 20
0.6750700000000001
 30
0.0
 10
0.9094600000000001
 20
0.78937
 30
0.0
  0
SPLINE
  5
45
100
AcDbEntity
  8
Ebene 1
 62
     7
100
AcDbSpline
210
0.0
220
0.0
230
1.0
 70
     1
 71
     3
 72
    32
 73
    28
 74
     0
 42
0.0000000001
 43
0.0000000001
 40
0.0
 40
0.0
 40
0.0
 40
0.0
 40
0.1428571428571429
 40
0.1428571428571429
 40
0.1428571428571429
 40
0.1428571428571429
 40
0.2857142857142857
 40
0.2857142857142857
 40
0.2857142857142857
 40
0.2857142857142857
 40
0.4285714285714286
 40
0.4285714285714286
 40
0.4285714285714286
 40
0.4285714285714286
 40
0.5714285714285714
 40
0.5714285714285714
 40
0.5714285714285714
 40
0.5714285714285714
 40
0.7142857142857142
 40
0.7142857142857142
 40
0.7142857142857142
 40
0.7142857142857142
 40
0.857142857142857
 40
0.857142857142857
 40
0.857142857142857
 40
0.857142857142857
 40
1.0
 40
1.0
 40
1.0
 40
1.0
 10
-0.38847
 20
-0.14788
 30
0.0
 10
-0.7059700000000001
 20
0.07055
 30
0.0
 10
-0.7542300000000001
 20
0.4007500000000001
 30
0.0
 10
-0.69581
 20
0.7411100000000001
 30
0.0
 10
-0.69581
 20
0.7411100000000001
 30
0.0
 10
-0.69581
 20
0.7411100000000001
 30
0.0
 10
-0.61707
 20
0.7715900000000001
 30
0.0
 10
-0.61707
 20
0.7715900000000001
 30
0.0
 10
-0.61707
 20
0.7715900000000001
 30
0.0
 10
-0.6069100000000001
 20
0.58109
 30
0.0
 10
-0.39355
 20
0.5658500000000001
 30
0.0
 10
-0.34783
 20
0.38551
 30
0.0
 10
-0.34783
 20
0.38551
 30
0.0
 10
-0.34783
 20
0.38551
 30
0.0
 10
-0.21829
 20
0.42361
 30
0.0
 10
-0.21829
 20
0.42361
 30
0.0
 10
-0.21829
 20
0.42361
 30
0.0
 10
-0.08367
 20
0.24073
 30
0.0
 10
0.08904
 20
0.01213
 30
0.0
 10
-0.21575
 20
-0.14788
 30
0.0
 10
-0.21575
 20
-0.14788
 30
0.0
 10
-0.31989
 20
-0.17582
 30
0.0
 10
-0.35545
 20
-0.09962
 30
0.0
 10
-0.42149
 20
-0.05644
 30
0.0
 10
-0.42149
 20
-0.05644
 30
0.0
 10
-0.42149
 20
-0.05644
 30
0.0
 10
-0.38847
 20
-0.14788
 30
0.0
 10
-0.38847
 20
-0.14788
 30
0.0
  0
SPLINE
  5
46
100
AcDbEntity
  8
Ebene 1
 62
     7
100
AcDbSpline
210
0.0
220
0.0
230
1.0
 70
     1
 71
     3
 72
    12
 73
     8
 74
     0
 42
0.0000000001
 43
0.0000000001
 40
0.0
 40
0.0
 40
0.0
 40
0.0
 40
0.5
 40
0.5
 40
0.5
 40
0.5
 40
1.0
 40
1.0
 40
1.0
 40
1.0
 10
-0.5434100000000001
 20
0.7741300000000001
 30
0.0
 10
-0.5205500000000001
 20
0.74619
 30
0.0
 10
-0.44435
 20
0.6979300000000001
 30
0.0
 10
-0.51039
 20
0.6674500000000001
 30
0.0
 10
-0.51039
 20
0.6674500000000001
 30
0.0
 10
-0.5383300000000001
 20
0.6903100000000001
 30
0.0
 10
-0.5459500000000001
 20
0.7360300000000001
 30
0.0
 10
-0.5434100000000001
 20
0.7741300000000001
 30
0.0
  0
SPLINE
  5
47
100
AcDbEntity
  8
Ebene 1
 62
     7
100
AcDbSpline
210
0.0
220
0.0
230
1.0
 70
     1
 71
     3
 72
    16
 73
    12
 74
     0
 42
0.0000000001
 43
0.0000000001
 40
0.0
 40
0.0
 40
0.0
 40
0.0
 40
0.3333333333333333
 40
0.3333333333333333
 40
0.3333333333333333
 40
0.3333333333333333
 40
0.6666666666666666
 40
0.6666666666666666
 40
0.6666666666666666
 40
0.6666666666666666
 40
1.0
 40
1.0
 40
1.0
 40
1.0
 10
0.80786
 20
0.7131700000000001
 30
0.0
 10
0.80786
 20
0.7131700000000001
 30
0.0
 10
0.8561200000000001
 20
0.7106300000000001
 30
0.0
 10
0.8561200000000001
 20
0.7106300000000001
 30
0.0
 10
0.8561200000000001
 20
0.7106300000000001
 30
0.0
 10
0.8332600000000001
 20
0.63697
 30
0.0
 10
0.8383400000000001
 20
0.55315
 30
0.0
 10
0.785
 20
0.48965
 30
0.0
 10
0.785
 20
0.48965
 30
0.0
 10
0.6910200000000001
 20
0.55569
 30
0.0
 10
0.78754
 20
0.63697
 30
0.0
 10
0.80786
 20
0.7131700000000001
 30
0.0
  0
SPLINE
  5
48
100
AcDbEntity
  8
Ebene 1
100
AcDbSpline
210
0.0
220
0.0
230
1.0
 70
     1
 71
     3
 72
    12
 73
     8
 74
     0
 42
0.0000000001
 43
0.0000000001
 40
0.0
 40
0.0
 40
0.0
 40
0.0
 40
0.5
 40
0.5
 40
0.5
 40
0.5
 40
1.0
 40
1.0
 40
1.0
 40
1.0
 10
2.3852000000000002
 20
0.30423
 30
0.0
 10
2.3852000000000002
 20
0.30423
 30
0.0
 10
2.3318600000000003
 20
0.6979300000000001
 30
0.0
 10
2.3318600000000003
 20
0.6979300000000001
 30
0.0
 10
2.3318600000000003
 20
0.6979300000000001
 30
0.0
 10
2.4283800000000002
 20
0.6039500000000001
 30
0.0
 10
2.4131400000000003
 20
0.41853
 30
0.0
 10
2.3852000000000002
 20
0.30423
 30
0.0
  0
SPLINE
  5
49
100
AcDbEntity
  8
Ebene 1
 62
     7
100
AcDbSpline
210
0.0
220
0.0
230
1.0
 70
     1
 71
     3
 72
    12
 73
     8
 74
     0
 42
0.0000000001
 43
0.0000000001
 40
0.0
 40
0.0
 40
0.0
 40
0.0
 40
0.5
 40
0.5
 40
0.5
 40
0.5
 40
1.0
 40
1.0
 40
1.0
 40
1.0
 10
-0.40371
 20
0.6522100000000001
 30
0.0
 10
-0.34783
 20
0.59887
 30
0.0
 10
-0.22591
 20
0.50997
 30
0.0
 10
-0.3021100000000001
 20
0.4413900000000001
 30
0.0
 10
-0.3021100000000001
 20
0.4413900000000001
 30
0.0
 10
-0.3656100000000001
 20
0.49219
 30
0.0
 10
-0.3960900000000001
 20
0.57601
 30
0.0
 10
-0.40371
 20
0.6522100000000001
 30
0.0
  0
SPLINE
  5
4A
100
AcDbEntity
  8
Ebene 1
 62
     7
100
AcDbSpline
210
0.0
220
0.0
230
1.0
 70
     1
 71
     3
 72
    12
 73
     8
 74
     0
 42
0.0000000001
 43
0.0000000001
 40
0.0
 40
0.0
 40
0.0
 40
0.0
 40
0.5
 40
0.5
 40
0.5
 40
0.5
 40
1.0
 40
1.0
 40
1.0
 40
1.0
 10
0.59704
 20
0.5023500000000001
 30
0.0
 10
0.7062600000000001
 20
0.4972700000000001
 30
0.0
 10
0.5614800000000001
 20
0.36519
 30
0.0
 10
0.5462400000000001
 20
0.31947
 30
0.0
 10
0.5462400000000001
 20
0.31947
 30
0.0
 10
0.4319400000000001
 20
0.36011
 30
0.0
 10
0.5233800000000001
 20
0.46679
 30
0.0
 10
0.59704
 20
0.5023500000000001
 30
0.0
  0
SPLINE
  5
4B
100
AcDbEntity
  8
Ebene 1
 62
     7
100
AcDbSpline
210
0.0
220
0.0
230
1.0
 70
     1
 71
     3
 72
    12
 73
     8
 74
     0
 42
0.0000000001
 43
0.0000000001
 40
0.0
 40
0.0
 40
0.0
 40
0.0
 40
0.5
 40
0.5
 40
0.5
 40
0.5
 40
1.0
 40
1.0
 40
1.0
 40
1.0
 10
-0.16241
 20
0.4413900000000001
 30
0.0
 10
-0.09383
 20
0.45917
 30
0.0
 10
-0.03287
 20
0.3575700000000001
 30
0.0
 10
-0.10907
 20
0.33471
 30
0.0
 10
-0.10907
 20
0.33471
 30
0.0
 10
-0.13701
 20
0.3575700000000001
 30
0.0
 10
-0.16749
 20
0.4007500000000001
 30
0.0
 10
-0.16241
 20
0.4413900000000001
 30
0.0
  0
SPLINE
  5
4C
100
AcDbEntity
  8
Ebene 1
 62
     7
100
AcDbSpline
210
0.0
220
0.0
230
1.0
 70
     1
 71
     3
 72
    12
 73
     8
 74
     0
 42
0.0000000001
 43
0.0000000001
 40
0.0
 40
0.0
 40
0.0
 40
0.0
 40
0.5
 40
0.5
 40
0.5
 40
0.5
 40
1.0
 40
1.0
 40
1.0
 40
1.0
 10
0.28462
 20
0.4413900000000001
 30
0.0
 10
0.44464
 20
0.4617100000000001
 30
0.0
 10
0.37352
 20
0.31947
 30
0.0
 10
0.3532
 20
0.24835
 30
0.0
 10
0.3532
 20
0.24835
 30
0.0
 10
0.27446
 20
0.25851
 30
0.0
 10
0.22366
 20
0.38805
 30
0.0
 10
0.28462
 20
0.4413900000000001
 30
0.0
  0
SPLINE
  5
4D
100
AcDbEntity
  8
Ebene 1
 62
     7
100
AcDbSpline
210
0.0
220
0.0
230
1.0
 70
     1
 71
     3
 72
    12
 73
     8
 74
     0
 42
0.0000000001
 43
0.0000000001
 40
0.0
 40
0.0
 40
0.0
 40
0.0
 40
0.5
 40
0.5
 40
0.5
 40
0.5
 40
1.0
 40
1.0
 40
1.0
 40
1.0
 10
0.04332
 20
0.4109100000000001
 30
0.0
 10
0.22112
 20
0.4642500000000001
 30
0.0
 10
0.22874
 20
0.29407
 30
0.0
 10
0.16016
 20
0.20263
 30
0.0
 10
0.16016
 20
0.20263
 30
0.0
 10
0.06618
 20
0.20263
 30
0.0
 10
0.02554
 20
0.3474100000000001
 30
0.0
 10
0.04332
 20
0.4109100000000001
 30
0.0
  0
SPLINE
  5
4E
100
AcDbEntity
  8
Ebene 1
100
AcDbSpline
210
0.0
220
0.0
230
1.0
 70
     1
 71
     3
 72
    12
 73
     8
 74
     0
 42
0.0000000001
 43
0.0000000001
 40
0.0
 40
0.0
 40
0.0
 40
0.0
 40
0.5
 40
0.5
 40
0.5
 40
0.5
 40
1.0
 40
1.0
 40
1.0
 40
1.0
 10
2.2302600000000004
 20
-0.23932
 30
0.0
 10
2.2582
 20
-0.12248
 30
0.0
 10
2.2353400000000003
 20
-0.01072
 30
0.0
 10
2.2353400000000003
 20
0.10357
 30
0.0
 10
2.2353400000000003
 20
0.10357
 30
0.0
 10
2.30138
 20
0.01721
 30
0.0
 10
2.30138
 20
-0.15042
 30
0.0
 10
2.2302600000000004
 20
-0.23932
 30
0.0
  0
ENDSEC
  0
SECTION
  2
OBJECTS
  0
DICTIONARY
  5
19
100
AcDbDictionary
280
     0
281
     1
  3
ACAD_GROUP
350
1A
  3
ACAD_MLINESTYLE
350
1B
  3
ACAD_LAYOUT
350
1E
  3
ACAD_PLOTSETTINGS
350
22
  3
ACAD_PLOTSTYLENAME
350
1F
  3
ACAD_WIPEOUT_VARS
350
23
  0
DICTIONARY
  5
1A
102
{ACAD_REACTORS
330
19
102
}
100
AcDbDictionary
280
     0
281
     1
  0
DICTIONARY
  5
1B
102
{ACAD_REACTORS
330
19
102
}
100
AcDbDictionary
280
     0
281
     1
  3
Standard
350
1C
  0
MLINESTYLE
  5
1C
102
{ACAD_REACTORS
330
1B
102
}
100
AcDbMlineStyle
  2
Standard
 70
     0
  3

 62
     0
 51
90.0
 52
90.0
 71
     2
 49
0.5
 62
   256
  6
BYLAYER
 49
-0.5
 62
   256
  6
BYLAYER
  0
ACDBDICTIONARYWDFLT
  5
1F
102
{ACAD_REACTORS
330
19
102
}
100
AcDbDictionary
281
     1
  3
Normal
350
1D
100
AcDbDictionaryWithDefault
340
1D
  0
ACDBPLACEHOLDER
  5
1D
102
{ACAD_REACTORS
330
1F
102
}
  0
LAYOUT
  5
20
102
{ACAD_REACTORS
330
1E
102
}
100
AcDbPlotSettings
  1

  2

  4

  6

 40
0.0
 41
0.0
 42
0.0
 43
0.0
 44
0.0
 45
0.0
 46
0.0
 47
0.0
 48
0.0
 49
0.0
140
0.0
141
0.0
142
1.0
143
1.0
 70
  1024
 72
     0
 73
     0
 74
     0
  7

 75
     0
147
1.0
148
0.0
149
0.0
100
AcDbLayout
  1
Model
 70
     0
 71
     0
 10
0.0
 20
0.0
 11
0.0
 21
0.0
 12
0.0
 22
0.0
 32
0.0
 14
0.0
 24
0.0
 34
0.0
 15
0.0
 25
0.0
 35
0.0
146
0.0
 13
0.0
 23
0.0
 33
0.0
 16
0.0
 26
0.0
 36
0.0
 17
0.0
 27
0.0
 37
0.0
 76
     0
330
A
331
0
345
0
346
0
  0
LAYOUT
  5
21
102
{ACAD_REACTORS
330
1E
102
}
100
AcDbPlotSettings
  1

  2

  4

  6

 40
0.0
 41
0.0
 42
0.0
 43
0.0
 44
0.0
 45
0.0
 46
0.0
 47
0.0
 48
0.0
 49
0.0
140
0.0
141
0.0
142
1.0
143
1.0
 70
     0
 72
     0
 73
     0
 74
     0
  7

 75
     0
147
1.0
148
0.0
149
0.0
100
AcDbLayout
  1
Layout1
 70
     0
 71
     0
 10
0.0
 20
0.0
 11
0.0
 21
0.0
 12
0.0
 22
0.0
 32
0.0
 14
0.0
 24
0.0
 34
0.0
 15
0.0
 25
0.0
 35
0.0
146
0.0
 13
0.0
 23
0.0
 33
0.0
 16
0.0
 26
0.0
 36
0.0
 17
0.0
 27
0.0
 37
0.0
 76
     0
330
B
331
0
345
0
346
0
  0
DICTIONARY
  5
1E
102
{ACAD_REACTORS
330
19
102
}
100
AcDbDictionary
280
     0
281
     1
  3
Layout1
350
21
  3
Model
350
20
  0
DICTIONARY
  5
22
102
{ACAD_REACTORS
330
19
102
}
100
AcDbDictionary
280
     0
281
     1
  0
WIPEOUTVARIABLES
  5
23
100
AcDbWipeoutVariables
 70
     1
  0
ENDSEC
  0
EOF
