  0
SECTION
  2
HEADER
  9
$ACADVER
  1
AC1015
  9
$ACADMAINTVER
 70
     6
  9
$DWGCODEPAGE
  3
DOS850
  9
$INSBASE
 10
0.0
 20
0.0
 30
0.0
  9
$EXTMIN
 10
-2.09777
 20
-6.7976
 30
1.000000E+20
  9
$EXTMAX
 10
2.10469
 20
6.79139
 30
-1.000000E+20
  9
$LIMMIN
 10
0.0
 20
0.0
  9
$LIMMAX
 10
0.0
 20
0.0
  9
$ORTHOMODE
 70
     0
  9
$REGENMODE
 70
     1
  9
$FILLMODE
 70
     1
  9
$QTEXTMODE
 70
     0
  9
$MIRRTEXT
 70
     1
  9
$LTSCALE
 40
1.0
  9
$ATTMODE
 70
     1
  9
$TEXTSIZE
 40
0.2
  9
$TRACEWID
 40
0.05
  9
$TEXTSTYLE
  7
Standard
  9
$CLAYER
  8
0
  9
$CELTYPE
  6
Continuous
  9
$CECOLOR
 62
   256
  9
$CELTSCALE
 40
1.0
  9
$DISPSILH
 70
     0
  9
$DIMSCALE
 40
1.0
  9
$DIMASZ
 40
0.18
  9
$DIMEXO
 40
0.0625
  9
$DIMDLI
 40
0.38
  9
$DIMRND
 40
0.0
  9
$DIMDLE
 40
0.0
  9
$DIMEXE
 40
0.18
  9
$DIMTP
 40
0.0
  9
$DIMTM
 40
0.0
  9
$DIMTXT
 40
0.18
  9
$DIMCEN
 40
0.09
  9
$DIMTSZ
 40
0.0
  9
$DIMTOL
 70
     0
  9
$DIMLIM
 70
     0
  9
$DIMTIH
 70
     1
  9
$DIMTOH
 70
     1
  9
$DIMSE1
 70
     0
  9
$DIMSE2
 70
     0
  9
$DIMTAD
 70
     0
  9
$DIMZIN
 70
     0
  9
$DIMBLK
  1

  9
$DIMASO
 70
     1
  9
$DIMSHO
 70
     1
  9
$DIMPOST
  1

  9
$DIMAPOST
  1

  9
$DIMALT
 70
     0
  9
$DIMALTD
 70
     2
  9
$DIMALTF
 40
25.4
  9
$DIMLFAC
 40
1.0
  9
$DIMTOFL
 70
     0
  9
$DIMTVP
 40
0.0
  9
$DIMTIX
 70
     0
  9
$DIMSOXD
 70
     0
  9
$DIMSAH
 70
     0
  9
$DIMBLK1
  1

  9
$DIMBLK2
  1

  9
$DIMSTYLE
  2
Standard
  9
$DIMCLRD
 70
     0
  9
$DIMCLRE
 70
     0
  9
$DIMCLRT
 70
     0
  9
$DIMTFAC
 40
1.0
  9
$DIMGAP
 40
0.09
  9
$DIMJUST
 70
     0
  9
$DIMSD1
 70
     0
  9
$DIMSD2
 70
     0
  9
$DIMTOLJ
 70
     1
  9
$DIMTZIN
 70
     0
  9
$DIMALTZ
 70
     0
  9
$DIMALTTZ
 70
     0
  9
$DIMUPT
 70
     0
  9
$DIMDEC
 70
     4
  9
$DIMTDEC
 70
     4
  9
$DIMALTU
 70
     2
  9
$DIMALTTD
 70
     2
  9
$DIMTXSTY
  7
Standard
  9
$DIMAUNIT
 70
     0
  9
$DIMADEC
 70
     0
  9
$DIMALTRND
 40
0.0
  9
$DIMAZIN
 70
     0
  9
$DIMDSEP
 70
     0
  9
$DIMATFIT
 70
     3
  9
$DIMFRAC
 70
     0
  9
$DIMLDRBLK
  1

  9
$DIMLUNIT
 70
     2
  9
$DIMLWD
 70
     0
  9
$DIMLWE
 70
     0
  9
$DIMTMOVE
 70
     0
  9
$LUNITS
 70
     2
  9
$LUPREC
 70
     4
  9
$SKETCHINC
 40
0.1
  9
$FILLETRAD
 40
0.0
  9
$AUNITS
 70
     0
  9
$AUPREC
 70
     0
  9
$MENU
  1
acad
  9
$ELEVATION
 40
0.0
  9
$PELEVATION
 40
0.0
  9
$THICKNESS
 40
0.0
  9
$LIMCHECK
 70
     0
  9
$CHAMFERA
 40
0.0
  9
$CHAMFERB
 40
0.0
  9
$CHAMFERC
 40
0.0
  9
$CHAMFERD
 40
0.0
  9
$SKPOLY
 70
     0
  9
$TDCREATE
 40
0.000000000
  9
$TDUCREATE
 40
0.000000000
  9
$TDUPDATE
 40
0.000000000
  9
$TDUUPDATE
 40
0.000000000
  9
$TDINDWG
 40
0.0000000000
  9
$TDUSRTIMER
 40
0.0000000000
  9
$USRTIMER
 70
     1
  9
$ANGBASE
 50
0.0
  9
$ANGDIR
 70
     0
  9
$PDMODE
 70
     0
  9
$PDSIZE
 40
0.0
  9
$PLINEWID
 40
0.0
  9
$SPLFRAME
 70
     0
  9
$SPLINETYPE
 70
     6
  9
$SPLINESEGS
 70
     8
  9
$HANDSEED
  5
61
  9
$SURFTAB1
 70
     6
  9
$SURFTAB2
 70
     6
  9
$SURFTYPE
 70
     6
  9
$SURFU
 70
     6
  9
$SURFV
 70
     6
  9
$UCSBASE
  2

  9
$UCSNAME
  2

  9
$UCSORG
 10
0.0
 20
0.0
 30
0.0
  9
$UCSXDIR
 10
1.0
 20
0.0
 30
0.0
  9
$UCSYDIR
 10
0.0
 20
1.0
 30
0.0
  9
$UCSORTHOREF
  2

  9
$UCSORTHOVIEW
 70
     0
  9
$UCSORGTOP
 10
0.0
 20
0.0
 30
0.0
  9
$UCSORGBOTTOM
 10
0.0
 20
0.0
 30
0.0
  9
$UCSORGLEFT
 10
0.0
 20
0.0
 30
0.0
  9
$UCSORGRIGHT
 10
0.0
 20
0.0
 30
0.0
  9
$UCSORGFRONT
 10
0.0
 20
0.0
 30
0.0
  9
$UCSORGBACK
 10
0.0
 20
0.0
 30
0.0
  9
$PUCSBASE
  2

  9
$PUCSNAME
  2

  9
$PUCSORG
 10
0.0
 20
0.0
 30
0.0
  9
$PUCSXDIR
 10
1.0
 20
0.0
 30
0.0
  9
$PUCSYDIR
 10
0.0
 20
1.0
 30
0.0
  9
$PUCSORTHOREF
  2

  9
$PUCSORTHOVIEW
 70
     0
  9
$PUCSORGTOP
 10
0.0
 20
0.0
 30
0.0
  9
$PUCSORGBOTTOM
 10
0.0
 20
0.0
 30
0.0
  9
$PUCSORGLEFT
 10
0.0
 20
0.0
 30
0.0
  9
$PUCSORGRIGHT
 10
0.0
 20
0.0
 30
0.0
  9
$PUCSORGFRONT
 10
0.0
 20
0.0
 30
0.0
  9
$PUCSORGBACK
 10
0.0
 20
0.0
 30
0.0
  9
$USERI1
 70
     0
  9
$USERI2
 70
     0
  9
$USERI3
 70
     0
  9
$USERI4
 70
     0
  9
$USERI5
 70
     0
  9
$USERR1
 40
0.0
  9
$USERR2
 40
0.0
  9
$USERR3
 40
0.0
  9
$USERR4
 40
0.0
  9
$USERR5
 40
0.0
  9
$WORLDVIEW
 70
     1
  9
$SHADEDGE
 70
     3
  9
$SHADEDIF
 70
    70
  9
$TILEMODE
 70
     1
  9
$MAXACTVP
 70
    16
  9
$PINSBASE
 10
0.0
 20
0.0
 30
0.0
  9
$PLIMCHECK
 70
     0
  9
$PEXTMIN
 10
1.000000E+20
 20
1.000000E+20
 30
1.000000E+20
  9
$PEXTMAX
 10
-1.000000E+20
 20
-1.000000E+20
 30
-1.000000E+20
  9
$PLIMMIN
 10
0.0
 20
0.0
  9
$PLIMMAX
 10
12.0
 20
9.0
  9
$UNITMODE
 70
     0
  9
$VISRETAIN
 70
     0
  9
$PLINEGEN
 70
     1
  9
$PSLTSCALE
 70
     0
  9
$TREEDEPTH
 70
  3020
  9
$CMLSTYLE
  2
Standard
  9
$CMLJUST
 70
     0
  9
$CMLSCALE
 40
1.0
  9
$PROXYGRAPHICS
 70
     0
  9
$MEASUREMENT
 70
     0
  9
$CELWEIGHT
370
     0
  9
$ENDCAPS
280
     0
  9
$JOINSTYLE
280
     0
  9
$LWDISPLAY
290
     0
  9
$INSUNITS
 70
     5
  9
$HYPERLINKBASE
  1

  9
$XEDIT
290
     1
  9
$CEPSNTYPE
380
     0
  9
$PSTYLEMODE
290
     1
  9
$FINGERPRINTGUID
  2

  9
$VERSIONGUID
  2

  9
$EXTNAMES
290
     1
  9
$PSVPSCALE
 40
0.0
  0
ENDSEC
  0
SECTION
  2
CLASSES
  0
CLASS
  1
LWPOLYLINE
  2
AcDbPolyline
  3
AutoCAD 2000
 90
    32768
280
     0
281
     1
  0
CLASS
  1
IMAGE
  2
AcDbRasterImage
  3
ISM
 90
    32895
280
     0
281
     1
  0
CLASS
  1
OLE2FRAME
  2
AcDbOle2Frame
  3
AutoCAD 2000
 90
    32768
280
     0
281
     1
  0
CLASS
  1
HATCH
  2
AcDbHatch
  3
AutoCAD 2000
 90
    32768
280
     0
281
     1
  0
CLASS
  1
DICTIONARYVAR
  2
AcDbDictionaryVar
  3
AutoCAD 2000
 90
    32768
280
     0
281
     0
  0
CLASS
  1
RASTERVARIABLES
  2
AcDbRasterVariables
  3
ISM
 90
    32768
280
     0
281
     0
  0
CLASS
  1
IMAGEDEF
  2
AcDbRasterImageDef
  3
ISM
 90
    32768
280
     0
281
     0
  0
CLASS
  1
IMAGEDEF_REACTOR
  2
AcDbRasterImageDefReactor
  3
ISM
 90
    32769
280
     0
281
     0
  0
CLASS
  1
IDBUFFER
  2
AcDbIdBuffer
  3
AutoCAD 2000
 90
    32768
280
     0
281
     0
  0
CLASS
  1
SPATIAL_FILTER
  2
AcDbSpatialFilter
  3
AutoCAD 2000
 90
    32768
280
     0
281
     0
  0
CLASS
  1
XRECORD
  2
AcDbXrecord
  3
AutoCAD 2000
 90
    32768
280
     0
281
     0
  0
CLASS
  1
SORTENTSTABLE
  2
AcDbSortentsTable
  3
AutoCAD 2000
 90
    32768
280
     0
281
     0
  0
CLASS
  1
LAYER_INDEX
  2
AcDbLayerIndex
  3
AutoCAD 2000
 90
    32768
280
     0
281
     0
  0
CLASS
  1
SPATIAL_INDEX
  2
AcDbSpatialIndex
  3
AutoCAD 2000
 90
    32768
280
     0
281
     0
  0
CLASS
  1
OBJECT_PTR
  2
CAseDLPNTableRecord
  3
"ASE-LPNTableRecord"
 90
    32769
280
     0
281
     0
  0
CLASS
  1
LAYOUT
  2
AcDbLayout
  3
AutoCAD 2000
 90
        0
280
     0
281
     0
  0
CLASS
  1
PLOTSETTINGS
  2
AcDbPlotSettings
  3
AutoCAD 2000
 90
    32768
280
     0
281
     0
  0
CLASS
  1
ACDBDICTIONARYWDFLT
  2
AcDbDictionaryWithDefault
  3
AutoCAD 2000
 90
        0
280
     0
281
     0
  0
CLASS
  1
ACDBPLACEHOLDER
  2
AcDbPlaceHolder
  3
AutoCAD 2000
 90
        0
280
     0
281
     0
  0
CLASS
  1
VBA_PROJECT
  2
AcDbVbaProject
  3
acadvba
 90
    32768
280
     0
281
     0
  0
CLASS
  1
WIPEOUT
  2
AcDbWipeout
  3
WipeOut|AutoCAD Express Tool|expresstools@autodesk.com
 90
    32895
280
     0
281
     1
  0
CLASS
  1
WIPEOUTVARIABLES
  2
AcDbWipeoutVariables
  3
WipeOut|AutoCAD Express Tool|expresstools@autodesk.com
 90
        0
280
     0
281
     0
  0
CLASS
  1
RTEXT
  2
RText
  3
RText|AutoCAD Express Tool|expresstools@autodesk.com
 90
    32768
280
     0
281
     1
  0
CLASS
  1
ARCALIGNEDTEXT
  2
AcDbArcAlignedText
  3
ATEXT|AutoCAD Express Tool|expresstools@autodesk.com
 90
    32768
280
     0
281
     1
  0
ENDSEC
  0
SECTION
  2
TABLES
  0
TABLE
  2
VPORT
  5
7
100
AcDbSymbolTable
 70
     1
  0
VPORT
  5
15
100
AcDbSymbolTableRecord
100
AcDbViewportTableRecord
  2
*ACTIVE
 70
     0
 10
0.0
 20
0.0
 11
1.0
 21
1.0
 12
6.591288
 22
4.579184
 13
0.0
 23
0.0
 14
1.0
 24
1.0
 15
0.0
 25
0.0
 16
0.0
 26
0.0
 36
1.0
 17
0.0
 27
0.0
 37
0.0
 40
9.158369
 41
0.688564
 42
50.0
 43
0.0
 44
0.0
 50
0.0
 51
0.0
 71
     0
 72
   100
 73
     1
 74
     1
 75
     0
 76
     0
 77
     0
 78
     0
281
     0
 65
     0
110
0.0
120
0.0
130
0.0
111
1.0
121
0.0
131
0.0
112
0.0
122
1.0
132
0.0
345
0
346
0
 79
     0
146
0.0
  0
ENDTAB
  0
TABLE
  2
LTYPE
  5
4
100
AcDbSymbolTable
 70
     3
  0
LTYPE
  5
11
100
AcDbSymbolTableRecord
100
AcDbLinetypeTableRecord
  2
ByBlock
 70
    64
  3

 72
    65
 73
     0
 40
0.0
  0
LTYPE
  5
12
100
AcDbSymbolTableRecord
100
AcDbLinetypeTableRecord
  2
ByLayer
 70
    64
  3

 72
    65
 73
     0
 40
0.0
  0
LTYPE
  5
13
100
AcDbSymbolTableRecord
100
AcDbLinetypeTableRecord
  2
Continuous
 70
    64
  3
Solid line
 72
    65
 73
     0
 40
0.0
  0
ENDTAB
  0
TABLE
  2
LAYER
  5
2
100
AcDbSymbolTable
 70
     2
  0
LAYER
  5
14
100
AcDbSymbolTableRecord
100
AcDbLayerTableRecord
  2
0
 70
     0
 62
     7
  6
Continuous
290
     1
370
    -3
390
1D
  0
LAYER
  5
24
100
AcDbSymbolTableRecord
100
AcDbLayerTableRecord
  2
Ebene 1
 70
     0
 62
     7
  6
Continuous
290
     1
370
    -3
390
1F
  0
ENDTAB
  0
TABLE
  2
STYLE
  5
3
100
AcDbSymbolTable
 70
     1
  0
STYLE
  5
17
100
AcDbSymbolTableRecord
100
AcDbTextStyleTableRecord
  2
Standard
 70
     0
 40
0.0
 41
1.0
 50
0.0
 71
     0
 42
0.0
  3
txt
  4

  0
ENDTAB
  0
TABLE
  2
VIEW
  5
5
100
AcDbSymbolTable
 70
     0
  0
ENDTAB
  0
TABLE
  2
UCS
  5
6
100
AcDbSymbolTable
 70
     0
  0
ENDTAB
  0
TABLE
  2
APPID
  5
8
100
AcDbSymbolTable
 70
     1
  0
APPID
  5
16
100
AcDbSymbolTableRecord
100
AcDbRegAppTableRecord
  2
ACAD
 70
     0
  0
ENDTAB
  0
TABLE
  2
DIMSTYLE
  5
9
100
AcDbSymbolTable
 70
     1
100
AcDbDimStyleTable
 71
     0
  0
DIMSTYLE
105
18
100
AcDbSymbolTableRecord
100
AcDbDimStyleTableRecord
  2
Standard
 70
     0
  3

  4

 40
1.0
 41
0.18
 42
0.0625
 43
0.38
 44
0.18
 45
0.0
 46
0.0
 47
0.0
 48
0.0
 71
     0
 72
     0
 73
     1
 74
     1
 75
     0
 76
     0
 77
     0
 78
     0
 79
     0
140
0.18
141
0.09
142
0.0
143
25.4
144
1.0
145
0.0
146
1.0
147
0.09
148
0.0
170
     0
171
     2
172
     0
173
     0
174
     0
175
     0
176
     0
177
     0
178
     0
179
     0
271
     4
272
     4
273
     2
274
     2
275
     0
276
     0
277
     2
278
    46
279
     0
280
     0
281
     0
282
     0
283
     1
284
     0
285
     0
286
     0
288
     0
340
17
341
0
342
0
343
0
344
0
371
    -2
372
    -2
  0
ENDTAB
  0
TABLE
  2
BLOCK_RECORD
  5
1
100
AcDbSymbolTable
 70
     0
  0
BLOCK_RECORD
  5
A
100
AcDbSymbolTableRecord
100
AcDbBlockTableRecord
  2
*MODEL_SPACE
340
20
  0
BLOCK_RECORD
  5
B
100
AcDbSymbolTableRecord
100
AcDbBlockTableRecord
  2
*PAPER_SPACE
340
21
  0
ENDTAB
  0
ENDSEC
  0
SECTION
  2
BLOCKS
  0
BLOCK
  5
D
100
AcDbEntity
  8
0
100
AcDbBlockBegin
  2
*MODEL_SPACE
 70
     0
 10
0.0
 20
0.0
 30
0.0
  3
*MODEL_SPACE
  1

  0
ENDBLK
  5
E
100
AcDbEntity
  8
0
100
AcDbBlockEnd
  0
BLOCK
  5
F
100
AcDbEntity
 67
     1
  8
0
100
AcDbBlockBegin
  2
*PAPER_SPACE
 70
     0
 10
0.0
 20
0.0
 30
0.0
  3
*PAPER_SPACE
  1

  0
ENDBLK
  5
10
100
AcDbEntity
 67
     1
  8
0
100
AcDbBlockEnd
  0
ENDSEC
  0
SECTION
  2
ENTITIES
  0
SPLINE
  5
25
100
AcDbEntity
  8
Ebene 1
100
AcDbSpline
210
0.0
220
0.0
230
1.0
 70
     1
 71
     3
 72
   152
 73
   148
 74
     0
 42
0.0000000001
 43
0.0000000001
 40
0.0
 40
0.0
 40
0.0
 40
0.0
 40
0.027027027027027
 40
0.027027027027027
 40
0.027027027027027
 40
0.027027027027027
 40
0.0540540540540541
 40
0.0540540540540541
 40
0.0540540540540541
 40
0.0540540540540541
 40
0.0810810810810811
 40
0.0810810810810811
 40
0.0810810810810811
 40
0.0810810810810811
 40
0.1081081081081081
 40
0.1081081081081081
 40
0.1081081081081081
 40
0.1081081081081081
 40
0.1351351351351351
 40
0.1351351351351351
 40
0.1351351351351351
 40
0.1351351351351351
 40
0.1621621621621622
 40
0.1621621621621622
 40
0.1621621621621622
 40
0.1621621621621622
 40
0.1891891891891892
 40
0.1891891891891892
 40
0.1891891891891892
 40
0.1891891891891892
 40
0.2162162162162162
 40
0.2162162162162162
 40
0.2162162162162162
 40
0.2162162162162162
 40
0.2432432432432433
 40
0.2432432432432433
 40
0.2432432432432433
 40
0.2432432432432433
 40
0.2702702702702703
 40
0.2702702702702703
 40
0.2702702702702703
 40
0.2702702702702703
 40
0.2972972972972973
 40
0.2972972972972973
 40
0.2972972972972973
 40
0.2972972972972973
 40
0.3243243243243243
 40
0.3243243243243243
 40
0.3243243243243243
 40
0.3243243243243243
 40
0.3513513513513514
 40
0.3513513513513514
 40
0.3513513513513514
 40
0.3513513513513514
 40
0.3783783783783784
 40
0.3783783783783784
 40
0.3783783783783784
 40
0.3783783783783784
 40
0.4054054054054054
 40
0.4054054054054054
 40
0.4054054054054054
 40
0.4054054054054054
 40
0.4324324324324325
 40
0.4324324324324325
 40
0.4324324324324325
 40
0.4324324324324325
 40
0.4594594594594595
 40
0.4594594594594595
 40
0.4594594594594595
 40
0.4594594594594595
 40
0.4864864864864865
 40
0.4864864864864865
 40
0.4864864864864865
 40
0.4864864864864865
 40
0.5135135135135136
 40
0.5135135135135136
 40
0.5135135135135136
 40
0.5135135135135136
 40
0.5405405405405406
 40
0.5405405405405406
 40
0.5405405405405406
 40
0.5405405405405406
 40
0.5675675675675675
 40
0.5675675675675675
 40
0.5675675675675675
 40
0.5675675675675675
 40
0.5945945945945945
 40
0.5945945945945945
 40
0.5945945945945945
 40
0.5945945945945945
 40
0.6216216216216215
 40
0.6216216216216215
 40
0.6216216216216215
 40
0.6216216216216215
 40
0.6486486486486485
 40
0.6486486486486485
 40
0.6486486486486485
 40
0.6486486486486485
 40
0.6756756756756754
 40
0.6756756756756754
 40
0.6756756756756754
 40
0.6756756756756754
 40
0.7027027027027024
 40
0.7027027027027024
 40
0.7027027027027024
 40
0.7027027027027024
 40
0.7297297297297294
 40
0.7297297297297294
 40
0.7297297297297294
 40
0.7297297297297294
 40
0.7567567567567564
 40
0.7567567567567564
 40
0.7567567567567564
 40
0.7567567567567564
 40
0.7837837837837833
 40
0.7837837837837833
 40
0.7837837837837833
 40
0.7837837837837833
 40
0.8108108108108103
 40
0.8108108108108103
 40
0.8108108108108103
 40
0.8108108108108103
 40
0.8378378378378373
 40
0.8378378378378373
 40
0.8378378378378373
 40
0.8378378378378373
 40
0.8648648648648643
 40
0.8648648648648643
 40
0.8648648648648643
 40
0.8648648648648643
 40
0.8918918918918912
 40
0.8918918918918912
 40
0.8918918918918912
 40
0.8918918918918912
 40
0.9189189189189182
 40
0.9189189189189182
 40
0.9189189189189182
 40
0.9189189189189182
 40
0.9459459459459452
 40
0.9459459459459452
 40
0.9459459459459452
 40
0.9459459459459452
 40
0.9729729729729721
 40
0.9729729729729721
 40
0.9729729729729721
 40
0.9729729729729721
 40
1.0
 40
1.0
 40
1.0
 40
1.0
 10
0.29224
 20
6.7913900000000007
 30
0.0
 10
0.53608
 20
6.6720100000000002
 30
0.0
 10
0.17032
 20
6.3799100000000006
 30
0.0
 10
0.25668
 20
6.1843300000000001
 30
0.0
 10
0.25668
 20
6.1843300000000001
 30
0.0
 10
0.8815200000000001
 20
5.6001300000000001
 30
0.0
 10
1.36158
 20
4.5485700000000007
 30
0.0
 10
0.63514
 20
3.8881700000000001
 30
0.0
 10
0.63514
 20
3.8881700000000001
 30
0.0
 10
1.14822
 20
3.9491300000000003
 30
0.0
 10
1.1533
 20
3.6519500000000003
 30
0.0
 10
0.7545200000000001
 20
3.7459300000000004
 30
0.0
 10
0.7545200000000001
 20
3.7459300000000004
 30
0.0
 10
0.71896
 20
3.7560900000000004
 30
0.0
 10
0.67832
 20
3.7891100000000004
 30
0.0
 10
0.63514
 20
3.7687900000000005
 30
0.0
 10
0.63514
 20
3.7687900000000005
 30
0.0
 10
0.9247000000000001
 20
3.6290900000000001
 30
0.0
 10
0.63768
 20
3.2404700000000002
 30
0.0
 10
0.39638
 20
3.4538300000000004
 30
0.0
 10
0.39638
 20
3.4538300000000004
 30
0.0
 10
0.39638
 20
3.4538300000000004
 30
0.0
 10
0.38114
 20
2.8391500000000001
 30
0.0
 10
0.38114
 20
2.8391500000000001
 30
0.0
 10
0.38114
 20
2.8391500000000001
 30
0.0
 10
0.37606
 20
2.7553300000000003
 30
0.0
 10
0.4497200000000001
 20
2.76295
 30
0.0
 10
0.5183000000000001
 20
2.7502500000000003
 30
0.0
 10
0.5183000000000001
 20
2.7502500000000003
 30
0.0
 10
1.9407000000000001
 20
2.7273900000000002
 30
0.0
 10
2.4436200000000001
 20
0.8604900000000001
 30
0.0
 10
1.8772000000000002
 20
-0.03104
 30
0.0
 10
1.8772000000000002
 20
-0.03104
 30
0.0
 10
1.9762600000000001
 20
-0.18852
 30
0.0
 10
1.8924400000000001
 20
-0.33838
 30
0.0
 10
1.7044800000000002
 20
-0.37902
 30
0.0
 10
1.7044800000000002
 20
-0.37902
 30
0.0
 10
1.7578200000000002
 20
-0.5771400000000001
 30
0.0
 10
1.6460600000000001
 20
-0.76002
 30
0.0
 10
1.4149200000000002
 20
-0.7930400000000001
 30
0.0
 10
1.4149200000000002
 20
-0.7930400000000001
 30
0.0
 10
1.8289400000000002
 20
-1.5220200000000002
 30
0.0
 10
1.1660000000000001
 20
-2.2332200000000002
 30
0.0
 10
0.4192400000000001
 20
-2.52278
 30
0.0
 10
0.4192400000000001
 20
-2.52278
 30
0.0
 10
0.4192400000000001
 20
-2.52278
 30
0.0
 10
0.39384
 20
-4.1483800000000004
 30
0.0
 10
0.39384
 20
-4.1483800000000004
 30
0.0
 10
0.39384
 20
-4.1483800000000004
 30
0.0
 10
0.93232
 20
-4.5827200000000001
 30
0.0
 10
0.99582
 20
-5.0678600000000005
 30
0.0
 10
0.51322
 20
-5.5377600000000005
 30
0.0
 10
0.51322
 20
-5.5377600000000005
 30
0.0
 10
0.37352
 20
-5.9467000000000008
 30
0.0
 10
0.33796
 20
-6.3962800000000009
 30
0.0
 10
0.21858
 20
-6.797600000000001
 30
0.0
 10
0.21858
 20
-6.797600000000001
 30
0.0
 10
0.03316
 20
-6.5613800000000007
 30
0.0
 10
0.01792
 20
-6.1397400000000006
 30
0.0
 10
0.01538
 20
-5.8501800000000008
 30
0.0
 10
0.01538
 20
-5.8501800000000008
 30
0.0
 10
-0.09383
 20
-5.8705000000000007
 30
0.0
 10
-0.06843
 20
-6.0940200000000004
 30
0.0
 10
-0.18273
 20
-6.1321200000000005
 30
0.0
 10
-0.18273
 20
-6.1321200000000005
 30
0.0
 10
-0.29449
 20
-5.5911000000000008
 30
0.0
 10
0.17286
 20
-5.1237400000000006
 30
0.0
 10
0.04078
 20
-4.5598600000000005
 30
0.0
 10
0.04078
 20
-4.5598600000000005
 30
0.0
 10
-0.35545
 20
-4.2449000000000003
 30
0.0
 10
-0.88631
 20
-3.9985200000000005
 30
0.0
 10
-1.00061
 20
-3.5083000000000002
 30
0.0
 10
-1.00061
 20
-3.5083000000000002
 30
0.0
 10
-1.07935
 20
-3.0180800000000003
 30
0.0
 10
-0.9167900000000001
 20
-2.4923000000000002
 30
0.0
 10
-0.4595900000000001
 20
-2.1544800000000004
 30
0.0
 10
-0.4595900000000001
 20
-2.1544800000000004
 30
0.0
 10
-0.53325
 20
-2.0427200000000001
 30
0.0
 10
-0.53579
 20
-1.9081000000000001
 30
0.0
 10
-0.53579
 20
-1.7760200000000002
 30
0.0
 10
-0.53579
 20
-1.7760200000000002
 30
0.0
 10
-0.5789700000000001
 20
-1.7455400000000001
 30
0.0
 10
-0.5789700000000001
 20
-1.8725400000000001
 30
0.0
 10
-0.6450100000000001
 20
-1.8369800000000001
 30
0.0
 10
-0.6450100000000001
 20
-1.8369800000000001
 30
0.0
 10
-0.8431300000000001
 20
-1.4331200000000002
 30
0.0
 10
-0.5662700000000001
 20
-1.2807200000000001
 30
0.0
 10
-0.5611900000000001
 20
-0.67366
 30
0.0
 10
-0.5611900000000001
 20
-0.67366
 30
0.0
 10
-0.73899
 20
-0.8133600000000001
 30
0.0
 10
-1.00315
 20
-0.80066
 30
0.0
 10
-1.24699
 20
-0.7752600000000001
 30
0.0
 10
-1.24699
 20
-0.7752600000000001
 30
0.0
 10
-1.2266700000000001
 20
-0.5593600000000001
 30
0.0
 10
-1.3054100000000002
 20
-0.38156
 30
0.0
 10
-1.5365500000000001
 20
-0.26726
 30
0.0
 10
-1.5365500000000001
 20
-0.26726
 30
0.0
 10
-1.3155700000000001
 20
0.3270900000000001
 30
0.0
 10
-2.23759
 20
0.68015
 30
0.0
 10
-2.0801100000000003
 20
1.32023
 30
0.0
 10
-2.0801100000000003
 20
1.32023
 30
0.0
 10
-1.9683500000000003
 20
1.8815700000000002
 30
0.0
 10
-1.5263900000000001
 20
2.3311500000000001
 30
0.0
 10
-1.4247900000000002
 20
2.8772500000000001
 30
0.0
 10
-1.4247900000000002
 20
2.8772500000000001
 30
0.0
 10
-1.03363
 20
3.0093300000000003
 30
0.0
 10
-0.69581
 20
3.3065100000000003
 30
0.0
 10
-0.27417
 20
3.2480900000000004
 30
0.0
 10
-0.27417
 20
3.2480900000000004
 30
0.0
 10
-0.11923
 20
3.0956900000000003
 30
0.0
 10
-0.18781
 20
2.9153500000000001
 30
0.0
 10
-0.14209
 20
2.7324700000000002
 30
0.0
 10
-0.14209
 20
2.7324700000000002
 30
0.0
 10
-0.08875
 20
2.7070700000000003
 30
0.0
 10
-0.00747
 20
2.7451700000000003
 30
0.0
 10
0.03824
 20
2.7756500000000002
 30
0.0
 10
0.03824
 20
2.7756500000000002
 30
0.0
 10
0.03824
 20
2.7756500000000002
 30
0.0
 10
-0.01001
 20
3.5503500000000003
 30
0.0
 10
-0.01001
 20
3.5503500000000003
 30
0.0
 10
-0.01001
 20
3.5503500000000003
 30
0.0
 10
-0.13701
 20
3.8780100000000002
 30
0.0
 10
-0.46721
 20
3.3649300000000002
 30
0.0
 10
-0.05319
 20
3.5300300000000004
 30
0.0
 10
-0.05319
 20
3.5300300000000004
 30
0.0
 10
-0.12685
 20
3.1896700000000004
 30
0.0
 10
-0.70089
 20
3.4893900000000002
 30
0.0
 10
-0.38339
 20
3.7154500000000001
 30
0.0
 10
-0.38339
 20
3.7154500000000001
 30
0.0
 10
-0.32497
 20
3.7357700000000005
 30
0.0
 10
-0.35545
 20
3.7814900000000002
 30
0.0
 10
-0.40879
 20
3.7586300000000001
 30
0.0
 10
-0.40879
 20
3.7586300000000001
 30
0.0
 10
-0.7974100000000001
 20
3.5198700000000005
 30
0.0
 10
-1.0488700000000002
 20
3.9415100000000005
 30
0.0
 10
-0.49769
 20
3.8449900000000001
 30
0.0
 10
-0.49769
 20
3.8449900000000001
 30
0.0
 10
-0.8786900000000001
 20
4.1066100000000008
 30
0.0
 10
-0.45705
 20
4.7771700000000008
 30
0.0
 10
-0.01001
 20
5.0819700000000001
 30
0.0
 10
-0.01001
 20
5.0819700000000001
 30
0.0
 10
-0.00239
 20
5.5239300000000009
 30
0.0
 10
-0.03287
 20
5.9684300000000006
 30
0.0
 10
-0.13193
 20
6.3926100000000003
 30
0.0
 10
-0.13193
 20
6.3926100000000003
 30
0.0
 10
-0.06081
 20
6.5754900000000003
 30
0.0
 10
0.15508
 20
6.6516900000000003
 30
0.0
 10
0.29224
 20
6.7913900000000007
 30
0.0
  0
SPLINE
  5
26
100
AcDbEntity
  8
Ebene 1
100
AcDbSpline
210
0.0
220
0.0
230
1.0
 70
     1
 71
     3
 72
    16
 73
    12
 74
     0
 42
0.0000000001
 43
0.0000000001
 40
0.0
 40
0.0
 40
0.0
 40
0.0
 40
0.3333333333333333
 40
0.3333333333333333
 40
0.3333333333333333
 40
0.3333333333333333
 40
0.6666666666666666
 40
0.6666666666666666
 40
0.6666666666666666
 40
0.6666666666666666
 40
1.0
 40
1.0
 40
1.0
 40
1.0
 10
0.00268
 20
-2.7717000000000001
 30
0.0
 10
-0.37831
 20
-3.0993600000000003
 30
0.0
 10
-0.3757700000000001
 20
-3.6861000000000002
 30
0.0
 10
0.01538
 20
-3.9959800000000003
 30
0.0
 10
0.01538
 20
-3.9959800000000003
 30
0.0
 10
0.04332
 20
-3.5997400000000002
 30
0.0
 10
0.0357
 20
-3.19842
 30
0.0
 10
0.04078
 20
-2.7844000000000002
 30
0.0
 10
0.04078
 20
-2.7844000000000002
 30
0.0
 10
0.04078
 20
-2.7666200000000001
 30
0.0
 10
0.01538
 20
-2.7742400000000003
 30
0.0
 10
0.00268
 20
-2.7717000000000001
 30
0.0
  0
SPLINE
  5
27
100
AcDbEntity
  8
Ebene 1
 62
     7
100
AcDbSpline
210
0.0
220
0.0
230
1.0
 70
     1
 71
     3
 72
    16
 73
    12
 74
     0
 42
0.0000000001
 43
0.0000000001
 40
0.0
 40
0.0
 40
0.0
 40
0.0
 40
0.3333333333333333
 40
0.3333333333333333
 40
0.3333333333333333
 40
0.3333333333333333
 40
0.6666666666666666
 40
0.6666666666666666
 40
0.6666666666666666
 40
0.6666666666666666
 40
1.0
 40
1.0
 40
1.0
 40
1.0
 10
0.20334
 20
6.6085100000000008
 30
0.0
 10
0.20334
 20
6.6085100000000008
 30
0.0
 10
0.21604
 20
6.5526300000000006
 30
0.0
 10
0.21604
 20
6.5526300000000006
 30
0.0
 10
0.21604
 20
6.5526300000000006
 30
0.0
 10
0.11698
 20
6.4459500000000007
 30
0.0
 10
0.00776
 20
6.3265700000000002
 30
0.0
 10
-0.03287
 20
6.1970300000000007
 30
0.0
 10
-0.03287
 20
6.1970300000000007
 30
0.0
 10
-0.17257
 20
6.3595900000000007
 30
0.0
 10
0.05094
 20
6.5323100000000007
 30
0.0
 10
0.20334
 20
6.6085100000000008
 30
0.0
  0
SPLINE
  5
28
100
AcDbEntity
  8
Ebene 1
 62
     7
100
AcDbSpline
210
0.0
220
0.0
230
1.0
 70
     1
 71
     3
 72
    72
 73
    68
 74
     0
 42
0.0000000001
 43
0.0000000001
 40
0.0
 40
0.0
 40
0.0
 40
0.0
 40
0.0588235294117647
 40
0.0588235294117647
 40
0.0588235294117647
 40
0.0588235294117647
 40
0.1176470588235294
 40
0.1176470588235294
 40
0.1176470588235294
 40
0.1176470588235294
 40
0.1764705882352941
 40
0.1764705882352941
 40
0.1764705882352941
 40
0.1764705882352941
 40
0.2352941176470588
 40
0.2352941176470588
 40
0.2352941176470588
 40
0.2352941176470588
 40
0.2941176470588235
 40
0.2941176470588235
 40
0.2941176470588235
 40
0.2941176470588235
 40
0.3529411764705883
 40
0.3529411764705883
 40
0.3529411764705883
 40
0.3529411764705883
 40
0.411764705882353
 40
0.411764705882353
 40
0.411764705882353
 40
0.411764705882353
 40
0.4705882352941177
 40
0.4705882352941177
 40
0.4705882352941177
 40
0.4705882352941177
 40
0.5294117647058824
 40
0.5294117647058824
 40
0.5294117647058824
 40
0.5294117647058824
 40
0.5882352941176471
 40
0.5882352941176471
 40
0.5882352941176471
 40
0.5882352941176471
 40
0.6470588235294118
 40
0.6470588235294118
 40
0.6470588235294118
 40
0.6470588235294118
 40
0.7058823529411765
 40
0.7058823529411765
 40
0.7058823529411765
 40
0.7058823529411765
 40
0.7647058823529412
 40
0.7647058823529412
 40
0.7647058823529412
 40
0.7647058823529412
 40
0.823529411764706
 40
0.823529411764706
 40
0.823529411764706
 40
0.823529411764706
 40
0.8823529411764707
 40
0.8823529411764707
 40
0.8823529411764707
 40
0.8823529411764707
 40
0.9411764705882354
 40
0.9411764705882354
 40
0.9411764705882354
 40
0.9411764705882354
 40
1.0
 40
1.0
 40
1.0
 40
1.0
 10
0.11698
 20
6.3037100000000006
 30
0.0
 10
0.19826
 20
6.1843300000000001
 30
0.0
 10
0.26684
 20
6.0116100000000001
 30
0.0
 10
0.30748
 20
5.8617500000000007
 30
0.0
 10
0.30748
 20
5.8617500000000007
 30
0.0
 10
0.30748
 20
5.8617500000000007
 30
0.0
 10
0.49798
 20
5.6661700000000002
 30
0.0
 10
0.49798
 20
5.6661700000000002
 30
0.0
 10
0.49798
 20
5.6661700000000002
 30
0.0
 10
0.53354
 20
5.6433100000000005
 30
0.0
 10
0.57926
 20
5.6661700000000002
 30
0.0
 10
0.61736
 20
5.6763300000000001
 30
0.0
 10
0.61736
 20
5.6763300000000001
 30
0.0
 10
0.9780400000000001
 20
5.26485
 30
0.0
 10
1.01868
 20
4.6247700000000007
 30
0.0
 10
0.82564
 20
4.1599500000000003
 30
0.0
 10
0.82564
 20
4.1599500000000003
 30
0.0
 10
0.8332600000000001
 20
4.2996500000000006
 30
0.0
 10
0.9755
 20
4.5282500000000008
 30
0.0
 10
0.8205600000000001
 20
4.6476300000000004
 30
0.0
 10
0.8205600000000001
 20
4.6476300000000004
 30
0.0
 10
0.8205600000000001
 20
4.6476300000000004
 30
0.0
 10
0.7748400000000001
 20
4.59429
 30
0.0
 10
0.7748400000000001
 20
4.59429
 30
0.0
 10
0.7748400000000001
 20
4.59429
 30
0.0
 10
0.7748400000000001
 20
4.59429
 30
0.0
 10
0.7316600000000001
 20
4.4622100000000007
 30
0.0
 10
0.7316600000000001
 20
4.4622100000000007
 30
0.0
 10
0.7316600000000001
 20
4.4622100000000007
 30
0.0
 10
0.6732400000000001
 20
4.3098100000000006
 30
0.0
 10
0.7596000000000001
 20
4.0837500000000002
 30
0.0
 10
0.5843400000000001
 20
3.9872300000000003
 30
0.0
 10
0.5843400000000001
 20
3.9872300000000003
 30
0.0
 10
0.59958
 20
4.0405700000000007
 30
0.0
 10
0.64276
 20
4.1370900000000006
 30
0.0
 10
0.5691000000000001
 20
4.1701100000000002
 30
0.0
 10
0.5691000000000001
 20
4.1701100000000002
 30
0.0
 10
0.5056000000000001
 20
4.1802700000000002
 30
0.0
 10
0.46496
 20
4.1269300000000007
 30
0.0
 10
0.42178
 20
4.0939100000000002
 30
0.0
 10
0.42178
 20
4.0939100000000002
 30
0.0
 10
0.37606
 20
4.0735900000000003
 30
0.0
 10
0.39384
 20
4.0177100000000001
 30
0.0
 10
0.40654
 20
3.9872300000000003
 30
0.0
 10
0.40654
 20
3.9872300000000003
 30
0.0
 10
0.43702
 20
3.9542100000000002
 30
0.0
 10
0.49798
 20
3.9542100000000002
 30
0.0
 10
0.5411600000000001
 20
3.9643700000000002
 30
0.0
 10
0.5411600000000001
 20
3.9643700000000002
 30
0.0
 10
0.3278
 20
3.8018100000000001
 30
0.0
 10
-0.03541
 20
3.8551500000000005
 30
0.0
 10
-0.30973
 20
3.8780100000000002
 30
0.0
 10
-0.30973
 20
3.8780100000000002
 30
0.0
 10
-0.45197
 20
3.9313500000000001
 30
0.0
 10
-0.5230900000000001
 20
4.0608900000000006
 30
0.0
 10
-0.57135
 20
4.1802700000000002
 30
0.0
 10
-0.57135
 20
4.1802700000000002
 30
0.0
 10
-0.5002300000000001
 20
4.68065
 30
0.0
 10
0.0357
 20
4.9930700000000003
 30
0.0
 10
0.37606
 20
5.3613700000000009
 30
0.0
 10
0.37606
 20
5.3613700000000009
 30
0.0
 10
0.37606
 20
5.3613700000000009
 30
0.0
 10
0.33034
 20
5.3943900000000005
 30
0.0
 10
0.33034
 20
5.3943900000000005
 30
0.0
 10
0.33034
 20
5.3943900000000005
 30
0.0
 10
0.44718
 20
5.7423700000000002
 30
0.0
 10
-0.09891
 20
6.0116100000000001
 30
0.0
 10
0.11698
 20
6.3037100000000006
 30
0.0
  0
SPLINE
  5
29
100
AcDbEntity
  8
Ebene 1
 62
     7
100
AcDbSpline
210
0.0
220
0.0
230
1.0
 70
     1
 71
     3
 72
    16
 73
    12
 74
     0
 42
0.0000000001
 43
0.0000000001
 40
0.0
 40
0.0
 40
0.0
 40
0.0
 40
0.3333333333333333
 40
0.3333333333333333
 40
0.3333333333333333
 40
0.3333333333333333
 40
0.6666666666666666
 40
0.6666666666666666
 40
0.6666666666666666
 40
0.6666666666666666
 40
1.0
 40
1.0
 40
1.0
 40
1.0
 10
0.30494
 20
6.0116100000000001
 30
0.0
 10
0.30494
 20
6.0116100000000001
 30
0.0
 10
0.5665600000000001
 20
5.7195100000000005
 30
0.0
 10
0.5665600000000001
 20
5.7195100000000005
 30
0.0
 10
0.5665600000000001
 20
5.7195100000000005
 30
0.0
 10
0.5665600000000001
 20
5.7195100000000005
 30
0.0
 10
0.55386
 20
5.6991900000000006
 30
0.0
 10
0.55386
 20
5.6991900000000006
 30
0.0
 10
0.55386
 20
5.6991900000000006
 30
0.0
 10
0.4395600000000001
 20
5.77285
 30
0.0
 10
0.33034
 20
5.8922300000000005
 30
0.0
 10
0.30494
 20
6.0116100000000001
 30
0.0
  0
SPLINE
  5
2A
100
AcDbEntity
  8
Ebene 1
 62
     7
100
AcDbSpline
210
0.0
220
0.0
230
1.0
 70
     1
 71
     3
 72
    12
 73
     8
 74
     0
 42
0.0000000001
 43
0.0000000001
 40
0.0
 40
0.0
 40
0.0
 40
0.0
 40
0.5
 40
0.5
 40
0.5
 40
0.5
 40
1.0
 40
1.0
 40
1.0
 40
1.0
 10
0.05348
 20
5.9887500000000005
 30
0.0
 10
0.08396
 20
5.9430300000000003
 30
0.0
 10
0.08396
 20
5.7830100000000009
 30
0.0
 10
0.0484
 20
5.7347500000000009
 30
0.0
 10
0.0484
 20
5.7347500000000009
 30
0.0
 10
-0.01763
 20
5.8058700000000005
 30
0.0
 10
0.01792
 20
5.9201700000000006
 30
0.0
 10
0.05348
 20
5.9887500000000005
 30
0.0
  0
SPLINE
  5
2B
100
AcDbEntity
  8
Ebene 1
 62
     7
100
AcDbSpline
210
0.0
220
0.0
230
1.0
 70
     1
 71
     3
 72
    12
 73
     8
 74
     0
 42
0.0000000001
 43
0.0000000001
 40
0.0
 40
0.0
 40
0.0
 40
0.0
 40
0.5
 40
0.5
 40
0.5
 40
0.5
 40
1.0
 40
1.0
 40
1.0
 40
1.0
 10
0.09158
 20
5.7245900000000001
 30
0.0
 10
0.09158
 20
5.7245900000000001
 30
0.0
 10
0.09666
 20
5.4528100000000004
 30
0.0
 10
0.09666
 20
5.4528100000000004
 30
0.0
 10
0.09666
 20
5.4528100000000004
 30
0.0
 10
-0.00493
 20
5.4985300000000006
 30
0.0
 10
0.01284
 20
5.64839
 30
0.0
 10
0.09158
 20
5.7245900000000001
 30
0.0
  0
SPLINE
  5
2C
100
AcDbEntity
  8
Ebene 1
100
AcDbSpline
210
0.0
220
0.0
230
1.0
 70
     1
 71
     3
 72
    20
 73
    16
 74
     0
 42
0.0000000001
 43
0.0000000001
 40
0.0
 40
0.0
 40
0.0
 40
0.0
 40
0.25
 40
0.25
 40
0.25
 40
0.25
 40
0.5
 40
0.5
 40
0.5
 40
0.5
 40
0.75
 40
0.75
 40
0.75
 40
0.75
 40
1.0
 40
1.0
 40
1.0
 40
1.0
 10
0.7316600000000001
 20
5.3181900000000004
 30
0.0
 10
0.7545200000000001
 20
5.3181900000000004
 30
0.0
 10
0.7799200000000001
 20
5.3181900000000004
 30
0.0
 10
0.7926200000000001
 20
5.3080300000000005
 30
0.0
 10
0.7926200000000001
 20
5.3080300000000005
 30
0.0
 10
0.8866000000000001
 20
5.0362500000000008
 30
0.0
 10
0.8383400000000001
 20
4.7009700000000008
 30
0.0
 10
0.6046600000000001
 20
4.4952300000000003
 30
0.0
 10
0.6046600000000001
 20
4.4952300000000003
 30
0.0
 10
0.6046600000000001
 20
4.4952300000000003
 30
0.0
 10
0.5564
 20
4.4952300000000003
 30
0.0
 10
0.5564
 20
4.4952300000000003
 30
0.0
 10
0.5564
 20
4.4952300000000003
 30
0.0
 10
0.39384
 20
4.7543100000000003
 30
0.0
 10
0.5843400000000001
 20
5.0692700000000004
 30
0.0
 10
0.7316600000000001
 20
5.3181900000000004
 30
0.0
  0
SPLINE
  5
2D
100
AcDbEntity
  8
Ebene 1
 62
     7
100
AcDbSpline
210
0.0
220
0.0
230
1.0
 70
     1
 71
     3
 72
    12
 73
     8
 74
     0
 42
0.0000000001
 43
0.0000000001
 40
0.0
 40
0.0
 40
0.0
 40
0.0
 40
0.5
 40
0.5
 40
0.5
 40
0.5
 40
1.0
 40
1.0
 40
1.0
 40
1.0
 10
0.10936
 20
5.3918500000000007
 30
0.0
 10
0.12968
 20
5.3308900000000001
 30
0.0
 10
0.1627
 20
5.1962700000000002
 30
0.0
 10
0.0738
 20
5.1657900000000003
 30
0.0
 10
0.0738
 20
5.1657900000000003
 30
0.0
 10
0.02046
 20
5.22675
 30
0.0
 10
0.03824
 20
5.3308900000000001
 30
0.0
 10
0.10936
 20
5.3918500000000007
 30
0.0
  0
SPLINE
  5
2E
100
AcDbEntity
  8
Ebene 1
100
AcDbSpline
210
0.0
220
0.0
230
1.0
 70
     1
 71
     3
 72
    20
 73
    16
 74
     0
 42
0.0000000001
 43
0.0000000001
 40
0.0
 40
0.0
 40
0.0
 40
0.0
 40
0.25
 40
0.25
 40
0.25
 40
0.25
 40
0.5
 40
0.5
 40
0.5
 40
0.5
 40
0.75
 40
0.75
 40
0.75
 40
0.75
 40
1.0
 40
1.0
 40
1.0
 40
1.0
 10
0.5056000000000001
 20
5.26485
 30
0.0
 10
0.5208400000000001
 20
5.26485
 30
0.0
 10
0.5411600000000001
 20
5.2546900000000001
 30
0.0
 10
0.5437000000000001
 20
5.2419900000000004
 30
0.0
 10
0.5437000000000001
 20
5.2419900000000004
 30
0.0
 10
0.49798
 20
5.1124500000000008
 30
0.0
 10
0.3405
 20
4.9829100000000004
 30
0.0
 10
0.40654
 20
4.84321
 30
0.0
 10
0.40654
 20
4.84321
 30
0.0
 10
0.4090800000000001
 20
4.8203500000000004
 30
0.0
 10
0.404
 20
4.7974900000000007
 30
0.0
 10
0.38114
 20
4.7974900000000007
 30
0.0
 10
0.38114
 20
4.7974900000000007
 30
0.0
 10
0.11698
 20
4.8863900000000005
 30
0.0
 10
0.3405
 20
5.17849
 30
0.0
 10
0.5056000000000001
 20
5.26485
 30
0.0
  0
SPLINE
  5
2F
100
AcDbEntity
  8
Ebene 1
 62
     7
100
AcDbSpline
210
0.0
220
0.0
230
1.0
 70
     1
 71
     3
 72
    12
 73
     8
 74
     0
 42
0.0000000001
 43
0.0000000001
 40
0.0
 40
0.0
 40
0.0
 40
0.0
 40
0.5
 40
0.5
 40
0.5
 40
0.5
 40
1.0
 40
1.0
 40
1.0
 40
1.0
 10
0.6935600000000001
 20
5.17849
 30
0.0
 10
0.7596000000000001
 20
5.0032300000000003
 30
0.0
 10
0.7062600000000001
 20
4.76701
 30
0.0
 10
0.5564
 20
4.6247700000000007
 30
0.0
 10
0.5564
 20
4.6247700000000007
 30
0.0
 10
0.4827400000000001
 20
4.8101900000000004
 30
0.0
 10
0.6021200000000001
 20
5.01593
 30
0.0
 10
0.6935600000000001
 20
5.17849
 30
0.0
  0
SPLINE
  5
30
100
AcDbEntity
  8
Ebene 1
100
AcDbSpline
210
0.0
220
0.0
230
1.0
 70
     1
 71
     3
 72
    24
 73
    20
 74
     0
 42
0.0000000001
 43
0.0000000001
 40
0.0
 40
0.0
 40
0.0
 40
0.0
 40
0.2
 40
0.2
 40
0.2
 40
0.2
 40
0.4
 40
0.4
 40
0.4
 40
0.4
 40
0.6000000000000001
 40
0.6000000000000001
 40
0.6000000000000001
 40
0.6000000000000001
 40
0.8
 40
0.8
 40
0.8
 40
0.8
 40
1.0
 40
1.0
 40
1.0
 40
1.0
 10
0.00268
 20
4.8305100000000003
 30
0.0
 10
0.1246
 20
4.8635300000000008
 30
0.0
 10
0.3354200000000001
 20
4.76701
 30
0.0
 10
0.2389
 20
4.6476300000000004
 30
0.0
 10
0.2389
 20
4.6476300000000004
 30
0.0
 10
0.0611
 20
4.6679500000000003
 30
0.0
 10
-0.08875
 20
4.6044500000000008
 30
0.0
 10
-0.19797
 20
4.4850700000000003
 30
0.0
 10
-0.19797
 20
4.4850700000000003
 30
0.0
 10
-0.19797
 20
4.4850700000000003
 30
0.0
 10
-0.24115
 20
4.4850700000000003
 30
0.0
 10
-0.24115
 20
4.4850700000000003
 30
0.0
 10
-0.24115
 20
4.4850700000000003
 30
0.0
 10
-0.24115
 20
4.5612700000000004
 30
0.0
 10
-0.20305
 20
4.6247700000000007
 30
0.0
 10
-0.15987
 20
4.6908100000000008
 30
0.0
 10
-0.15987
 20
4.6908100000000008
 30
0.0
 10
-0.13193
 20
4.7543100000000003
 30
0.0
 10
-0.07097
 20
4.8203500000000004
 30
0.0
 10
0.00268
 20
4.8305100000000003
 30
0.0
  0
SPLINE
  5
31
100
AcDbEntity
  8
Ebene 1
 62
     7
100
AcDbSpline
210
0.0
220
0.0
230
1.0
 70
     1
 71
     3
 72
    12
 73
     8
 74
     0
 42
0.0000000001
 43
0.0000000001
 40
0.0
 40
0.0
 40
0.0
 40
0.0
 40
0.5
 40
0.5
 40
0.5
 40
0.5
 40
1.0
 40
1.0
 40
1.0
 40
1.0
 10
-0.05827
 20
4.7238300000000004
 30
0.0
 10
0.02808
 20
4.7009700000000008
 30
0.0
 10
-0.03287
 20
4.6247700000000007
 30
0.0
 10
-0.10399
 20
4.6349300000000007
 30
0.0
 10
-0.10399
 20
4.6349300000000007
 30
0.0
 10
-0.10399
 20
4.6349300000000007
 30
0.0
 10
-0.05827
 20
4.7238300000000004
 30
0.0
 10
-0.05827
 20
4.7238300000000004
 30
0.0
  0
SPLINE
  5
32
100
AcDbEntity
  8
Ebene 1
100
AcDbSpline
210
0.0
220
0.0
230
1.0
 70
     1
 71
     3
 72
    16
 73
    12
 74
     0
 42
0.0000000001
 43
0.0000000001
 40
0.0
 40
0.0
 40
0.0
 40
0.0
 40
0.3333333333333333
 40
0.3333333333333333
 40
0.3333333333333333
 40
0.3333333333333333
 40
0.6666666666666666
 40
0.6666666666666666
 40
0.6666666666666666
 40
0.6666666666666666
 40
1.0
 40
1.0
 40
1.0
 40
1.0
 10
0.33034
 20
4.6908100000000008
 30
0.0
 10
0.35066
 20
4.6908100000000008
 30
0.0
 10
0.37606
 20
4.6908100000000008
 30
0.0
 10
0.3887600000000001
 20
4.68065
 30
0.0
 10
0.3887600000000001
 20
4.68065
 30
0.0
 10
0.4725800000000001
 20
4.3656900000000007
 30
0.0
 10
0.40146
 20
3.9313500000000001
 30
0.0
 10
-0.02017
 20
3.8780100000000002
 30
0.0
 10
-0.02017
 20
3.8780100000000002
 30
0.0
 10
-0.44689
 20
4.1269300000000007
 30
0.0
 10
0.10174
 20
4.4952300000000003
 30
0.0
 10
0.33034
 20
4.6908100000000008
 30
0.0
  0
SPLINE
  5
33
100
AcDbEntity
  8
Ebene 1
 62
     7
100
AcDbSpline
210
0.0
220
0.0
230
1.0
 70
     1
 71
     3
 72
    16
 73
    12
 74
     0
 42
0.0000000001
 43
0.0000000001
 40
0.0
 40
0.0
 40
0.0
 40
0.0
 40
0.3333333333333333
 40
0.3333333333333333
 40
0.3333333333333333
 40
0.3333333333333333
 40
0.6666666666666666
 40
0.6666666666666666
 40
0.6666666666666666
 40
0.6666666666666666
 40
1.0
 40
1.0
 40
1.0
 40
1.0
 10
0.30494
 20
4.59429
 30
0.0
 10
0.30494
 20
4.59429
 30
0.0
 10
0.3405
 20
4.59429
 30
0.0
 10
0.3405
 20
4.59429
 30
0.0
 10
0.3405
 20
4.59429
 30
0.0
 10
0.3405
 20
4.4622100000000007
 30
0.0
 10
0.404
 20
4.3326700000000002
 30
0.0
 10
0.33034
 20
4.2132900000000006
 30
0.0
 10
0.33034
 20
4.2132900000000006
 30
0.0
 10
0.28462
 20
4.3326700000000002
 30
0.0
 10
0.35066
 20
4.4622100000000007
 30
0.0
 10
0.30494
 20
4.59429
 30
0.0
  0
SPLINE
  5
34
100
AcDbEntity
  8
Ebene 1
 62
     7
100
AcDbSpline
210
0.0
220
0.0
230
1.0
 70
     1
 71
     3
 72
    12
 73
     8
 74
     0
 42
0.0000000001
 43
0.0000000001
 40
0.0
 40
0.0
 40
0.0
 40
0.0
 40
0.5
 40
0.5
 40
0.5
 40
0.5
 40
1.0
 40
1.0
 40
1.0
 40
1.0
 10
0.7951600000000001
 20
4.5053900000000002
 30
0.0
 10
0.8408800000000001
 20
4.4622100000000007
 30
0.0
 10
0.7926200000000001
 20
4.3758500000000007
 30
0.0
 10
0.7697600000000001
 20
4.3326700000000002
 30
0.0
 10
0.7697600000000001
 20
4.3326700000000002
 30
0.0
 10
0.7367400000000001
 20
4.3885500000000004
 30
0.0
 10
0.78754
 20
4.4520500000000007
 30
0.0
 10
0.7951600000000001
 20
4.5053900000000002
 30
0.0
  0
SPLINE
  5
35
100
AcDbEntity
  8
Ebene 1
100
AcDbSpline
210
0.0
220
0.0
230
1.0
 70
     1
 71
     3
 72
    24
 73
    20
 74
     0
 42
0.0000000001
 43
0.0000000001
 40
0.0
 40
0.0
 40
0.0
 40
0.0
 40
0.2
 40
0.2
 40
0.2
 40
0.2
 40
0.4
 40
0.4
 40
0.4
 40
0.4
 40
0.6000000000000001
 40
0.6000000000000001
 40
0.6000000000000001
 40
0.6000000000000001
 40
0.8
 40
0.8
 40
0.8
 40
0.8
 40
1.0
 40
1.0
 40
1.0
 40
1.0
 10
-0.38339
 20
4.2793300000000007
 30
0.0
 10
-0.38339
 20
4.2793300000000007
 30
0.0
 10
-0.3224300000000001
 20
4.2793300000000007
 30
0.0
 10
-0.3224300000000001
 20
4.2793300000000007
 30
0.0
 10
-0.3224300000000001
 20
4.2793300000000007
 30
0.0
 10
-0.34783
 20
4.1599500000000003
 30
0.0
 10
-0.29957
 20
4.0507300000000006
 30
0.0
 10
-0.18527
 20
3.9745300000000001
 30
0.0
 10
-0.18527
 20
3.9745300000000001
 30
0.0
 10
-0.18527
 20
3.9745300000000001
 30
0.0
 10
-0.18527
 20
3.9211900000000002
 30
0.0
 10
-0.18527
 20
3.9211900000000002
 30
0.0
 10
-0.18527
 20
3.9211900000000002
 30
0.0
 10
-0.22591
 20
3.9211900000000002
 30
0.0
 10
-0.26909
 20
3.9211900000000002
 30
0.0
 10
-0.29957
 20
3.9415100000000005
 30
0.0
 10
-0.29957
 20
3.9415100000000005
 30
0.0
 10
-0.4824500000000001
 20
3.9415100000000005
 30
0.0
 10
-0.46721
 20
4.1929700000000008
 30
0.0
 10
-0.38339
 20
4.2793300000000007
 30
0.0
  0
SPLINE
  5
36
100
AcDbEntity
  8
Ebene 1
 62
     7
100
AcDbSpline
210
0.0
220
0.0
230
1.0
 70
     1
 71
     3
 72
    12
 73
     8
 74
     0
 42
0.0000000001
 43
0.0000000001
 40
0.0
 40
0.0
 40
0.0
 40
0.0
 40
0.5
 40
0.5
 40
0.5
 40
0.5
 40
1.0
 40
1.0
 40
1.0
 40
1.0
 10
-0.04557
 20
4.2234500000000006
 30
0.0
 10
0.0484
 20
4.1802700000000002
 30
0.0
 10
-0.04049
 20
4.0507300000000006
 30
0.0
 10
0.00268
 20
3.9643700000000002
 30
0.0
 10
0.00268
 20
3.9643700000000002
 30
0.0
 10
-0.08621
 20
4.0075500000000002
 30
0.0
 10
-0.10145
 20
4.1497900000000003
 30
0.0
 10
-0.04557
 20
4.2234500000000006
 30
0.0
  0
SPLINE
  5
37
100
AcDbEntity
  8
Ebene 1
 62
     7
100
AcDbSpline
210
0.0
220
0.0
230
1.0
 70
     1
 71
     3
 72
    12
 73
     8
 74
     0
 42
0.0000000001
 43
0.0000000001
 40
0.0
 40
0.0
 40
0.0
 40
0.0
 40
0.5
 40
0.5
 40
0.5
 40
0.5
 40
1.0
 40
1.0
 40
1.0
 40
1.0
 10
-0.34529
 20
4.0507300000000006
 30
0.0
 10
-0.34529
 20
4.0507300000000006
 30
0.0
 10
-0.29957
 20
3.9973900000000002
 30
0.0
 10
-0.29957
 20
3.9973900000000002
 30
0.0
 10
-0.29957
 20
3.9973900000000002
 30
0.0
 10
-0.32751
 20
3.9973900000000002
 30
0.0
 10
-0.35545
 20
4.0304100000000007
 30
0.0
 10
-0.34529
 20
4.0507300000000006
 30
0.0
  0
SPLINE
  5
38
100
AcDbEntity
  8
Ebene 1
 62
     7
100
AcDbSpline
210
0.0
220
0.0
230
1.0
 70
     1
 71
     3
 72
    16
 73
    12
 74
     0
 42
0.0000000001
 43
0.0000000001
 40
0.0
 40
0.0
 40
0.0
 40
0.0
 40
0.3333333333333333
 40
0.3333333333333333
 40
0.3333333333333333
 40
0.3333333333333333
 40
0.6666666666666666
 40
0.6666666666666666
 40
0.6666666666666666
 40
0.6666666666666666
 40
1.0
 40
1.0
 40
1.0
 40
1.0
 10
-0.6221500000000001
 20
3.8449900000000001
 30
0.0
 10
-0.55103
 20
3.8348300000000002
 30
0.0
 10
-0.5865900000000001
 20
3.7916500000000002
 30
0.0
 10
-0.6450100000000001
 20
3.8018100000000001
 30
0.0
 10
-0.6450100000000001
 20
3.8018100000000001
 30
0.0
 10
-0.6627900000000001
 20
3.7052900000000002
 30
0.0
 10
-0.8405900000000001
 20
3.7687900000000005
 30
0.0
 10
-0.7110500000000001
 20
3.8119700000000005
 30
0.0
 10
-0.7110500000000001
 20
3.8119700000000005
 30
0.0
 10
-0.7110500000000001
 20
3.8119700000000005
 30
0.0
 10
-0.6221500000000001
 20
3.8449900000000001
 30
0.0
 10
-0.6221500000000001
 20
3.8449900000000001
 30
0.0
  0
SPLINE
  5
39
100
AcDbEntity
  8
Ebene 1
 62
     7
100
AcDbSpline
210
0.0
220
0.0
230
1.0
 70
     1
 71
     3
 72
    20
 73
    16
 74
     0
 42
0.0000000001
 43
0.0000000001
 40
0.0
 40
0.0
 40
0.0
 40
0.0
 40
0.25
 40
0.25
 40
0.25
 40
0.25
 40
0.5
 40
0.5
 40
0.5
 40
0.5
 40
0.75
 40
0.75
 40
0.75
 40
0.75
 40
1.0
 40
1.0
 40
1.0
 40
1.0
 10
0.16524
 20
3.8373700000000004
 30
0.0
 10
0.19064
 20
3.8272100000000004
 30
0.0
 10
0.24652
 20
3.8272100000000004
 30
0.0
 10
0.2262
 20
3.7992700000000004
 30
0.0
 10
0.2262
 20
3.7992700000000004
 30
0.0
 10
0.18556
 20
3.7992700000000004
 30
0.0
 10
0.12206
 20
3.7510100000000004
 30
0.0
 10
0.09412
 20
3.7992700000000004
 30
0.0
 10
0.09412
 20
3.7992700000000004
 30
0.0
 10
0.09412
 20
3.7992700000000004
 30
0.0
 10
0.11444
 20
3.8094300000000003
 30
0.0
 10
0.11444
 20
3.8094300000000003
 30
0.0
 10
0.11444
 20
3.8094300000000003
 30
0.0
 10
0.11444
 20
3.8094300000000003
 30
0.0
 10
0.16524
 20
3.8373700000000004
 30
0.0
 10
0.16524
 20
3.8373700000000004
 30
0.0
  0
SPLINE
  5
3A
100
AcDbEntity
  8
Ebene 1
 62
     7
100
AcDbSpline
210
0.0
220
0.0
230
1.0
 70
     1
 71
     3
 72
    16
 73
    12
 74
     0
 42
0.0000000001
 43
0.0000000001
 40
0.0
 40
0.0
 40
0.0
 40
0.0
 40
0.3333333333333333
 40
0.3333333333333333
 40
0.3333333333333333
 40
0.3333333333333333
 40
0.6666666666666666
 40
0.6666666666666666
 40
0.6666666666666666
 40
0.6666666666666666
 40
1.0
 40
1.0
 40
1.0
 40
1.0
 10
0.3557400000000001
 20
3.8449900000000001
 30
0.0
 10
0.4548
 20
3.8119700000000005
 30
0.0
 10
0.57672
 20
3.8678500000000002
 30
0.0
 10
0.6707000000000001
 20
3.8348300000000002
 30
0.0
 10
0.6707000000000001
 20
3.8348300000000002
 30
0.0
 10
0.5691000000000001
 20
3.8119700000000005
 30
0.0
 10
0.44464
 20
3.8119700000000005
 30
0.0
 10
0.33288
 20
3.8119700000000005
 30
0.0
 10
0.33288
 20
3.8119700000000005
 30
0.0
 10
0.33288
 20
3.8119700000000005
 30
0.0
 10
0.3557400000000001
 20
3.8449900000000001
 30
0.0
 10
0.3557400000000001
 20
3.8449900000000001
 30
0.0
  0
SPLINE
  5
3B
100
AcDbEntity
  8
Ebene 1
 62
     7
100
AcDbSpline
210
0.0
220
0.0
230
1.0
 70
     1
 71
     3
 72
    12
 73
     8
 74
     0
 42
0.0000000001
 43
0.0000000001
 40
0.0
 40
0.0
 40
0.0
 40
0.0
 40
0.5
 40
0.5
 40
0.5
 40
0.5
 40
1.0
 40
1.0
 40
1.0
 40
1.0
 10
0.9094600000000001
 20
3.8348300000000002
 30
0.0
 10
0.99582
 20
3.8551500000000005
 30
0.0
 10
1.01868
 20
3.7586300000000001
 30
0.0
 10
0.93232
 20
3.7484700000000002
 30
0.0
 10
0.93232
 20
3.7484700000000002
 30
0.0
 10
0.8866000000000001
 20
3.7814900000000002
 30
0.0
 10
0.82564
 20
3.8221300000000005
 30
0.0
 10
0.9094600000000001
 20
3.8348300000000002
 30
0.0
  0
SPLINE
  5
3C
100
AcDbEntity
  8
Ebene 1
 62
     7
100
AcDbSpline
210
0.0
220
0.0
230
1.0
 70
     1
 71
     3
 72
    48
 73
    44
 74
     0
 42
0.0000000001
 43
0.0000000001
 40
0.0
 40
0.0
 40
0.0
 40
0.0
 40
0.0909090909090909
 40
0.0909090909090909
 40
0.0909090909090909
 40
0.0909090909090909
 40
0.1818181818181818
 40
0.1818181818181818
 40
0.1818181818181818
 40
0.1818181818181818
 40
0.2727272727272727
 40
0.2727272727272727
 40
0.2727272727272727
 40
0.2727272727272727
 40
0.3636363636363637
 40
0.3636363636363637
 40
0.3636363636363637
 40
0.3636363636363637
 40
0.4545454545454546
 40
0.4545454545454546
 40
0.4545454545454546
 40
0.4545454545454546
 40
0.5454545454545455
 40
0.5454545454545455
 40
0.5454545454545455
 40
0.5454545454545455
 40
0.6363636363636365
 40
0.6363636363636365
 40
0.6363636363636365
 40
0.6363636363636365
 40
0.7272727272727274
 40
0.7272727272727274
 40
0.7272727272727274
 40
0.7272727272727274
 40
0.8181818181818183
 40
0.8181818181818183
 40
0.8181818181818183
 40
0.8181818181818183
 40
0.9090909090909093
 40
0.9090909090909093
 40
0.9090909090909093
 40
0.9090909090909093
 40
1.0
 40
1.0
 40
1.0
 40
1.0
 10
0.33034
 20
3.7586300000000001
 30
0.0
 10
0.6224400000000001
 20
3.8678500000000002
 30
0.0
 10
0.8967600000000001
 20
3.4487500000000004
 30
0.0
 10
0.51068
 20
3.4360500000000003
 30
0.0
 10
0.51068
 20
3.4360500000000003
 30
0.0
 10
0.48528
 20
3.4538300000000004
 30
0.0
 10
0.42178
 20
3.4843100000000002
 30
0.0
 10
0.4548
 20
3.5097100000000001
 30
0.0
 10
0.4548
 20
3.5097100000000001
 30
0.0
 10
0.59704
 20
3.4487500000000004
 30
0.0
 10
0.6884800000000001
 20
3.6062300000000005
 30
0.0
 10
0.57926
 20
3.6925900000000005
 30
0.0
 10
0.57926
 20
3.6925900000000005
 30
0.0
 10
0.42432
 20
3.7357700000000005
 30
0.0
 10
0.26938
 20
3.6722700000000001
 30
0.0
 10
0.17794
 20
3.5630500000000005
 30
0.0
 10
0.17794
 20
3.5630500000000005
 30
0.0
 10
0.09666
 20
3.6722700000000001
 30
0.0
 10
-0.05573
 20
3.7357700000000005
 30
0.0
 10
-0.20305
 20
3.6925900000000005
 30
0.0
 10
-0.20305
 20
3.6925900000000005
 30
0.0
 10
-0.37323
 20
3.6062300000000005
 30
0.0
 10
-0.29449
 20
3.4436700000000005
 30
0.0
 10
-0.14717
 20
3.4360500000000003
 30
0.0
 10
-0.14717
 20
3.4360500000000003
 30
0.0
 10
-0.25639
 20
3.3801700000000001
 30
0.0
 10
-0.40117
 20
3.4614500000000001
 30
0.0
 10
-0.42149
 20
3.5630500000000005
 30
0.0
 10
-0.42149
 20
3.5630500000000005
 30
0.0
 10
-0.39101
 20
3.6925900000000005
 30
0.0
 10
-0.23099
 20
3.7586300000000001
 30
0.0
 10
-0.08367
 20
3.7357700000000005
 30
0.0
 10
-0.08367
 20
3.7357700000000005
 30
0.0
 10
-0.01255
 20
3.7357700000000005
 30
0.0
 10
0.05856
 20
3.7484700000000002
 30
0.0
 10
0.10682
 20
3.6925900000000005
 30
0.0
 10
0.10682
 20
3.6925900000000005
 30
0.0
 10
0.10682
 20
3.6925900000000005
 30
0.0
 10
0.21604
 20
3.6824300000000001
 30
0.0
 10
0.21604
 20
3.6824300000000001
 30
0.0
 10
0.21604
 20
3.6824300000000001
 30
0.0
 10
0.25414
 20
3.7154500000000001
 30
0.0
 10
0.28208
 20
3.7484700000000002
 30
0.0
 10
0.33034
 20
3.7586300000000001
 30
0.0
  0
SPLINE
  5
3D
100
AcDbEntity
  8
Ebene 1
 62
     7
100
AcDbSpline
210
0.0
220
0.0
230
1.0
 70
     1
 71
     3
 72
    12
 73
     8
 74
     0
 42
0.0000000001
 43
0.0000000001
 40
0.0
 40
0.0
 40
0.0
 40
0.0
 40
0.5
 40
0.5
 40
0.5
 40
0.5
 40
1.0
 40
1.0
 40
1.0
 40
1.0
 10
0.4319400000000001
 20
3.6722700000000001
 30
0.0
 10
0.50814
 20
3.6824300000000001
 30
0.0
 10
0.64276
 20
3.6062300000000005
 30
0.0
 10
0.5411600000000001
 20
3.5452700000000004
 30
0.0
 10
0.5411600000000001
 20
3.5452700000000004
 30
0.0
 10
0.4548
 20
3.5173300000000003
 30
0.0
 10
0.3278
 20
3.6189300000000002
 30
0.0
 10
0.4319400000000001
 20
3.6722700000000001
 30
0.0
  0
SPLINE
  5
3E
100
AcDbEntity
  8
Ebene 1
 62
     7
100
AcDbSpline
210
0.0
220
0.0
230
1.0
 70
     1
 71
     3
 72
    20
 73
    16
 74
     0
 42
0.0000000001
 43
0.0000000001
 40
0.0
 40
0.0
 40
0.0
 40
0.0
 40
0.25
 40
0.25
 40
0.25
 40
0.25
 40
0.5
 40
0.5
 40
0.5
 40
0.5
 40
0.75
 40
0.75
 40
0.75
 40
0.75
 40
1.0
 40
1.0
 40
1.0
 40
1.0
 10
0.33034
 20
3.6290900000000001
 30
0.0
 10
0.33034
 20
3.6290900000000001
 30
0.0
 10
0.3659
 20
2.4073500000000001
 30
0.0
 10
0.3659
 20
2.4073500000000001
 30
0.0
 10
0.3659
 20
2.4073500000000001
 30
0.0
 10
0.3278
 20
2.38449
 30
0.0
 10
0.2897
 20
2.3565500000000004
 30
0.0
 10
0.24144
 20
2.3514700000000004
 30
0.0
 10
0.24144
 20
2.3514700000000004
 30
0.0
 10
0.22366
 20
2.7172300000000003
 30
0.0
 10
0.21096
 20
3.1236300000000004
 30
0.0
 10
0.20842
 20
3.5071700000000003
 30
0.0
 10
0.20842
 20
3.5071700000000003
 30
0.0
 10
0.20842
 20
3.5071700000000003
 30
0.0
 10
0.33034
 20
3.6290900000000001
 30
0.0
 10
0.33034
 20
3.6290900000000001
 30
0.0
  0
SPLINE
  5
3F
100
AcDbEntity
  8
Ebene 1
 62
     7
100
AcDbSpline
210
0.0
220
0.0
230
1.0
 70
     1
 71
     3
 72
    80
 73
    76
 74
     0
 42
0.0000000001
 43
0.0000000001
 40
0.0
 40
0.0
 40
0.0
 40
0.0
 40
0.0526315789473684
 40
0.0526315789473684
 40
0.0526315789473684
 40
0.0526315789473684
 40
0.1052631578947368
 40
0.1052631578947368
 40
0.1052631578947368
 40
0.1052631578947368
 40
0.1578947368421053
 40
0.1578947368421053
 40
0.1578947368421053
 40
0.1578947368421053
 40
0.2105263157894737
 40
0.2105263157894737
 40
0.2105263157894737
 40
0.2105263157894737
 40
0.2631578947368421
 40
0.2631578947368421
 40
0.2631578947368421
 40
0.2631578947368421
 40
0.3157894736842105
 40
0.3157894736842105
 40
0.3157894736842105
 40
0.3157894736842105
 40
0.3684210526315789
 40
0.3684210526315789
 40
0.3684210526315789
 40
0.3684210526315789
 40
0.4210526315789474
 40
0.4210526315789474
 40
0.4210526315789474
 40
0.4210526315789474
 40
0.4736842105263158
 40
0.4736842105263158
 40
0.4736842105263158
 40
0.4736842105263158
 40
0.5263157894736842
 40
0.5263157894736842
 40
0.5263157894736842
 40
0.5263157894736842
 40
0.5789473684210527
 40
0.5789473684210527
 40
0.5789473684210527
 40
0.5789473684210527
 40
0.631578947368421
 40
0.631578947368421
 40
0.631578947368421
 40
0.631578947368421
 40
0.6842105263157894
 40
0.6842105263157894
 40
0.6842105263157894
 40
0.6842105263157894
 40
0.7368421052631577
 40
0.7368421052631577
 40
0.7368421052631577
 40
0.7368421052631577
 40
0.7894736842105261
 40
0.7894736842105261
 40
0.7894736842105261
 40
0.7894736842105261
 40
0.8421052631578945
 40
0.8421052631578945
 40
0.8421052631578945
 40
0.8421052631578945
 40
0.8947368421052628
 40
0.8947368421052628
 40
0.8947368421052628
 40
0.8947368421052628
 40
0.9473684210526312
 40
0.9473684210526312
 40
0.9473684210526312
 40
0.9473684210526312
 40
1.0
 40
1.0
 40
1.0
 40
1.0
 10
-0.63993
 20
3.1795100000000001
 30
0.0
 10
-0.46213
 20
3.0271100000000004
 30
0.0
 10
-0.28433
 20
3.3319100000000001
 30
0.0
 10
-0.20813
 20
3.0423500000000003
 30
0.0
 10
-0.20813
 20
3.0423500000000003
 30
0.0
 10
-0.67549
 20
3.0779100000000001
 30
0.0
 10
-0.8202700000000001
 20
2.6664300000000001
 30
0.0
 10
-1.12507
 20
2.4251300000000002
 30
0.0
 10
-1.12507
 20
2.4251300000000002
 30
0.0
 10
-1.04379
 20
2.3616300000000003
 30
0.0
 10
-0.9701300000000001
 20
2.5191100000000004
 30
0.0
 10
-0.88885
 20
2.5318100000000001
 30
0.0
 10
-0.88885
 20
2.5318100000000001
 30
0.0
 10
-0.8558300000000001
 20
2.3997300000000004
 30
0.0
 10
-0.9269500000000001
 20
2.3819500000000002
 30
0.0
 10
-1.0133100000000002
 20
2.3819500000000002
 30
0.0
 10
-1.0133100000000002
 20
2.3819500000000002
 30
0.0
 10
-1.0133100000000002
 20
2.3819500000000002
 30
0.0
 10
-0.50531
 20
1.9780900000000001
 30
0.0
 10
-0.50531
 20
1.9780900000000001
 30
0.0
 10
-0.50531
 20
1.9780900000000001
 30
0.0
 10
-0.50531
 20
1.9780900000000001
 30
0.0
 10
-0.44435
 20
2.0669900000000001
 30
0.0
 10
-0.44435
 20
2.0669900000000001
 30
0.0
 10
-0.44435
 20
2.0669900000000001
 30
0.0
 10
-0.43419
 20
1.9831700000000001
 30
0.0
 10
-0.3427500000000001
 20
1.9806300000000001
 30
0.0
 10
-0.26909
 20
2.0263500000000003
 30
0.0
 10
-0.26909
 20
2.0263500000000003
 30
0.0
 10
-0.21575
 20
2.0136500000000002
 30
0.0
 10
-0.28179
 20
1.9552300000000002
 30
0.0
 10
-0.28179
 20
1.9171300000000002
 30
0.0
 10
-0.28179
 20
1.9171300000000002
 30
0.0
 10
-0.50531
 20
1.8739500000000002
 30
0.0
 10
-0.49769
 20
1.8739500000000002
 30
0.0
 10
-0.59167
 20
1.8637900000000001
 30
0.0
 10
-0.59167
 20
1.8637900000000001
 30
0.0
 10
-0.82789
 20
1.9323700000000001
 30
0.0
 10
-0.9675900000000001
 20
2.1177900000000003
 30
0.0
 10
-1.2215900000000002
 20
2.08731
 30
0.0
 10
-1.2215900000000002
 20
2.08731
 30
0.0
 10
-1.54417
 20
1.6072500000000001
 30
0.0
 10
-1.4501900000000001
 20
0.8046100000000001
 30
0.0
 10
-0.7262900000000001
 20
0.65729
 30
0.0
 10
-0.7262900000000001
 20
0.65729
 30
0.0
 10
-0.7262900000000001
 20
0.65729
 30
0.0
 10
-0.5992900000000001
 20
0.56077
 30
0.0
 10
-0.5992900000000001
 20
0.56077
 30
0.0
 10
-0.5992900000000001
 20
0.56077
 30
0.0
 10
-0.5459500000000001
 20
0.43377
 30
0.0
 10
-0.6069100000000001
 20
0.30677
 30
0.0
 10
-0.7262900000000001
 20
0.23057
 30
0.0
 10
-0.7262900000000001
 20
0.23057
 30
0.0
 10
-1.6610100000000001
 20
0.03245
 30
0.0
 10
-2.1766300000000003
 20
0.8782700000000001
 30
0.0
 10
-1.9505700000000001
 20
1.5462900000000002
 30
0.0
 10
-1.9505700000000001
 20
1.5462900000000002
 30
0.0
 10
-1.8692900000000001
 20
1.7875900000000002
 30
0.0
 10
-1.6991100000000001
 20
2.1050900000000001
 30
0.0
 10
-1.4044700000000001
 20
2.2016100000000001
 30
0.0
 10
-1.4044700000000001
 20
2.2016100000000001
 30
0.0
 10
-1.5543300000000002
 20
2.26003
 30
0.0
 10
-1.54925
 20
2.3590900000000001
 30
0.0
 10
-1.5136900000000002
 20
2.4556100000000001
 30
0.0
 10
-1.5136900000000002
 20
2.4556100000000001
 30
0.0
 10
-1.4933700000000001
 20
2.50387
 30
0.0
 10
-1.4425700000000001
 20
2.6130900000000001
 30
0.0
 10
-1.3409700000000002
 20
2.6232500000000001
 30
0.0
 10
-1.3409700000000002
 20
2.6232500000000001
 30
0.0
 10
-1.5949700000000002
 20
2.7654900000000002
 30
0.0
 10
-1.2342900000000001
 20
2.9966300000000001
 30
0.0
 10
-1.0158500000000001
 20
2.8950300000000002
 30
0.0
 10
-1.0158500000000001
 20
2.8950300000000002
 30
0.0
 10
-1.04379
 20
2.9864700000000002
 30
0.0
 10
-0.7974100000000001
 20
3.1160100000000002
 30
0.0
 10
-0.63993
 20
3.1795100000000001
 30
0.0
  0
SPLINE
  5
40
100
AcDbEntity
  8
Ebene 1
100
AcDbSpline
210
0.0
220
0.0
230
1.0
 70
     1
 71
     3
 72
    12
 73
     8
 74
     0
 42
0.0000000001
 43
0.0000000001
 40
0.0
 40
0.0
 40
0.0
 40
0.0
 40
0.5
 40
0.5
 40
0.5
 40
0.5
 40
1.0
 40
1.0
 40
1.0
 40
1.0
 10
-0.7034300000000001
 20
3.1287100000000003
 30
0.0
 10
-0.6246900000000001
 20
3.1515700000000004
 30
0.0
 10
-0.59421
 20
3.0423500000000003
 30
0.0
 10
-0.6653300000000001
 20
3.0194900000000002
 30
0.0
 10
-0.6653300000000001
 20
3.0194900000000002
 30
0.0
 10
-0.7516900000000001
 20
3.0220300000000004
 30
0.0
 10
-0.78217
 20
3.0931500000000001
 30
0.0
 10
-0.7034300000000001
 20
3.1287100000000003
 30
0.0
  0
SPLINE
  5
41
100
AcDbEntity
  8
Ebene 1
 62
     7
100
AcDbSpline
210
0.0
220
0.0
230
1.0
 70
     1
 71
     3
 72
    16
 73
    12
 74
     0
 42
0.0000000001
 43
0.0000000001
 40
0.0
 40
0.0
 40
0.0
 40
0.0
 40
0.3333333333333333
 40
0.3333333333333333
 40
0.3333333333333333
 40
0.3333333333333333
 40
0.6666666666666666
 40
0.6666666666666666
 40
0.6666666666666666
 40
0.6666666666666666
 40
1.0
 40
1.0
 40
1.0
 40
1.0
 10
-0.5230900000000001
 20
2.9559900000000003
 30
0.0
 10
-0.4062500000000001
 20
2.9559900000000003
 30
0.0
 10
-0.4392700000000001
 20
2.8137500000000002
 30
0.0
 10
-0.4367300000000001
 20
2.7426300000000001
 30
0.0
 10
-0.4367300000000001
 20
2.7426300000000001
 30
0.0
 10
-0.4367300000000001
 20
2.7426300000000001
 30
0.0
 10
-0.5586500000000001
 20
2.9128100000000003
 30
0.0
 10
-0.5586500000000001
 20
2.9128100000000003
 30
0.0
 10
-0.5586500000000001
 20
2.9128100000000003
 30
0.0
 10
-0.5586500000000001
 20
2.9128100000000003
 30
0.0
 10
-0.5230900000000001
 20
2.9559900000000003
 30
0.0
 10
-0.5230900000000001
 20
2.9559900000000003
 30
0.0
  0
SPLINE
  5
42
100
AcDbEntity
  8
Ebene 1
100
AcDbSpline
210
0.0
220
0.0
230
1.0
 70
     1
 71
     3
 72
    20
 73
    16
 74
     0
 42
0.0000000001
 43
0.0000000001
 40
0.0
 40
0.0
 40
0.0
 40
0.0
 40
0.25
 40
0.25
 40
0.25
 40
0.25
 40
0.5
 40
0.5
 40
0.5
 40
0.5
 40
0.75
 40
0.75
 40
0.75
 40
0.75
 40
1.0
 40
1.0
 40
1.0
 40
1.0
 10
-1.0641100000000001
 20
2.8696300000000003
 30
0.0
 10
-1.0641100000000001
 20
2.8696300000000003
 30
0.0
 10
-1.0285500000000001
 20
2.8670900000000001
 30
0.0
 10
-1.0285500000000001
 20
2.8670900000000001
 30
0.0
 10
-1.0285500000000001
 20
2.8670900000000001
 30
0.0
 10
-1.0615700000000001
 20
2.7477100000000001
 30
0.0
 10
-1.21143
 20
2.6029300000000002
 30
0.0
 10
-1.37399
 20
2.6892900000000002
 30
0.0
 10
-1.37399
 20
2.6892900000000002
 30
0.0
 10
-1.3943100000000002
 20
2.8213700000000004
 30
0.0
 10
-1.2165100000000002
 20
2.8620100000000002
 30
0.0
 10
-1.08951
 20
2.8467700000000002
 30
0.0
 10
-1.08951
 20
2.8467700000000002
 30
0.0
 10
-1.07681
 20
2.8493100000000005
 30
0.0
 10
-1.0666500000000001
 20
2.8594700000000004
 30
0.0
 10
-1.0641100000000001
 20
2.8696300000000003
 30
0.0
  0
SPLINE
  5
43
100
AcDbEntity
  8
Ebene 1
 62
     7
100
AcDbSpline
210
0.0
220
0.0
230
1.0
 70
     1
 71
     3
 72
    16
 73
    12
 74
     0
 42
0.0000000001
 43
0.0000000001
 40
0.0
 40
0.0
 40
0.0
 40
0.0
 40
0.3333333333333333
 40
0.3333333333333333
 40
0.3333333333333333
 40
0.3333333333333333
 40
0.6666666666666666
 40
0.6666666666666666
 40
0.6666666666666666
 40
0.6666666666666666
 40
1.0
 40
1.0
 40
1.0
 40
1.0
 10
-0.25893
 20
2.8696300000000003
 30
0.0
 10
-0.25893
 20
2.8696300000000003
 30
0.0
 10
-0.22337
 20
2.7096100000000001
 30
0.0
 10
-0.22337
 20
2.7096100000000001
 30
0.0
 10
-0.22337
 20
2.7096100000000001
 30
0.0
 10
-0.27163
 20
2.6892900000000002
 30
0.0
 10
-0.32751
 20
2.6689700000000003
 30
0.0
 10
-0.38085
 20
2.6689700000000003
 30
0.0
 10
-0.38085
 20
2.6689700000000003
 30
0.0
 10
-0.38085
 20
2.6689700000000003
 30
0.0
 10
-0.25893
 20
2.8696300000000003
 30
0.0
 10
-0.25893
 20
2.8696300000000003
 30
0.0
  0
SPLINE
  5
44
100
AcDbEntity
  8
Ebene 1
 62
     7
100
AcDbSpline
210
0.0
220
0.0
230
1.0
 70
     1
 71
     3
 72
    12
 73
     8
 74
     0
 42
0.0000000001
 43
0.0000000001
 40
0.0
 40
0.0
 40
0.0
 40
0.0
 40
0.5
 40
0.5
 40
0.5
 40
0.5
 40
1.0
 40
1.0
 40
1.0
 40
1.0
 10
-1.21397
 20
2.7832700000000004
 30
0.0
 10
-1.1580900000000001
 20
2.7959700000000001
 30
0.0
 10
-1.1555500000000001
 20
2.7426300000000001
 30
0.0
 10
-1.1911100000000001
 20
2.7223100000000002
 30
0.0
 10
-1.1911100000000001
 20
2.7223100000000002
 30
0.0
 10
-1.2241300000000002
 20
2.7273900000000002
 30
0.0
 10
-1.21143
 20
2.76295
 30
0.0
 10
-1.21397
 20
2.7832700000000004
 30
0.0
  0
SPLINE
  5
45
100
AcDbEntity
  8
Ebene 1
 62
     7
100
AcDbSpline
210
0.0
220
0.0
230
1.0
 70
     1
 71
     3
 72
     8
 73
     4
 74
     0
 42
0.0000000001
 43
0.0000000001
 40
0.0
 40
0.0
 40
0.0
 40
0.0
 40
1.0
 40
1.0
 40
1.0
 40
1.0
 10
-1.2774700000000001
 20
2.7502500000000003
 30
0.0
 10
-1.2012700000000001
 20
2.71469
 30
0.0
 10
-1.3282700000000001
 20
2.6867500000000004
 30
0.0
 10
-1.2774700000000001
 20
2.7502500000000003
 30
0.0
  0
SPLINE
  5
46
100
AcDbEntity
  8
Ebene 1
 62
     7
100
AcDbSpline
210
0.0
220
0.0
230
1.0
 70
     1
 71
     3
 72
   296
 73
   292
 74
     0
 42
0.0000000001
 43
0.0000000001
 40
0.0
 40
0.0
 40
0.0
 40
0.0
 40
0.0136986301369863
 40
0.0136986301369863
 40
0.0136986301369863
 40
0.0136986301369863
 40
0.0273972602739726
 40
0.0273972602739726
 40
0.0273972602739726
 40
0.0273972602739726
 40
0.0410958904109589
 40
0.0410958904109589
 40
0.0410958904109589
 40
0.0410958904109589
 40
0.0547945205479452
 40
0.0547945205479452
 40
0.0547945205479452
 40
0.0547945205479452
 40
0.0684931506849315
 40
0.0684931506849315
 40
0.0684931506849315
 40
0.0684931506849315
 40
0.0821917808219178
 40
0.0821917808219178
 40
0.0821917808219178
 40
0.0821917808219178
 40
0.0958904109589041
 40
0.0958904109589041
 40
0.0958904109589041
 40
0.0958904109589041
 40
0.1095890410958904
 40
0.1095890410958904
 40
0.1095890410958904
 40
0.1095890410958904
 40
0.1232876712328767
 40
0.1232876712328767
 40
0.1232876712328767
 40
0.1232876712328767
 40
0.136986301369863
 40
0.136986301369863
 40
0.136986301369863
 40
0.136986301369863
 40
0.1506849315068493
 40
0.1506849315068493
 40
0.1506849315068493
 40
0.1506849315068493
 40
0.1643835616438356
 40
0.1643835616438356
 40
0.1643835616438356
 40
0.1643835616438356
 40
0.1780821917808219
 40
0.1780821917808219
 40
0.1780821917808219
 40
0.1780821917808219
 40
0.1917808219178082
 40
0.1917808219178082
 40
0.1917808219178082
 40
0.1917808219178082
 40
0.2054794520547945
 40
0.2054794520547945
 40
0.2054794520547945
 40
0.2054794520547945
 40
0.2191780821917808
 40
0.2191780821917808
 40
0.2191780821917808
 40
0.2191780821917808
 40
0.2328767123287671
 40
0.2328767123287671
 40
0.2328767123287671
 40
0.2328767123287671
 40
0.2465753424657534
 40
0.2465753424657534
 40
0.2465753424657534
 40
0.2465753424657534
 40
0.2602739726027397
 40
0.2602739726027397
 40
0.2602739726027397
 40
0.2602739726027397
 40
0.273972602739726
 40
0.273972602739726
 40
0.273972602739726
 40
0.273972602739726
 40
0.2876712328767123
 40
0.2876712328767123
 40
0.2876712328767123
 40
0.2876712328767123
 40
0.3013698630136986
 40
0.3013698630136986
 40
0.3013698630136986
 40
0.3013698630136986
 40
0.3150684931506849
 40
0.3150684931506849
 40
0.3150684931506849
 40
0.3150684931506849
 40
0.3287671232876712
 40
0.3287671232876712
 40
0.3287671232876712
 40
0.3287671232876712
 40
0.3424657534246575
 40
0.3424657534246575
 40
0.3424657534246575
 40
0.3424657534246575
 40
0.3561643835616438
 40
0.3561643835616438
 40
0.3561643835616438
 40
0.3561643835616438
 40
0.3698630136986301
 40
0.3698630136986301
 40
0.3698630136986301
 40
0.3698630136986301
 40
0.3835616438356164
 40
0.3835616438356164
 40
0.3835616438356164
 40
0.3835616438356164
 40
0.3972602739726027
 40
0.3972602739726027
 40
0.3972602739726027
 40
0.3972602739726027
 40
0.410958904109589
 40
0.410958904109589
 40
0.410958904109589
 40
0.410958904109589
 40
0.4246575342465753
 40
0.4246575342465753
 40
0.4246575342465753
 40
0.4246575342465753
 40
0.4383561643835616
 40
0.4383561643835616
 40
0.4383561643835616
 40
0.4383561643835616
 40
0.4520547945205479
 40
0.4520547945205479
 40
0.4520547945205479
 40
0.4520547945205479
 40
0.4657534246575342
 40
0.4657534246575342
 40
0.4657534246575342
 40
0.4657534246575342
 40
0.4794520547945205
 40
0.4794520547945205
 40
0.4794520547945205
 40
0.4794520547945205
 40
0.4931506849315068
 40
0.4931506849315068
 40
0.4931506849315068
 40
0.4931506849315068
 40
0.5068493150684932
 40
0.5068493150684932
 40
0.5068493150684932
 40
0.5068493150684932
 40
0.5205479452054795
 40
0.5205479452054795
 40
0.5205479452054795
 40
0.5205479452054795
 40
0.5342465753424659
 40
0.5342465753424659
 40
0.5342465753424659
 40
0.5342465753424659
 40
0.5479452054794523
 40
0.5479452054794523
 40
0.5479452054794523
 40
0.5479452054794523
 40
0.5616438356164386
 40
0.5616438356164386
 40
0.5616438356164386
 40
0.5616438356164386
 40
0.575342465753425
 40
0.575342465753425
 40
0.575342465753425
 40
0.575342465753425
 40
0.5890410958904113
 40
0.5890410958904113
 40
0.5890410958904113
 40
0.5890410958904113
 40
0.6027397260273977
 40
0.6027397260273977
 40
0.6027397260273977
 40
0.6027397260273977
 40
0.616438356164384
 40
0.616438356164384
 40
0.616438356164384
 40
0.616438356164384
 40
0.6301369863013704
 40
0.6301369863013704
 40
0.6301369863013704
 40
0.6301369863013704
 40
0.6438356164383567
 40
0.6438356164383567
 40
0.6438356164383567
 40
0.6438356164383567
 40
0.6575342465753431
 40
0.6575342465753431
 40
0.6575342465753431
 40
0.6575342465753431
 40
0.6712328767123295
 40
0.6712328767123295
 40
0.6712328767123295
 40
0.6712328767123295
 40
0.6849315068493158
 40
0.6849315068493158
 40
0.6849315068493158
 40
0.6849315068493158
 40
0.6986301369863022
 40
0.6986301369863022
 40
0.6986301369863022
 40
0.6986301369863022
 40
0.7123287671232885
 40
0.7123287671232885
 40
0.7123287671232885
 40
0.7123287671232885
 40
0.7260273972602749
 40
0.7260273972602749
 40
0.7260273972602749
 40
0.7260273972602749
 40
0.7397260273972612
 40
0.7397260273972612
 40
0.7397260273972612
 40
0.7397260273972612
 40
0.7534246575342476
 40
0.7534246575342476
 40
0.7534246575342476
 40
0.7534246575342476
 40
0.7671232876712339
 40
0.7671232876712339
 40
0.7671232876712339
 40
0.7671232876712339
 40
0.7808219178082203
 40
0.7808219178082203
 40
0.7808219178082203
 40
0.7808219178082203
 40
0.7945205479452067
 40
0.7945205479452067
 40
0.7945205479452067
 40
0.7945205479452067
 40
0.808219178082193
 40
0.808219178082193
 40
0.808219178082193
 40
0.808219178082193
 40
0.8219178082191794
 40
0.8219178082191794
 40
0.8219178082191794
 40
0.8219178082191794
 40
0.8356164383561657
 40
0.8356164383561657
 40
0.8356164383561657
 40
0.8356164383561657
 40
0.8493150684931521
 40
0.8493150684931521
 40
0.8493150684931521
 40
0.8493150684931521
 40
0.8630136986301384
 40
0.8630136986301384
 40
0.8630136986301384
 40
0.8630136986301384
 40
0.8767123287671248
 40
0.8767123287671248
 40
0.8767123287671248
 40
0.8767123287671248
 40
0.8904109589041112
 40
0.8904109589041112
 40
0.8904109589041112
 40
0.8904109589041112
 40
0.9041095890410975
 40
0.9041095890410975
 40
0.9041095890410975
 40
0.9041095890410975
 40
0.9178082191780839
 40
0.9178082191780839
 40
0.9178082191780839
 40
0.9178082191780839
 40
0.9315068493150702
 40
0.9315068493150702
 40
0.9315068493150702
 40
0.9315068493150702
 40
0.9452054794520566
 40
0.9452054794520566
 40
0.9452054794520566
 40
0.9452054794520566
 40
0.9589041095890429
 40
0.9589041095890429
 40
0.9589041095890429
 40
0.9589041095890429
 40
0.9726027397260293
 40
0.9726027397260293
 40
0.9726027397260293
 40
0.9726027397260293
 40
0.9863013698630156
 40
0.9863013698630156
 40
0.9863013698630156
 40
0.9863013698630156
 40
1.0
 40
1.0
 40
1.0
 40
1.0
 10
-0.05827
 20
2.6867500000000004
 30
0.0
 10
0.24398
 20
2.5699100000000001
 30
0.0
 10
-0.19035
 20
2.3260700000000001
 30
0.0
 10
-0.14209
 20
2.13557
 30
0.0
 10
-0.14209
 20
2.13557
 30
0.0
 10
0.15254
 20
2.46069
 30
0.0
 10
0.05856
 20
1.9501500000000001
 30
0.0
 10
0.00268
 20
1.5920100000000001
 30
0.0
 10
0.00268
 20
1.5920100000000001
 30
0.0
 10
-0.01255
 20
1.4954900000000002
 30
0.0
 10
-0.03795
 20
1.35833
 30
0.0
 10
0.04078
 20
1.3532500000000001
 30
0.0
 10
0.04078
 20
1.3532500000000001
 30
0.0
 10
0.04078
 20
1.3532500000000001
 30
0.0
 10
0.04332
 20
1.5361300000000002
 30
0.0
 10
0.04332
 20
1.5361300000000002
 30
0.0
 10
0.04332
 20
1.5361300000000002
 30
0.0
 10
0.23128
 20
1.5081900000000001
 30
0.0
 10
0.14492
 20
1.2033900000000002
 30
0.0
 10
0.26684
 20
1.11449
 30
0.0
 10
0.26684
 20
1.11449
 30
0.0
 10
0.3151000000000001
 20
1.3126100000000001
 30
0.0
 10
0.10428
 20
1.5488300000000002
 30
0.0
 10
0.15254
 20
1.7444100000000002
 30
0.0
 10
0.15254
 20
1.7444100000000002
 30
0.0
 10
0.15254
 20
1.7444100000000002
 30
0.0
 10
0.24144
 20
1.8942700000000001
 30
0.0
 10
0.24144
 20
1.8942700000000001
 30
0.0
 10
0.24144
 20
1.8942700000000001
 30
0.0
 10
-0.05827
 20
2.22193
 30
0.0
 10
0.67832
 20
2.59531
 30
0.0
 10
0.7545200000000001
 20
2.1101700000000001
 30
0.0
 10
0.7545200000000001
 20
2.1101700000000001
 30
0.0
 10
0.86882
 20
1.9882500000000001
 30
0.0
 10
0.99582
 20
2.0415900000000002
 30
0.0
 10
0.8002400000000001
 20
2.12541
 30
0.0
 10
0.8002400000000001
 20
2.12541
 30
0.0
 10
0.8002400000000001
 20
2.12541
 30
0.0
 10
0.7799200000000001
 20
2.21685
 30
0.0
 10
0.7799200000000001
 20
2.21685
 30
0.0
 10
0.7799200000000001
 20
2.21685
 30
0.0
 10
0.6732400000000001
 20
2.4098900000000003
 30
0.0
 10
0.912
 20
2.1914500000000001
 30
0.0
 10
0.9805800000000001
 20
2.1431900000000002
 30
0.0
 10
0.9805800000000001
 20
2.1431900000000002
 30
0.0
 10
1.0110600000000001
 20
2.4556100000000001
 30
0.0
 10
0.3151000000000001
 20
2.2828900000000001
 30
0.0
 10
0.39638
 20
2.6410300000000002
 30
0.0
 10
0.39638
 20
2.6410300000000002
 30
0.0
 10
1.7476600000000002
 20
2.8924900000000004
 30
0.0
 10
2.2505800000000002
 20
1.1805300000000001
 30
0.0
 10
1.8772000000000002
 20
0.35503
 30
0.0
 10
1.8772000000000002
 20
0.35503
 30
0.0
 10
1.7705200000000001
 20
0.4210700000000001
 30
0.0
 10
1.8543400000000001
 20
0.65729
 30
0.0
 10
1.7502000000000002
 20
0.65983
 30
0.0
 10
1.7502000000000002
 20
0.65983
 30
0.0
 10
1.6714600000000002
 20
0.31947
 30
0.0
 10
1.8365600000000002
 20
0.02483
 30
0.0
 10
1.8492600000000001
 20
-0.26726
 30
0.0
 10
1.8492600000000001
 20
-0.26726
 30
0.0
 10
1.7044800000000002
 20
-0.35616
 30
0.0
 10
1.44286
 20
-0.29266
 30
0.0
 10
1.3514200000000001
 20
-0.4171200000000001
 30
0.0
 10
1.3514200000000001
 20
-0.4171200000000001
 30
0.0
 10
1.7019400000000002
 20
-0.3206000000000001
 30
0.0
 10
1.5114400000000001
 20
-0.4272800000000001
 30
0.0
 10
1.3107800000000001
 20
-0.55174
 30
0.0
 10
1.3107800000000001
 20
-0.55174
 30
0.0
 10
1.0898000000000001
 20
-0.3714
 30
0.0
 10
0.5233800000000001
 20
-0.5873
 30
0.0
 10
0.82564
 20
-0.5746
 30
0.0
 10
0.82564
 20
-0.5746
 30
0.0
 10
0.7367400000000001
 20
-0.7778000000000001
 30
0.0
 10
0.7469
 20
-0.9352800000000001
 30
0.0
 10
0.8840600000000001
 20
-0.6711200000000001
 30
0.0
 10
0.8840600000000001
 20
-0.6711200000000001
 30
0.0
 10
0.8840600000000001
 20
-0.6711200000000001
 30
0.0
 10
0.82564
 20
-0.9987800000000001
 30
0.0
 10
0.82564
 20
-0.9987800000000001
 30
0.0
 10
0.82564
 20
-0.9987800000000001
 30
0.0
 10
0.8942200000000001
 20
-1.0572000000000001
 30
0.0
 10
0.93486
 20
-0.84638
 30
0.0
 10
0.9577200000000001
 20
-1.0826
 30
0.0
 10
0.9577200000000001
 20
-1.0826
 30
0.0
 10
0.9729600000000001
 20
-1.1588000000000001
 30
0.0
 10
0.8993000000000001
 20
-1.21214
 30
0.0
 10
0.93232
 20
-1.2858000000000001
 30
0.0
 10
0.93232
 20
-1.2858000000000001
 30
0.0
 10
0.8840600000000001
 20
-1.3264400000000001
 30
0.0
 10
0.9043800000000001
 20
-1.25278
 30
0.0
 10
0.8840600000000001
 20
-1.2350000000000001
 30
0.0
 10
0.8840600000000001
 20
-1.2350000000000001
 30
0.0
 10
0.8662800000000001
 20
-0.86416
 30
0.0
 10
0.8002400000000001
 20
-1.8877800000000002
 30
0.0
 10
0.74436
 20
-1.3848600000000002
 30
0.0
 10
0.74436
 20
-1.3848600000000002
 30
0.0
 10
0.7494400000000001
 20
-1.3620000000000001
 30
0.0
 10
0.74182
 20
-1.2756400000000001
 30
0.0
 10
0.7291200000000001
 20
-1.3391400000000002
 30
0.0
 10
0.7291200000000001
 20
-1.3391400000000002
 30
0.0
 10
0.6884800000000001
 20
-1.4788400000000002
 30
0.0
 10
0.7773800000000001
 20
-1.66934
 30
0.0
 10
0.63514
 20
-1.5067800000000002
 30
0.0
 10
0.63514
 20
-1.5067800000000002
 30
0.0
 10
0.48782
 20
-1.8369800000000001
 30
0.0
 10
0.5386200000000001
 20
-1.1054600000000001
 30
0.0
 10
0.4827400000000001
 20
-1.50424
 30
0.0
 10
0.4827400000000001
 20
-1.50424
 30
0.0
 10
0.4827400000000001
 20
-1.50424
 30
0.0
 10
0.5056000000000001
 20
-1.6236200000000001
 30
0.0
 10
0.5056000000000001
 20
-1.6236200000000001
 30
0.0
 10
0.5056000000000001
 20
-1.6236200000000001
 30
0.0
 10
0.4827400000000001
 20
-1.5779000000000001
 30
0.0
 10
0.42178
 20
-1.4864600000000001
 30
0.0
 10
0.37606
 20
-1.5779000000000001
 30
0.0
 10
0.37606
 20
-1.5779000000000001
 30
0.0
 10
0.3455800000000001
 20
-1.6007600000000002
 30
0.0
 10
0.3278
 20
-1.63124
 30
0.0
 10
0.3278
 20
-1.6642600000000001
 30
0.0
 10
0.3278
 20
-1.6642600000000001
 30
0.0
 10
0.2389
 20
-1.9462000000000002
 30
0.0
 10
0.29732
 20
-1.2680200000000001
 30
0.0
 10
0.19826
 20
-1.4534400000000001
 30
0.0
 10
0.19826
 20
-1.4534400000000001
 30
0.0
 10
0.19826
 20
-1.4534400000000001
 30
0.0
 10
0.2135
 20
-1.54488
 30
0.0
 10
0.2135
 20
-1.54488
 30
0.0
 10
0.2135
 20
-1.54488
 30
0.0
 10
0.15
 20
-1.5372600000000001
 30
0.0
 10
0.10682
 20
-1.5626600000000002
 30
0.0
 10
0.09412
 20
-1.6160000000000001
 30
0.0
 10
0.09412
 20
-1.6160000000000001
 30
0.0
 10
0.02554
 20
-1.7836400000000001
 30
0.0
 10
0.01792
 20
-1.2197600000000002
 30
0.0
 10
0.00268
 20
-1.5194800000000002
 30
0.0
 10
0.00268
 20
-1.5194800000000002
 30
0.0
 10
0.00268
 20
-1.5194800000000002
 30
0.0
 10
0.02808
 20
-1.6236200000000001
 30
0.0
 10
0.02808
 20
-1.6236200000000001
 30
0.0
 10
0.02808
 20
-1.6236200000000001
 30
0.0
 10
0.01792
 20
-1.6998200000000001
 30
0.0
 10
0.023
 20
-1.7887200000000001
 30
0.0
 10
-0.00747
 20
-1.8522200000000002
 30
0.0
 10
-0.00747
 20
-1.8522200000000002
 30
0.0
 10
-0.04303
 20
-1.6998200000000001
 30
0.0
 10
-0.11923
 20
-1.3467600000000002
 30
0.0
 10
-0.24115
 20
-1.6414000000000002
 30
0.0
 10
-0.24115
 20
-1.6414000000000002
 30
0.0
 10
-0.24115
 20
-1.6414000000000002
 30
0.0
 10
-0.23353
 20
-1.3112000000000001
 30
0.0
 10
-0.23353
 20
-1.3112000000000001
 30
0.0
 10
-0.23353
 20
-1.3112000000000001
 30
0.0
 10
-0.3021100000000001
 20
-1.4839200000000001
 30
0.0
 10
-0.24369
 20
-1.6363200000000002
 30
0.0
 10
-0.37069
 20
-1.46106
 30
0.0
 10
-0.37069
 20
-1.46106
 30
0.0
 10
-0.48499
 20
-1.6490200000000002
 30
0.0
 10
-0.4697500000000001
 20
-1.4255000000000002
 30
0.0
 10
-0.41133
 20
-1.3289800000000001
 30
0.0
 10
-0.41133
 20
-1.3289800000000001
 30
0.0
 10
-0.40117
 20
-1.2604000000000002
 30
0.0
 10
-0.36815
 20
-1.1969000000000001
 30
0.0
 10
-0.33513
 20
-1.1334000000000002
 30
0.0
 10
-0.33513
 20
-1.1334000000000002
 30
0.0
 10
-0.40879
 20
-1.11816
 30
0.0
 10
-0.43419
 20
-1.3670800000000001
 30
0.0
 10
-0.5815100000000001
 20
-1.37216
 30
0.0
 10
-0.5815100000000001
 20
-1.37216
 30
0.0
 10
-0.57643
 20
-1.2985000000000002
 30
0.0
 10
-0.5383300000000001
 20
-1.24516
 30
0.0
 10
-0.53071
 20
-1.1969000000000001
 30
0.0
 10
-0.53071
 20
-1.1969000000000001
 30
0.0
 10
-0.47483
 20
-0.90988
 30
0.0
 10
-0.38085
 20
-1.0216400000000001
 30
0.0
 10
-0.44689
 20
-0.6050800000000001
 30
0.0
 10
-0.44689
 20
-0.6050800000000001
 30
0.0
 10
-0.35037
 20
-0.6812800000000001
 30
0.0
 10
-0.40117
 20
-0.82352
 30
0.0
 10
-0.3325900000000001
 20
-0.90988
 30
0.0
 10
-0.3325900000000001
 20
-0.90988
 30
0.0
 10
-0.4164100000000001
 20
-0.63556
 30
0.0
 10
-0.05827
 20
-0.5746
 30
0.0
 10
-0.49769
 20
-0.47554
 30
0.0
 10
-0.49769
 20
-0.47554
 30
0.0
 10
-0.6856500000000001
 20
-0.6762
 30
0.0
 10
-0.88631
 20
-0.6025400000000001
 30
0.0
 10
-1.0717300000000001
 20
-0.42982
 30
0.0
 10
-1.0717300000000001
 20
-0.42982
 30
0.0
 10
-0.69581
 20
-0.4882400000000001
 30
0.0
 10
-0.7034300000000001
 20
-0.346
 30
0.0
 10
-0.9218700000000001
 20
-0.3968
 30
0.0
 10
-0.9218700000000001
 20
-0.3968
 30
0.0
 10
-1.1403100000000002
 20
-0.4145800000000001
 30
0.0
 10
-1.7930900000000001
 20
-0.26472
 30
0.0
 10
-1.29017
 20
0.13913
 30
0.0
 10
-1.29017
 20
0.13913
 30
0.0
 10
-1.07935
 20
0.14167
 30
0.0
 10
-0.58913
 20
-0.15042
 30
0.0
 10
-0.7948700000000001
 20
0.09341
 30
0.0
 10
-0.7948700000000001
 20
0.09341
 30
0.0
 10
-0.74407
 20
0.09595
 30
0.0
 10
-0.6907300000000001
 20
0.09341
 30
0.0
 10
-0.6475500000000001
 20
0.11627
 30
0.0
 10
-0.6475500000000001
 20
0.11627
 30
0.0
 10
-0.6475500000000001
 20
0.11627
 30
0.0
 10
-0.52563
 20
0.12643
 30
0.0
 10
-0.52563
 20
0.12643
 30
0.0
 10
-0.52563
 20
0.12643
 30
0.0
 10
-0.7339100000000001
 20
-0.18344
 30
0.0
 10
-0.26909
 20
0.17723
 30
0.0
 10
-0.23607
 20
0.33217
 30
0.0
 10
-0.23607
 20
0.33217
 30
0.0
 10
-0.19797
 20
0.24073
 30
0.0
 10
-0.21575
 20
0.08325
 30
0.0
 10
-0.25893
 20
0.00451
 30
0.0
 10
-0.25893
 20
0.00451
 30
0.0
 10
-0.32497
 20
-0.10978
 30
0.0
 10
-0.43165
 20
-0.1428
 30
0.0
 10
-0.36053
 20
-0.22408
 30
0.0
 10
-0.36053
 20
-0.22408
 30
0.0
 10
-0.04303
 20
0.14929
 30
0.0
 10
0.15762
 20
-0.38918
 30
0.0
 10
-0.07859
 20
-0.6406400000000001
 30
0.0
 10
-0.07859
 20
-0.6406400000000001
 30
0.0
 10
-0.24369
 20
-0.8971800000000001
 30
0.0
 10
-0.17511
 20
-1.2299200000000001
 30
0.0
 10
0.16524
 20
-0.9835400000000001
 30
0.0
 10
0.16524
 20
-0.9835400000000001
 30
0.0
 10
0.20588
 20
-1.2604000000000002
 30
0.0
 10
0.2262
 20
-1.1765800000000002
 30
0.0
 10
0.22112
 20
-0.9530600000000001
 30
0.0
 10
0.22112
 20
-0.9530600000000001
 30
0.0
 10
0.9069200000000001
 20
-1.28834
 30
0.0
 10
0.28716
 20
-0.44506
 30
0.0
 10
0.42178
 20
-0.19614
 30
0.0
 10
0.42178
 20
-0.19614
 30
0.0
 10
0.43702
 20
-0.1428
 30
0.0
 10
0.5030600000000001
 20
-0.0158
 30
0.0
 10
0.5665600000000001
 20
-0.0666
 30
0.0
 10
0.5665600000000001
 20
-0.0666
 30
0.0
 10
0.8815200000000001
 20
-0.4272800000000001
 30
0.0
 10
0.6300600000000001
 20
0.37789
 30
0.0
 10
0.5945
 20
0.28137
 30
0.0
 10
0.5945
 20
0.28137
 30
0.0
 10
0.61736
 20
0.10611
 30
0.0
 10
0.5183000000000001
 20
0.07055
 30
0.0
 10
0.43448
 20
0.15945
 30
0.0
 10
0.43448
 20
0.15945
 30
0.0
 10
0.5183000000000001
 20
-0.1936
 30
0.0
 10
0.38622
 20
-0.1047
 30
0.0
 10
0.11698
 20
-0.18598
 30
0.0
 10
0.11698
 20
-0.18598
 30
0.0
 10
0.10682
 20
-0.05136
 30
0.0
 10
-0.09891
 20
0.05531
 30
0.0
 10
-0.01001
 20
0.17977
 30
0.0
 10
-0.01001
 20
0.17977
 30
0.0
 10
-0.31735
 20
0.03753
 30
0.0
 10
-0.06081
 20
0.41853
 30
0.0
 10
0.08904
 20
0.4947300000000001
 30
0.0
 10
0.08904
 20
0.4947300000000001
 30
0.0
 10
-0.00493
 20
0.51251
 30
0.0
 10
-0.03287
 20
0.37535
 30
0.0
 10
-0.14463
 20
0.4109100000000001
 30
0.0
 10
-0.14463
 20
0.4109100000000001
 30
0.0
 10
-0.59167
 20
0.7538100000000001
 30
0.0
 10
-1.4476500000000001
 20
0.74873
 30
0.0
 10
-1.0260100000000001
 20
1.4294500000000001
 30
0.0
 10
-1.0260100000000001
 20
1.4294500000000001
 30
0.0
 10
-1.0539500000000002
 20
1.6377300000000001
 30
0.0
 10
-1.0996700000000001
 20
1.3278500000000002
 30
0.0
 10
-1.2012700000000001
 20
1.2973700000000001
 30
0.0
 10
-1.2012700000000001
 20
1.2973700000000001
 30
0.0
 10
-1.46035
 20
1.9679300000000002
 30
0.0
 10
-0.51039
 20
1.7037700000000002
 30
0.0
 10
-0.19543
 20
1.9171300000000002
 30
0.0
 10
-0.19543
 20
1.9171300000000002
 30
0.0
 10
-0.08875
 20
2.1939900000000003
 30
0.0
 10
-0.61199
 20
2.2041500000000003
 30
0.0
 10
-0.44689
 20
2.5546700000000002
 30
0.0
 10
-0.44689
 20
2.5546700000000002
 30
0.0
 10
-0.41895
 20
2.5368900000000001
 30
0.0
 10
-0.40117
 20
2.50387
 30
0.0
 10
-0.40879
 20
2.4683100000000002
 30
0.0
 10
-0.40879
 20
2.4683100000000002
 30
0.0
 10
-0.38085
 20
2.5267300000000001
 30
0.0
 10
-0.20305
 20
2.7400900000000004
 30
0.0
 10
-0.17257
 20
2.50387
 30
0.0
 10
-0.17257
 20
2.50387
 30
0.0
 10
-0.14463
 20
2.5724500000000003
 30
0.0
 10
-0.18527
 20
2.6969100000000004
 30
0.0
 10
-0.05827
 20
2.6867500000000004
 30
0.0
  0
SPLINE
  5
47
100
AcDbEntity
  8
Ebene 1
 62
     7
100
AcDbSpline
210
0.0
220
0.0
230
1.0
 70
     1
 71
     3
 72
    12
 73
     8
 74
     0
 42
0.0000000001
 43
0.0000000001
 40
0.0
 40
0.0
 40
0.0
 40
0.0
 40
0.5
 40
0.5
 40
0.5
 40
0.5
 40
1.0
 40
1.0
 40
1.0
 40
1.0
 10
-1.03871
 20
1.9603100000000002
 30
0.0
 10
-1.03871
 20
1.9603100000000002
 30
0.0
 10
-0.8532900000000001
 20
1.8764900000000002
 30
0.0
 10
-0.8532900000000001
 20
1.8764900000000002
 30
0.0
 10
-0.8532900000000001
 20
1.8764900000000002
 30
0.0
 10
-0.9193300000000001
 20
1.8282300000000002
 30
0.0
 10
-1.0260100000000001
 20
1.8968100000000001
 30
0.0
 10
-1.03871
 20
1.9603100000000002
 30
0.0
  0
SPLINE
  5
48
100
AcDbEntity
  8
Ebene 1
 62
     7
100
AcDbSpline
210
0.0
220
0.0
230
1.0
 70
     1
 71
     3
 72
    12
 73
     8
 74
     0
 42
0.0000000001
 43
0.0000000001
 40
0.0
 40
0.0
 40
0.0
 40
0.0
 40
0.5
 40
0.5
 40
0.5
 40
0.5
 40
1.0
 40
1.0
 40
1.0
 40
1.0
 10
-1.1377700000000002
 20
1.9044300000000001
 30
0.0
 10
-1.1377700000000002
 20
1.9044300000000001
 30
0.0
 10
-1.07935
 20
1.8434700000000002
 30
0.0
 10
-1.07935
 20
1.8434700000000002
 30
0.0
 10
-1.07935
 20
1.8434700000000002
 30
0.0
 10
-1.1098300000000001
 20
1.8409300000000002
 30
0.0
 10
-1.1453900000000001
 20
1.8764900000000002
 30
0.0
 10
-1.1377700000000002
 20
1.9044300000000001
 30
0.0
  0
SPLINE
  5
49
100
AcDbEntity
  8
Ebene 1
 62
     7
100
AcDbSpline
210
0.0
220
0.0
230
1.0
 70
     1
 71
     3
 72
    12
 73
     8
 74
     0
 42
0.0000000001
 43
0.0000000001
 40
0.0
 40
0.0
 40
0.0
 40
0.0
 40
0.5
 40
0.5
 40
0.5
 40
0.5
 40
1.0
 40
1.0
 40
1.0
 40
1.0
 10
-1.21397
 20
1.8180700000000001
 30
0.0
 10
-1.1961900000000001
 20
1.8079100000000001
 30
0.0
 10
-1.1606300000000001
 20
1.7901300000000002
 30
0.0
 10
-1.16571
 20
1.7672700000000001
 30
0.0
 10
-1.16571
 20
1.7672700000000001
 30
0.0
 10
-1.1936500000000001
 20
1.7723500000000001
 30
0.0
 10
-1.2241300000000002
 20
1.7901300000000002
 30
0.0
 10
-1.21397
 20
1.8180700000000001
 30
0.0
  0
SPLINE
  5
4A
100
AcDbEntity
  8
Ebene 1
 62
     7
100
AcDbSpline
210
0.0
220
0.0
230
1.0
 70
     1
 71
     3
 72
    12
 73
     8
 74
     0
 42
0.0000000001
 43
0.0000000001
 40
0.0
 40
0.0
 40
0.0
 40
0.0
 40
0.5
 40
0.5
 40
0.5
 40
0.5
 40
1.0
 40
1.0
 40
1.0
 40
1.0
 10
-1.2774700000000001
 20
1.7317100000000001
 30
0.0
 10
-1.25461
 20
1.7240900000000001
 30
0.0
 10
-1.2292100000000001
 20
1.7037700000000002
 30
0.0
 10
-1.2419100000000001
 20
1.6809100000000001
 30
0.0
 10
-1.2419100000000001
 20
1.6809100000000001
 30
0.0
 10
-1.2698500000000001
 20
1.6732900000000002
 30
0.0
 10
-1.3054100000000002
 20
1.7139300000000002
 30
0.0
 10
-1.2774700000000001
 20
1.7317100000000001
 30
0.0
  0
SPLINE
  5
4B
100
AcDbEntity
  8
Ebene 1
 62
     7
100
AcDbSpline
210
0.0
220
0.0
230
1.0
 70
     1
 71
     3
 72
    12
 73
     8
 74
     0
 42
0.0000000001
 43
0.0000000001
 40
0.0
 40
0.0
 40
0.0
 40
0.0
 40
0.5
 40
0.5
 40
0.5
 40
0.5
 40
1.0
 40
1.0
 40
1.0
 40
1.0
 10
-1.3409700000000002
 20
1.6250300000000002
 30
0.0
 10
-1.29017
 20
1.6199500000000002
 30
0.0
 10
-1.25207
 20
1.5793100000000002
 30
0.0
 10
-1.3155700000000001
 20
1.5589900000000001
 30
0.0
 10
-1.3155700000000001
 20
1.5589900000000001
 30
0.0
 10
-1.3638300000000001
 20
1.5640700000000001
 30
0.0
 10
-1.37907
 20
1.5945500000000001
 30
0.0
 10
-1.3409700000000002
 20
1.6250300000000002
 30
0.0
  0
SPLINE
  5
4C
100
AcDbEntity
  8
Ebene 1
100
AcDbSpline
210
0.0
220
0.0
230
1.0
 70
     1
 71
     3
 72
    24
 73
    20
 74
     0
 42
0.0000000001
 43
0.0000000001
 40
0.0
 40
0.0
 40
0.0
 40
0.0
 40
0.2
 40
0.2
 40
0.2
 40
0.2
 40
0.4
 40
0.4
 40
0.4
 40
0.4
 40
0.6000000000000001
 40
0.6000000000000001
 40
0.6000000000000001
 40
0.6000000000000001
 40
0.8
 40
0.8
 40
0.8
 40
0.8
 40
1.0
 40
1.0
 40
1.0
 40
1.0
 10
1.61304
 20
1.6250300000000002
 30
0.0
 10
1.6232000000000002
 20
1.6224900000000002
 30
0.0
 10
1.6486000000000001
 20
1.6301100000000002
 30
0.0
 10
1.6511400000000001
 20
1.61233
 30
0.0
 10
1.6511400000000001
 20
1.61233
 30
0.0
 10
1.6359000000000001
 20
1.3735700000000002
 30
0.0
 10
1.5800200000000002
 20
1.10433
 30
0.0
 10
1.6740000000000002
 20
0.8757300000000001
 30
0.0
 10
1.6740000000000002
 20
0.8757300000000001
 30
0.0
 10
1.6714600000000002
 20
0.8427100000000001
 30
0.0
 10
1.6841600000000001
 20
0.7995300000000001
 30
0.0
 10
1.6511400000000001
 20
0.7792100000000001
 30
0.0
 10
1.6511400000000001
 20
0.7792100000000001
 30
0.0
 10
1.6257400000000002
 20
0.8046100000000001
 30
0.0
 10
1.6155800000000002
 20
0.84779
 30
0.0
 10
1.6105
 20
0.8858900000000001
 30
0.0
 10
1.6105
 20
0.8858900000000001
 30
0.0
 10
1.39714
 20
1.10941
 30
0.0
 10
1.6181200000000002
 20
1.3735700000000002
 30
0.0
 10
1.61304
 20
1.6250300000000002
 30
0.0
  0
SPLINE
  5
4D
100
AcDbEntity
  8
Ebene 1
 62
     7
100
AcDbSpline
210
0.0
220
0.0
230
1.0
 70
     1
 71
     3
 72
    12
 73
     8
 74
     0
 42
0.0000000001
 43
0.0000000001
 40
0.0
 40
0.0
 40
0.0
 40
0.0
 40
0.5
 40
0.5
 40
0.5
 40
0.5
 40
1.0
 40
1.0
 40
1.0
 40
1.0
 10
-1.37653
 20
1.5361300000000002
 30
0.0
 10
-1.3460500000000002
 20
1.5462900000000002
 30
0.0
 10
-1.29017
 20
1.5056500000000002
 30
0.0
 10
-1.3282700000000001
 20
1.48787
 30
0.0
 10
-1.3282700000000001
 20
1.48787
 30
0.0
 10
-1.3714500000000001
 20
1.4675500000000001
 30
0.0
 10
-1.4120900000000001
 20
1.5081900000000001
 30
0.0
 10
-1.37653
 20
1.5361300000000002
 30
0.0
  0
SPLINE
  5
4E
100
AcDbEntity
  8
Ebene 1
100
AcDbSpline
210
0.0
220
0.0
230
1.0
 70
     1
 71
     3
 72
    24
 73
    20
 74
     0
 42
0.0000000001
 43
0.0000000001
 40
0.0
 40
0.0
 40
0.0
 40
0.0
 40
0.2
 40
0.2
 40
0.2
 40
0.2
 40
0.4
 40
0.4
 40
0.4
 40
0.4
 40
0.6000000000000001
 40
0.6000000000000001
 40
0.6000000000000001
 40
0.6000000000000001
 40
0.8
 40
0.8
 40
0.8
 40
0.8
 40
1.0
 40
1.0
 40
1.0
 40
1.0
 10
1.0974200000000001
 20
1.1805300000000001
 30
0.0
 10
1.1761600000000001
 20
1.19323
 30
0.0
 10
1.2142600000000001
 20
1.1322700000000001
 30
0.0
 10
1.27014
 20
1.10179
 30
0.0
 10
1.27014
 20
1.10179
 30
0.0
 10
1.27014
 20
1.10179
 30
0.0
 10
1.3336400000000002
 20
1.06877
 30
0.0
 10
1.3336400000000002
 20
1.06877
 30
0.0
 10
1.3336400000000002
 20
1.06877
 30
0.0
 10
1.3336400000000002
 20
1.06877
 30
0.0
 10
1.3336400000000002
 20
1.0408300000000001
 30
0.0
 10
1.3336400000000002
 20
1.0408300000000001
 30
0.0
 10
1.3336400000000002
 20
1.0408300000000001
 30
0.0
 10
1.2142600000000001
 20
1.02813
 30
0.0
 10
1.1583800000000002
 20
1.19069
 30
0.0
 10
1.0390000000000001
 20
1.1297300000000001
 30
0.0
 10
1.0390000000000001
 20
1.1297300000000001
 30
0.0
 10
1.0085200000000001
 20
1.1805300000000001
 30
0.0
 10
1.0771000000000002
 20
1.1602100000000002
 30
0.0
 10
1.0974200000000001
 20
1.1805300000000001
 30
0.0
  0
SPLINE
  5
4F
100
AcDbEntity
  8
Ebene 1
100
AcDbSpline
210
0.0
220
0.0
230
1.0
 70
     1
 71
     3
 72
    20
 73
    16
 74
     0
 42
0.0000000001
 43
0.0000000001
 40
0.0
 40
0.0
 40
0.0
 40
0.0
 40
0.25
 40
0.25
 40
0.25
 40
0.25
 40
0.5
 40
0.5
 40
0.5
 40
0.5
 40
0.75
 40
0.75
 40
0.75
 40
0.75
 40
1.0
 40
1.0
 40
1.0
 40
1.0
 10
-0.48499
 20
1.0916300000000001
 30
0.0
 10
-0.48499
 20
1.0916300000000001
 30
0.0
 10
0.05094
 20
0.7766700000000001
 30
0.0
 10
0.05094
 20
0.7766700000000001
 30
0.0
 10
0.05094
 20
0.7766700000000001
 30
0.0
 10
0.07888
 20
0.70555
 30
0.0
 10
0.07888
 20
0.6268100000000001
 30
0.0
 10
0.08904
 20
0.55315
 30
0.0
 10
0.08904
 20
0.55315
 30
0.0
 10
0.08904
 20
0.55315
 30
0.0
 10
0.05348
 20
0.57347
 30
0.0
 10
0.05348
 20
0.57347
 30
0.0
 10
0.05348
 20
0.57347
 30
0.0
 10
0.0865
 20
0.8630300000000001
 30
0.0
 10
-0.3757700000000001
 20
0.8808100000000001
 30
0.0
 10
-0.48499
 20
1.0916300000000001
 30
0.0
  0
SPLINE
  5
50
100
AcDbEntity
  8
Ebene 1
100
AcDbSpline
210
0.0
220
0.0
230
1.0
 70
     1
 71
     3
 72
    20
 73
    16
 74
     0
 42
0.0000000001
 43
0.0000000001
 40
0.0
 40
0.0
 40
0.0
 40
0.0
 40
0.25
 40
0.25
 40
0.25
 40
0.25
 40
0.5
 40
0.5
 40
0.5
 40
0.5
 40
0.75
 40
0.75
 40
0.75
 40
0.75
 40
1.0
 40
1.0
 40
1.0
 40
1.0
 10
0.6453000000000001
 20
0.9849500000000001
 30
0.0
 10
0.66054
 20
0.9900300000000001
 30
0.0
 10
0.6757800000000001
 20
0.97733
 30
0.0
 10
0.6707000000000001
 20
0.9620900000000001
 30
0.0
 10
0.6707000000000001
 20
0.9620900000000001
 30
0.0
 10
0.5437000000000001
 20
0.8427100000000001
 30
0.0
 10
0.3024
 20
0.78429
 30
0.0
 10
0.277
 20
0.6090300000000001
 30
0.0
 10
0.277
 20
0.6090300000000001
 30
0.0
 10
0.26684
 20
0.59633
 30
0.0
 10
0.24906
 20
0.5912500000000001
 30
0.0
 10
0.23382
 20
0.59887
 30
0.0
 10
0.23382
 20
0.59887
 30
0.0
 10
0.22112
 20
0.8046100000000001
 30
0.0
 10
0.5005200000000001
 20
0.8681100000000001
 30
0.0
 10
0.6453000000000001
 20
0.9849500000000001
 30
0.0
  0
SPLINE
  5
51
100
AcDbEntity
  8
Ebene 1
100
AcDbSpline
210
0.0
220
0.0
230
1.0
 70
     1
 71
     3
 72
    52
 73
    48
 74
     0
 42
0.0000000001
 43
0.0000000001
 40
0.0
 40
0.0
 40
0.0
 40
0.0
 40
0.0833333333333333
 40
0.0833333333333333
 40
0.0833333333333333
 40
0.0833333333333333
 40
0.1666666666666667
 40
0.1666666666666667
 40
0.1666666666666667
 40
0.1666666666666667
 40
0.25
 40
0.25
 40
0.25
 40
0.25
 40
0.3333333333333333
 40
0.3333333333333333
 40
0.3333333333333333
 40
0.3333333333333333
 40
0.4166666666666666
 40
0.4166666666666666
 40
0.4166666666666666
 40
0.4166666666666666
 40
0.4999999999999999
 40
0.4999999999999999
 40
0.4999999999999999
 40
0.4999999999999999
 40
0.5833333333333333
 40
0.5833333333333333
 40
0.5833333333333333
 40
0.5833333333333333
 40
0.6666666666666666
 40
0.6666666666666666
 40
0.6666666666666666
 40
0.6666666666666666
 40
0.75
 40
0.75
 40
0.75
 40
0.75
 40
0.8333333333333334
 40
0.8333333333333334
 40
0.8333333333333334
 40
0.8333333333333334
 40
0.9166666666666667
 40
0.9166666666666667
 40
0.9166666666666667
 40
0.9166666666666667
 40
1.0
 40
1.0
 40
1.0
 40
1.0
 10
1.1837800000000001
 20
0.70301
 30
0.0
 10
1.3285600000000002
 20
0.7131700000000001
 30
0.0
 10
1.4733400000000001
 20
0.68015
 30
0.0
 10
1.5978000000000001
 20
0.65729
 30
0.0
 10
1.5978000000000001
 20
0.65729
 30
0.0
 10
1.6155800000000002
 20
0.5912500000000001
 30
0.0
 10
1.4784200000000001
 20
0.6293500000000001
 30
0.0
 10
1.4733400000000001
 20
0.5836300000000001
 30
0.0
 10
1.4733400000000001
 20
0.5836300000000001
 30
0.0
 10
1.4758800000000001
 20
0.53537
 30
0.0
 10
1.4682600000000001
 20
0.48711
 30
0.0
 10
1.48604
 20
0.4439300000000001
 30
0.0
 10
1.48604
 20
0.4439300000000001
 30
0.0
 10
1.5114400000000001
 20
0.40583
 30
0.0
 10
1.5343000000000002
 20
0.37027
 30
0.0
 10
1.5241400000000001
 20
0.32455
 30
0.0
 10
1.5241400000000001
 20
0.32455
 30
0.0
 10
1.5419200000000002
 20
0.28899
 30
0.0
 10
1.56732
 20
0.35503
 30
0.0
 10
1.5978000000000001
 20
0.33217
 30
0.0
 10
1.5978000000000001
 20
0.33217
 30
0.0
 10
1.5038200000000002
 20
0.16707
 30
0.0
 10
1.3514200000000001
 20
-0.0158
 30
0.0
 10
1.11266
 20
-0.02342
 30
0.0
 10
1.11266
 20
-0.02342
 30
0.0
 10
1.11266
 20
-0.02342
 30
0.0
 10
1.11012
 20
-0.06406
 30
0.0
 10
1.11012
 20
-0.06406
 30
0.0
 10
1.11012
 20
-0.06406
 30
0.0
 10
0.86882
 20
-0.02088
 30
0.0
 10
0.6478400000000001
 20
0.16961
 30
0.0
 10
0.64276
 20
0.37535
 30
0.0
 10
0.64276
 20
0.37535
 30
0.0
 10
0.5183000000000001
 20
0.36265
 30
0.0
 10
0.3887600000000001
 20
0.40583
 30
0.0
 10
0.31764
 20
0.4744100000000001
 30
0.0
 10
0.31764
 20
0.4744100000000001
 30
0.0
 10
0.31764
 20
0.4744100000000001
 30
0.0
 10
0.40654
 20
0.48711
 30
0.0
 10
0.40654
 20
0.48711
 30
0.0
 10
0.40654
 20
0.48711
 30
0.0
 10
0.40654
 20
0.48711
 30
0.0
 10
0.5437000000000001
 20
0.4210700000000001
 30
0.0
 10
0.5437000000000001
 20
0.4210700000000001
 30
0.0
 10
0.5437000000000001
 20
0.4210700000000001
 30
0.0
 10
0.76468
 20
0.4972700000000001
 30
0.0
 10
0.95264
 20
0.66491
 30
0.0
 10
1.1837800000000001
 20
0.70301
 30
0.0
  0
SPLINE
  5
52
100
AcDbEntity
  8
Ebene 1
 62
     7
100
AcDbSpline
210
0.0
220
0.0
230
1.0
 70
     1
 71
     3
 72
    12
 73
     8
 74
     0
 42
0.0000000001
 43
0.0000000001
 40
0.0
 40
0.0
 40
0.0
 40
0.0
 40
0.5
 40
0.5
 40
0.5
 40
0.5
 40
1.0
 40
1.0
 40
1.0
 40
1.0
 10
0.99582
 20
0.3677300000000001
 30
0.0
 10
1.0263
 20
0.3677300000000001
 30
0.0
 10
1.0821800000000001
 20
0.35503
 30
0.0
 10
1.0821800000000001
 20
0.3270900000000001
 30
0.0
 10
1.0821800000000001
 20
0.3270900000000001
 30
0.0
 10
1.0517000000000001
 20
0.3169300000000001
 30
0.0
 10
0.9678800000000001
 20
0.33217
 30
0.0
 10
0.99582
 20
0.3677300000000001
 30
0.0
  0
SPLINE
  5
53
100
AcDbEntity
  8
Ebene 1
 62
     7
100
AcDbSpline
210
0.0
220
0.0
230
1.0
 70
     1
 71
     3
 72
    68
 73
    64
 74
     0
 42
0.0000000001
 43
0.0000000001
 40
0.0
 40
0.0
 40
0.0
 40
0.0
 40
0.0625
 40
0.0625
 40
0.0625
 40
0.0625
 40
0.125
 40
0.125
 40
0.125
 40
0.125
 40
0.1875
 40
0.1875
 40
0.1875
 40
0.1875
 40
0.25
 40
0.25
 40
0.25
 40
0.25
 40
0.3125
 40
0.3125
 40
0.3125
 40
0.3125
 40
0.375
 40
0.375
 40
0.375
 40
0.375
 40
0.4375
 40
0.4375
 40
0.4375
 40
0.4375
 40
0.5
 40
0.5
 40
0.5
 40
0.5
 40
0.5625
 40
0.5625
 40
0.5625
 40
0.5625
 40
0.625
 40
0.625
 40
0.625
 40
0.625
 40
0.6875
 40
0.6875
 40
0.6875
 40
0.6875
 40
0.75
 40
0.75
 40
0.75
 40
0.75
 40
0.8125
 40
0.8125
 40
0.8125
 40
0.8125
 40
0.875
 40
0.875
 40
0.875
 40
0.875
 40
0.9375
 40
0.9375
 40
0.9375
 40
0.9375
 40
1.0
 40
1.0
 40
1.0
 40
1.0
 10
1.1837800000000001
 20
-0.9962400000000001
 30
0.0
 10
1.2879200000000002
 20
-0.9860800000000001
 30
0.0
 10
1.3412600000000001
 20
-1.08006
 30
0.0
 10
1.3946000000000001
 20
-1.1384800000000002
 30
0.0
 10
1.3946000000000001
 20
-1.1384800000000002
 30
0.0
 10
1.7044800000000002
 20
-1.9843000000000002
 30
0.0
 10
0.57164
 20
-2.3272000000000004
 30
0.0
 10
-0.02779
 20
-2.7412200000000002
 30
0.0
 10
-0.02779
 20
-2.7412200000000002
 30
0.0
 10
-0.45197
 20
-3.1044400000000003
 30
0.0
 10
-0.40879
 20
-3.7445200000000005
 30
0.0
 10
0.02554
 20
-4.0848800000000001
 30
0.0
 10
0.02554
 20
-4.0848800000000001
 30
0.0
 10
0.023
 20
-4.1255200000000007
 30
0.0
 10
0.04332
 20
-4.1788600000000002
 30
0.0
 10
0.01284
 20
-4.2118800000000007
 30
0.0
 10
0.01284
 20
-4.2118800000000007
 30
0.0
 10
-0.3656100000000001
 20
-4.1712400000000001
 30
0.0
 10
-0.67549
 20
-3.8842200000000005
 30
0.0
 10
-0.84567
 20
-3.6048200000000001
 30
0.0
 10
-0.84567
 20
-3.6048200000000001
 30
0.0
 10
-1.0742700000000001
 20
-3.0460200000000004
 30
0.0
 10
-0.8355100000000001
 20
-2.3526000000000002
 30
0.0
 10
-0.21067
 20
-2.0706600000000002
 30
0.0
 10
-0.21067
 20
-2.0706600000000002
 30
0.0
 10
-0.18019
 20
-2.1468600000000002
 30
0.0
 10
-0.26401
 20
-2.31704
 30
0.0
 10
-0.14717
 20
-2.3246600000000002
 30
0.0
 10
-0.14717
 20
-2.3246600000000002
 30
0.0
 10
-0.09637
 20
-2.2002000000000002
 30
0.0
 10
-0.06589
 20
-2.05796
 30
0.0
 10
0.01538
 20
-1.9487400000000001
 30
0.0
 10
0.01538
 20
-1.9487400000000001
 30
0.0
 10
0.09158
 20
-2.0732000000000004
 30
0.0
 10
0.023
 20
-2.2941800000000003
 30
0.0
 10
0.12714
 20
-2.3830800000000001
 30
0.0
 10
0.12714
 20
-2.3830800000000001
 30
0.0
 10
0.12714
 20
-2.3830800000000001
 30
0.0
 10
0.29224
 20
-1.9919200000000001
 30
0.0
 10
0.29224
 20
-1.9919200000000001
 30
0.0
 10
0.29224
 20
-1.9919200000000001
 30
0.0
 10
0.3887600000000001
 20
-2.0909800000000001
 30
0.0
 10
0.33034
 20
-2.3348200000000001
 30
0.0
 10
0.45988
 20
-2.3627600000000002
 30
0.0
 10
0.45988
 20
-2.3627600000000002
 30
0.0
 10
0.5005200000000001
 20
-2.2256
 30
0.0
 10
0.55386
 20
-1.6464800000000002
 30
0.0
 10
0.658
 20
-2.0351000000000004
 30
0.0
 10
0.658
 20
-2.0351000000000004
 30
0.0
 10
0.7545200000000001
 20
-2.1113
 30
0.0
 10
0.7494400000000001
 20
-1.83952
 30
0.0
 10
0.7951600000000001
 20
-1.7760200000000002
 30
0.0
 10
0.7951600000000001
 20
-1.7760200000000002
 30
0.0
 10
0.89168
 20
-1.8496800000000002
 30
0.0
 10
0.80786
 20
-1.9970000000000001
 30
0.0
 10
0.86882
 20
-2.0757400000000001
 30
0.0
 10
0.86882
 20
-2.0757400000000001
 30
0.0
 10
0.9907400000000001
 20
-1.9106400000000001
 30
0.0
 10
0.9196200000000001
 20
-1.5499600000000002
 30
0.0
 10
1.0974200000000001
 20
-1.54742
 30
0.0
 10
1.0974200000000001
 20
-1.54742
 30
0.0
 10
1.0898000000000001
 20
-1.3620000000000001
 30
0.0
 10
0.9653400000000001
 20
-1.12578
 30
0.0
 10
1.1837800000000001
 20
-0.9962400000000001
 30
0.0
  0
SPLINE
  5
54
100
AcDbEntity
  8
Ebene 1
 62
     7
100
AcDbSpline
210
0.0
220
0.0
230
1.0
 70
     1
 71
     3
 72
    12
 73
     8
 74
     0
 42
0.0000000001
 43
0.0000000001
 40
0.0
 40
0.0
 40
0.0
 40
0.0
 40
0.5
 40
0.5
 40
0.5
 40
0.5
 40
1.0
 40
1.0
 40
1.0
 40
1.0
 10
-0.6856500000000001
 20
-1.4636
 30
0.0
 10
-0.67803
 20
-1.3899400000000002
 30
0.0
 10
-0.6500900000000001
 20
-1.2400800000000001
 30
0.0
 10
-0.5789700000000001
 20
-1.20452
 30
0.0
 10
-0.5789700000000001
 20
-1.20452
 30
0.0
 10
-0.58913
 20
-1.2807200000000001
 30
0.0
 10
-0.6069100000000001
 20
-1.41788
 30
0.0
 10
-0.6856500000000001
 20
-1.4636
 30
0.0
  0
SPLINE
  5
55
100
AcDbEntity
  8
Ebene 1
 62
     7
100
AcDbSpline
210
0.0
220
0.0
230
1.0
 70
     1
 71
     3
 72
    20
 73
    16
 74
     0
 42
0.0000000001
 43
0.0000000001
 40
0.0
 40
0.0
 40
0.0
 40
0.0
 40
0.25
 40
0.25
 40
0.25
 40
0.25
 40
0.5
 40
0.5
 40
0.5
 40
0.5
 40
0.75
 40
0.75
 40
0.75
 40
0.75
 40
1.0
 40
1.0
 40
1.0
 40
1.0
 10
0.9704200000000001
 20
-1.1918200000000001
 30
0.0
 10
1.0136000000000001
 20
-1.28834
 30
0.0
 10
1.06186
 20
-1.4026400000000001
 30
0.0
 10
1.0440800000000001
 20
-1.5118600000000002
 30
0.0
 10
1.0440800000000001
 20
-1.5118600000000002
 30
0.0
 10
1.0263
 20
-1.5093200000000002
 30
0.0
 10
1.0110600000000001
 20
-1.4915400000000001
 30
0.0
 10
1.0059800000000001
 20
-1.4737600000000002
 30
0.0
 10
1.0059800000000001
 20
-1.4737600000000002
 30
0.0
 10
0.8459600000000001
 20
-1.4509000000000001
 30
0.0
 10
1.0059800000000001
 20
-1.29342
 30
0.0
 10
0.9577200000000001
 20
-1.21214
 30
0.0
 10
0.9577200000000001
 20
-1.21214
 30
0.0
 10
0.9577200000000001
 20
-1.21214
 30
0.0
 10
0.9704200000000001
 20
-1.1918200000000001
 30
0.0
 10
0.9704200000000001
 20
-1.1918200000000001
 30
0.0
  0
SPLINE
  5
56
100
AcDbEntity
  8
Ebene 1
 62
     7
100
AcDbSpline
210
0.0
220
0.0
230
1.0
 70
     1
 71
     3
 72
    16
 73
    12
 74
     0
 42
0.0000000001
 43
0.0000000001
 40
0.0
 40
0.0
 40
0.0
 40
0.0
 40
0.3333333333333333
 40
0.3333333333333333
 40
0.3333333333333333
 40
0.3333333333333333
 40
0.6666666666666666
 40
0.6666666666666666
 40
0.6666666666666666
 40
0.6666666666666666
 40
1.0
 40
1.0
 40
1.0
 40
1.0
 10
-0.5230900000000001
 20
-1.3747
 30
0.0
 10
-0.5230900000000001
 20
-1.3747
 30
0.0
 10
-0.48753
 20
-1.37724
 30
0.0
 10
-0.48753
 20
-1.37724
 30
0.0
 10
-0.48753
 20
-1.37724
 30
0.0
 10
-0.51293
 20
-1.49916
 30
0.0
 10
-0.4595900000000001
 20
-1.66934
 30
0.0
 10
-0.59675
 20
-1.7430000000000001
 30
0.0
 10
-0.59675
 20
-1.7430000000000001
 30
0.0
 10
-0.6627900000000001
 20
-1.6287
 30
0.0
 10
-0.61199
 20
-1.4737600000000002
 30
0.0
 10
-0.5230900000000001
 20
-1.3747
 30
0.0
  0
SPLINE
  5
57
100
AcDbEntity
  8
Ebene 1
 62
     7
100
AcDbSpline
210
0.0
220
0.0
230
1.0
 70
     1
 71
     3
 72
    16
 73
    12
 74
     0
 42
0.0000000001
 43
0.0000000001
 40
0.0
 40
0.0
 40
0.0
 40
0.0
 40
0.3333333333333333
 40
0.3333333333333333
 40
0.3333333333333333
 40
0.3333333333333333
 40
0.6666666666666666
 40
0.6666666666666666
 40
0.6666666666666666
 40
0.6666666666666666
 40
1.0
 40
1.0
 40
1.0
 40
1.0
 10
0.8586600000000001
 20
-1.4077200000000001
 30
0.0
 10
0.9882000000000001
 20
-1.5398000000000001
 30
0.0
 10
0.9678800000000001
 20
-1.7277600000000002
 30
0.0
 10
0.8942200000000001
 20
-1.8801600000000001
 30
0.0
 10
0.8942200000000001
 20
-1.8801600000000001
 30
0.0
 10
0.8942200000000001
 20
-1.8801600000000001
 30
0.0
 10
0.78246
 20
-1.6566400000000001
 30
0.0
 10
0.78246
 20
-1.6566400000000001
 30
0.0
 10
0.78246
 20
-1.6566400000000001
 30
0.0
 10
0.78246
 20
-1.6566400000000001
 30
0.0
 10
0.8586600000000001
 20
-1.4077200000000001
 30
0.0
 10
0.8586600000000001
 20
-1.4077200000000001
 30
0.0
  0
SPLINE
  5
58
100
AcDbEntity
  8
Ebene 1
 62
     7
100
AcDbSpline
210
0.0
220
0.0
230
1.0
 70
     1
 71
     3
 72
    12
 73
     8
 74
     0
 42
0.0000000001
 43
0.0000000001
 40
0.0
 40
0.0
 40
0.0
 40
0.0
 40
0.5
 40
0.5
 40
0.5
 40
0.5
 40
1.0
 40
1.0
 40
1.0
 40
1.0
 10
-0.37069
 20
-1.4940800000000001
 30
0.0
 10
-0.27417
 20
-1.6744200000000002
 30
0.0
 10
-0.35545
 20
-1.8928600000000002
 30
0.0
 10
-0.44689
 20
-2.05796
 30
0.0
 10
-0.44689
 20
-2.05796
 30
0.0
 10
-0.56881
 20
-1.8776200000000001
 30
0.0
 10
-0.44435
 20
-1.6668000000000001
 30
0.0
 10
-0.37069
 20
-1.4940800000000001
 30
0.0
  0
SPLINE
  5
59
100
AcDbEntity
  8
Ebene 1
 62
     7
100
AcDbSpline
210
0.0
220
0.0
230
1.0
 70
     1
 71
     3
 72
    20
 73
    16
 74
     0
 42
0.0000000001
 43
0.0000000001
 40
0.0
 40
0.0
 40
0.0
 40
0.0
 40
0.25
 40
0.25
 40
0.25
 40
0.25
 40
0.5
 40
0.5
 40
0.5
 40
0.5
 40
0.75
 40
0.75
 40
0.75
 40
0.75
 40
1.0
 40
1.0
 40
1.0
 40
1.0
 10
-0.15733
 20
-1.5601200000000002
 30
0.0
 10
-0.07605
 20
-1.6668000000000001
 30
0.0
 10
-0.06843
 20
-1.8115800000000002
 30
0.0
 10
-0.03287
 20
-1.9385800000000002
 30
0.0
 10
-0.03287
 20
-1.9385800000000002
 30
0.0
 10
-0.03287
 20
-1.9385800000000002
 30
0.0
 10
-0.15733
 20
-2.1875
 30
0.0
 10
-0.15733
 20
-2.1875
 30
0.0
 10
-0.15733
 20
-2.1875
 30
0.0
 10
-0.19035
 20
-2.0554200000000002
 30
0.0
 10
-0.13701
 20
-1.8928600000000002
 30
0.0
 10
-0.22083
 20
-1.7658600000000002
 30
0.0
 10
-0.22083
 20
-1.7658600000000002
 30
0.0
 10
-0.22083
 20
-1.7658600000000002
 30
0.0
 10
-0.15733
 20
-1.5601200000000002
 30
0.0
 10
-0.15733
 20
-1.5601200000000002
 30
0.0
  0
SPLINE
  5
5A
100
AcDbEntity
  8
Ebene 1
 62
     7
100
AcDbSpline
210
0.0
220
0.0
230
1.0
 70
     1
 71
     3
 72
    16
 73
    12
 74
     0
 42
0.0000000001
 43
0.0000000001
 40
0.0
 40
0.0
 40
0.0
 40
0.0
 40
0.3333333333333333
 40
0.3333333333333333
 40
0.3333333333333333
 40
0.3333333333333333
 40
0.6666666666666666
 40
0.6666666666666666
 40
0.6666666666666666
 40
0.6666666666666666
 40
1.0
 40
1.0
 40
1.0
 40
1.0
 10
0.6326000000000001
 20
-1.5601200000000002
 30
0.0
 10
0.69864
 20
-1.66934
 30
0.0
 10
0.7977000000000001
 20
-1.8268200000000001
 30
0.0
 10
0.6910200000000001
 20
-1.9462000000000002
 30
0.0
 10
0.6910200000000001
 20
-1.9462000000000002
 30
0.0
 10
0.6910200000000001
 20
-1.9462000000000002
 30
0.0
 10
0.57164
 20
-1.7734800000000002
 30
0.0
 10
0.57164
 20
-1.7734800000000002
 30
0.0
 10
0.57164
 20
-1.7734800000000002
 30
0.0
 10
0.57926
 20
-1.6998200000000001
 30
0.0
 10
0.6097400000000001
 20
-1.6287
 30
0.0
 10
0.6326000000000001
 20
-1.5601200000000002
 30
0.0
  0
SPLINE
  5
5B
100
AcDbEntity
  8
Ebene 1
 62
     7
100
AcDbSpline
210
0.0
220
0.0
230
1.0
 70
     1
 71
     3
 72
    16
 73
    12
 74
     0
 42
0.0000000001
 43
0.0000000001
 40
0.0
 40
0.0
 40
0.0
 40
0.0
 40
0.3333333333333333
 40
0.3333333333333333
 40
0.3333333333333333
 40
0.3333333333333333
 40
0.6666666666666666
 40
0.6666666666666666
 40
0.6666666666666666
 40
0.6666666666666666
 40
1.0
 40
1.0
 40
1.0
 40
1.0
 10
0.15254
 20
-1.5906000000000002
 30
0.0
 10
0.3024
 20
-1.7836400000000001
 30
0.0
 10
0.2516000000000001
 20
-2.0757400000000001
 30
0.0
 10
0.11952
 20
-2.2713200000000002
 30
0.0
 10
0.11952
 20
-2.2713200000000002
 30
0.0
 10
0.09158
 20
-2.1468600000000002
 30
0.0
 10
0.0611
 20
-2.0046200000000001
 30
0.0
 10
0.09158
 20
-1.8852400000000002
 30
0.0
 10
0.09158
 20
-1.8852400000000002
 30
0.0
 10
0.02808
 20
-1.7912600000000001
 30
0.0
 10
0.10682
 20
-1.6769600000000002
 30
0.0
 10
0.15254
 20
-1.5906000000000002
 30
0.0
  0
SPLINE
  5
5C
100
AcDbEntity
  8
Ebene 1
 62
     7
100
AcDbSpline
210
0.0
220
0.0
230
1.0
 70
     1
 71
     3
 72
    12
 73
     8
 74
     0
 42
0.0000000001
 43
0.0000000001
 40
0.0
 40
0.0
 40
0.0
 40
0.0
 40
0.5
 40
0.5
 40
0.5
 40
0.5
 40
1.0
 40
1.0
 40
1.0
 40
1.0
 10
0.4192400000000001
 20
-1.5906000000000002
 30
0.0
 10
0.5665600000000001
 20
-1.7811000000000001
 30
0.0
 10
0.51322
 20
-2.0427200000000001
 30
0.0
 10
0.4319400000000001
 20
-2.2408400000000004
 30
0.0
 10
0.4319400000000001
 20
-2.2408400000000004
 30
0.0
 10
0.36082
 20
-2.0401800000000003
 30
0.0
 10
0.2389
 20
-1.7836400000000001
 30
0.0
 10
0.4192400000000001
 20
-1.5906000000000002
 30
0.0
  0
SPLINE
  5
5D
100
AcDbEntity
  8
Ebene 1
 62
     7
100
AcDbSpline
210
0.0
220
0.0
230
1.0
 70
     1
 71
     3
 72
    16
 73
    12
 74
     0
 42
0.0000000001
 43
0.0000000001
 40
0.0
 40
0.0
 40
0.0
 40
0.0
 40
0.3333333333333333
 40
0.3333333333333333
 40
0.3333333333333333
 40
0.3333333333333333
 40
0.6666666666666666
 40
0.6666666666666666
 40
0.6666666666666666
 40
0.6666666666666666
 40
1.0
 40
1.0
 40
1.0
 40
1.0
 10
-0.28433
 20
-1.8090400000000002
 30
0.0
 10
-0.17765
 20
-1.8166600000000002
 30
0.0
 10
-0.23099
 20
-1.9487400000000001
 30
0.0
 10
-0.22337
 20
-2.0097
 30
0.0
 10
-0.22337
 20
-2.0097
 30
0.0
 10
-0.22337
 20
-2.0097
 30
0.0
 10
-0.4062500000000001
 20
-2.1087600000000002
 30
0.0
 10
-0.4062500000000001
 20
-2.1087600000000002
 30
0.0
 10
-0.4062500000000001
 20
-2.1087600000000002
 30
0.0
 10
-0.38085
 20
-2.0071600000000003
 30
0.0
 10
-0.35037
 20
-1.8979400000000002
 30
0.0
 10
-0.28433
 20
-1.8090400000000002
 30
0.0
  0
SPLINE
  5
5E
100
AcDbEntity
  8
Ebene 1
 62
     7
100
AcDbSpline
210
0.0
220
0.0
230
1.0
 70
     1
 71
     3
 72
    24
 73
    20
 74
     0
 42
0.0000000001
 43
0.0000000001
 40
0.0
 40
0.0
 40
0.0
 40
0.0
 40
0.2
 40
0.2
 40
0.2
 40
0.2
 40
0.4
 40
0.4
 40
0.4
 40
0.4
 40
0.6000000000000001
 40
0.6000000000000001
 40
0.6000000000000001
 40
0.6000000000000001
 40
0.8
 40
0.8
 40
0.8
 40
0.8
 40
1.0
 40
1.0
 40
1.0
 40
1.0
 10
0.33034
 20
-2.5558000000000001
 30
0.0
 10
0.36082
 20
-2.5481800000000003
 30
0.0
 10
0.37098
 20
-2.5685000000000002
 30
0.0
 10
0.38114
 20
-2.5888200000000001
 30
0.0
 10
0.38114
 20
-2.5888200000000001
 30
0.0
 10
0.3252600000000001
 20
-3.3152600000000003
 30
0.0
 10
0.3887600000000001
 20
-4.0823400000000003
 30
0.0
 10
0.34304
 20
-4.8087800000000005
 30
0.0
 10
0.34304
 20
-4.8087800000000005
 30
0.0
 10
0.31002
 20
-4.8773600000000004
 30
0.0
 10
0.28716
 20
-4.9561000000000002
 30
0.0
 10
0.22112
 20
-5.0018200000000004
 30
0.0
 10
0.22112
 20
-5.0018200000000004
 30
0.0
 10
0.22112
 20
-5.0018200000000004
 30
0.0
 10
0.24144
 20
-2.6320000000000001
 30
0.0
 10
0.24144
 20
-2.6320000000000001
 30
0.0
 10
0.24144
 20
-2.6320000000000001
 30
0.0
 10
0.24144
 20
-2.6320000000000001
 30
0.0
 10
0.33034
 20
-2.5558000000000001
 30
0.0
 10
0.33034
 20
-2.5558000000000001
 30
0.0
  0
SPLINE
  5
5F
100
AcDbEntity
  8
Ebene 1
 62
     7
100
AcDbSpline
210
0.0
220
0.0
230
1.0
 70
     1
 71
     3
 72
    20
 73
    16
 74
     0
 42
0.0000000001
 43
0.0000000001
 40
0.0
 40
0.0
 40
0.0
 40
0.0
 40
0.25
 40
0.25
 40
0.25
 40
0.25
 40
0.5
 40
0.5
 40
0.5
 40
0.5
 40
0.75
 40
0.75
 40
0.75
 40
0.75
 40
1.0
 40
1.0
 40
1.0
 40
1.0
 10
0.4929000000000001
 20
-4.4735000000000005
 30
0.0
 10
0.4929000000000001
 20
-4.4735000000000005
 30
0.0
 10
0.57926
 20
-4.4760400000000002
 30
0.0
 10
0.57926
 20
-4.4760400000000002
 30
0.0
 10
0.57926
 20
-4.4760400000000002
 30
0.0
 10
1.05932
 20
-4.9611800000000006
 30
0.0
 10
0.3786000000000001
 20
-5.4895000000000005
 30
0.0
 10
-0.07859
 20
-5.7485800000000005
 30
0.0
 10
-0.07859
 20
-5.7485800000000005
 30
0.0
 10
-0.09637
 20
-5.3244000000000007
 30
0.0
 10
0.53608
 20
-5.1186600000000002
 30
0.0
 10
0.39384
 20
-4.6589200000000002
 30
0.0
 10
0.39384
 20
-4.6589200000000002
 30
0.0
 10
0.42178
 20
-4.5954200000000007
 30
0.0
 10
0.4497200000000001
 20
-4.5319200000000004
 30
0.0
 10
0.4929000000000001
 20
-4.4735000000000005
 30
0.0
  0
SPLINE
  5
60
100
AcDbEntity
  8
Ebene 1
 62
     7
100
AcDbSpline
210
0.0
220
0.0
230
1.0
 70
     1
 71
     3
 72
    20
 73
    16
 74
     0
 42
0.0000000001
 43
0.0000000001
 40
0.0
 40
0.0
 40
0.0
 40
0.0
 40
0.25
 40
0.25
 40
0.25
 40
0.25
 40
0.5
 40
0.5
 40
0.5
 40
0.5
 40
0.75
 40
0.75
 40
0.75
 40
0.75
 40
1.0
 40
1.0
 40
1.0
 40
1.0
 10
0.29224
 20
-5.5453800000000006
 30
0.0
 10
0.3024
 20
-5.5453800000000006
 30
0.0
 10
0.32018
 20
-5.5453800000000006
 30
0.0
 10
0.31764
 20
-5.5580800000000004
 30
0.0
 10
0.31764
 20
-5.5580800000000004
 30
0.0
 10
0.28208
 20
-5.9009800000000006
 30
0.0
 10
0.3024
 20
-6.2667400000000004
 30
0.0
 10
0.18302
 20
-6.5842400000000003
 30
0.0
 10
0.18302
 20
-6.5842400000000003
 30
0.0
 10
0.16016
 20
-6.2718200000000008
 30
0.0
 10
0.18302
 20
-5.9416200000000003
 30
0.0
 10
0.20842
 20
-5.6139600000000005
 30
0.0
 10
0.20842
 20
-5.6139600000000005
 30
0.0
 10
0.2389
 20
-5.5961800000000004
 30
0.0
 10
0.27446
 20
-5.5758600000000005
 30
0.0
 10
0.29224
 20
-5.5453800000000006
 30
0.0
  0
ENDSEC
  0
SECTION
  2
OBJECTS
  0
DICTIONARY
  5
19
100
AcDbDictionary
280
     0
281
     1
  3
ACAD_GROUP
350
1A
  3
ACAD_MLINESTYLE
350
1B
  3
ACAD_LAYOUT
350
1E
  3
ACAD_PLOTSETTINGS
350
22
  3
ACAD_PLOTSTYLENAME
350
1F
  3
ACAD_WIPEOUT_VARS
350
23
  0
DICTIONARY
  5
1A
102
{ACAD_REACTORS
330
19
102
}
100
AcDbDictionary
280
     0
281
     1
  0
DICTIONARY
  5
1B
102
{ACAD_REACTORS
330
19
102
}
100
AcDbDictionary
280
     0
281
     1
  3
Standard
350
1C
  0
MLINESTYLE
  5
1C
102
{ACAD_REACTORS
330
1B
102
}
100
AcDbMlineStyle
  2
Standard
 70
     0
  3

 62
     0
 51
90.0
 52
90.0
 71
     2
 49
0.5
 62
   256
  6
BYLAYER
 49
-0.5
 62
   256
  6
BYLAYER
  0
ACDBDICTIONARYWDFLT
  5
1F
102
{ACAD_REACTORS
330
19
102
}
100
AcDbDictionary
281
     1
  3
Normal
350
1D
100
AcDbDictionaryWithDefault
340
1D
  0
ACDBPLACEHOLDER
  5
1D
102
{ACAD_REACTORS
330
1F
102
}
  0
LAYOUT
  5
20
102
{ACAD_REACTORS
330
1E
102
}
100
AcDbPlotSettings
  1

  2

  4

  6

 40
0.0
 41
0.0
 42
0.0
 43
0.0
 44
0.0
 45
0.0
 46
0.0
 47
0.0
 48
0.0
 49
0.0
140
0.0
141
0.0
142
1.0
143
1.0
 70
  1024
 72
     0
 73
     0
 74
     0
  7

 75
     0
147
1.0
148
0.0
149
0.0
100
AcDbLayout
  1
Model
 70
     0
 71
     0
 10
0.0
 20
0.0
 11
0.0
 21
0.0
 12
0.0
 22
0.0
 32
0.0
 14
0.0
 24
0.0
 34
0.0
 15
0.0
 25
0.0
 35
0.0
146
0.0
 13
0.0
 23
0.0
 33
0.0
 16
0.0
 26
0.0
 36
0.0
 17
0.0
 27
0.0
 37
0.0
 76
     0
330
A
331
0
345
0
346
0
  0
LAYOUT
  5
21
102
{ACAD_REACTORS
330
1E
102
}
100
AcDbPlotSettings
  1

  2

  4

  6

 40
0.0
 41
0.0
 42
0.0
 43
0.0
 44
0.0
 45
0.0
 46
0.0
 47
0.0
 48
0.0
 49
0.0
140
0.0
141
0.0
142
1.0
143
1.0
 70
     0
 72
     0
 73
     0
 74
     0
  7

 75
     0
147
1.0
148
0.0
149
0.0
100
AcDbLayout
  1
Layout1
 70
     0
 71
     0
 10
0.0
 20
0.0
 11
0.0
 21
0.0
 12
0.0
 22
0.0
 32
0.0
 14
0.0
 24
0.0
 34
0.0
 15
0.0
 25
0.0
 35
0.0
146
0.0
 13
0.0
 23
0.0
 33
0.0
 16
0.0
 26
0.0
 36
0.0
 17
0.0
 27
0.0
 37
0.0
 76
     0
330
B
331
0
345
0
346
0
  0
DICTIONARY
  5
1E
102
{ACAD_REACTORS
330
19
102
}
100
AcDbDictionary
280
     0
281
     1
  3
Layout1
350
21
  3
Model
350
20
  0
DICTIONARY
  5
22
102
{ACAD_REACTORS
330
19
102
}
100
AcDbDictionary
280
     0
281
     1
  0
WIPEOUTVARIABLES
  5
23
100
AcDbWipeoutVariables
 70
     1
  0
ENDSEC
  0
EOF
