  0
SECTION
  2
HEADER
  9
$ACADVER
  1
AC1015
  9
$ACADMAINTVER
 70
     6
  9
$DWGCODEPAGE
  3
DOS850
  9
$INSBASE
 10
0.0
 20
0.0
 30
0.0
  9
$EXTMIN
 10
-3.93431
 20
-6.77728
 30
1.000000E+20
  9
$EXTMAX
 10
3.94001
 20
6.77107
 30
-1.000000E+20
  9
$LIMMIN
 10
0.0
 20
0.0
  9
$LIMMAX
 10
0.0
 20
0.0
  9
$ORTHOMODE
 70
     0
  9
$REGENMODE
 70
     1
  9
$FILLMODE
 70
     1
  9
$QTEXTMODE
 70
     0
  9
$MIRRTEXT
 70
     1
  9
$LTSCALE
 40
1.0
  9
$ATTMODE
 70
     1
  9
$TEXTSIZE
 40
0.2
  9
$TRACEWID
 40
0.05
  9
$TEXTSTYLE
  7
Standard
  9
$CLAYER
  8
0
  9
$CELTYPE
  6
Continuous
  9
$CECOLOR
 62
   256
  9
$CELTSCALE
 40
1.0
  9
$DISPSILH
 70
     0
  9
$DIMSCALE
 40
1.0
  9
$DIMASZ
 40
0.18
  9
$DIMEXO
 40
0.0625
  9
$DIMDLI
 40
0.38
  9
$DIMRND
 40
0.0
  9
$DIMDLE
 40
0.0
  9
$DIMEXE
 40
0.18
  9
$DIMTP
 40
0.0
  9
$DIMTM
 40
0.0
  9
$DIMTXT
 40
0.18
  9
$DIMCEN
 40
0.09
  9
$DIMTSZ
 40
0.0
  9
$DIMTOL
 70
     0
  9
$DIMLIM
 70
     0
  9
$DIMTIH
 70
     1
  9
$DIMTOH
 70
     1
  9
$DIMSE1
 70
     0
  9
$DIMSE2
 70
     0
  9
$DIMTAD
 70
     0
  9
$DIMZIN
 70
     0
  9
$DIMBLK
  1

  9
$DIMASO
 70
     1
  9
$DIMSHO
 70
     1
  9
$DIMPOST
  1

  9
$DIMAPOST
  1

  9
$DIMALT
 70
     0
  9
$DIMALTD
 70
     2
  9
$DIMALTF
 40
25.4
  9
$DIMLFAC
 40
1.0
  9
$DIMTOFL
 70
     0
  9
$DIMTVP
 40
0.0
  9
$DIMTIX
 70
     0
  9
$DIMSOXD
 70
     0
  9
$DIMSAH
 70
     0
  9
$DIMBLK1
  1

  9
$DIMBLK2
  1

  9
$DIMSTYLE
  2
Standard
  9
$DIMCLRD
 70
     0
  9
$DIMCLRE
 70
     0
  9
$DIMCLRT
 70
     0
  9
$DIMTFAC
 40
1.0
  9
$DIMGAP
 40
0.09
  9
$DIMJUST
 70
     0
  9
$DIMSD1
 70
     0
  9
$DIMSD2
 70
     0
  9
$DIMTOLJ
 70
     1
  9
$DIMTZIN
 70
     0
  9
$DIMALTZ
 70
     0
  9
$DIMALTTZ
 70
     0
  9
$DIMUPT
 70
     0
  9
$DIMDEC
 70
     4
  9
$DIMTDEC
 70
     4
  9
$DIMALTU
 70
     2
  9
$DIMALTTD
 70
     2
  9
$DIMTXSTY
  7
Standard
  9
$DIMAUNIT
 70
     0
  9
$DIMADEC
 70
     0
  9
$DIMALTRND
 40
0.0
  9
$DIMAZIN
 70
     0
  9
$DIMDSEP
 70
     0
  9
$DIMATFIT
 70
     3
  9
$DIMFRAC
 70
     0
  9
$DIMLDRBLK
  1

  9
$DIMLUNIT
 70
     2
  9
$DIMLWD
 70
     0
  9
$DIMLWE
 70
     0
  9
$DIMTMOVE
 70
     0
  9
$LUNITS
 70
     2
  9
$LUPREC
 70
     4
  9
$SKETCHINC
 40
0.1
  9
$FILLETRAD
 40
0.0
  9
$AUNITS
 70
     0
  9
$AUPREC
 70
     0
  9
$MENU
  1
acad
  9
$ELEVATION
 40
0.0
  9
$PELEVATION
 40
0.0
  9
$THICKNESS
 40
0.0
  9
$LIMCHECK
 70
     0
  9
$CHAMFERA
 40
0.0
  9
$CHAMFERB
 40
0.0
  9
$CHAMFERC
 40
0.0
  9
$CHAMFERD
 40
0.0
  9
$SKPOLY
 70
     0
  9
$TDCREATE
 40
0.000000000
  9
$TDUCREATE
 40
0.000000000
  9
$TDUPDATE
 40
0.000000000
  9
$TDUUPDATE
 40
0.000000000
  9
$TDINDWG
 40
0.0000000000
  9
$TDUSRTIMER
 40
0.0000000000
  9
$USRTIMER
 70
     1
  9
$ANGBASE
 50
0.0
  9
$ANGDIR
 70
     0
  9
$PDMODE
 70
     0
  9
$PDSIZE
 40
0.0
  9
$PLINEWID
 40
0.0
  9
$SPLFRAME
 70
     0
  9
$SPLINETYPE
 70
     6
  9
$SPLINESEGS
 70
     8
  9
$HANDSEED
  5
4A
  9
$SURFTAB1
 70
     6
  9
$SURFTAB2
 70
     6
  9
$SURFTYPE
 70
     6
  9
$SURFU
 70
     6
  9
$SURFV
 70
     6
  9
$UCSBASE
  2

  9
$UCSNAME
  2

  9
$UCSORG
 10
0.0
 20
0.0
 30
0.0
  9
$UCSXDIR
 10
1.0
 20
0.0
 30
0.0
  9
$UCSYDIR
 10
0.0
 20
1.0
 30
0.0
  9
$UCSORTHOREF
  2

  9
$UCSORTHOVIEW
 70
     0
  9
$UCSORGTOP
 10
0.0
 20
0.0
 30
0.0
  9
$UCSORGBOTTOM
 10
0.0
 20
0.0
 30
0.0
  9
$UCSORGLEFT
 10
0.0
 20
0.0
 30
0.0
  9
$UCSORGRIGHT
 10
0.0
 20
0.0
 30
0.0
  9
$UCSORGFRONT
 10
0.0
 20
0.0
 30
0.0
  9
$UCSORGBACK
 10
0.0
 20
0.0
 30
0.0
  9
$PUCSBASE
  2

  9
$PUCSNAME
  2

  9
$PUCSORG
 10
0.0
 20
0.0
 30
0.0
  9
$PUCSXDIR
 10
1.0
 20
0.0
 30
0.0
  9
$PUCSYDIR
 10
0.0
 20
1.0
 30
0.0
  9
$PUCSORTHOREF
  2

  9
$PUCSORTHOVIEW
 70
     0
  9
$PUCSORGTOP
 10
0.0
 20
0.0
 30
0.0
  9
$PUCSORGBOTTOM
 10
0.0
 20
0.0
 30
0.0
  9
$PUCSORGLEFT
 10
0.0
 20
0.0
 30
0.0
  9
$PUCSORGRIGHT
 10
0.0
 20
0.0
 30
0.0
  9
$PUCSORGFRONT
 10
0.0
 20
0.0
 30
0.0
  9
$PUCSORGBACK
 10
0.0
 20
0.0
 30
0.0
  9
$USERI1
 70
     0
  9
$USERI2
 70
     0
  9
$USERI3
 70
     0
  9
$USERI4
 70
     0
  9
$USERI5
 70
     0
  9
$USERR1
 40
0.0
  9
$USERR2
 40
0.0
  9
$USERR3
 40
0.0
  9
$USERR4
 40
0.0
  9
$USERR5
 40
0.0
  9
$WORLDVIEW
 70
     1
  9
$SHADEDGE
 70
     3
  9
$SHADEDIF
 70
    70
  9
$TILEMODE
 70
     1
  9
$MAXACTVP
 70
    16
  9
$PINSBASE
 10
0.0
 20
0.0
 30
0.0
  9
$PLIMCHECK
 70
     0
  9
$PEXTMIN
 10
1.000000E+20
 20
1.000000E+20
 30
1.000000E+20
  9
$PEXTMAX
 10
-1.000000E+20
 20
-1.000000E+20
 30
-1.000000E+20
  9
$PLIMMIN
 10
0.0
 20
0.0
  9
$PLIMMAX
 10
12.0
 20
9.0
  9
$UNITMODE
 70
     0
  9
$VISRETAIN
 70
     0
  9
$PLINEGEN
 70
     1
  9
$PSLTSCALE
 70
     0
  9
$TREEDEPTH
 70
  3020
  9
$CMLSTYLE
  2
Standard
  9
$CMLJUST
 70
     0
  9
$CMLSCALE
 40
1.0
  9
$PROXYGRAPHICS
 70
     0
  9
$MEASUREMENT
 70
     0
  9
$CELWEIGHT
370
     0
  9
$ENDCAPS
280
     0
  9
$JOINSTYLE
280
     0
  9
$LWDISPLAY
290
     0
  9
$INSUNITS
 70
     5
  9
$HYPERLINKBASE
  1

  9
$XEDIT
290
     1
  9
$CEPSNTYPE
380
     0
  9
$PSTYLEMODE
290
     1
  9
$FINGERPRINTGUID
  2

  9
$VERSIONGUID
  2

  9
$EXTNAMES
290
     1
  9
$PSVPSCALE
 40
0.0
  0
ENDSEC
  0
SECTION
  2
CLASSES
  0
CLASS
  1
LWPOLYLINE
  2
AcDbPolyline
  3
AutoCAD 2000
 90
    32768
280
     0
281
     1
  0
CLASS
  1
IMAGE
  2
AcDbRasterImage
  3
ISM
 90
    32895
280
     0
281
     1
  0
CLASS
  1
OLE2FRAME
  2
AcDbOle2Frame
  3
AutoCAD 2000
 90
    32768
280
     0
281
     1
  0
CLASS
  1
HATCH
  2
AcDbHatch
  3
AutoCAD 2000
 90
    32768
280
     0
281
     1
  0
CLASS
  1
DICTIONARYVAR
  2
AcDbDictionaryVar
  3
AutoCAD 2000
 90
    32768
280
     0
281
     0
  0
CLASS
  1
RASTERVARIABLES
  2
AcDbRasterVariables
  3
ISM
 90
    32768
280
     0
281
     0
  0
CLASS
  1
IMAGEDEF
  2
AcDbRasterImageDef
  3
ISM
 90
    32768
280
     0
281
     0
  0
CLASS
  1
IMAGEDEF_REACTOR
  2
AcDbRasterImageDefReactor
  3
ISM
 90
    32769
280
     0
281
     0
  0
CLASS
  1
IDBUFFER
  2
AcDbIdBuffer
  3
AutoCAD 2000
 90
    32768
280
     0
281
     0
  0
CLASS
  1
SPATIAL_FILTER
  2
AcDbSpatialFilter
  3
AutoCAD 2000
 90
    32768
280
     0
281
     0
  0
CLASS
  1
XRECORD
  2
AcDbXrecord
  3
AutoCAD 2000
 90
    32768
280
     0
281
     0
  0
CLASS
  1
SORTENTSTABLE
  2
AcDbSortentsTable
  3
AutoCAD 2000
 90
    32768
280
     0
281
     0
  0
CLASS
  1
LAYER_INDEX
  2
AcDbLayerIndex
  3
AutoCAD 2000
 90
    32768
280
     0
281
     0
  0
CLASS
  1
SPATIAL_INDEX
  2
AcDbSpatialIndex
  3
AutoCAD 2000
 90
    32768
280
     0
281
     0
  0
CLASS
  1
OBJECT_PTR
  2
CAseDLPNTableRecord
  3
"ASE-LPNTableRecord"
 90
    32769
280
     0
281
     0
  0
CLASS
  1
LAYOUT
  2
AcDbLayout
  3
AutoCAD 2000
 90
        0
280
     0
281
     0
  0
CLASS
  1
PLOTSETTINGS
  2
AcDbPlotSettings
  3
AutoCAD 2000
 90
    32768
280
     0
281
     0
  0
CLASS
  1
ACDBDICTIONARYWDFLT
  2
AcDbDictionaryWithDefault
  3
AutoCAD 2000
 90
        0
280
     0
281
     0
  0
CLASS
  1
ACDBPLACEHOLDER
  2
AcDbPlaceHolder
  3
AutoCAD 2000
 90
        0
280
     0
281
     0
  0
CLASS
  1
VBA_PROJECT
  2
AcDbVbaProject
  3
acadvba
 90
    32768
280
     0
281
     0
  0
CLASS
  1
WIPEOUT
  2
AcDbWipeout
  3
WipeOut|AutoCAD Express Tool|expresstools@autodesk.com
 90
    32895
280
     0
281
     1
  0
CLASS
  1
WIPEOUTVARIABLES
  2
AcDbWipeoutVariables
  3
WipeOut|AutoCAD Express Tool|expresstools@autodesk.com
 90
        0
280
     0
281
     0
  0
CLASS
  1
RTEXT
  2
RText
  3
RText|AutoCAD Express Tool|expresstools@autodesk.com
 90
    32768
280
     0
281
     1
  0
CLASS
  1
ARCALIGNEDTEXT
  2
AcDbArcAlignedText
  3
ATEXT|AutoCAD Express Tool|expresstools@autodesk.com
 90
    32768
280
     0
281
     1
  0
ENDSEC
  0
SECTION
  2
TABLES
  0
TABLE
  2
VPORT
  5
7
100
AcDbSymbolTable
 70
     1
  0
VPORT
  5
15
100
AcDbSymbolTableRecord
100
AcDbViewportTableRecord
  2
*ACTIVE
 70
     0
 10
0.0
 20
0.0
 11
1.0
 21
1.0
 12
6.591288
 22
4.579184
 13
0.0
 23
0.0
 14
1.0
 24
1.0
 15
0.0
 25
0.0
 16
0.0
 26
0.0
 36
1.0
 17
0.0
 27
0.0
 37
0.0
 40
9.158369
 41
0.688564
 42
50.0
 43
0.0
 44
0.0
 50
0.0
 51
0.0
 71
     0
 72
   100
 73
     1
 74
     1
 75
     0
 76
     0
 77
     0
 78
     0
281
     0
 65
     0
110
0.0
120
0.0
130
0.0
111
1.0
121
0.0
131
0.0
112
0.0
122
1.0
132
0.0
345
0
346
0
 79
     0
146
0.0
  0
ENDTAB
  0
TABLE
  2
LTYPE
  5
4
100
AcDbSymbolTable
 70
     3
  0
LTYPE
  5
11
100
AcDbSymbolTableRecord
100
AcDbLinetypeTableRecord
  2
ByBlock
 70
    64
  3

 72
    65
 73
     0
 40
0.0
  0
LTYPE
  5
12
100
AcDbSymbolTableRecord
100
AcDbLinetypeTableRecord
  2
ByLayer
 70
    64
  3

 72
    65
 73
     0
 40
0.0
  0
LTYPE
  5
13
100
AcDbSymbolTableRecord
100
AcDbLinetypeTableRecord
  2
Continuous
 70
    64
  3
Solid line
 72
    65
 73
     0
 40
0.0
  0
ENDTAB
  0
TABLE
  2
LAYER
  5
2
100
AcDbSymbolTable
 70
     2
  0
LAYER
  5
14
100
AcDbSymbolTableRecord
100
AcDbLayerTableRecord
  2
0
 70
     0
 62
     7
  6
Continuous
290
     1
370
    -3
390
1D
  0
LAYER
  5
24
100
AcDbSymbolTableRecord
100
AcDbLayerTableRecord
  2
Ebene 1
 70
     0
 62
     7
  6
Continuous
290
     1
370
    -3
390
1F
  0
ENDTAB
  0
TABLE
  2
STYLE
  5
3
100
AcDbSymbolTable
 70
     1
  0
STYLE
  5
17
100
AcDbSymbolTableRecord
100
AcDbTextStyleTableRecord
  2
Standard
 70
     0
 40
0.0
 41
1.0
 50
0.0
 71
     0
 42
0.0
  3
txt
  4

  0
ENDTAB
  0
TABLE
  2
VIEW
  5
5
100
AcDbSymbolTable
 70
     0
  0
ENDTAB
  0
TABLE
  2
UCS
  5
6
100
AcDbSymbolTable
 70
     0
  0
ENDTAB
  0
TABLE
  2
APPID
  5
8
100
AcDbSymbolTable
 70
     1
  0
APPID
  5
16
100
AcDbSymbolTableRecord
100
AcDbRegAppTableRecord
  2
ACAD
 70
     0
  0
ENDTAB
  0
TABLE
  2
DIMSTYLE
  5
9
100
AcDbSymbolTable
 70
     1
100
AcDbDimStyleTable
 71
     0
  0
DIMSTYLE
105
18
100
AcDbSymbolTableRecord
100
AcDbDimStyleTableRecord
  2
Standard
 70
     0
  3

  4

 40
1.0
 41
0.18
 42
0.0625
 43
0.38
 44
0.18
 45
0.0
 46
0.0
 47
0.0
 48
0.0
 71
     0
 72
     0
 73
     1
 74
     1
 75
     0
 76
     0
 77
     0
 78
     0
 79
     0
140
0.18
141
0.09
142
0.0
143
25.4
144
1.0
145
0.0
146
1.0
147
0.09
148
0.0
170
     0
171
     2
172
     0
173
     0
174
     0
175
     0
176
     0
177
     0
178
     0
179
     0
271
     4
272
     4
273
     2
274
     2
275
     0
276
     0
277
     2
278
    46
279
     0
280
     0
281
     0
282
     0
283
     1
284
     0
285
     0
286
     0
288
     0
340
17
341
0
342
0
343
0
344
0
371
    -2
372
    -2
  0
ENDTAB
  0
TABLE
  2
BLOCK_RECORD
  5
1
100
AcDbSymbolTable
 70
     0
  0
BLOCK_RECORD
  5
A
100
AcDbSymbolTableRecord
100
AcDbBlockTableRecord
  2
*MODEL_SPACE
340
20
  0
BLOCK_RECORD
  5
B
100
AcDbSymbolTableRecord
100
AcDbBlockTableRecord
  2
*PAPER_SPACE
340
21
  0
ENDTAB
  0
ENDSEC
  0
SECTION
  2
BLOCKS
  0
BLOCK
  5
D
100
AcDbEntity
  8
0
100
AcDbBlockBegin
  2
*MODEL_SPACE
 70
     0
 10
0.0
 20
0.0
 30
0.0
  3
*MODEL_SPACE
  1

  0
ENDBLK
  5
E
100
AcDbEntity
  8
0
100
AcDbBlockEnd
  0
BLOCK
  5
F
100
AcDbEntity
 67
     1
  8
0
100
AcDbBlockBegin
  2
*PAPER_SPACE
 70
     0
 10
0.0
 20
0.0
 30
0.0
  3
*PAPER_SPACE
  1

  0
ENDBLK
  5
10
100
AcDbEntity
 67
     1
  8
0
100
AcDbBlockEnd
  0
ENDSEC
  0
SECTION
  2
ENTITIES
  0
SPLINE
  5
25
100
AcDbEntity
  8
Ebene 1
100
AcDbSpline
210
0.0
220
0.0
230
1.0
 70
     1
 71
     3
 72
   160
 73
   156
 74
     0
 42
0.0000000001
 43
0.0000000001
 40
0.0
 40
0.0
 40
0.0
 40
0.0
 40
0.0256410256410256
 40
0.0256410256410256
 40
0.0256410256410256
 40
0.0256410256410256
 40
0.0512820512820513
 40
0.0512820512820513
 40
0.0512820512820513
 40
0.0512820512820513
 40
0.0769230769230769
 40
0.0769230769230769
 40
0.0769230769230769
 40
0.0769230769230769
 40
0.1025641025641026
 40
0.1025641025641026
 40
0.1025641025641026
 40
0.1025641025641026
 40
0.1282051282051282
 40
0.1282051282051282
 40
0.1282051282051282
 40
0.1282051282051282
 40
0.1538461538461538
 40
0.1538461538461538
 40
0.1538461538461538
 40
0.1538461538461538
 40
0.1794871794871795
 40
0.1794871794871795
 40
0.1794871794871795
 40
0.1794871794871795
 40
0.2051282051282051
 40
0.2051282051282051
 40
0.2051282051282051
 40
0.2051282051282051
 40
0.2307692307692307
 40
0.2307692307692307
 40
0.2307692307692307
 40
0.2307692307692307
 40
0.2564102564102564
 40
0.2564102564102564
 40
0.2564102564102564
 40
0.2564102564102564
 40
0.2820512820512821
 40
0.2820512820512821
 40
0.2820512820512821
 40
0.2820512820512821
 40
0.3076923076923077
 40
0.3076923076923077
 40
0.3076923076923077
 40
0.3076923076923077
 40
0.3333333333333334
 40
0.3333333333333334
 40
0.3333333333333334
 40
0.3333333333333334
 40
0.358974358974359
 40
0.358974358974359
 40
0.358974358974359
 40
0.358974358974359
 40
0.3846153846153847
 40
0.3846153846153847
 40
0.3846153846153847
 40
0.3846153846153847
 40
0.4102564102564104
 40
0.4102564102564104
 40
0.4102564102564104
 40
0.4102564102564104
 40
0.435897435897436
 40
0.435897435897436
 40
0.435897435897436
 40
0.435897435897436
 40
0.4615384615384617
 40
0.4615384615384617
 40
0.4615384615384617
 40
0.4615384615384617
 40
0.4871794871794873
 40
0.4871794871794873
 40
0.4871794871794873
 40
0.4871794871794873
 40
0.512820512820513
 40
0.512820512820513
 40
0.512820512820513
 40
0.512820512820513
 40
0.5384615384615387
 40
0.5384615384615387
 40
0.5384615384615387
 40
0.5384615384615387
 40
0.5641025641025643
 40
0.5641025641025643
 40
0.5641025641025643
 40
0.5641025641025643
 40
0.58974358974359
 40
0.58974358974359
 40
0.58974358974359
 40
0.58974358974359
 40
0.6153846153846156
 40
0.6153846153846156
 40
0.6153846153846156
 40
0.6153846153846156
 40
0.6410256410256413
 40
0.6410256410256413
 40
0.6410256410256413
 40
0.6410256410256413
 40
0.666666666666667
 40
0.666666666666667
 40
0.666666666666667
 40
0.666666666666667
 40
0.6923076923076926
 40
0.6923076923076926
 40
0.6923076923076926
 40
0.6923076923076926
 40
0.7179487179487183
 40
0.7179487179487183
 40
0.7179487179487183
 40
0.7179487179487183
 40
0.743589743589744
 40
0.743589743589744
 40
0.743589743589744
 40
0.743589743589744
 40
0.7692307692307696
 40
0.7692307692307696
 40
0.7692307692307696
 40
0.7692307692307696
 40
0.7948717948717953
 40
0.7948717948717953
 40
0.7948717948717953
 40
0.7948717948717953
 40
0.8205128205128209
 40
0.8205128205128209
 40
0.8205128205128209
 40
0.8205128205128209
 40
0.8461538461538466
 40
0.8461538461538466
 40
0.8461538461538466
 40
0.8461538461538466
 40
0.8717948717948723
 40
0.8717948717948723
 40
0.8717948717948723
 40
0.8717948717948723
 40
0.8974358974358979
 40
0.8974358974358979
 40
0.8974358974358979
 40
0.8974358974358979
 40
0.9230769230769236
 40
0.9230769230769236
 40
0.9230769230769236
 40
0.9230769230769236
 40
0.9487179487179492
 40
0.9487179487179492
 40
0.9487179487179492
 40
0.9487179487179492
 40
0.9743589743589749
 40
0.9743589743589749
 40
0.9743589743589749
 40
0.9743589743589749
 40
1.0
 40
1.0
 40
1.0
 40
1.0
 10
1.4174600000000002
 20
6.7710700000000008
 30
0.0
 10
1.4479400000000002
 20
6.2935500000000006
 30
0.0
 10
1.2574400000000001
 20
5.6102900000000009
 30
0.0
 10
1.4504800000000002
 20
5.0743500000000008
 30
0.0
 10
1.4504800000000002
 20
5.0743500000000008
 30
0.0
 10
2.5172800000000004
 20
3.9288100000000004
 30
0.0
 10
2.8779600000000003
 20
2.0136500000000002
 30
0.0
 10
1.4936600000000002
 20
0.9087500000000001
 30
0.0
 10
1.4936600000000002
 20
0.9087500000000001
 30
0.0
 10
1.8873600000000001
 20
-0.33584
 30
0.0
 10
2.7331800000000004
 20
-1.3645400000000001
 30
0.0
 10
3.3173800000000004
 20
-2.5837400000000001
 30
0.0
 10
3.3173800000000004
 20
-2.5837400000000001
 30
0.0
 10
3.2792800000000004
 20
-2.7437600000000004
 30
0.0
 10
3.0659200000000002
 20
-2.4389600000000002
 30
0.0
 10
3.0608400000000002
 20
-2.6421600000000001
 30
0.0
 10
3.0608400000000002
 20
-2.6421600000000001
 30
0.0
 10
3.5383600000000004
 20
-3.0917400000000002
 30
0.0
 10
4.1073200000000005
 20
-3.9629600000000003
 30
0.0
 10
3.8939600000000003
 20
-4.8494200000000003
 30
0.0
 10
3.8939600000000003
 20
-4.8494200000000003
 30
0.0
 10
3.8939600000000003
 20
-4.8494200000000003
 30
0.0
 10
3.1700600000000003
 20
-4.0061400000000003
 30
0.0
 10
3.1700600000000003
 20
-4.0061400000000003
 30
0.0
 10
3.1700600000000003
 20
-4.0061400000000003
 30
0.0
 10
3.0837000000000003
 20
-4.3846000000000007
 30
0.0
 10
2.9109800000000003
 20
-3.5718000000000001
 30
0.0
 10
2.7916000000000003
 20
-4.1077400000000006
 30
0.0
 10
2.7916000000000003
 20
-4.1077400000000006
 30
0.0
 10
2.4004400000000001
 20
-5.3980600000000001
 30
0.0
 10
2.6620600000000003
 20
-2.6294600000000004
 30
0.0
 10
2.1540600000000003
 20
-3.5997400000000002
 30
0.0
 10
2.1540600000000003
 20
-3.5997400000000002
 30
0.0
 10
2.1540600000000003
 20
-3.5997400000000002
 30
0.0
 10
2.0880200000000002
 20
-3.7877000000000005
 30
0.0
 10
2.0880200000000002
 20
-3.7877000000000005
 30
0.0
 10
2.0880200000000002
 20
-3.7877000000000005
 30
0.0
 10
2.08548
 20
-3.3101800000000003
 30
0.0
 10
1.9737200000000001
 20
-2.9037800000000002
 30
0.0
 10
1.5444600000000002
 20
-2.7005800000000004
 30
0.0
 10
1.5444600000000002
 20
-2.7005800000000004
 30
0.0
 10
1.3692000000000002
 20
-3.2517600000000004
 30
0.0
 10
1.2853800000000002
 20
-2.4973800000000002
 30
0.0
 10
1.1990200000000002
 20
-3.0917400000000002
 30
0.0
 10
1.1990200000000002
 20
-3.0917400000000002
 30
0.0
 10
1.5368400000000002
 20
-3.0053800000000002
 30
0.0
 10
1.4504800000000002
 20
-3.2670000000000003
 30
0.0
 10
1.1990200000000002
 20
-3.3813000000000004
 30
0.0
 10
1.1990200000000002
 20
-3.3813000000000004
 30
0.0
 10
1.7375
 20
-3.0765000000000002
 30
0.0
 10
1.3819000000000001
 20
-3.6429200000000002
 30
0.0
 10
1.1558400000000002
 20
-3.8893000000000004
 30
0.0
 10
1.1558400000000002
 20
-3.8893000000000004
 30
0.0
 10
1.1558400000000002
 20
-3.8893000000000004
 30
0.0
 10
1.1253600000000001
 20
-3.9629600000000003
 30
0.0
 10
1.1253600000000001
 20
-3.9629600000000003
 30
0.0
 10
1.1253600000000001
 20
-3.9629600000000003
 30
0.0
 10
1.1634600000000002
 20
-4.0366200000000001
 30
0.0
 10
1.2396600000000002
 20
-3.7877000000000005
 30
0.0
 10
1.3006200000000001
 20
-3.8893000000000004
 30
0.0
 10
1.3006200000000001
 20
-3.8893000000000004
 30
0.0
 10
1.1228200000000002
 20
-5.0373800000000006
 30
0.0
 10
1.0542400000000001
 20
-5.5149000000000008
 30
0.0
 10
0.51576
 20
-6.7772800000000002
 30
0.0
 10
0.51576
 20
-6.7772800000000002
 30
0.0
 10
0.08396
 20
-5.7333400000000001
 30
0.0
 10
-0.3656100000000001
 20
-4.6157400000000006
 30
0.0
 10
-0.6881900000000001
 20
-3.5133800000000002
 30
0.0
 10
-0.6881900000000001
 20
-3.5133800000000002
 30
0.0
 10
-1.07681
 20
-3.5133800000000002
 30
0.0
 10
-1.5238500000000001
 20
-3.2238200000000004
 30
0.0
 10
-1.5289300000000001
 20
-2.7717000000000001
 30
0.0
 10
-1.5289300000000001
 20
-2.7717000000000001
 30
0.0
 10
-1.8108700000000002
 20
-2.7590000000000003
 30
0.0
 10
-2.0369300000000004
 20
-2.3678400000000002
 30
0.0
 10
-1.8743700000000001
 20
-2.1189200000000001
 30
0.0
 10
-1.8743700000000001
 20
-2.1189200000000001
 30
0.0
 10
-2.2731500000000002
 20
-1.8573000000000002
 30
0.0
 10
-1.9988300000000001
 20
-1.3645400000000001
 30
0.0
 10
-2.1359900000000001
 20
-1.0165600000000001
 30
0.0
 10
-2.1359900000000001
 20
-1.0165600000000001
 30
0.0
 10
-3.0402300000000002
 20
-1.1486400000000001
 30
0.0
 10
-3.0910300000000004
 20
0.41599
 30
0.0
 10
-2.3976100000000002
 20
0.80969
 30
0.0
 10
-2.3976100000000002
 20
0.80969
 30
0.0
 10
-3.1367500000000001
 20
1.11449
 30
0.0
 10
-3.8936700000000002
 20
1.7672700000000001
 30
0.0
 10
-3.9343100000000004
 20
2.6232500000000001
 30
0.0
 10
-3.9343100000000004
 20
2.6232500000000001
 30
0.0
 10
-3.7946100000000005
 20
3.4487500000000004
 30
0.0
 10
-3.0199100000000003
 20
3.9872300000000003
 30
0.0
 10
-2.7735300000000001
 20
4.7543100000000003
 30
0.0
 10
-2.7735300000000001
 20
4.7543100000000003
 30
0.0
 10
-2.6744700000000003
 20
5.3359700000000005
 30
0.0
 10
-2.82179
 20
5.9735100000000001
 30
0.0
 10
-3.0732500000000003
 20
6.4688100000000004
 30
0.0
 10
-3.0732500000000003
 20
6.4688100000000004
 30
0.0
 10
-2.52969
 20
6.0624100000000007
 30
0.0
 10
-2.3391900000000003
 20
5.1607100000000008
 30
0.0
 10
-2.3239500000000004
 20
4.4647500000000004
 30
0.0
 10
-2.3239500000000004
 20
4.4647500000000004
 30
0.0
 10
-2.7862300000000002
 20
3.8119700000000005
 30
0.0
 10
-3.4644100000000004
 20
3.0144100000000003
 30
0.0
 10
-3.0173700000000001
 20
2.17367
 30
0.0
 10
-3.0173700000000001
 20
2.17367
 30
0.0
 10
-2.5779500000000004
 20
1.44723
 30
0.0
 10
-1.1936500000000001
 20
1.2872100000000002
 30
0.0
 10
-1.0717300000000001
 20
2.26003
 30
0.0
 10
-1.0717300000000001
 20
2.26003
 30
0.0
 10
-1.00061
 20
2.34639
 30
0.0
 10
-0.9625100000000001
 20
2.4632300000000003
 30
0.0
 10
-0.84567
 20
2.5064100000000002
 30
0.0
 10
-0.84567
 20
2.5064100000000002
 30
0.0
 10
-1.24953
 20
2.17367
 30
0.0
 10
-0.63231
 20
1.0992500000000001
 30
0.0
 10
-0.39355
 20
1.7672700000000001
 30
0.0
 10
-0.39355
 20
1.7672700000000001
 30
0.0
 10
-0.33513
 20
1.6936100000000001
 30
0.0
 10
-0.30719
 20
1.5767700000000002
 30
0.0
 10
-0.20559
 20
1.5488300000000002
 30
0.0
 10
-0.20559
 20
1.5488300000000002
 30
0.0
 10
-0.09637
 20
1.5488300000000002
 30
0.0
 10
-0.14209
 20
1.6504300000000001
 30
0.0
 10
-0.14717
 20
1.7215500000000001
 30
0.0
 10
-0.14717
 20
1.7215500000000001
 30
0.0
 10
-0.17257
 20
1.7952100000000002
 30
0.0
 10
-0.19797
 20
1.9120500000000002
 30
0.0
 10
-0.16241
 20
1.9831700000000001
 30
0.0
 10
-0.16241
 20
1.9831700000000001
 30
0.0
 10
0.00776
 20
1.9120500000000002
 30
0.0
 10
0.12206
 20
1.36087
 30
0.0
 10
0.21096
 20
1.7799700000000001
 30
0.0
 10
0.21096
 20
1.7799700000000001
 30
0.0
 10
0.4802
 20
1.36087
 30
0.0
 10
0.59704
 20
2.3184500000000003
 30
0.0
 10
0.37606
 20
2.5343500000000003
 30
0.0
 10
0.37606
 20
2.5343500000000003
 30
0.0
 10
0.59958
 20
2.3743300000000001
 30
0.0
 10
0.8408800000000001
 20
2.0415900000000002
 30
0.0
 10
0.72404
 20
1.7215500000000001
 30
0.0
 10
0.72404
 20
1.7215500000000001
 30
0.0
 10
0.8027800000000001
 20
1.7088500000000002
 30
0.0
 10
0.8129400000000001
 20
1.82315
 30
0.0
 10
0.8789800000000001
 20
1.8536300000000001
 30
0.0
 10
0.8789800000000001
 20
1.8536300000000001
 30
0.0
 10
0.9856600000000001
 20
1.8536300000000001
 30
0.0
 10
0.9932800000000001
 20
1.6936100000000001
 30
0.0
 10
1.0974200000000001
 20
1.6783700000000001
 30
0.0
 10
1.0974200000000001
 20
1.6783700000000001
 30
0.0
 10
2.2201
 20
2.4759300000000004
 30
0.0
 10
2.0194400000000003
 20
4.0304100000000007
 30
0.0
 10
1.0542400000000001
 20
4.8711500000000001
 30
0.0
 10
1.0542400000000001
 20
4.8711500000000001
 30
0.0
 10
1.0567800000000001
 20
5.5239300000000009
 30
0.0
 10
1.1837800000000001
 20
6.1767100000000008
 30
0.0
 10
1.4174600000000002
 20
6.7710700000000008
 30
0.0
  0
SPLINE
  5
26
100
AcDbEntity
  8
Ebene 1
100
AcDbSpline
210
0.0
220
0.0
230
1.0
 70
     1
 71
     3
 72
    96
 73
    92
 74
     0
 42
0.0000000001
 43
0.0000000001
 40
0.0
 40
0.0
 40
0.0
 40
0.0
 40
0.0434782608695652
 40
0.0434782608695652
 40
0.0434782608695652
 40
0.0434782608695652
 40
0.0869565217391304
 40
0.0869565217391304
 40
0.0869565217391304
 40
0.0869565217391304
 40
0.1304347826086957
 40
0.1304347826086957
 40
0.1304347826086957
 40
0.1304347826086957
 40
0.1739130434782609
 40
0.1739130434782609
 40
0.1739130434782609
 40
0.1739130434782609
 40
0.2173913043478261
 40
0.2173913043478261
 40
0.2173913043478261
 40
0.2173913043478261
 40
0.2608695652173913
 40
0.2608695652173913
 40
0.2608695652173913
 40
0.2608695652173913
 40
0.3043478260869565
 40
0.3043478260869565
 40
0.3043478260869565
 40
0.3043478260869565
 40
0.3478260869565217
 40
0.3478260869565217
 40
0.3478260869565217
 40
0.3478260869565217
 40
0.3913043478260869
 40
0.3913043478260869
 40
0.3913043478260869
 40
0.3913043478260869
 40
0.4347826086956521
 40
0.4347826086956521
 40
0.4347826086956521
 40
0.4347826086956521
 40
0.4782608695652173
 40
0.4782608695652173
 40
0.4782608695652173
 40
0.4782608695652173
 40
0.5217391304347825
 40
0.5217391304347825
 40
0.5217391304347825
 40
0.5217391304347825
 40
0.5652173913043477
 40
0.5652173913043477
 40
0.5652173913043477
 40
0.5652173913043477
 40
0.6086956521739129
 40
0.6086956521739129
 40
0.6086956521739129
 40
0.6086956521739129
 40
0.6521739130434781
 40
0.6521739130434781
 40
0.6521739130434781
 40
0.6521739130434781
 40
0.6956521739130432
 40
0.6956521739130432
 40
0.6956521739130432
 40
0.6956521739130432
 40
0.7391304347826084
 40
0.7391304347826084
 40
0.7391304347826084
 40
0.7391304347826084
 40
0.7826086956521736
 40
0.7826086956521736
 40
0.7826086956521736
 40
0.7826086956521736
 40
0.8260869565217388
 40
0.8260869565217388
 40
0.8260869565217388
 40
0.8260869565217388
 40
0.869565217391304
 40
0.869565217391304
 40
0.869565217391304
 40
0.869565217391304
 40
0.9130434782608692
 40
0.9130434782608692
 40
0.9130434782608692
 40
0.9130434782608692
 40
0.9565217391304344
 40
0.9565217391304344
 40
0.9565217391304344
 40
0.9565217391304344
 40
1.0
 40
1.0
 40
1.0
 40
1.0
 10
-0.07605
 20
-1.16134
 30
0.0
 10
-1.04379
 20
-1.3645400000000001
 30
0.0
 10
-0.57135
 20
-2.3957800000000002
 30
0.0
 10
-0.45451
 20
-3.0333200000000002
 30
0.0
 10
-0.45451
 20
-3.0333200000000002
 30
0.0
 10
-0.37831
 20
-2.9317200000000003
 30
0.0
 10
-0.3656100000000001
 20
-2.6574000000000004
 30
0.0
 10
-0.20813
 20
-2.6853400000000001
 30
0.0
 10
-0.20813
 20
-2.6853400000000001
 30
0.0
 10
-0.18781
 20
-2.9037800000000002
 30
0.0
 10
-0.33005
 20
-3.1501600000000001
 30
0.0
 10
-0.20559
 20
-3.3381200000000004
 30
0.0
 10
-0.20559
 20
-3.3381200000000004
 30
0.0
 10
-0.12685
 20
-3.2822400000000003
 30
0.0
 10
-0.14717
 20
-3.0917400000000002
 30
0.0
 10
-0.02017
 20
-3.0917400000000002
 30
0.0
 10
-0.02017
 20
-3.0917400000000002
 30
0.0
 10
0.03824
 20
-3.3101800000000003
 30
0.0
 10
-0.00747
 20
-3.5413200000000002
 30
0.0
 10
-0.02779
 20
-3.7597600000000004
 30
0.0
 10
-0.02779
 20
-3.7597600000000004
 30
0.0
 10
-0.02779
 20
-3.7597600000000004
 30
0.0
 10
-0.03287
 20
-3.8613600000000003
 30
0.0
 10
-0.03287
 20
-3.8613600000000003
 30
0.0
 10
-0.03287
 20
-3.8613600000000003
 30
0.0
 10
0.00776
 20
-4.0366200000000001
 30
0.0
 10
0.10428
 20
-3.5845000000000002
 30
0.0
 10
0.19826
 20
-3.7165800000000004
 30
0.0
 10
0.19826
 20
-3.7165800000000004
 30
0.0
 10
0.19826
 20
-3.7165800000000004
 30
0.0
 10
0.15762
 20
-4.3109400000000004
 30
0.0
 10
0.15762
 20
-4.3109400000000004
 30
0.0
 10
0.15762
 20
-4.3109400000000004
 30
0.0
 10
0.34812
 20
-4.1229800000000001
 30
0.0
 10
0.404
 20
-4.2830000000000004
 30
0.0
 10
0.3151000000000001
 20
-4.4989000000000008
 30
0.0
 10
0.3151000000000001
 20
-4.4989000000000008
 30
0.0
 10
0.28716
 20
-4.5878000000000005
 30
0.0
 10
0.25414
 20
-4.6741600000000005
 30
0.0
 10
0.24398
 20
-4.7605200000000005
 30
0.0
 10
0.24398
 20
-4.7605200000000005
 30
0.0
 10
0.33034
 20
-4.7605200000000005
 30
0.0
 10
0.45734
 20
-4.5293800000000006
 30
0.0
 10
0.5030600000000001
 20
-4.6894
 30
0.0
 10
0.5030600000000001
 20
-4.6894
 30
0.0
 10
0.5030600000000001
 20
-4.6894
 30
0.0
 10
0.4725800000000001
 20
-4.9205400000000008
 30
0.0
 10
0.4725800000000001
 20
-4.9205400000000008
 30
0.0
 10
0.4725800000000001
 20
-4.9205400000000008
 30
0.0
 10
0.531
 20
-4.9205400000000008
 30
0.0
 10
0.5691000000000001
 20
-4.8773600000000004
 30
0.0
 10
0.6021200000000001
 20
-4.8341800000000008
 30
0.0
 10
0.6021200000000001
 20
-4.8341800000000008
 30
0.0
 10
0.7697600000000001
 20
-4.0061400000000003
 30
0.0
 10
0.22366
 20
-3.1781000000000001
 30
0.0
 10
0.6326000000000001
 20
-2.4237200000000003
 30
0.0
 10
0.6326000000000001
 20
-2.4237200000000003
 30
0.0
 10
0.2617600000000001
 20
-2.3094200000000003
 30
0.0
 10
0.7265800000000001
 20
-1.9741400000000002
 30
0.0
 10
0.6021200000000001
 20
-1.7430000000000001
 30
0.0
 10
0.6021200000000001
 20
-1.7430000000000001
 30
0.0
 10
0.52846
 20
-1.7430000000000001
 30
0.0
 10
0.47004
 20
-1.8166600000000002
 30
0.0
 10
0.4192400000000001
 20
-1.8573000000000002
 30
0.0
 10
0.4192400000000001
 20
-1.8573000000000002
 30
0.0
 10
0.24906
 20
-2.0173200000000002
 30
0.0
 10
0.4319400000000001
 20
-1.4966200000000001
 30
0.0
 10
0.25922
 20
-1.7430000000000001
 30
0.0
 10
0.25922
 20
-1.7430000000000001
 30
0.0
 10
0.16016
 20
-1.8573000000000002
 30
0.0
 10
0.10174
 20
-1.9893800000000001
 30
0.0
 10
0.07888
 20
-2.1341600000000001
 30
0.0
 10
0.07888
 20
-2.1341600000000001
 30
0.0
 10
-0.03033
 20
-2.0173200000000002
 30
0.0
 10
0.0103
 20
-1.8293600000000001
 30
0.0
 10
0.06364
 20
-1.6998200000000001
 30
0.0
 10
0.06364
 20
-1.6998200000000001
 30
0.0
 10
0.06364
 20
-1.6998200000000001
 30
0.0
 10
0.10936
 20
-1.5829800000000001
 30
0.0
 10
0.10936
 20
-1.5829800000000001
 30
0.0
 10
0.10936
 20
-1.5829800000000001
 30
0.0
 10
0.10682
 20
-1.5398000000000001
 30
0.0
 10
0.13222
 20
-1.5093200000000002
 30
0.0
 10
0.15
 20
-1.4813800000000001
 30
0.0
 10
0.15
 20
-1.4813800000000001
 30
0.0
 10
0.15
 20
-1.4813800000000001
 30
0.0
 10
0.18048
 20
-1.4102600000000001
 30
0.0
 10
0.18048
 20
-1.4102600000000001
 30
0.0
 10
0.18048
 20
-1.4102600000000001
 30
0.0
 10
0.27192
 20
-1.25024
 30
0.0
 10
0.01538
 20
-1.2350000000000001
 30
0.0
 10
-0.07605
 20
-1.16134
 30
0.0
  0
SPLINE
  5
27
100
AcDbEntity
  8
Ebene 1
 62
     7
100
AcDbSpline
210
0.0
220
0.0
230
1.0
 70
     1
 71
     3
 72
    56
 73
    52
 74
     0
 42
0.0000000001
 43
0.0000000001
 40
0.0
 40
0.0
 40
0.0
 40
0.0
 40
0.0769230769230769
 40
0.0769230769230769
 40
0.0769230769230769
 40
0.0769230769230769
 40
0.1538461538461539
 40
0.1538461538461539
 40
0.1538461538461539
 40
0.1538461538461539
 40
0.2307692307692308
 40
0.2307692307692308
 40
0.2307692307692308
 40
0.2307692307692308
 40
0.3076923076923077
 40
0.3076923076923077
 40
0.3076923076923077
 40
0.3076923076923077
 40
0.3846153846153846
 40
0.3846153846153846
 40
0.3846153846153846
 40
0.3846153846153846
 40
0.4615384615384616
 40
0.4615384615384616
 40
0.4615384615384616
 40
0.4615384615384616
 40
0.5384615384615386
 40
0.5384615384615386
 40
0.5384615384615386
 40
0.5384615384615386
 40
0.6153846153846154
 40
0.6153846153846154
 40
0.6153846153846154
 40
0.6153846153846154
 40
0.6923076923076923
 40
0.6923076923076923
 40
0.6923076923076923
 40
0.6923076923076923
 40
0.7692307692307692
 40
0.7692307692307692
 40
0.7692307692307692
 40
0.7692307692307692
 40
0.846153846153846
 40
0.846153846153846
 40
0.846153846153846
 40
0.846153846153846
 40
0.9230769230769229
 40
0.9230769230769229
 40
0.9230769230769229
 40
0.9230769230769229
 40
1.0
 40
1.0
 40
1.0
 40
1.0
 10
1.7933800000000002
 20
1.4751700000000001
 30
0.0
 10
1.9635600000000002
 20
1.6783700000000001
 30
0.0
 10
1.9965800000000002
 20
1.9679300000000002
 30
0.0
 10
2.0550000000000002
 20
2.1863700000000001
 30
0.0
 10
2.0550000000000002
 20
2.1863700000000001
 30
0.0
 10
1.8949800000000001
 20
1.9552300000000002
 30
0.0
 10
1.9457800000000001
 20
1.5920100000000001
 30
0.0
 10
1.6181200000000002
 20
1.4624700000000002
 30
0.0
 10
1.6181200000000002
 20
1.4624700000000002
 30
0.0
 10
1.23204
 20
1.0840100000000001
 30
0.0
 10
1.2117200000000001
 20
1.82315
 30
0.0
 10
1.5012800000000002
 20
1.9984100000000002
 30
0.0
 10
1.5012800000000002
 20
1.9984100000000002
 30
0.0
 10
1.56986
 20
2.0415900000000002
 30
0.0
 10
1.69686
 20
2.3311500000000001
 30
0.0
 10
1.6917800000000001
 20
2.1279500000000002
 30
0.0
 10
1.6917800000000001
 20
2.1279500000000002
 30
0.0
 10
1.7375
 20
1.9831700000000001
 30
0.0
 10
1.5165200000000001
 20
1.8688700000000003
 30
0.0
 10
1.6105
 20
1.7367900000000001
 30
0.0
 10
1.6105
 20
1.7367900000000001
 30
0.0
 10
1.9127600000000002
 20
2.3895700000000004
 30
0.0
 10
2.0346800000000003
 20
3.2023700000000002
 30
0.0
 10
1.8416400000000002
 20
3.9288100000000004
 30
0.0
 10
1.8416400000000002
 20
3.9288100000000004
 30
0.0
 10
1.9584800000000002
 20
3.8983300000000005
 30
0.0
 10
2.00928
 20
3.6087700000000003
 30
0.0
 10
2.1134200000000001
 20
3.6824300000000001
 30
0.0
 10
2.1134200000000001
 20
3.6824300000000001
 30
0.0
 10
2.1134200000000001
 20
3.6824300000000001
 30
0.0
 10
1.1253600000000001
 20
4.9143300000000005
 30
0.0
 10
1.1253600000000001
 20
4.9143300000000005
 30
0.0
 10
1.1253600000000001
 20
4.9143300000000005
 30
0.0
 10
1.11012
 20
5.2343700000000002
 30
0.0
 10
1.14314
 20
5.5975900000000003
 30
0.0
 10
1.3006200000000001
 20
5.8719100000000006
 30
0.0
 10
1.3006200000000001
 20
5.8719100000000006
 30
0.0
 10
1.1583800000000002
 20
4.8279700000000005
 30
0.0
 10
2.2226400000000002
 20
4.2336100000000005
 30
0.0
 10
2.3293200000000001
 20
3.2607900000000001
 30
0.0
 10
2.3293200000000001
 20
3.2607900000000001
 30
0.0
 10
2.3979000000000004
 20
3.0423500000000003
 30
0.0
 10
2.3699600000000003
 20
2.8112100000000004
 30
0.0
 10
2.3166200000000003
 20
2.6080100000000002
 30
0.0
 10
2.3166200000000003
 20
2.6080100000000002
 30
0.0
 10
2.21502
 20
2.7096100000000001
 30
0.0
 10
2.3242400000000001
 20
3.0575900000000003
 30
0.0
 10
2.1413600000000002
 20
3.0144100000000003
 30
0.0
 10
2.1413600000000002
 20
3.0144100000000003
 30
0.0
 10
2.3420200000000002
 20
2.4911700000000003
 30
0.0
 10
2.2251800000000004
 20
1.8536300000000001
 30
0.0
 10
1.7933800000000002
 20
1.4751700000000001
 30
0.0
  0
SPLINE
  5
28
100
AcDbEntity
  8
Ebene 1
 62
     7
100
AcDbSpline
210
0.0
220
0.0
230
1.0
 70
     1
 71
     3
 72
    92
 73
    88
 74
     0
 42
0.0000000001
 43
0.0000000001
 40
0.0
 40
0.0
 40
0.0
 40
0.0
 40
0.0454545454545455
 40
0.0454545454545455
 40
0.0454545454545455
 40
0.0454545454545455
 40
0.0909090909090909
 40
0.0909090909090909
 40
0.0909090909090909
 40
0.0909090909090909
 40
0.1363636363636364
 40
0.1363636363636364
 40
0.1363636363636364
 40
0.1363636363636364
 40
0.1818181818181818
 40
0.1818181818181818
 40
0.1818181818181818
 40
0.1818181818181818
 40
0.2272727272727273
 40
0.2272727272727273
 40
0.2272727272727273
 40
0.2272727272727273
 40
0.2727272727272728
 40
0.2727272727272728
 40
0.2727272727272728
 40
0.2727272727272728
 40
0.3181818181818182
 40
0.3181818181818182
 40
0.3181818181818182
 40
0.3181818181818182
 40
0.3636363636363637
 40
0.3636363636363637
 40
0.3636363636363637
 40
0.3636363636363637
 40
0.4090909090909092
 40
0.4090909090909092
 40
0.4090909090909092
 40
0.4090909090909092
 40
0.4545454545454546
 40
0.4545454545454546
 40
0.4545454545454546
 40
0.4545454545454546
 40
0.5000000000000001
 40
0.5000000000000001
 40
0.5000000000000001
 40
0.5000000000000001
 40
0.5454545454545455
 40
0.5454545454545455
 40
0.5454545454545455
 40
0.5454545454545455
 40
0.5909090909090909
 40
0.5909090909090909
 40
0.5909090909090909
 40
0.5909090909090909
 40
0.6363636363636364
 40
0.6363636363636364
 40
0.6363636363636364
 40
0.6363636363636364
 40
0.6818181818181818
 40
0.6818181818181818
 40
0.6818181818181818
 40
0.6818181818181818
 40
0.7272727272727272
 40
0.7272727272727272
 40
0.7272727272727272
 40
0.7272727272727272
 40
0.7727272727272726
 40
0.7727272727272726
 40
0.7727272727272726
 40
0.7727272727272726
 40
0.818181818181818
 40
0.818181818181818
 40
0.818181818181818
 40
0.818181818181818
 40
0.8636363636363634
 40
0.8636363636363634
 40
0.8636363636363634
 40
0.8636363636363634
 40
0.9090909090909088
 40
0.9090909090909088
 40
0.9090909090909088
 40
0.9090909090909088
 40
0.9545454545454543
 40
0.9545454545454543
 40
0.9545454545454543
 40
0.9545454545454543
 40
1.0
 40
1.0
 40
1.0
 40
1.0
 10
-2.6592300000000004
 20
5.43757
 30
0.0
 10
-2.4839700000000002
 20
5.1759500000000003
 30
0.0
 10
-2.4077700000000002
 20
4.8279700000000005
 30
0.0
 10
-2.3671300000000004
 20
4.50793
 30
0.0
 10
-2.3671300000000004
 20
4.50793
 30
0.0
 10
-2.7760700000000003
 20
3.8272100000000004
 30
0.0
 10
-3.4542500000000005
 20
3.1591900000000002
 30
0.0
 10
-3.3678900000000005
 20
2.3311500000000001
 30
0.0
 10
-3.3678900000000005
 20
2.3311500000000001
 30
0.0
 10
-3.3678900000000005
 20
2.3311500000000001
 30
0.0
 10
-3.3145500000000001
 20
2.6359500000000002
 30
0.0
 10
-3.3145500000000001
 20
2.6359500000000002
 30
0.0
 10
-3.3145500000000001
 20
2.6359500000000002
 30
0.0
 10
-3.2459700000000002
 20
2.8391500000000001
 30
0.0
 10
-3.2408900000000003
 20
2.4911700000000003
 30
0.0
 10
-3.1799300000000001
 20
2.4200500000000003
 30
0.0
 10
-3.1799300000000001
 20
2.4200500000000003
 30
0.0
 10
-3.1672300000000004
 20
2.30321
 30
0.0
 10
-3.1215100000000002
 20
2.2016100000000001
 30
0.0
 10
-3.0681700000000003
 20
2.1152500000000001
 30
0.0
 10
-3.0681700000000003
 20
2.1152500000000001
 30
0.0
 10
-3.0681700000000003
 20
2.1152500000000001
 30
0.0
 10
-3.0021300000000002
 20
1.9552300000000002
 30
0.0
 10
-3.0021300000000002
 20
1.9552300000000002
 30
0.0
 10
-3.0021300000000002
 20
1.9552300000000002
 30
0.0
 10
-3.0554700000000001
 20
1.9831700000000001
 30
0.0
 10
-3.1037300000000001
 20
2.0263500000000003
 30
0.0
 10
-3.1621500000000005
 20
2.0263500000000003
 30
0.0
 10
-3.1621500000000005
 20
2.0263500000000003
 30
0.0
 10
-2.7836900000000004
 20
1.7672700000000001
 30
0.0
 10
-2.30871
 20
1.4751700000000001
 30
0.0
 10
-1.8057900000000002
 20
1.4624700000000002
 30
0.0
 10
-1.8057900000000002
 20
1.4624700000000002
 30
0.0
 10
-1.7651500000000002
 20
1.4167500000000002
 30
0.0
 10
-1.7016500000000001
 20
1.3888100000000001
 30
0.0
 10
-1.7016500000000001
 20
1.3303900000000002
 30
0.0
 10
-1.7016500000000001
 20
1.3303900000000002
 30
0.0
 10
-1.9429500000000002
 20
1.2440300000000002
 30
0.0
 10
-2.23251
 20
1.5335900000000002
 30
0.0
 10
-2.5144500000000001
 20
1.5335900000000002
 30
0.0
 10
-2.5144500000000001
 20
1.5335900000000002
 30
0.0
 10
-2.5144500000000001
 20
1.5335900000000002
 30
0.0
 10
-2.7862300000000002
 20
1.6351900000000001
 30
0.0
 10
-2.7862300000000002
 20
1.6351900000000001
 30
0.0
 10
-2.7862300000000002
 20
1.6351900000000001
 30
0.0
 10
-2.5703300000000002
 20
1.44723
 30
0.0
 10
-2.1867900000000002
 20
1.3888100000000001
 30
0.0
 10
-1.9480300000000002
 20
1.1703700000000001
 30
0.0
 10
-1.9480300000000002
 20
1.1703700000000001
 30
0.0
 10
-1.8210300000000001
 20
1.0992500000000001
 30
0.0
 10
-1.6813300000000002
 20
0.9087500000000001
 30
0.0
 10
-1.7727700000000002
 20
0.7792100000000001
 30
0.0
 10
-1.7727700000000002
 20
0.7792100000000001
 30
0.0
 10
-2.2680700000000003
 20
0.7512700000000001
 30
0.0
 10
-2.8040100000000003
 20
1.44723
 30
0.0
 10
-3.0656300000000001
 20
1.40405
 30
0.0
 10
-3.0656300000000001
 20
1.40405
 30
0.0
 10
-2.8954500000000003
 20
1.36087
 30
0.0
 10
-2.8014700000000001
 20
1.1856100000000001
 30
0.0
 10
-2.6617700000000002
 20
1.0840100000000001
 30
0.0
 10
-2.6617700000000002
 20
1.0840100000000001
 30
0.0
 10
-3.1519900000000001
 20
1.1856100000000001
 30
0.0
 10
-3.4771100000000001
 20
1.6504300000000001
 30
0.0
 10
-3.7311100000000001
 20
2.0568300000000002
 30
0.0
 10
-3.7311100000000001
 20
2.0568300000000002
 30
0.0
 10
-3.7336500000000004
 20
2.1000100000000002
 30
0.0
 10
-3.7869900000000003
 20
2.2752700000000003
 30
0.0
 10
-3.7311100000000001
 20
2.17367
 30
0.0
 10
-3.7311100000000001
 20
2.17367
 30
0.0
 10
-3.6523700000000003
 20
1.9984100000000002
 30
0.0
 10
-3.5152100000000002
 20
1.8536300000000001
 30
0.0
 10
-3.3577300000000001
 20
1.7672700000000001
 30
0.0
 10
-3.3577300000000001
 20
1.7672700000000001
 30
0.0
 10
-3.6218900000000005
 20
2.0415900000000002
 30
0.0
 10
-3.7565100000000005
 20
2.4200500000000003
 30
0.0
 10
-3.8200100000000003
 20
2.7959700000000001
 30
0.0
 10
-3.8200100000000003
 20
2.7959700000000001
 30
0.0
 10
-3.6676100000000003
 20
3.2455500000000002
 30
0.0
 10
-3.4313900000000004
 20
3.7103700000000002
 30
0.0
 10
-3.0376900000000004
 20
4.0151700000000003
 30
0.0
 10
-3.0376900000000004
 20
4.0151700000000003
 30
0.0
 10
-2.9792700000000001
 20
3.9288100000000004
 30
0.0
 10
-3.1443700000000003
 20
3.7408500000000005
 30
0.0
 10
-3.0249900000000003
 20
3.7687900000000005
 30
0.0
 10
-3.0249900000000003
 20
3.7687900000000005
 30
0.0
 10
-2.8040100000000003
 20
4.3047300000000002
 30
0.0
 10
-2.64907
 20
4.84321
 30
0.0
 10
-2.6592300000000004
 20
5.43757
 30
0.0
  0
SPLINE
  5
29
100
AcDbEntity
  8
Ebene 1
 62
     7
100
AcDbSpline
210
0.0
220
0.0
230
1.0
 70
     1
 71
     3
 72
   196
 73
   192
 74
     0
 42
0.0000000001
 43
0.0000000001
 40
0.0
 40
0.0
 40
0.0
 40
0.0
 40
0.0208333333333333
 40
0.0208333333333333
 40
0.0208333333333333
 40
0.0208333333333333
 40
0.0416666666666667
 40
0.0416666666666667
 40
0.0416666666666667
 40
0.0416666666666667
 40
0.0625
 40
0.0625
 40
0.0625
 40
0.0625
 40
0.0833333333333333
 40
0.0833333333333333
 40
0.0833333333333333
 40
0.0833333333333333
 40
0.1041666666666667
 40
0.1041666666666667
 40
0.1041666666666667
 40
0.1041666666666667
 40
0.125
 40
0.125
 40
0.125
 40
0.125
 40
0.1458333333333333
 40
0.1458333333333333
 40
0.1458333333333333
 40
0.1458333333333333
 40
0.1666666666666667
 40
0.1666666666666667
 40
0.1666666666666667
 40
0.1666666666666667
 40
0.1875
 40
0.1875
 40
0.1875
 40
0.1875
 40
0.2083333333333333
 40
0.2083333333333333
 40
0.2083333333333333
 40
0.2083333333333333
 40
0.2291666666666667
 40
0.2291666666666667
 40
0.2291666666666667
 40
0.2291666666666667
 40
0.25
 40
0.25
 40
0.25
 40
0.25
 40
0.2708333333333333
 40
0.2708333333333333
 40
0.2708333333333333
 40
0.2708333333333333
 40
0.2916666666666666
 40
0.2916666666666666
 40
0.2916666666666666
 40
0.2916666666666666
 40
0.3124999999999999
 40
0.3124999999999999
 40
0.3124999999999999
 40
0.3124999999999999
 40
0.3333333333333333
 40
0.3333333333333333
 40
0.3333333333333333
 40
0.3333333333333333
 40
0.3541666666666666
 40
0.3541666666666666
 40
0.3541666666666666
 40
0.3541666666666666
 40
0.3749999999999999
 40
0.3749999999999999
 40
0.3749999999999999
 40
0.3749999999999999
 40
0.3958333333333332
 40
0.3958333333333332
 40
0.3958333333333332
 40
0.3958333333333332
 40
0.4166666666666665
 40
0.4166666666666665
 40
0.4166666666666665
 40
0.4166666666666665
 40
0.4374999999999998
 40
0.4374999999999998
 40
0.4374999999999998
 40
0.4374999999999998
 40
0.4583333333333332
 40
0.4583333333333332
 40
0.4583333333333332
 40
0.4583333333333332
 40
0.4791666666666665
 40
0.4791666666666665
 40
0.4791666666666665
 40
0.4791666666666665
 40
0.4999999999999998
 40
0.4999999999999998
 40
0.4999999999999998
 40
0.4999999999999998
 40
0.5208333333333332
 40
0.5208333333333332
 40
0.5208333333333332
 40
0.5208333333333332
 40
0.5416666666666665
 40
0.5416666666666665
 40
0.5416666666666665
 40
0.5416666666666665
 40
0.5624999999999999
 40
0.5624999999999999
 40
0.5624999999999999
 40
0.5624999999999999
 40
0.5833333333333333
 40
0.5833333333333333
 40
0.5833333333333333
 40
0.5833333333333333
 40
0.6041666666666666
 40
0.6041666666666666
 40
0.6041666666666666
 40
0.6041666666666666
 40
0.625
 40
0.625
 40
0.625
 40
0.625
 40
0.6458333333333334
 40
0.6458333333333334
 40
0.6458333333333334
 40
0.6458333333333334
 40
0.6666666666666667
 40
0.6666666666666667
 40
0.6666666666666667
 40
0.6666666666666667
 40
0.6875000000000001
 40
0.6875000000000001
 40
0.6875000000000001
 40
0.6875000000000001
 40
0.7083333333333335
 40
0.7083333333333335
 40
0.7083333333333335
 40
0.7083333333333335
 40
0.7291666666666669
 40
0.7291666666666669
 40
0.7291666666666669
 40
0.7291666666666669
 40
0.7500000000000002
 40
0.7500000000000002
 40
0.7500000000000002
 40
0.7500000000000002
 40
0.7708333333333336
 40
0.7708333333333336
 40
0.7708333333333336
 40
0.7708333333333336
 40
0.791666666666667
 40
0.791666666666667
 40
0.791666666666667
 40
0.791666666666667
 40
0.8125000000000003
 40
0.8125000000000003
 40
0.8125000000000003
 40
0.8125000000000003
 40
0.8333333333333337
 40
0.8333333333333337
 40
0.8333333333333337
 40
0.8333333333333337
 40
0.8541666666666671
 40
0.8541666666666671
 40
0.8541666666666671
 40
0.8541666666666671
 40
0.8750000000000004
 40
0.8750000000000004
 40
0.8750000000000004
 40
0.8750000000000004
 40
0.8958333333333338
 40
0.8958333333333338
 40
0.8958333333333338
 40
0.8958333333333338
 40
0.9166666666666672
 40
0.9166666666666672
 40
0.9166666666666672
 40
0.9166666666666672
 40
0.9375000000000006
 40
0.9375000000000006
 40
0.9375000000000006
 40
0.9375000000000006
 40
0.9583333333333339
 40
0.9583333333333339
 40
0.9583333333333339
 40
0.9583333333333339
 40
0.9791666666666673
 40
0.9791666666666673
 40
0.9791666666666673
 40
0.9791666666666673
 40
1.0
 40
1.0
 40
1.0
 40
1.0
 10
0.5894200000000001
 20
2.0695300000000003
 30
0.0
 10
0.7138800000000001
 20
1.9552300000000002
 30
0.0
 10
0.6224400000000001
 20
1.7367900000000001
 30
0.0
 10
0.63768
 20
1.5615300000000001
 30
0.0
 10
0.63768
 20
1.5615300000000001
 30
0.0
 10
0.76722
 20
1.5335900000000002
 30
0.0
 10
0.8358000000000001
 20
1.6783700000000001
 30
0.0
 10
0.9043800000000001
 20
1.7367900000000001
 30
0.0
 10
0.9043800000000001
 20
1.7367900000000001
 30
0.0
 10
1.2041000000000002
 20
1.3303900000000002
 30
0.0
 10
1.6816200000000001
 20
0.5480700000000001
 30
0.0
 10
1.8264000000000002
 20
-0.20376
 30
0.0
 10
1.8264000000000002
 20
-0.20376
 30
0.0
 10
2.3902800000000002
 20
-0.6838200000000001
 30
0.0
 10
2.4918800000000001
 20
-1.4813800000000001
 30
0.0
 10
2.9948000000000001
 20
-2.0325600000000001
 30
0.0
 10
2.9948000000000001
 20
-2.0325600000000001
 30
0.0
 10
2.9236800000000001
 20
-2.1494
 30
0.0
 10
2.9059000000000004
 20
-2.27894
 30
0.0
 10
2.8779600000000003
 20
-2.4110200000000002
 30
0.0
 10
2.8779600000000003
 20
-2.4110200000000002
 30
0.0
 10
2.67476
 20
-2.3221200000000004
 30
0.0
 10
2.0245200000000003
 20
-1.8877800000000002
 30
0.0
 10
2.12866
 20
-2.4237200000000003
 30
0.0
 10
2.12866
 20
-2.4237200000000003
 30
0.0
 10
2.3242400000000001
 20
-2.7437600000000004
 30
0.0
 10
2.5223600000000004
 20
-3.1069800000000001
 30
0.0
 10
2.8576400000000004
 20
-3.2949400000000004
 30
0.0
 10
2.8576400000000004
 20
-3.2949400000000004
 30
0.0
 10
2.9440000000000004
 20
-3.3533600000000003
 30
0.0
 10
3.0405200000000003
 20
-3.3965400000000003
 30
0.0
 10
3.1421200000000002
 20
-3.4244800000000004
 30
0.0
 10
3.1421200000000002
 20
-3.4244800000000004
 30
0.0
 10
3.2843600000000004
 20
-2.4694400000000001
 30
0.0
 10
4.0412800000000004
 20
-4.2372800000000002
 30
0.0
 10
3.8406200000000004
 20
-4.3109400000000004
 30
0.0
 10
3.8406200000000004
 20
-4.3109400000000004
 30
0.0
 10
3.7999800000000001
 20
-4.1814
 30
0.0
 10
3.7491800000000004
 20
-4.26776
 30
0.0
 10
3.7974400000000004
 20
-4.35412
 30
0.0
 10
3.7974400000000004
 20
-4.35412
 30
0.0
 10
3.8152200000000005
 20
-4.4430200000000006
 30
0.0
 10
3.8431600000000001
 20
-4.5573200000000007
 30
0.0
 10
3.8228400000000002
 20
-4.6309800000000001
 30
0.0
 10
3.8228400000000002
 20
-4.6309800000000001
 30
0.0
 10
3.6425000000000005
 20
-4.35412
 30
0.0
 10
3.5840800000000002
 20
-4.0213800000000006
 30
0.0
 10
3.4596200000000001
 20
-3.7165800000000004
 30
0.0
 10
3.4596200000000001
 20
-3.7165800000000004
 30
0.0
 10
3.3529400000000003
 20
-3.8029400000000004
 30
0.0
 10
3.5790000000000002
 20
-4.0493200000000007
 30
0.0
 10
3.5459800000000001
 20
-4.2093400000000001
 30
0.0
 10
3.5459800000000001
 20
-4.2093400000000001
 30
0.0
 10
3.3681800000000002
 20
-4.1356800000000007
 30
0.0
 10
3.2640400000000001
 20
-3.9197800000000003
 30
0.0
 10
3.1294200000000001
 20
-3.8181800000000004
 30
0.0
 10
3.1294200000000001
 20
-3.8181800000000004
 30
0.0
 10
3.1751400000000003
 20
-4.2372800000000002
 30
0.0
 10
2.8881200000000002
 20
-3.8308800000000005
 30
0.0
 10
3.05322
 20
-3.6734000000000004
 30
0.0
 10
3.05322
 20
-3.6734000000000004
 30
0.0
 10
2.6544400000000001
 20
-3.9782000000000002
 30
0.0
 10
2.4664800000000002
 20
-3.3533600000000003
 30
0.0
 10
2.2861400000000001
 20
-3.1069800000000001
 30
0.0
 10
2.2861400000000001
 20
-3.1069800000000001
 30
0.0
 10
2.25312
 20
-3.2238200000000004
 30
0.0
 10
2.16676
 20
-3.3686000000000003
 30
0.0
 10
2.0880200000000002
 20
-3.4549600000000003
 30
0.0
 10
2.0880200000000002
 20
-3.4549600000000003
 30
0.0
 10
2.0321400000000001
 20
-3.2365200000000001
 30
0.0
 10
2.1845400000000001
 20
-3.1501600000000001
 30
0.0
 10
2.2709000000000001
 20
-2.9901400000000002
 30
0.0
 10
2.2709000000000001
 20
-2.9901400000000002
 30
0.0
 10
2.0169000000000001
 20
-3.2517600000000004
 30
0.0
 10
1.6232000000000002
 20
-2.5989800000000001
 30
0.0
 10
1.5038200000000002
 20
-2.4694400000000001
 30
0.0
 10
1.5038200000000002
 20
-2.4694400000000001
 30
0.0
 10
1.5876400000000002
 20
-2.5558000000000001
 30
0.0
 10
1.4606400000000002
 20
-2.7717000000000001
 30
0.0
 10
1.3768200000000002
 20
-2.8301200000000004
 30
0.0
 10
1.3768200000000002
 20
-2.8301200000000004
 30
0.0
 10
1.3336400000000002
 20
-2.6701000000000001
 30
0.0
 10
1.4555600000000002
 20
-2.5100800000000003
 30
0.0
 10
1.3869800000000001
 20
-2.3805400000000003
 30
0.0
 10
1.3869800000000001
 20
-2.3805400000000003
 30
0.0
 10
1.1355200000000001
 20
-2.3678400000000002
 30
0.0
 10
1.14568
 20
-2.7158200000000003
 30
0.0
 10
1.02884
 20
-2.8301200000000004
 30
0.0
 10
1.02884
 20
-2.8301200000000004
 30
0.0
 10
0.9628000000000001
 20
-2.5989800000000001
 30
0.0
 10
1.3082400000000001
 20
-1.8446000000000002
 30
0.0
 10
1.39968
 20
-2.19258
 30
0.0
 10
1.39968
 20
-2.19258
 30
0.0
 10
1.3514200000000001
 20
-2.2230600000000003
 30
0.0
 10
1.3565
 20
-2.3526000000000002
 30
0.0
 10
1.40476
 20
-2.2510000000000003
 30
0.0
 10
1.40476
 20
-2.2510000000000003
 30
0.0
 10
1.40476
 20
-2.2510000000000003
 30
0.0
 10
1.4352400000000001
 20
-2.19258
 30
0.0
 10
1.4352400000000001
 20
-2.19258
 30
0.0
 10
1.4352400000000001
 20
-2.19258
 30
0.0
 10
1.4276200000000001
 20
-1.5829800000000001
 30
0.0
 10
0.9196200000000001
 20
-2.3805400000000003
 30
0.0
 10
0.5945
 20
-2.3373600000000003
 30
0.0
 10
0.5945
 20
-2.3373600000000003
 30
0.0
 10
0.49036
 20
-2.1341600000000001
 30
0.0
 10
0.8002400000000001
 20
-2.0046200000000001
 30
0.0
 10
0.8637400000000001
 20
-1.8293600000000001
 30
0.0
 10
0.8637400000000001
 20
-1.8293600000000001
 30
0.0
 10
0.6097400000000001
 20
-1.62616
 30
0.0
 10
0.20334
 20
-0.9429000000000001
 30
0.0
 10
-0.39101
 20
-1.20452
 30
0.0
 10
-0.39101
 20
-1.20452
 30
0.0
 10
-0.52563
 20
-1.07498
 30
0.0
 10
-0.55611
 20
-0.8717800000000001
 30
0.0
 10
-0.7135900000000001
 20
-0.7549400000000001
 30
0.0
 10
-0.7135900000000001
 20
-0.7549400000000001
 30
0.0
 10
-1.1504700000000001
 20
-0.9733800000000001
 30
0.0
 10
-1.4806700000000002
 20
-0.7549400000000001
 30
0.0
 10
-1.79817
 20
-0.40696
 30
0.0
 10
-1.79817
 20
-0.40696
 30
0.0
 10
-1.8184900000000002
 20
0.02483
 30
0.0
 10
-1.1885700000000001
 20
0.12643
 30
0.0
 10
-1.3181100000000001
 20
0.61919
 30
0.0
 10
-1.3181100000000001
 20
0.61919
 30
0.0
 10
-1.20635
 20
0.5912500000000001
 30
0.0
 10
-1.2749300000000001
 20
0.4312300000000001
 30
0.0
 10
-1.20635
 20
0.34487
 30
0.0
 10
-1.20635
 20
0.34487
 30
0.0
 10
-1.5771900000000001
 20
-0.1174
 30
0.0
 10
-0.6932700000000001
 20
-0.33584
 30
0.0
 10
-0.36815
 20
-0.1174
 30
0.0
 10
-0.36815
 20
-0.1174
 30
0.0
 10
-0.39355
 20
-0.19106
 30
0.0
 10
-0.6069100000000001
 20
-0.26218
 30
0.0
 10
-0.55357
 20
-0.3206000000000001
 30
0.0
 10
-0.55357
 20
-0.3206000000000001
 30
0.0
 10
-0.55357
 20
-0.3206000000000001
 30
0.0
 10
-0.28941
 20
-0.20376
 30
0.0
 10
-0.28941
 20
-0.20376
 30
0.0
 10
-0.28941
 20
-0.20376
 30
0.0
 10
-0.20305
 20
-0.24948
 30
0.0
 10
-0.14463
 20
-0.3637800000000001
 30
0.0
 10
-0.03541
 20
-0.3637800000000001
 30
0.0
 10
-0.03541
 20
-0.3637800000000001
 30
0.0
 10
-0.26655
 20
0.02483
 30
0.0
 10
-0.9752100000000001
 20
0.31439
 30
0.0
 10
-0.7897900000000001
 20
0.8376300000000001
 30
0.0
 10
-0.7897900000000001
 20
0.8376300000000001
 30
0.0
 10
-0.8583700000000001
 20
0.25597
 30
0.0
 10
-1.6254500000000001
 20
0.85287
 30
0.0
 10
-1.24953
 20
1.22879
 30
0.0
 10
-1.24953
 20
1.22879
 30
0.0
 10
-1.54925
 20
1.0992500000000001
 30
0.0
 10
-1.3689100000000001
 20
1.40405
 30
0.0
 10
-1.3079500000000002
 20
1.5335900000000002
 30
0.0
 10
-1.3079500000000002
 20
1.5335900000000002
 30
0.0
 10
-1.8134100000000002
 20
1.2872100000000002
 30
0.0
 10
-1.2723900000000001
 20
0.7360300000000001
 30
0.0
 10
-1.4552700000000001
 20
0.38805
 30
0.0
 10
-1.4552700000000001
 20
0.38805
 30
0.0
 10
-1.7930900000000001
 20
0.6928500000000001
 30
0.0
 10
-1.6381500000000002
 20
1.3888100000000001
 30
0.0
 10
-1.3181100000000001
 20
1.7215500000000001
 30
0.0
 10
-1.3181100000000001
 20
1.7215500000000001
 30
0.0
 10
-1.24699
 20
1.5920100000000001
 30
0.0
 10
-0.7542300000000001
 20
1.3456300000000001
 30
0.0
 10
-0.7974100000000001
 20
1.4624700000000002
 30
0.0
 10
-0.7974100000000001
 20
1.4624700000000002
 30
0.0
 10
-0.9244100000000001
 20
1.6072500000000001
 30
0.0
 10
-1.12761
 20
1.7672700000000001
 30
0.0
 10
-1.0717300000000001
 20
1.9679300000000002
 30
0.0
 10
-1.0717300000000001
 20
1.9679300000000002
 30
0.0
 10
-1.0717300000000001
 20
1.6783700000000001
 30
0.0
 10
-0.25385
 20
1.1856100000000001
 30
0.0
 10
-0.39101
 20
1.6504300000000001
 30
0.0
 10
-0.39101
 20
1.6504300000000001
 30
0.0
 10
-0.35037
 20
1.5056500000000002
 30
0.0
 10
-0.20813
 20
1.5208900000000001
 30
0.0
 10
-0.10653
 20
1.49041
 30
0.0
 10
-0.10653
 20
1.49041
 30
0.0
 10
-0.44181
 20
0.8681100000000001
 30
0.0
 10
0.12968
 20
1.0992500000000001
 30
0.0
 10
0.51322
 20
0.8960500000000001
 30
0.0
 10
0.51322
 20
0.8960500000000001
 30
0.0
 10
0.3786000000000001
 20
1.11449
 30
0.0
 10
0.22874
 20
1.2872100000000002
 30
0.0
 10
0.17286
 20
1.5488300000000002
 30
0.0
 10
0.17286
 20
1.5488300000000002
 30
0.0
 10
0.4192400000000001
 20
1.4751700000000001
 30
0.0
 10
0.6326000000000001
 20
1.7952100000000002
 30
0.0
 10
0.5894200000000001
 20
2.0695300000000003
 30
0.0
  0
SPLINE
  5
2A
100
AcDbEntity
  8
Ebene 1
 62
     7
100
AcDbSpline
210
0.0
220
0.0
230
1.0
 70
     1
 71
     3
 72
    16
 73
    12
 74
     0
 42
0.0000000001
 43
0.0000000001
 40
0.0
 40
0.0
 40
0.0
 40
0.0
 40
0.3333333333333333
 40
0.3333333333333333
 40
0.3333333333333333
 40
0.3333333333333333
 40
0.6666666666666666
 40
0.6666666666666666
 40
0.6666666666666666
 40
0.6666666666666666
 40
1.0
 40
1.0
 40
1.0
 40
1.0
 10
-0.03287
 20
1.6656700000000002
 30
0.0
 10
0.13222
 20
1.49041
 30
0.0
 10
0.24398
 20
1.27451
 30
0.0
 10
0.29732
 20
1.0408300000000001
 30
0.0
 10
0.29732
 20
1.0408300000000001
 30
0.0
 10
0.17286
 20
0.9392300000000001
 30
0.0
 10
0.02046
 20
1.06877
 30
0.0
 10
-0.03287
 20
1.1856100000000001
 30
0.0
 10
-0.03287
 20
1.1856100000000001
 30
0.0
 10
-0.03033
 20
1.3456300000000001
 30
0.0
 10
0.00268
 20
1.5056500000000002
 30
0.0
 10
-0.03287
 20
1.6656700000000002
 30
0.0
  0
SPLINE
  5
2B
100
AcDbEntity
  8
Ebene 1
100
AcDbSpline
210
0.0
220
0.0
230
1.0
 70
     1
 71
     3
 72
    16
 73
    12
 74
     0
 42
0.0000000001
 43
0.0000000001
 40
0.0
 40
0.0
 40
0.0
 40
0.0
 40
0.3333333333333333
 40
0.3333333333333333
 40
0.3333333333333333
 40
0.3333333333333333
 40
0.6666666666666666
 40
0.6666666666666666
 40
0.6666666666666666
 40
0.6666666666666666
 40
1.0
 40
1.0
 40
1.0
 40
1.0
 10
-1.0615700000000001
 20
1.3735700000000002
 30
0.0
 10
-0.7542300000000001
 20
1.4319900000000001
 30
0.0
 10
-0.6424700000000001
 20
1.0840100000000001
 30
0.0
 10
-0.41133
 20
0.9671700000000001
 30
0.0
 10
-0.41133
 20
0.9671700000000001
 30
0.0
 10
-0.6932700000000001
 20
0.95447
 30
0.0
 10
-0.7491500000000001
 20
1.3888100000000001
 30
0.0
 10
-1.0488700000000002
 20
1.3303900000000002
 30
0.0
 10
-1.0488700000000002
 20
1.3303900000000002
 30
0.0
 10
-1.0717300000000001
 20
1.3303900000000002
 30
0.0
 10
-1.0590300000000001
 20
1.36087
 30
0.0
 10
-1.0615700000000001
 20
1.3735700000000002
 30
0.0
  0
SPLINE
  5
2C
100
AcDbEntity
  8
Ebene 1
100
AcDbSpline
210
0.0
220
0.0
230
1.0
 70
     1
 71
     3
 72
    32
 73
    28
 74
     0
 42
0.0000000001
 43
0.0000000001
 40
0.0
 40
0.0
 40
0.0
 40
0.0
 40
0.1428571428571429
 40
0.1428571428571429
 40
0.1428571428571429
 40
0.1428571428571429
 40
0.2857142857142857
 40
0.2857142857142857
 40
0.2857142857142857
 40
0.2857142857142857
 40
0.4285714285714286
 40
0.4285714285714286
 40
0.4285714285714286
 40
0.4285714285714286
 40
0.5714285714285714
 40
0.5714285714285714
 40
0.5714285714285714
 40
0.5714285714285714
 40
0.7142857142857142
 40
0.7142857142857142
 40
0.7142857142857142
 40
0.7142857142857142
 40
0.857142857142857
 40
0.857142857142857
 40
0.857142857142857
 40
0.857142857142857
 40
1.0
 40
1.0
 40
1.0
 40
1.0
 10
0.66308
 20
1.0992500000000001
 30
0.0
 10
0.9094600000000001
 20
0.8960500000000001
 30
0.0
 10
0.9297800000000001
 20
0.4617100000000001
 30
0.0
 10
1.2117200000000001
 20
0.24327
 30
0.0
 10
1.2117200000000001
 20
0.24327
 30
0.0
 10
1.2117200000000001
 20
0.24327
 30
0.0
 10
1.2396600000000002
 20
0.11119
 30
0.0
 10
1.2396600000000002
 20
0.11119
 30
0.0
 10
1.2396600000000002
 20
0.11119
 30
0.0
 10
1.2396600000000002
 20
0.11119
 30
0.0
 10
1.18886
 20
0.11119
 30
0.0
 10
1.18886
 20
0.11119
 30
0.0
 10
1.18886
 20
0.11119
 30
0.0
 10
1.14822
 20
0.37281
 30
0.0
 10
0.8180200000000001
 20
0.16961
 30
0.0
 10
0.6910200000000001
 20
0.34487
 30
0.0
 10
0.6910200000000001
 20
0.34487
 30
0.0
 10
0.63768
 20
0.31439
 30
0.0
 10
0.6681600000000001
 20
0.22803
 30
0.0
 10
0.6097400000000001
 20
0.21279
 30
0.0
 10
0.6097400000000001
 20
0.21279
 30
0.0
 10
0.6097400000000001
 20
0.21279
 30
0.0
 10
0.5894200000000001
 20
0.32963
 30
0.0
 10
0.5894200000000001
 20
0.32963
 30
0.0
 10
0.5894200000000001
 20
0.32963
 30
0.0
 10
0.76214
 20
0.5480700000000001
 30
0.0
 10
0.61736
 20
0.8223900000000001
 30
0.0
 10
0.66308
 20
1.0992500000000001
 30
0.0
  0
SPLINE
  5
2D
100
AcDbEntity
  8
Ebene 1
100
AcDbSpline
210
0.0
220
0.0
230
1.0
 70
     1
 71
     3
 72
    24
 73
    20
 74
     0
 42
0.0000000001
 43
0.0000000001
 40
0.0
 40
0.0
 40
0.0
 40
0.0
 40
0.2
 40
0.2
 40
0.2
 40
0.2
 40
0.4
 40
0.4
 40
0.4
 40
0.4
 40
0.6000000000000001
 40
0.6000000000000001
 40
0.6000000000000001
 40
0.6000000000000001
 40
0.8
 40
0.8
 40
0.8
 40
0.8
 40
1.0
 40
1.0
 40
1.0
 40
1.0
 10
-0.27925
 20
0.9239900000000001
 30
0.0
 10
-0.27925
 20
0.9239900000000001
 30
0.0
 10
-0.23861
 20
0.9239900000000001
 30
0.0
 10
-0.23861
 20
0.9239900000000001
 30
0.0
 10
-0.23861
 20
0.9239900000000001
 30
0.0
 10
-0.23861
 20
0.9239900000000001
 30
0.0
 10
-0.09383
 20
0.4744100000000001
 30
0.0
 10
-0.09383
 20
0.4744100000000001
 30
0.0
 10
-0.09383
 20
0.4744100000000001
 30
0.0
 10
-0.09383
 20
0.4744100000000001
 30
0.0
 10
-0.12177
 20
0.37281
 30
0.0
 10
-0.12177
 20
0.37281
 30
0.0
 10
-0.12177
 20
0.37281
 30
0.0
 10
-0.20559
 20
0.53283
 30
0.0
 10
-0.25893
 20
0.72079
 30
0.0
 10
-0.30719
 20
0.8960500000000001
 30
0.0
 10
-0.30719
 20
0.8960500000000001
 30
0.0
 10
-0.30719
 20
0.8960500000000001
 30
0.0
 10
-0.27925
 20
0.9239900000000001
 30
0.0
 10
-0.27925
 20
0.9239900000000001
 30
0.0
  0
SPLINE
  5
2E
100
AcDbEntity
  8
Ebene 1
 62
     7
100
AcDbSpline
210
0.0
220
0.0
230
1.0
 70
     1
 71
     3
 72
    28
 73
    24
 74
     0
 42
0.0000000001
 43
0.0000000001
 40
0.0
 40
0.0
 40
0.0
 40
0.0
 40
0.1666666666666667
 40
0.1666666666666667
 40
0.1666666666666667
 40
0.1666666666666667
 40
0.3333333333333333
 40
0.3333333333333333
 40
0.3333333333333333
 40
0.3333333333333333
 40
0.5
 40
0.5
 40
0.5
 40
0.5
 40
0.6666666666666666
 40
0.6666666666666666
 40
0.6666666666666666
 40
0.6666666666666666
 40
0.8333333333333333
 40
0.8333333333333333
 40
0.8333333333333333
 40
0.8333333333333333
 40
1.0
 40
1.0
 40
1.0
 40
1.0
 10
-2.2680700000000003
 20
0.7360300000000001
 30
0.0
 10
-1.9988300000000001
 20
0.7512700000000001
 30
0.0
 10
-1.6584700000000001
 20
0.56077
 30
0.0
 10
-1.6559300000000001
 20
0.27121
 30
0.0
 10
-1.6559300000000001
 20
0.27121
 30
0.0
 10
-1.8591300000000002
 20
-0.04374
 30
0.0
 10
-2.0242300000000002
 20
-0.3942600000000001
 30
0.0
 10
-2.3239500000000004
 20
-0.6406400000000001
 30
0.0
 10
-2.3239500000000004
 20
-0.6406400000000001
 30
0.0
 10
-2.77861
 20
-0.5822200000000001
 30
0.0
 10
-2.9284700000000004
 20
0.08325
 30
0.0
 10
-2.6185900000000002
 20
0.36011
 30
0.0
 10
-2.6185900000000002
 20
0.36011
 30
0.0
 10
-2.56779
 20
0.44647
 30
0.0
 10
-2.5423900000000001
 20
0.36011
 30
0.0
 10
-2.5423900000000001
 20
0.30169
 30
0.0
 10
-2.5423900000000001
 20
0.30169
 30
0.0
 10
-2.5423900000000001
 20
0.30169
 30
0.0
 10
-2.5373100000000002
 20
0.05531
 30
0.0
 10
-2.5373100000000002
 20
0.05531
 30
0.0
 10
-2.5373100000000002
 20
0.05531
 30
0.0
 10
-2.3798300000000001
 20
0.24327
 30
0.0
 10
-2.5373100000000002
 20
0.6344300000000001
 30
0.0
 10
-2.2680700000000003
 20
0.7360300000000001
 30
0.0
  0
SPLINE
  5
2F
100
AcDbEntity
  8
Ebene 1
 62
     7
100
AcDbSpline
210
0.0
220
0.0
230
1.0
 70
     1
 71
     3
 72
    20
 73
    16
 74
     0
 42
0.0000000001
 43
0.0000000001
 40
0.0
 40
0.0
 40
0.0
 40
0.0
 40
0.25
 40
0.25
 40
0.25
 40
0.25
 40
0.5
 40
0.5
 40
0.5
 40
0.5
 40
0.75
 40
0.75
 40
0.75
 40
0.75
 40
1.0
 40
1.0
 40
1.0
 40
1.0
 10
0.7773800000000001
 20
0.6928500000000001
 30
0.0
 10
0.7951600000000001
 20
0.6928500000000001
 30
0.0
 10
0.80786
 20
0.6928500000000001
 30
0.0
 10
0.8180200000000001
 20
0.6776100000000001
 30
0.0
 10
0.8180200000000001
 20
0.6776100000000001
 30
0.0
 10
0.8561200000000001
 20
0.53283
 30
0.0
 10
1.0110600000000001
 20
0.48965
 30
0.0
 10
1.02122
 20
0.32963
 30
0.0
 10
1.02122
 20
0.32963
 30
0.0
 10
0.95264
 20
0.30169
 30
0.0
 10
0.8586600000000001
 20
0.34487
 30
0.0
 10
0.7977000000000001
 20
0.37281
 30
0.0
 10
0.7977000000000001
 20
0.37281
 30
0.0
 10
0.7773800000000001
 20
0.4744100000000001
 30
0.0
 10
0.7697600000000001
 20
0.5912500000000001
 30
0.0
 10
0.7773800000000001
 20
0.6928500000000001
 30
0.0
  0
SPLINE
  5
30
100
AcDbEntity
  8
Ebene 1
100
AcDbSpline
210
0.0
220
0.0
230
1.0
 70
     1
 71
     3
 72
    28
 73
    24
 74
     0
 42
0.0000000001
 43
0.0000000001
 40
0.0
 40
0.0
 40
0.0
 40
0.0
 40
0.1666666666666667
 40
0.1666666666666667
 40
0.1666666666666667
 40
0.1666666666666667
 40
0.3333333333333333
 40
0.3333333333333333
 40
0.3333333333333333
 40
0.3333333333333333
 40
0.5
 40
0.5
 40
0.5
 40
0.5
 40
0.6666666666666666
 40
0.6666666666666666
 40
0.6666666666666666
 40
0.6666666666666666
 40
0.8333333333333333
 40
0.8333333333333333
 40
0.8333333333333333
 40
0.8333333333333333
 40
1.0
 40
1.0
 40
1.0
 40
1.0
 10
-0.01763
 20
0.32963
 30
0.0
 10
-0.01763
 20
0.32963
 30
0.0
 10
0.02046
 20
0.31439
 30
0.0
 10
0.02046
 20
0.31439
 30
0.0
 10
0.02046
 20
0.31439
 30
0.0
 10
0.07126
 20
0.11119
 30
0.0
 10
0.27446
 20
0.00959
 30
0.0
 10
0.3989200000000001
 20
-0.1174
 30
0.0
 10
0.3989200000000001
 20
-0.1174
 30
0.0
 10
0.42432
 20
-0.26218
 30
0.0
 10
0.25922
 20
-0.45014
 30
0.0
 10
0.11444
 20
-0.37902
 30
0.0
 10
0.11444
 20
-0.37902
 30
0.0
 10
0.11444
 20
-0.37902
 30
0.0
 10
0.11444
 20
-0.3206000000000001
 30
0.0
 10
0.11444
 20
-0.3206000000000001
 30
0.0
 10
0.11444
 20
-0.3206000000000001
 30
0.0
 10
0.11444
 20
-0.3206000000000001
 30
0.0
 10
0.22366
 20
-0.13264
 30
0.0
 10
0.22366
 20
-0.13264
 30
0.0
 10
0.22366
 20
-0.13264
 30
0.0
 10
0.1246
 20
0.00959
 30
0.0
 10
-0.08367
 20
0.11119
 30
0.0
 10
-0.01763
 20
0.32963
 30
0.0
  0
SPLINE
  5
31
100
AcDbEntity
  8
Ebene 1
 62
     7
100
AcDbSpline
210
0.0
220
0.0
230
1.0
 70
     1
 71
     3
 72
    12
 73
     8
 74
     0
 42
0.0000000001
 43
0.0000000001
 40
0.0
 40
0.0
 40
0.0
 40
0.0
 40
0.5
 40
0.5
 40
0.5
 40
0.5
 40
1.0
 40
1.0
 40
1.0
 40
1.0
 10
-0.8736100000000001
 20
0.18485
 30
0.0
 10
-0.7974100000000001
 20
0.18485
 30
0.0
 10
-0.6729500000000001
 20
0.18485
 30
0.0
 10
-0.6678700000000001
 20
0.07563
 30
0.0
 10
-0.6678700000000001
 20
0.07563
 30
0.0
 10
-0.73899
 20
0.07563
 30
0.0
 10
-0.84567
 20
0.12897
 30
0.0
 10
-0.8736100000000001
 20
0.18485
 30
0.0
  0
SPLINE
  5
32
100
AcDbEntity
  8
Ebene 1
100
AcDbSpline
210
0.0
220
0.0
230
1.0
 70
     1
 71
     3
 72
    28
 73
    24
 74
     0
 42
0.0000000001
 43
0.0000000001
 40
0.0
 40
0.0
 40
0.0
 40
0.0
 40
0.1666666666666667
 40
0.1666666666666667
 40
0.1666666666666667
 40
0.1666666666666667
 40
0.3333333333333333
 40
0.3333333333333333
 40
0.3333333333333333
 40
0.3333333333333333
 40
0.5
 40
0.5
 40
0.5
 40
0.5
 40
0.6666666666666666
 40
0.6666666666666666
 40
0.6666666666666666
 40
0.6666666666666666
 40
0.8333333333333333
 40
0.8333333333333333
 40
0.8333333333333333
 40
0.8333333333333333
 40
1.0
 40
1.0
 40
1.0
 40
1.0
 10
1.4301600000000001
 20
0.16961
 30
0.0
 10
1.7400400000000003
 20
0.05531
 30
0.0
 10
1.7121000000000002
 20
-0.3637800000000001
 30
0.0
 10
1.8645
 20
-0.61016
 30
0.0
 10
1.8645
 20
-0.61016
 30
0.0
 10
1.8645
 20
-0.61016
 30
0.0
 10
1.4352400000000001
 20
-0.45014
 30
0.0
 10
1.4352400000000001
 20
-0.45014
 30
0.0
 10
1.4352400000000001
 20
-0.45014
 30
0.0
 10
1.4352400000000001
 20
-0.45014
 30
0.0
 10
1.40222
 20
-0.37902
 30
0.0
 10
1.40222
 20
-0.37902
 30
0.0
 10
1.40222
 20
-0.37902
 30
0.0
 10
1.40222
 20
-0.37902
 30
0.0
 10
1.3184
 20
-0.4806200000000001
 30
0.0
 10
1.3184
 20
-0.4806200000000001
 30
0.0
 10
1.3184
 20
-0.4806200000000001
 30
0.0
 10
1.3082400000000001
 20
-0.37902
 30
0.0
 10
1.3869800000000001
 20
-0.29012
 30
0.0
 10
1.4454
 20
-0.219
 30
0.0
 10
1.4454
 20
-0.219
 30
0.0
 10
1.4454
 20
-0.219
 30
0.0
 10
1.4301600000000001
 20
0.16961
 30
0.0
 10
1.4301600000000001
 20
0.16961
 30
0.0
  0
SPLINE
  5
33
100
AcDbEntity
  8
Ebene 1
 62
     7
100
AcDbSpline
210
0.0
220
0.0
230
1.0
 70
     1
 71
     3
 72
    16
 73
    12
 74
     0
 42
0.0000000001
 43
0.0000000001
 40
0.0
 40
0.0
 40
0.0
 40
0.0
 40
0.3333333333333333
 40
0.3333333333333333
 40
0.3333333333333333
 40
0.3333333333333333
 40
0.6666666666666666
 40
0.6666666666666666
 40
0.6666666666666666
 40
0.6666666666666666
 40
1.0
 40
1.0
 40
1.0
 40
1.0
 10
1.5470000000000002
 20
-0.05898
 30
0.0
 10
1.6638400000000002
 20
-0.14788
 30
0.0
 10
1.7171800000000002
 20
-0.3206000000000001
 30
0.0
 10
1.7171800000000002
 20
-0.4806200000000001
 30
0.0
 10
1.7171800000000002
 20
-0.4806200000000001
 30
0.0
 10
1.7171800000000002
 20
-0.4806200000000001
 30
0.0
 10
1.5368400000000002
 20
-0.4222
 30
0.0
 10
1.5368400000000002
 20
-0.4222
 30
0.0
 10
1.5368400000000002
 20
-0.4222
 30
0.0
 10
1.5393800000000002
 20
-0.29012
 30
0.0
 10
1.5647800000000001
 20
-0.17582
 30
0.0
 10
1.5470000000000002
 20
-0.05898
 30
0.0
  0
SPLINE
  5
34
100
AcDbEntity
  8
Ebene 1
100
AcDbSpline
210
0.0
220
0.0
230
1.0
 70
     1
 71
     3
 72
    28
 73
    24
 74
     0
 42
0.0000000001
 43
0.0000000001
 40
0.0
 40
0.0
 40
0.0
 40
0.0
 40
0.1666666666666667
 40
0.1666666666666667
 40
0.1666666666666667
 40
0.1666666666666667
 40
0.3333333333333333
 40
0.3333333333333333
 40
0.3333333333333333
 40
0.3333333333333333
 40
0.5
 40
0.5
 40
0.5
 40
0.5
 40
0.6666666666666666
 40
0.6666666666666666
 40
0.6666666666666666
 40
0.6666666666666666
 40
0.8333333333333333
 40
0.8333333333333333
 40
0.8333333333333333
 40
0.8333333333333333
 40
1.0
 40
1.0
 40
1.0
 40
1.0
 10
0.3278
 20
-0.3637800000000001
 30
0.0
 10
0.8586600000000001
 20
-0.50856
 30
0.0
 10
1.15076
 20
-1.0622800000000001
 30
0.0
 10
1.4454
 20
-1.4661400000000002
 30
0.0
 10
1.4454
 20
-1.4661400000000002
 30
0.0
 10
1.4454
 20
-1.4661400000000002
 30
0.0
 10
1.4123800000000002
 20
-1.5982200000000002
 30
0.0
 10
1.4123800000000002
 20
-1.5982200000000002
 30
0.0
 10
1.4123800000000002
 20
-1.5982200000000002
 30
0.0
 10
1.1152000000000002
 20
-1.5398000000000001
 30
0.0
 10
0.9602600000000001
 20
-1.1918200000000001
 30
0.0
 10
0.6884800000000001
 20
-1.07498
 30
0.0
 10
0.6884800000000001
 20
-1.07498
 30
0.0
 10
0.6884800000000001
 20
-1.07498
 30
0.0
 10
0.5614800000000001
 20
-1.0470400000000002
 30
0.0
 10
0.5614800000000001
 20
-1.0470400000000002
 30
0.0
 10
0.5614800000000001
 20
-1.0470400000000002
 30
0.0
 10
0.43448
 20
-1.1486400000000001
 30
0.0
 10
0.22874
 20
-1.07498
 30
0.0
 10
0.22366
 20
-0.9022600000000001
 30
0.0
 10
0.22366
 20
-0.9022600000000001
 30
0.0
 10
-0.01001
 20
-0.74224
 30
0.0
 10
0.09412
 20
-0.4374400000000001
 30
0.0
 10
0.3278
 20
-0.3637800000000001
 30
0.0
  0
SPLINE
  5
35
100
AcDbEntity
  8
Ebene 1
100
AcDbSpline
210
0.0
220
0.0
230
1.0
 70
     1
 71
     3
 72
    24
 73
    20
 74
     0
 42
0.0000000001
 43
0.0000000001
 40
0.0
 40
0.0
 40
0.0
 40
0.0
 40
0.2
 40
0.2
 40
0.2
 40
0.2
 40
0.4
 40
0.4
 40
0.4
 40
0.4
 40
0.6000000000000001
 40
0.6000000000000001
 40
0.6000000000000001
 40
0.6000000000000001
 40
0.8
 40
0.8
 40
0.8
 40
0.8
 40
1.0
 40
1.0
 40
1.0
 40
1.0
 10
2.0118200000000002
 20
-0.7117600000000001
 30
0.0
 10
2.2709000000000001
 20
-0.8717800000000001
 30
0.0
 10
2.24804
 20
-1.2629400000000002
 30
0.0
 10
2.4004400000000001
 20
-1.5093200000000002
 30
0.0
 10
2.4004400000000001
 20
-1.5093200000000002
 30
0.0
 10
2.3242400000000001
 20
-1.5093200000000002
 30
0.0
 10
2.3369400000000002
 20
-1.4102600000000001
 30
0.0
 10
2.2836000000000003
 20
-1.3645400000000001
 30
0.0
 10
2.2836000000000003
 20
-1.3645400000000001
 30
0.0
 10
2.1439000000000004
 20
-1.5093200000000002
 30
0.0
 10
2.0423
 20
-1.29342
 30
0.0
 10
1.9534000000000002
 20
-1.20452
 30
0.0
 10
1.9534000000000002
 20
-1.20452
 30
0.0
 10
1.8949800000000001
 20
-1.2350000000000001
 30
0.0
 10
1.9051400000000001
 20
-1.3493000000000002
 30
0.0
 10
1.8264000000000002
 20
-1.3213600000000001
 30
0.0
 10
1.8264000000000002
 20
-1.3213600000000001
 30
0.0
 10
1.8111600000000001
 20
-1.0902200000000002
 30
0.0
 10
2.0931000000000002
 20
-0.9733800000000001
 30
0.0
 10
2.0118200000000002
 20
-0.7117600000000001
 30
0.0
  0
SPLINE
  5
36
100
AcDbEntity
  8
Ebene 1
 62
     7
100
AcDbSpline
210
0.0
220
0.0
230
1.0
 70
     1
 71
     3
 72
    20
 73
    16
 74
     0
 42
0.0000000001
 43
0.0000000001
 40
0.0
 40
0.0
 40
0.0
 40
0.0
 40
0.25
 40
0.25
 40
0.25
 40
0.25
 40
0.5
 40
0.5
 40
0.5
 40
0.5
 40
0.75
 40
0.75
 40
0.75
 40
0.75
 40
1.0
 40
1.0
 40
1.0
 40
1.0
 10
-0.7999500000000001
 20
-0.8286000000000001
 30
0.0
 10
-0.7999500000000001
 20
-0.8286000000000001
 30
0.0
 10
-0.7466100000000001
 20
-0.84384
 30
0.0
 10
-0.7466100000000001
 20
-0.84384
 30
0.0
 10
-0.7466100000000001
 20
-0.84384
 30
0.0
 10
-0.7948700000000001
 20
-0.9886200000000001
 30
0.0
 10
-0.86599
 20
-1.1486400000000001
 30
0.0
 10
-0.9269500000000001
 20
-1.29342
 30
0.0
 10
-0.9269500000000001
 20
-1.29342
 30
0.0
 10
-0.9269500000000001
 20
-1.29342
 30
0.0
 10
-0.93203
 20
-1.2197600000000002
 30
0.0
 10
-0.93203
 20
-1.2197600000000002
 30
0.0
 10
-0.93203
 20
-1.2197600000000002
 30
0.0
 10
-0.8405900000000001
 20
-1.0902200000000002
 30
0.0
 10
-0.9625100000000001
 20
-0.9022600000000001
 30
0.0
 10
-0.7999500000000001
 20
-0.8286000000000001
 30
0.0
  0
SPLINE
  5
37
100
AcDbEntity
  8
Ebene 1
 62
     7
100
AcDbSpline
210
0.0
220
0.0
230
1.0
 70
     1
 71
     3
 72
   124
 73
   120
 74
     0
 42
0.0000000001
 43
0.0000000001
 40
0.0
 40
0.0
 40
0.0
 40
0.0
 40
0.0333333333333333
 40
0.0333333333333333
 40
0.0333333333333333
 40
0.0333333333333333
 40
0.0666666666666667
 40
0.0666666666666667
 40
0.0666666666666667
 40
0.0666666666666667
 40
0.1
 40
0.1
 40
0.1
 40
0.1
 40
0.1333333333333333
 40
0.1333333333333333
 40
0.1333333333333333
 40
0.1333333333333333
 40
0.1666666666666667
 40
0.1666666666666667
 40
0.1666666666666667
 40
0.1666666666666667
 40
0.2
 40
0.2
 40
0.2
 40
0.2
 40
0.2333333333333333
 40
0.2333333333333333
 40
0.2333333333333333
 40
0.2333333333333333
 40
0.2666666666666667
 40
0.2666666666666667
 40
0.2666666666666667
 40
0.2666666666666667
 40
0.3
 40
0.3
 40
0.3
 40
0.3
 40
0.3333333333333333
 40
0.3333333333333333
 40
0.3333333333333333
 40
0.3333333333333333
 40
0.3666666666666666
 40
0.3666666666666666
 40
0.3666666666666666
 40
0.3666666666666666
 40
0.4
 40
0.4
 40
0.4
 40
0.4
 40
0.4333333333333333
 40
0.4333333333333333
 40
0.4333333333333333
 40
0.4333333333333333
 40
0.4666666666666666
 40
0.4666666666666666
 40
0.4666666666666666
 40
0.4666666666666666
 40
0.4999999999999999
 40
0.4999999999999999
 40
0.4999999999999999
 40
0.4999999999999999
 40
0.5333333333333333
 40
0.5333333333333333
 40
0.5333333333333333
 40
0.5333333333333333
 40
0.5666666666666667
 40
0.5666666666666667
 40
0.5666666666666667
 40
0.5666666666666667
 40
0.6
 40
0.6
 40
0.6
 40
0.6
 40
0.6333333333333333
 40
0.6333333333333333
 40
0.6333333333333333
 40
0.6333333333333333
 40
0.6666666666666666
 40
0.6666666666666666
 40
0.6666666666666666
 40
0.6666666666666666
 40
0.7
 40
0.7
 40
0.7
 40
0.7
 40
0.7333333333333333
 40
0.7333333333333333
 40
0.7333333333333333
 40
0.7333333333333333
 40
0.7666666666666666
 40
0.7666666666666666
 40
0.7666666666666666
 40
0.7666666666666666
 40
0.7999999999999999
 40
0.7999999999999999
 40
0.7999999999999999
 40
0.7999999999999999
 40
0.8333333333333333
 40
0.8333333333333333
 40
0.8333333333333333
 40
0.8333333333333333
 40
0.8666666666666666
 40
0.8666666666666666
 40
0.8666666666666666
 40
0.8666666666666666
 40
0.8999999999999999
 40
0.8999999999999999
 40
0.8999999999999999
 40
0.8999999999999999
 40
0.9333333333333332
 40
0.9333333333333332
 40
0.9333333333333332
 40
0.9333333333333332
 40
0.9666666666666666
 40
0.9666666666666666
 40
0.9666666666666666
 40
0.9666666666666666
 40
1.0
 40
1.0
 40
1.0
 40
1.0
 10
0.61736
 20
-6.3429400000000005
 30
0.0
 10
0.59196
 20
-6.4445400000000008
 30
0.0
 10
0.59704
 20
-6.7341000000000006
 30
0.0
 10
0.4624200000000001
 20
-6.6172600000000008
 30
0.0
 10
0.4624200000000001
 20
-6.6172600000000008
 30
0.0
 10
0.1754
 20
-5.7917600000000009
 30
0.0
 10
-0.09891
 20
-4.9637200000000004
 30
0.0
 10
-0.44689
 20
-4.1661600000000005
 30
0.0
 10
-0.44689
 20
-4.1661600000000005
 30
0.0
 10
-0.44689
 20
-4.1661600000000005
 30
0.0
 10
-0.47737
 20
-4.0366200000000001
 30
0.0
 10
-0.47737
 20
-4.0366200000000001
 30
0.0
 10
-0.47737
 20
-4.0366200000000001
 30
0.0
 10
-0.51293
 20
-3.9045400000000003
 30
0.0
 10
-0.4291100000000001
 20
-3.9045400000000003
 30
0.0
 10
-0.4062500000000001
 20
-4.0213800000000006
 30
0.0
 10
-0.4062500000000001
 20
-4.0213800000000006
 30
0.0
 10
-0.29195
 20
-4.1077400000000006
 30
0.0
 10
-0.3122700000000001
 20
-4.2957000000000001
 30
0.0
 10
-0.20559
 20
-4.3693600000000004
 30
0.0
 10
-0.20559
 20
-4.3693600000000004
 30
0.0
 10
-0.27163
 20
-3.8461200000000004
 30
0.0
 10
-0.74407
 20
-3.4397200000000003
 30
0.0
 10
-0.9752100000000001
 20
-2.9749000000000003
 30
0.0
 10
-0.9752100000000001
 20
-2.9749000000000003
 30
0.0
 10
-0.9752100000000001
 20
-2.9749000000000003
 30
0.0
 10
-0.9777500000000001
 20
-2.3526000000000002
 30
0.0
 10
-0.9777500000000001
 20
-2.3526000000000002
 30
0.0
 10
-0.9777500000000001
 20
-2.3526000000000002
 30
0.0
 10
-1.1098300000000001
 20
-2.5685000000000002
 30
0.0
 10
-1.3257300000000001
 20
-2.23576
 30
0.0
 10
-1.3968500000000001
 20
-2.0909800000000001
 30
0.0
 10
-1.3968500000000001
 20
-2.0909800000000001
 30
0.0
 10
-1.24953
 20
-1.6845800000000002
 30
0.0
 10
-1.4908300000000001
 20
-1.2629400000000002
 30
0.0
 10
-1.4349500000000002
 20
-0.8717800000000001
 30
0.0
 10
-1.4349500000000002
 20
-0.8717800000000001
 30
0.0
 10
-1.3536700000000002
 20
-0.9149600000000001
 30
0.0
 10
-1.4451100000000001
 20
-1.29342
 30
0.0
 10
-1.3536700000000002
 20
-1.29342
 30
0.0
 10
-1.3536700000000002
 20
-1.29342
 30
0.0
 10
-1.3587500000000001
 20
-1.1765800000000002
 30
0.0
 10
-1.3689100000000001
 20
-1.0470400000000002
 30
0.0
 10
-1.2673100000000002
 20
-0.9733800000000001
 30
0.0
 10
-1.2673100000000002
 20
-0.9733800000000001
 30
0.0
 10
-1.07681
 20
-1.3213600000000001
 30
0.0
 10
-1.1936500000000001
 20
-1.7557
 30
0.0
 10
-1.00315
 20
-2.10622
 30
0.0
 10
-1.00315
 20
-2.10622
 30
0.0
 10
-0.8812300000000001
 20
-2.0478000000000001
 30
0.0
 10
-0.8609100000000001
 20
-1.8446000000000002
 30
0.0
 10
-0.88885
 20
-1.7150600000000003
 30
0.0
 10
-0.88885
 20
-1.7150600000000003
 30
0.0
 10
-0.88885
 20
-1.7150600000000003
 30
0.0
 10
-0.8736100000000001
 20
-1.7430000000000001
 30
0.0
 10
-0.8736100000000001
 20
-1.7430000000000001
 30
0.0
 10
-0.8736100000000001
 20
-1.7430000000000001
 30
0.0
 10
-0.8736100000000001
 20
-1.7430000000000001
 30
0.0
 10
-0.8177300000000001
 20
-1.8877800000000002
 30
0.0
 10
-0.8177300000000001
 20
-1.8877800000000002
 30
0.0
 10
-0.8177300000000001
 20
-1.8877800000000002
 30
0.0
 10
-0.8304300000000001
 20
-1.6414000000000002
 30
0.0
 10
-0.9015500000000001
 20
-1.0318000000000001
 30
0.0
 10
-0.6018300000000001
 20
-1.07498
 30
0.0
 10
-0.6018300000000001
 20
-1.07498
 30
0.0
 10
-0.6018300000000001
 20
-1.07498
 30
0.0
 10
-0.5840500000000001
 20
-1.2781800000000001
 30
0.0
 10
-0.5840500000000001
 20
-1.2781800000000001
 30
0.0
 10
-0.5840500000000001
 20
-1.2781800000000001
 30
0.0
 10
-0.99553
 20
-1.8446000000000002
 30
0.0
 10
-0.4900700000000001
 20
-2.4389600000000002
 30
0.0
 10
-0.5789700000000001
 20
-3.0333200000000002
 30
0.0
 10
-0.5789700000000001
 20
-3.0333200000000002
 30
0.0
 10
-0.44435
 20
-3.1501600000000001
 30
0.0
 10
-0.4595900000000001
 20
-3.3381200000000004
 30
0.0
 10
-0.39101
 20
-3.4981400000000002
 30
0.0
 10
-0.39101
 20
-3.4981400000000002
 30
0.0
 10
-0.21829
 20
-3.2822400000000003
 30
0.0
 10
-0.25131
 20
-3.7013400000000005
 30
0.0
 10
-0.24623
 20
-3.8461200000000004
 30
0.0
 10
-0.24623
 20
-3.8461200000000004
 30
0.0
 10
0.0738
 20
-4.0366200000000001
 30
0.0
 10
-0.08621
 20
-4.5573200000000007
 30
0.0
 10
0.05348
 20
-4.8773600000000004
 30
0.0
 10
0.05348
 20
-4.8773600000000004
 30
0.0
 10
0.11698
 20
-4.7605200000000005
 30
0.0
 10
0.09158
 20
-4.5420800000000003
 30
0.0
 10
0.20334
 20
-4.3973000000000004
 30
0.0
 10
0.20334
 20
-4.3973000000000004
 30
0.0
 10
0.36082
 20
-4.3846000000000007
 30
0.0
 10
-0.02525
 20
-5.3421800000000008
 30
0.0
 10
0.2389
 20
-4.9916600000000004
 30
0.0
 10
0.2389
 20
-4.9916600000000004
 30
0.0
 10
0.19826
 20
-4.8494200000000003
 30
0.0
 10
0.35066
 20
-4.7605200000000005
 30
0.0
 10
0.4421000000000001
 20
-4.7173400000000001
 30
0.0
 10
0.4421000000000001
 20
-4.7173400000000001
 30
0.0
 10
0.4421000000000001
 20
-4.7173400000000001
 30
0.0
 10
0.24398
 20
-5.4285400000000008
 30
0.0
 10
0.24398
 20
-5.4285400000000008
 30
0.0
 10
0.24398
 20
-5.4285400000000008
 30
0.0
 10
0.33034
 20
-5.3980600000000001
 30
0.0
 10
0.35066
 20
-5.2101000000000006
 30
0.0
 10
0.48782
 20
-5.2405800000000005
 30
0.0
 10
0.48782
 20
-5.2405800000000005
 30
0.0
 10
0.5614800000000001
 20
-5.3117000000000001
 30
0.0
 10
0.3786000000000001
 20
-5.4717200000000004
 30
0.0
 10
0.26938
 20
-5.4869600000000007
 30
0.0
 10
0.26938
 20
-5.4869600000000007
 30
0.0
 10
0.4675
 20
-5.5022000000000002
 30
0.0
 10
0.33034
 20
-5.7333400000000001
 30
0.0
 10
0.30494
 20
-5.9060600000000001
 30
0.0
 10
0.30494
 20
-5.9060600000000001
 30
0.0
 10
0.37352
 20
-5.8501800000000008
 30
0.0
 10
0.38622
 20
-5.6317400000000006
 30
0.0
 10
0.5437000000000001
 20
-5.6596800000000007
 30
0.0
 10
0.5437000000000001
 20
-5.6596800000000007
 30
0.0
 10
0.4725800000000001
 20
-5.8933600000000004
 30
0.0
 10
0.33796
 20
-6.3429400000000005
 30
0.0
 10
0.61736
 20
-6.3429400000000005
 30
0.0
  0
SPLINE
  5
38
100
AcDbEntity
  8
Ebene 1
 62
     7
100
AcDbSpline
210
0.0
220
0.0
230
1.0
 70
     1
 71
     3
 72
    20
 73
    16
 74
     0
 42
0.0000000001
 43
0.0000000001
 40
0.0
 40
0.0
 40
0.0
 40
0.0
 40
0.25
 40
0.25
 40
0.25
 40
0.25
 40
0.5
 40
0.5
 40
0.5
 40
0.5
 40
0.75
 40
0.75
 40
0.75
 40
0.75
 40
1.0
 40
1.0
 40
1.0
 40
1.0
 10
-1.9759700000000002
 20
-0.9149600000000001
 30
0.0
 10
-1.9429500000000002
 20
-0.9149600000000001
 30
0.0
 10
-1.9124700000000001
 20
-0.9149600000000001
 30
0.0
 10
-1.8921500000000002
 20
-0.9429000000000001
 30
0.0
 10
-1.8921500000000002
 20
-0.9429000000000001
 30
0.0
 10
-1.8565900000000002
 20
-1.1029200000000001
 30
0.0
 10
-1.6838700000000002
 20
-1.1765800000000002
 30
0.0
 10
-1.5289300000000001
 20
-1.1918200000000001
 30
0.0
 10
-1.5289300000000001
 20
-1.1918200000000001
 30
0.0
 10
-1.4273300000000002
 20
-1.29342
 30
0.0
 10
-1.46543
 20
-1.4534400000000001
 30
0.0
 10
-1.5594100000000002
 20
-1.5398000000000001
 30
0.0
 10
-1.5594100000000002
 20
-1.5398000000000001
 30
0.0
 10
-1.8057900000000002
 20
-1.4813800000000001
 30
0.0
 10
-2.2579100000000003
 20
-1.20452
 30
0.0
 10
-1.9759700000000002
 20
-0.9149600000000001
 30
0.0
  0
SPLINE
  5
39
100
AcDbEntity
  8
Ebene 1
 62
     7
100
AcDbSpline
210
0.0
220
0.0
230
1.0
 70
     1
 71
     3
 72
    12
 73
     8
 74
     0
 42
0.0000000001
 43
0.0000000001
 40
0.0
 40
0.0
 40
0.0
 40
0.0
 40
0.5
 40
0.5
 40
0.5
 40
0.5
 40
1.0
 40
1.0
 40
1.0
 40
1.0
 10
2.0829400000000002
 20
-0.9581400000000001
 30
0.0
 10
2.17692
 20
-1.0318000000000001
 30
0.0
 10
2.2632800000000004
 20
-1.20452
 30
0.0
 10
2.2251800000000004
 20
-1.3366
 30
0.0
 10
2.2251800000000004
 20
-1.3366
 30
0.0
 10
2.0575400000000004
 20
-1.29342
 30
0.0
 10
2.0626200000000003
 20
-1.0902200000000002
 30
0.0
 10
2.0829400000000002
 20
-0.9581400000000001
 30
0.0
  0
SPLINE
  5
3A
100
AcDbEntity
  8
Ebene 1
 62
     7
100
AcDbSpline
210
0.0
220
0.0
230
1.0
 70
     1
 71
     3
 72
    12
 73
     8
 74
     0
 42
0.0000000001
 43
0.0000000001
 40
0.0
 40
0.0
 40
0.0
 40
0.0
 40
0.5
 40
0.5
 40
0.5
 40
0.5
 40
1.0
 40
1.0
 40
1.0
 40
1.0
 10
-0.9167900000000001
 20
-1.3645400000000001
 30
0.0
 10
-0.8634500000000001
 20
-1.4102600000000001
 30
0.0
 10
-0.8837700000000001
 20
-1.5245600000000001
 30
0.0
 10
-0.9015500000000001
 20
-1.5829800000000001
 30
0.0
 10
-0.9015500000000001
 20
-1.5829800000000001
 30
0.0
 10
-0.94981
 20
-1.5245600000000001
 30
0.0
 10
-0.9396500000000001
 20
-1.4382000000000001
 30
0.0
 10
-0.9167900000000001
 20
-1.3645400000000001
 30
0.0
  0
SPLINE
  5
3B
100
AcDbEntity
  8
Ebene 1
 62
     7
100
AcDbSpline
210
0.0
220
0.0
230
1.0
 70
     1
 71
     3
 72
    16
 73
    12
 74
     0
 42
0.0000000001
 43
0.0000000001
 40
0.0
 40
0.0
 40
0.0
 40
0.0
 40
0.3333333333333333
 40
0.3333333333333333
 40
0.3333333333333333
 40
0.3333333333333333
 40
0.6666666666666666
 40
0.6666666666666666
 40
0.6666666666666666
 40
0.6666666666666666
 40
1.0
 40
1.0
 40
1.0
 40
1.0
 10
0.25668
 20
-1.4229600000000002
 30
0.0
 10
0.25668
 20
-1.4229600000000002
 30
0.0
 10
0.3252600000000001
 20
-1.4382000000000001
 30
0.0
 10
0.3252600000000001
 20
-1.4382000000000001
 30
0.0
 10
0.3252600000000001
 20
-1.4382000000000001
 30
0.0
 10
0.3151000000000001
 20
-1.5677400000000001
 30
0.0
 10
0.17032
 20
-1.62616
 30
0.0
 10
0.11444
 20
-1.7277600000000002
 30
0.0
 10
0.11444
 20
-1.7277600000000002
 30
0.0
 10
0.15762
 20
-1.62616
 30
0.0
 10
0.17032
 20
-1.5093200000000002
 30
0.0
 10
0.25668
 20
-1.4229600000000002
 30
0.0
  0
SPLINE
  5
3C
100
AcDbEntity
  8
Ebene 1
 62
     7
100
AcDbSpline
210
0.0
220
0.0
230
1.0
 70
     1
 71
     3
 72
    20
 73
    16
 74
     0
 42
0.0000000001
 43
0.0000000001
 40
0.0
 40
0.0
 40
0.0
 40
0.0
 40
0.25
 40
0.25
 40
0.25
 40
0.25
 40
0.5
 40
0.5
 40
0.5
 40
0.5
 40
0.75
 40
0.75
 40
0.75
 40
0.75
 40
1.0
 40
1.0
 40
1.0
 40
1.0
 10
-1.9759700000000002
 20
-1.4966200000000001
 30
0.0
 10
-1.9759700000000002
 20
-1.4966200000000001
 30
0.0
 10
-1.9353300000000002
 20
-1.4966200000000001
 30
0.0
 10
-1.9353300000000002
 20
-1.4966200000000001
 30
0.0
 10
-1.9353300000000002
 20
-1.4966200000000001
 30
0.0
 10
-1.8769100000000001
 20
-1.7150600000000003
 30
0.0
 10
-1.63053
 20
-1.7150600000000003
 30
0.0
 10
-1.4578100000000001
 20
-1.7430000000000001
 30
0.0
 10
-1.4578100000000001
 20
-1.7430000000000001
 30
0.0
 10
-1.41717
 20
-1.8725400000000001
 30
0.0
 10
-1.4730500000000002
 20
-2.0173200000000002
 30
0.0
 10
-1.4857500000000001
 20
-2.1494
 30
0.0
 10
-1.4857500000000001
 20
-2.1494
 30
0.0
 10
-1.7778500000000002
 20
-2.10622
 30
0.0
 10
-2.1867900000000002
 20
-1.8293600000000001
 30
0.0
 10
-1.9759700000000002
 20
-1.4966200000000001
 30
0.0
  0
SPLINE
  5
3D
100
AcDbEntity
  8
Ebene 1
 62
     7
100
AcDbSpline
210
0.0
220
0.0
230
1.0
 70
     1
 71
     3
 72
    12
 73
     8
 74
     0
 42
0.0000000001
 43
0.0000000001
 40
0.0
 40
0.0
 40
0.0
 40
0.0
 40
0.5
 40
0.5
 40
0.5
 40
0.5
 40
1.0
 40
1.0
 40
1.0
 40
1.0
 10
0.48782
 20
-1.5093200000000002
 30
0.0
 10
0.57926
 20
-1.5550400000000002
 30
0.0
 10
0.46496
 20
-1.7277600000000002
 30
0.0
 10
0.3913
 20
-1.7557
 30
0.0
 10
0.3913
 20
-1.7557
 30
0.0
 10
0.41416
 20
-1.66934
 30
0.0
 10
0.42178
 20
-1.5829800000000001
 30
0.0
 10
0.48782
 20
-1.5093200000000002
 30
0.0
  0
SPLINE
  5
3E
100
AcDbEntity
  8
Ebene 1
 62
     7
100
AcDbSpline
210
0.0
220
0.0
230
1.0
 70
     1
 71
     3
 72
    12
 73
     8
 74
     0
 42
0.0000000001
 43
0.0000000001
 40
0.0
 40
0.0
 40
0.0
 40
0.0
 40
0.5
 40
0.5
 40
0.5
 40
0.5
 40
1.0
 40
1.0
 40
1.0
 40
1.0
 10
3.0989400000000002
 20
-2.27894
 30
0.0
 10
3.0583000000000005
 20
-2.23576
 30
0.0
 10
2.9414600000000002
 20
-2.1773400000000001
 30
0.0
 10
3.0125800000000003
 20
-2.1189200000000001
 30
0.0
 10
3.0125800000000003
 20
-2.1189200000000001
 30
0.0
 10
3.0125800000000003
 20
-2.1189200000000001
 30
0.0
 10
3.0989400000000002
 20
-2.27894
 30
0.0
 10
3.0989400000000002
 20
-2.27894
 30
0.0
  0
SPLINE
  5
3F
100
AcDbEntity
  8
Ebene 1
 62
     7
100
AcDbSpline
210
0.0
220
0.0
230
1.0
 70
     1
 71
     3
 72
    20
 73
    16
 74
     0
 42
0.0000000001
 43
0.0000000001
 40
0.0
 40
0.0
 40
0.0
 40
0.0
 40
0.25
 40
0.25
 40
0.25
 40
0.25
 40
0.5
 40
0.5
 40
0.5
 40
0.5
 40
0.75
 40
0.75
 40
0.75
 40
0.75
 40
1.0
 40
1.0
 40
1.0
 40
1.0
 10
-1.7880100000000001
 20
-2.23576
 30
0.0
 10
-1.67371
 20
-2.3373600000000003
 30
0.0
 10
-1.5136900000000002
 20
-2.3221200000000004
 30
0.0
 10
-1.3689100000000001
 20
-2.3373600000000003
 30
0.0
 10
-1.3689100000000001
 20
-2.3373600000000003
 30
0.0
 10
-1.2393700000000001
 20
-2.4389600000000002
 30
0.0
 10
-1.12507
 20
-2.5685000000000002
 30
0.0
 10
-1.0514100000000002
 20
-2.7158200000000003
 30
0.0
 10
-1.0514100000000002
 20
-2.7158200000000003
 30
0.0
 10
-1.0514100000000002
 20
-2.7158200000000003
 30
0.0
 10
-1.5797300000000001
 20
-2.7285200000000001
 30
0.0
 10
-1.5797300000000001
 20
-2.7285200000000001
 30
0.0
 10
-1.5797300000000001
 20
-2.7285200000000001
 30
0.0
 10
-1.6914900000000002
 20
-2.5837400000000001
 30
0.0
 10
-1.8896100000000002
 20
-2.4237200000000003
 30
0.0
 10
-1.7880100000000001
 20
-2.23576
 30
0.0
  0
SPLINE
  5
40
100
AcDbEntity
  8
Ebene 1
 62
     7
100
AcDbSpline
210
0.0
220
0.0
230
1.0
 70
     1
 71
     3
 72
     8
 73
     4
 74
     0
 42
0.0000000001
 43
0.0000000001
 40
0.0
 40
0.0
 40
0.0
 40
0.0
 40
1.0
 40
1.0
 40
1.0
 40
1.0
 10
3.0989400000000002
 20
-2.27894
 30
0.0
 10
3.1268800000000003
 20
-2.27894
 30
0.0
 10
3.0989400000000002
 20
-2.3094200000000003
 30
0.0
 10
3.0989400000000002
 20
-2.27894
 30
0.0
  0
SPLINE
  5
41
100
AcDbEntity
  8
Ebene 1
 62
     7
100
AcDbSpline
210
0.0
220
0.0
230
1.0
 70
     1
 71
     3
 72
    12
 73
     8
 74
     0
 42
0.0000000001
 43
0.0000000001
 40
0.0
 40
0.0
 40
0.0
 40
0.0
 40
0.5
 40
0.5
 40
0.5
 40
0.5
 40
1.0
 40
1.0
 40
1.0
 40
1.0
 10
2.1566000000000001
 20
-2.3221200000000004
 30
0.0
 10
2.3699600000000003
 20
-2.3678400000000002
 30
0.0
 10
2.4969600000000001
 20
-2.5685000000000002
 30
0.0
 10
2.45886
 20
-2.7869400000000004
 30
0.0
 10
2.45886
 20
-2.7869400000000004
 30
0.0
 10
2.3293200000000001
 20
-2.6701000000000001
 30
0.0
 10
2.2023200000000003
 20
-2.4973800000000002
 30
0.0
 10
2.1566000000000001
 20
-2.3221200000000004
 30
0.0
  0
SPLINE
  5
42
100
AcDbEntity
  8
Ebene 1
 62
     7
100
AcDbSpline
210
0.0
220
0.0
230
1.0
 70
     1
 71
     3
 72
    20
 73
    16
 74
     0
 42
0.0000000001
 43
0.0000000001
 40
0.0
 40
0.0
 40
0.0
 40
0.0
 40
0.25
 40
0.25
 40
0.25
 40
0.25
 40
0.5
 40
0.5
 40
0.5
 40
0.5
 40
0.75
 40
0.75
 40
0.75
 40
0.75
 40
1.0
 40
1.0
 40
1.0
 40
1.0
 10
-1.4095500000000001
 20
-2.8453600000000003
 30
0.0
 10
-1.29779
 20
-2.9317200000000003
 30
0.0
 10
-1.16317
 20
-2.8606000000000003
 30
0.0
 10
-1.0514100000000002
 20
-2.8606000000000003
 30
0.0
 10
-1.0514100000000002
 20
-2.8606000000000003
 30
0.0
 10
-1.0590300000000001
 20
-2.9749000000000003
 30
0.0
 10
-1.0310900000000001
 20
-3.0917400000000002
 30
0.0
 10
-0.99299
 20
-3.1933400000000001
 30
0.0
 10
-0.99299
 20
-3.1933400000000001
 30
0.0
 10
-0.99299
 20
-3.1933400000000001
 30
0.0
 10
-1.07681
 20
-3.1781000000000001
 30
0.0
 10
-1.07681
 20
-3.1781000000000001
 30
0.0
 10
-1.07681
 20
-3.1781000000000001
 30
0.0
 10
-1.2596900000000002
 20
-3.3381200000000004
 30
0.0
 10
-1.5390900000000001
 20
-3.0333200000000002
 30
0.0
 10
-1.4095500000000001
 20
-2.8453600000000003
 30
0.0
  0
SPLINE
  5
43
100
AcDbEntity
  8
Ebene 1
 62
     7
100
AcDbSpline
210
0.0
220
0.0
230
1.0
 70
     1
 71
     3
 72
    16
 73
    12
 74
     0
 42
0.0000000001
 43
0.0000000001
 40
0.0
 40
0.0
 40
0.0
 40
0.0
 40
0.3333333333333333
 40
0.3333333333333333
 40
0.3333333333333333
 40
0.3333333333333333
 40
0.6666666666666666
 40
0.6666666666666666
 40
0.6666666666666666
 40
0.6666666666666666
 40
1.0
 40
1.0
 40
1.0
 40
1.0
 10
-0.29449
 20
-2.8453600000000003
 30
0.0
 10
-0.29449
 20
-2.8453600000000003
 30
0.0
 10
-0.26655
 20
-2.8453600000000003
 30
0.0
 10
-0.26655
 20
-2.8453600000000003
 30
0.0
 10
-0.26655
 20
-2.8453600000000003
 30
0.0
 10
-0.26655
 20
-2.8453600000000003
 30
0.0
 10
-0.33513
 20
-3.2822400000000003
 30
0.0
 10
-0.33513
 20
-3.2822400000000003
 30
0.0
 10
-0.33513
 20
-3.2822400000000003
 30
0.0
 10
-0.38847
 20
-3.1349200000000002
 30
0.0
 10
-0.31989
 20
-2.9901400000000002
 30
0.0
 10
-0.29449
 20
-2.8453600000000003
 30
0.0
  0
SPLINE
  5
44
100
AcDbEntity
  8
Ebene 1
 62
     7
100
AcDbSpline
210
0.0
220
0.0
230
1.0
 70
     1
 71
     3
 72
    12
 73
     8
 74
     0
 42
0.0000000001
 43
0.0000000001
 40
0.0
 40
0.0
 40
0.0
 40
0.0
 40
0.5
 40
0.5
 40
0.5
 40
0.5
 40
1.0
 40
1.0
 40
1.0
 40
1.0
 10
2.6925400000000002
 20
-2.9317200000000003
 30
0.0
 10
2.8119200000000002
 20
-2.9901400000000002
 30
0.0
 10
2.8297000000000003
 20
-3.1349200000000002
 30
0.0
 10
2.8932000000000002
 20
-3.2365200000000001
 30
0.0
 10
2.8932000000000002
 20
-3.2365200000000001
 30
0.0
 10
2.7916000000000003
 20
-3.1933400000000001
 30
0.0
 10
2.5503
 20
-3.0638000000000001
 30
0.0
 10
2.6925400000000002
 20
-2.9317200000000003
 30
0.0
  0
SPLINE
  5
45
100
AcDbEntity
  8
Ebene 1
 62
     7
100
AcDbSpline
210
0.0
220
0.0
230
1.0
 70
     1
 71
     3
 72
    16
 73
    12
 74
     0
 42
0.0000000001
 43
0.0000000001
 40
0.0
 40
0.0
 40
0.0
 40
0.0
 40
0.3333333333333333
 40
0.3333333333333333
 40
0.3333333333333333
 40
0.3333333333333333
 40
0.6666666666666666
 40
0.6666666666666666
 40
0.6666666666666666
 40
0.6666666666666666
 40
1.0
 40
1.0
 40
1.0
 40
1.0
 10
-0.06081
 20
-3.2365200000000001
 30
0.0
 10
-0.05065
 20
-3.2365200000000001
 30
0.0
 10
-0.03033
 20
-3.2365200000000001
 30
0.0
 10
-0.03287
 20
-3.2517600000000004
 30
0.0
 10
-0.03287
 20
-3.2517600000000004
 30
0.0
 10
-0.03287
 20
-3.2517600000000004
 30
0.0
 10
-0.09383
 20
-3.8181800000000004
 30
0.0
 10
-0.09383
 20
-3.8181800000000004
 30
0.0
 10
-0.09383
 20
-3.8181800000000004
 30
0.0
 10
-0.21321
 20
-3.6581600000000001
 30
0.0
 10
-0.08113
 20
-3.4117800000000003
 30
0.0
 10
-0.06081
 20
-3.2365200000000001
 30
0.0
  0
SPLINE
  5
46
100
AcDbEntity
  8
Ebene 1
 62
     7
100
AcDbSpline
210
0.0
220
0.0
230
1.0
 70
     1
 71
     3
 72
    12
 73
     8
 74
     0
 42
0.0000000001
 43
0.0000000001
 40
0.0
 40
0.0
 40
0.0
 40
0.0
 40
0.5
 40
0.5
 40
0.5
 40
0.5
 40
1.0
 40
1.0
 40
1.0
 40
1.0
 10
-1.0183900000000001
 20
-3.3101800000000003
 30
0.0
 10
-0.9142500000000001
 20
-3.3101800000000003
 30
0.0
 10
-0.8126500000000001
 20
-3.3381200000000004
 30
0.0
 10
-0.7897900000000001
 20
-3.4549600000000003
 30
0.0
 10
-0.7897900000000001
 20
-3.4549600000000003
 30
0.0
 10
-0.8837700000000001
 20
-3.5286200000000001
 30
0.0
 10
-1.0590300000000001
 20
-3.4244800000000004
 30
0.0
 10
-1.0183900000000001
 20
-3.3101800000000003
 30
0.0
  0
SPLINE
  5
47
100
AcDbEntity
  8
Ebene 1
 62
     7
100
AcDbSpline
210
0.0
220
0.0
230
1.0
 70
     1
 71
     3
 72
    12
 73
     8
 74
     0
 42
0.0000000001
 43
0.0000000001
 40
0.0
 40
0.0
 40
0.0
 40
0.0
 40
0.5
 40
0.5
 40
0.5
 40
0.5
 40
1.0
 40
1.0
 40
1.0
 40
1.0
 10
2.6646000000000001
 20
-3.7292800000000002
 30
0.0
 10
2.8525600000000004
 20
-3.8029400000000004
 30
0.0
 10
2.6900000000000004
 20
-4.0493200000000007
 30
0.0
 10
2.6493600000000002
 20
-4.1661600000000005
 30
0.0
 10
2.6493600000000002
 20
-4.1661600000000005
 30
0.0
 10
2.6239600000000003
 20
-4.0366200000000001
 30
0.0
 10
2.6214200000000001
 20
-3.8613600000000003
 30
0.0
 10
2.6646000000000001
 20
-3.7292800000000002
 30
0.0
  0
SPLINE
  5
48
100
AcDbEntity
  8
Ebene 1
 62
     7
100
AcDbSpline
210
0.0
220
0.0
230
1.0
 70
     1
 71
     3
 72
    16
 73
    12
 74
     0
 42
0.0000000001
 43
0.0000000001
 40
0.0
 40
0.0
 40
0.0
 40
0.0
 40
0.3333333333333333
 40
0.3333333333333333
 40
0.3333333333333333
 40
0.3333333333333333
 40
0.6666666666666666
 40
0.6666666666666666
 40
0.6666666666666666
 40
0.6666666666666666
 40
1.0
 40
1.0
 40
1.0
 40
1.0
 10
0.10936
 20
-3.8893000000000004
 30
0.0
 10
0.10936
 20
-3.8893000000000004
 30
0.0
 10
0.1373
 20
-3.8893000000000004
 30
0.0
 10
0.1373
 20
-3.8893000000000004
 30
0.0
 10
0.1373
 20
-3.8893000000000004
 30
0.0
 10
0.15762
 20
-4.0645600000000002
 30
0.0
 10
0.11952
 20
-4.2372800000000002
 30
0.0
 10
0.07888
 20
-4.3973000000000004
 30
0.0
 10
0.07888
 20
-4.3973000000000004
 30
0.0
 10
-0.04049
 20
-4.2525200000000005
 30
0.0
 10
0.0738
 20
-4.0493200000000007
 30
0.0
 10
0.10936
 20
-3.8893000000000004
 30
0.0
  0
SPLINE
  5
49
100
AcDbEntity
  8
Ebene 1
 62
     7
100
AcDbSpline
210
0.0
220
0.0
230
1.0
 70
     1
 71
     3
 72
     8
 73
     4
 74
     0
 42
0.0000000001
 43
0.0000000001
 40
0.0
 40
0.0
 40
0.0
 40
0.0
 40
1.0
 40
1.0
 40
1.0
 40
1.0
 10
0.61736
 20
-6.3429400000000005
 30
0.0
 10
0.61736
 20
-6.3124600000000006
 30
0.0
 10
0.6453000000000001
 20
-6.3429400000000005
 30
0.0
 10
0.61736
 20
-6.3429400000000005
 30
0.0
  0
ENDSEC
  0
SECTION
  2
OBJECTS
  0
DICTIONARY
  5
19
100
AcDbDictionary
280
     0
281
     1
  3
ACAD_GROUP
350
1A
  3
ACAD_MLINESTYLE
350
1B
  3
ACAD_LAYOUT
350
1E
  3
ACAD_PLOTSETTINGS
350
22
  3
ACAD_PLOTSTYLENAME
350
1F
  3
ACAD_WIPEOUT_VARS
350
23
  0
DICTIONARY
  5
1A
102
{ACAD_REACTORS
330
19
102
}
100
AcDbDictionary
280
     0
281
     1
  0
DICTIONARY
  5
1B
102
{ACAD_REACTORS
330
19
102
}
100
AcDbDictionary
280
     0
281
     1
  3
Standard
350
1C
  0
MLINESTYLE
  5
1C
102
{ACAD_REACTORS
330
1B
102
}
100
AcDbMlineStyle
  2
Standard
 70
     0
  3

 62
     0
 51
90.0
 52
90.0
 71
     2
 49
0.5
 62
   256
  6
BYLAYER
 49
-0.5
 62
   256
  6
BYLAYER
  0
ACDBDICTIONARYWDFLT
  5
1F
102
{ACAD_REACTORS
330
19
102
}
100
AcDbDictionary
281
     1
  3
Normal
350
1D
100
AcDbDictionaryWithDefault
340
1D
  0
ACDBPLACEHOLDER
  5
1D
102
{ACAD_REACTORS
330
1F
102
}
  0
LAYOUT
  5
20
102
{ACAD_REACTORS
330
1E
102
}
100
AcDbPlotSettings
  1

  2

  4

  6

 40
0.0
 41
0.0
 42
0.0
 43
0.0
 44
0.0
 45
0.0
 46
0.0
 47
0.0
 48
0.0
 49
0.0
140
0.0
141
0.0
142
1.0
143
1.0
 70
  1024
 72
     0
 73
     0
 74
     0
  7

 75
     0
147
1.0
148
0.0
149
0.0
100
AcDbLayout
  1
Model
 70
     0
 71
     0
 10
0.0
 20
0.0
 11
0.0
 21
0.0
 12
0.0
 22
0.0
 32
0.0
 14
0.0
 24
0.0
 34
0.0
 15
0.0
 25
0.0
 35
0.0
146
0.0
 13
0.0
 23
0.0
 33
0.0
 16
0.0
 26
0.0
 36
0.0
 17
0.0
 27
0.0
 37
0.0
 76
     0
330
A
331
0
345
0
346
0
  0
LAYOUT
  5
21
102
{ACAD_REACTORS
330
1E
102
}
100
AcDbPlotSettings
  1

  2

  4

  6

 40
0.0
 41
0.0
 42
0.0
 43
0.0
 44
0.0
 45
0.0
 46
0.0
 47
0.0
 48
0.0
 49
0.0
140
0.0
141
0.0
142
1.0
143
1.0
 70
     0
 72
     0
 73
     0
 74
     0
  7

 75
     0
147
1.0
148
0.0
149
0.0
100
AcDbLayout
  1
Layout1
 70
     0
 71
     0
 10
0.0
 20
0.0
 11
0.0
 21
0.0
 12
0.0
 22
0.0
 32
0.0
 14
0.0
 24
0.0
 34
0.0
 15
0.0
 25
0.0
 35
0.0
146
0.0
 13
0.0
 23
0.0
 33
0.0
 16
0.0
 26
0.0
 36
0.0
 17
0.0
 27
0.0
 37
0.0
 76
     0
330
B
331
0
345
0
346
0
  0
DICTIONARY
  5
1E
102
{ACAD_REACTORS
330
19
102
}
100
AcDbDictionary
280
     0
281
     1
  3
Layout1
350
21
  3
Model
350
20
  0
DICTIONARY
  5
22
102
{ACAD_REACTORS
330
19
102
}
100
AcDbDictionary
280
     0
281
     1
  0
WIPEOUTVARIABLES
  5
23
100
AcDbWipeoutVariables
 70
     1
  0
ENDSEC
  0
EOF
