  0
SECTION
  2
HEADER
  9
$ACADVER
  1
AC1015
  9
$ACADMAINTVER
 70
     6
  9
$DWGCODEPAGE
  3
DOS850
  9
$INSBASE
 10
0.0
 20
0.0
 30
0.0
  9
$EXTMIN
 10
-4.16037
 20
-6.87138
 30
1.000000E+20
  9
$EXTMAX
 10
4.16658
 20
6.86524
 30
-1.000000E+20
  9
$LIMMIN
 10
0.0
 20
0.0
  9
$LIMMAX
 10
0.0
 20
0.0
  9
$ORTHOMODE
 70
     0
  9
$REGENMODE
 70
     1
  9
$FILLMODE
 70
     1
  9
$QTEXTMODE
 70
     0
  9
$MIRRTEXT
 70
     1
  9
$LTSCALE
 40
1.0
  9
$ATTMODE
 70
     1
  9
$TEXTSIZE
 40
0.2
  9
$TRACEWID
 40
0.05
  9
$TEXTSTYLE
  7
Standard
  9
$CLAYER
  8
0
  9
$CELTYPE
  6
Continuous
  9
$CECOLOR
 62
   256
  9
$CELTSCALE
 40
1.0
  9
$DISPSILH
 70
     0
  9
$DIMSCALE
 40
1.0
  9
$DIMASZ
 40
0.18
  9
$DIMEXO
 40
0.0625
  9
$DIMDLI
 40
0.38
  9
$DIMRND
 40
0.0
  9
$DIMDLE
 40
0.0
  9
$DIMEXE
 40
0.18
  9
$DIMTP
 40
0.0
  9
$DIMTM
 40
0.0
  9
$DIMTXT
 40
0.18
  9
$DIMCEN
 40
0.09
  9
$DIMTSZ
 40
0.0
  9
$DIMTOL
 70
     0
  9
$DIMLIM
 70
     0
  9
$DIMTIH
 70
     1
  9
$DIMTOH
 70
     1
  9
$DIMSE1
 70
     0
  9
$DIMSE2
 70
     0
  9
$DIMTAD
 70
     0
  9
$DIMZIN
 70
     0
  9
$DIMBLK
  1

  9
$DIMASO
 70
     1
  9
$DIMSHO
 70
     1
  9
$DIMPOST
  1

  9
$DIMAPOST
  1

  9
$DIMALT
 70
     0
  9
$DIMALTD
 70
     2
  9
$DIMALTF
 40
25.4
  9
$DIMLFAC
 40
1.0
  9
$DIMTOFL
 70
     0
  9
$DIMTVP
 40
0.0
  9
$DIMTIX
 70
     0
  9
$DIMSOXD
 70
     0
  9
$DIMSAH
 70
     0
  9
$DIMBLK1
  1

  9
$DIMBLK2
  1

  9
$DIMSTYLE
  2
Standard
  9
$DIMCLRD
 70
     0
  9
$DIMCLRE
 70
     0
  9
$DIMCLRT
 70
     0
  9
$DIMTFAC
 40
1.0
  9
$DIMGAP
 40
0.09
  9
$DIMJUST
 70
     0
  9
$DIMSD1
 70
     0
  9
$DIMSD2
 70
     0
  9
$DIMTOLJ
 70
     1
  9
$DIMTZIN
 70
     0
  9
$DIMALTZ
 70
     0
  9
$DIMALTTZ
 70
     0
  9
$DIMUPT
 70
     0
  9
$DIMDEC
 70
     4
  9
$DIMTDEC
 70
     4
  9
$DIMALTU
 70
     2
  9
$DIMALTTD
 70
     2
  9
$DIMTXSTY
  7
Standard
  9
$DIMAUNIT
 70
     0
  9
$DIMADEC
 70
     0
  9
$DIMALTRND
 40
0.0
  9
$DIMAZIN
 70
     0
  9
$DIMDSEP
 70
     0
  9
$DIMATFIT
 70
     3
  9
$DIMFRAC
 70
     0
  9
$DIMLDRBLK
  1

  9
$DIMLUNIT
 70
     2
  9
$DIMLWD
 70
     0
  9
$DIMLWE
 70
     0
  9
$DIMTMOVE
 70
     0
  9
$LUNITS
 70
     2
  9
$LUPREC
 70
     4
  9
$SKETCHINC
 40
0.1
  9
$FILLETRAD
 40
0.0
  9
$AUNITS
 70
     0
  9
$AUPREC
 70
     0
  9
$MENU
  1
acad
  9
$ELEVATION
 40
0.0
  9
$PELEVATION
 40
0.0
  9
$THICKNESS
 40
0.0
  9
$LIMCHECK
 70
     0
  9
$CHAMFERA
 40
0.0
  9
$CHAMFERB
 40
0.0
  9
$CHAMFERC
 40
0.0
  9
$CHAMFERD
 40
0.0
  9
$SKPOLY
 70
     0
  9
$TDCREATE
 40
0.000000000
  9
$TDUCREATE
 40
0.000000000
  9
$TDUPDATE
 40
0.000000000
  9
$TDUUPDATE
 40
0.000000000
  9
$TDINDWG
 40
0.0000000000
  9
$TDUSRTIMER
 40
0.0000000000
  9
$USRTIMER
 70
     1
  9
$ANGBASE
 50
0.0
  9
$ANGDIR
 70
     0
  9
$PDMODE
 70
     0
  9
$PDSIZE
 40
0.0
  9
$PLINEWID
 40
0.0
  9
$SPLFRAME
 70
     0
  9
$SPLINETYPE
 70
     6
  9
$SPLINESEGS
 70
     8
  9
$HANDSEED
  5
54
  9
$SURFTAB1
 70
     6
  9
$SURFTAB2
 70
     6
  9
$SURFTYPE
 70
     6
  9
$SURFU
 70
     6
  9
$SURFV
 70
     6
  9
$UCSBASE
  2

  9
$UCSNAME
  2

  9
$UCSORG
 10
0.0
 20
0.0
 30
0.0
  9
$UCSXDIR
 10
1.0
 20
0.0
 30
0.0
  9
$UCSYDIR
 10
0.0
 20
1.0
 30
0.0
  9
$UCSORTHOREF
  2

  9
$UCSORTHOVIEW
 70
     0
  9
$UCSORGTOP
 10
0.0
 20
0.0
 30
0.0
  9
$UCSORGBOTTOM
 10
0.0
 20
0.0
 30
0.0
  9
$UCSORGLEFT
 10
0.0
 20
0.0
 30
0.0
  9
$UCSORGRIGHT
 10
0.0
 20
0.0
 30
0.0
  9
$UCSORGFRONT
 10
0.0
 20
0.0
 30
0.0
  9
$UCSORGBACK
 10
0.0
 20
0.0
 30
0.0
  9
$PUCSBASE
  2

  9
$PUCSNAME
  2

  9
$PUCSORG
 10
0.0
 20
0.0
 30
0.0
  9
$PUCSXDIR
 10
1.0
 20
0.0
 30
0.0
  9
$PUCSYDIR
 10
0.0
 20
1.0
 30
0.0
  9
$PUCSORTHOREF
  2

  9
$PUCSORTHOVIEW
 70
     0
  9
$PUCSORGTOP
 10
0.0
 20
0.0
 30
0.0
  9
$PUCSORGBOTTOM
 10
0.0
 20
0.0
 30
0.0
  9
$PUCSORGLEFT
 10
0.0
 20
0.0
 30
0.0
  9
$PUCSORGRIGHT
 10
0.0
 20
0.0
 30
0.0
  9
$PUCSORGFRONT
 10
0.0
 20
0.0
 30
0.0
  9
$PUCSORGBACK
 10
0.0
 20
0.0
 30
0.0
  9
$USERI1
 70
     0
  9
$USERI2
 70
     0
  9
$USERI3
 70
     0
  9
$USERI4
 70
     0
  9
$USERI5
 70
     0
  9
$USERR1
 40
0.0
  9
$USERR2
 40
0.0
  9
$USERR3
 40
0.0
  9
$USERR4
 40
0.0
  9
$USERR5
 40
0.0
  9
$WORLDVIEW
 70
     1
  9
$SHADEDGE
 70
     3
  9
$SHADEDIF
 70
    70
  9
$TILEMODE
 70
     1
  9
$MAXACTVP
 70
    16
  9
$PINSBASE
 10
0.0
 20
0.0
 30
0.0
  9
$PLIMCHECK
 70
     0
  9
$PEXTMIN
 10
1.000000E+20
 20
1.000000E+20
 30
1.000000E+20
  9
$PEXTMAX
 10
-1.000000E+20
 20
-1.000000E+20
 30
-1.000000E+20
  9
$PLIMMIN
 10
0.0
 20
0.0
  9
$PLIMMAX
 10
12.0
 20
9.0
  9
$UNITMODE
 70
     0
  9
$VISRETAIN
 70
     0
  9
$PLINEGEN
 70
     1
  9
$PSLTSCALE
 70
     0
  9
$TREEDEPTH
 70
  3020
  9
$CMLSTYLE
  2
Standard
  9
$CMLJUST
 70
     0
  9
$CMLSCALE
 40
1.0
  9
$PROXYGRAPHICS
 70
     0
  9
$MEASUREMENT
 70
     0
  9
$CELWEIGHT
370
     0
  9
$ENDCAPS
280
     0
  9
$JOINSTYLE
280
     0
  9
$LWDISPLAY
290
     0
  9
$INSUNITS
 70
     5
  9
$HYPERLINKBASE
  1

  9
$XEDIT
290
     1
  9
$CEPSNTYPE
380
     0
  9
$PSTYLEMODE
290
     1
  9
$FINGERPRINTGUID
  2

  9
$VERSIONGUID
  2

  9
$EXTNAMES
290
     1
  9
$PSVPSCALE
 40
0.0
  0
ENDSEC
  0
SECTION
  2
CLASSES
  0
CLASS
  1
LWPOLYLINE
  2
AcDbPolyline
  3
AutoCAD 2000
 90
    32768
280
     0
281
     1
  0
CLASS
  1
IMAGE
  2
AcDbRasterImage
  3
ISM
 90
    32895
280
     0
281
     1
  0
CLASS
  1
OLE2FRAME
  2
AcDbOle2Frame
  3
AutoCAD 2000
 90
    32768
280
     0
281
     1
  0
CLASS
  1
HATCH
  2
AcDbHatch
  3
AutoCAD 2000
 90
    32768
280
     0
281
     1
  0
CLASS
  1
DICTIONARYVAR
  2
AcDbDictionaryVar
  3
AutoCAD 2000
 90
    32768
280
     0
281
     0
  0
CLASS
  1
RASTERVARIABLES
  2
AcDbRasterVariables
  3
ISM
 90
    32768
280
     0
281
     0
  0
CLASS
  1
IMAGEDEF
  2
AcDbRasterImageDef
  3
ISM
 90
    32768
280
     0
281
     0
  0
CLASS
  1
IMAGEDEF_REACTOR
  2
AcDbRasterImageDefReactor
  3
ISM
 90
    32769
280
     0
281
     0
  0
CLASS
  1
IDBUFFER
  2
AcDbIdBuffer
  3
AutoCAD 2000
 90
    32768
280
     0
281
     0
  0
CLASS
  1
SPATIAL_FILTER
  2
AcDbSpatialFilter
  3
AutoCAD 2000
 90
    32768
280
     0
281
     0
  0
CLASS
  1
XRECORD
  2
AcDbXrecord
  3
AutoCAD 2000
 90
    32768
280
     0
281
     0
  0
CLASS
  1
SORTENTSTABLE
  2
AcDbSortentsTable
  3
AutoCAD 2000
 90
    32768
280
     0
281
     0
  0
CLASS
  1
LAYER_INDEX
  2
AcDbLayerIndex
  3
AutoCAD 2000
 90
    32768
280
     0
281
     0
  0
CLASS
  1
SPATIAL_INDEX
  2
AcDbSpatialIndex
  3
AutoCAD 2000
 90
    32768
280
     0
281
     0
  0
CLASS
  1
OBJECT_PTR
  2
CAseDLPNTableRecord
  3
"ASE-LPNTableRecord"
 90
    32769
280
     0
281
     0
  0
CLASS
  1
LAYOUT
  2
AcDbLayout
  3
AutoCAD 2000
 90
        0
280
     0
281
     0
  0
CLASS
  1
PLOTSETTINGS
  2
AcDbPlotSettings
  3
AutoCAD 2000
 90
    32768
280
     0
281
     0
  0
CLASS
  1
ACDBDICTIONARYWDFLT
  2
AcDbDictionaryWithDefault
  3
AutoCAD 2000
 90
        0
280
     0
281
     0
  0
CLASS
  1
ACDBPLACEHOLDER
  2
AcDbPlaceHolder
  3
AutoCAD 2000
 90
        0
280
     0
281
     0
  0
CLASS
  1
VBA_PROJECT
  2
AcDbVbaProject
  3
acadvba
 90
    32768
280
     0
281
     0
  0
CLASS
  1
WIPEOUT
  2
AcDbWipeout
  3
WipeOut|AutoCAD Express Tool|expresstools@autodesk.com
 90
    32895
280
     0
281
     1
  0
CLASS
  1
WIPEOUTVARIABLES
  2
AcDbWipeoutVariables
  3
WipeOut|AutoCAD Express Tool|expresstools@autodesk.com
 90
        0
280
     0
281
     0
  0
CLASS
  1
RTEXT
  2
RText
  3
RText|AutoCAD Express Tool|expresstools@autodesk.com
 90
    32768
280
     0
281
     1
  0
CLASS
  1
ARCALIGNEDTEXT
  2
AcDbArcAlignedText
  3
ATEXT|AutoCAD Express Tool|expresstools@autodesk.com
 90
    32768
280
     0
281
     1
  0
ENDSEC
  0
SECTION
  2
TABLES
  0
TABLE
  2
VPORT
  5
7
100
AcDbSymbolTable
 70
     1
  0
VPORT
  5
15
100
AcDbSymbolTableRecord
100
AcDbViewportTableRecord
  2
*ACTIVE
 70
     0
 10
0.0
 20
0.0
 11
1.0
 21
1.0
 12
6.591288
 22
4.579184
 13
0.0
 23
0.0
 14
1.0
 24
1.0
 15
0.0
 25
0.0
 16
0.0
 26
0.0
 36
1.0
 17
0.0
 27
0.0
 37
0.0
 40
9.158369
 41
0.688564
 42
50.0
 43
0.0
 44
0.0
 50
0.0
 51
0.0
 71
     0
 72
   100
 73
     1
 74
     1
 75
     0
 76
     0
 77
     0
 78
     0
281
     0
 65
     0
110
0.0
120
0.0
130
0.0
111
1.0
121
0.0
131
0.0
112
0.0
122
1.0
132
0.0
345
0
346
0
 79
     0
146
0.0
  0
ENDTAB
  0
TABLE
  2
LTYPE
  5
4
100
AcDbSymbolTable
 70
     3
  0
LTYPE
  5
11
100
AcDbSymbolTableRecord
100
AcDbLinetypeTableRecord
  2
ByBlock
 70
    64
  3

 72
    65
 73
     0
 40
0.0
  0
LTYPE
  5
12
100
AcDbSymbolTableRecord
100
AcDbLinetypeTableRecord
  2
ByLayer
 70
    64
  3

 72
    65
 73
     0
 40
0.0
  0
LTYPE
  5
13
100
AcDbSymbolTableRecord
100
AcDbLinetypeTableRecord
  2
Continuous
 70
    64
  3
Solid line
 72
    65
 73
     0
 40
0.0
  0
ENDTAB
  0
TABLE
  2
LAYER
  5
2
100
AcDbSymbolTable
 70
     2
  0
LAYER
  5
14
100
AcDbSymbolTableRecord
100
AcDbLayerTableRecord
  2
0
 70
     0
 62
     7
  6
Continuous
290
     1
370
    -3
390
1D
  0
LAYER
  5
24
100
AcDbSymbolTableRecord
100
AcDbLayerTableRecord
  2
Ebene 1
 70
     0
 62
     7
  6
Continuous
290
     1
370
    -3
390
1F
  0
ENDTAB
  0
TABLE
  2
STYLE
  5
3
100
AcDbSymbolTable
 70
     1
  0
STYLE
  5
17
100
AcDbSymbolTableRecord
100
AcDbTextStyleTableRecord
  2
Standard
 70
     0
 40
0.0
 41
1.0
 50
0.0
 71
     0
 42
0.0
  3
txt
  4

  0
ENDTAB
  0
TABLE
  2
VIEW
  5
5
100
AcDbSymbolTable
 70
     0
  0
ENDTAB
  0
TABLE
  2
UCS
  5
6
100
AcDbSymbolTable
 70
     0
  0
ENDTAB
  0
TABLE
  2
APPID
  5
8
100
AcDbSymbolTable
 70
     1
  0
APPID
  5
16
100
AcDbSymbolTableRecord
100
AcDbRegAppTableRecord
  2
ACAD
 70
     0
  0
ENDTAB
  0
TABLE
  2
DIMSTYLE
  5
9
100
AcDbSymbolTable
 70
     1
100
AcDbDimStyleTable
 71
     0
  0
DIMSTYLE
105
18
100
AcDbSymbolTableRecord
100
AcDbDimStyleTableRecord
  2
Standard
 70
     0
  3

  4

 40
1.0
 41
0.18
 42
0.0625
 43
0.38
 44
0.18
 45
0.0
 46
0.0
 47
0.0
 48
0.0
 71
     0
 72
     0
 73
     1
 74
     1
 75
     0
 76
     0
 77
     0
 78
     0
 79
     0
140
0.18
141
0.09
142
0.0
143
25.4
144
1.0
145
0.0
146
1.0
147
0.09
148
0.0
170
     0
171
     2
172
     0
173
     0
174
     0
175
     0
176
     0
177
     0
178
     0
179
     0
271
     4
272
     4
273
     2
274
     2
275
     0
276
     0
277
     2
278
    46
279
     0
280
     0
281
     0
282
     0
283
     1
284
     0
285
     0
286
     0
288
     0
340
17
341
0
342
0
343
0
344
0
371
    -2
372
    -2
  0
ENDTAB
  0
TABLE
  2
BLOCK_RECORD
  5
1
100
AcDbSymbolTable
 70
     0
  0
BLOCK_RECORD
  5
A
100
AcDbSymbolTableRecord
100
AcDbBlockTableRecord
  2
*MODEL_SPACE
340
20
  0
BLOCK_RECORD
  5
B
100
AcDbSymbolTableRecord
100
AcDbBlockTableRecord
  2
*PAPER_SPACE
340
21
  0
ENDTAB
  0
ENDSEC
  0
SECTION
  2
BLOCKS
  0
BLOCK
  5
D
100
AcDbEntity
  8
0
100
AcDbBlockBegin
  2
*MODEL_SPACE
 70
     0
 10
0.0
 20
0.0
 30
0.0
  3
*MODEL_SPACE
  1

  0
ENDBLK
  5
E
100
AcDbEntity
  8
0
100
AcDbBlockEnd
  0
BLOCK
  5
F
100
AcDbEntity
 67
     1
  8
0
100
AcDbBlockBegin
  2
*PAPER_SPACE
 70
     0
 10
0.0
 20
0.0
 30
0.0
  3
*PAPER_SPACE
  1

  0
ENDBLK
  5
10
100
AcDbEntity
 67
     1
  8
0
100
AcDbBlockEnd
  0
ENDSEC
  0
SECTION
  2
ENTITIES
  0
SPLINE
  5
25
100
AcDbEntity
  8
Ebene 1
100
AcDbSpline
210
0.0
220
0.0
230
1.0
 70
     1
 71
     3
 72
   144
 73
   140
 74
     0
 42
0.0000000001
 43
0.0000000001
 40
0.0
 40
0.0
 40
0.0
 40
0.0
 40
0.0285714285714286
 40
0.0285714285714286
 40
0.0285714285714286
 40
0.0285714285714286
 40
0.0571428571428571
 40
0.0571428571428571
 40
0.0571428571428571
 40
0.0571428571428571
 40
0.0857142857142857
 40
0.0857142857142857
 40
0.0857142857142857
 40
0.0857142857142857
 40
0.1142857142857143
 40
0.1142857142857143
 40
0.1142857142857143
 40
0.1142857142857143
 40
0.1428571428571429
 40
0.1428571428571429
 40
0.1428571428571429
 40
0.1428571428571429
 40
0.1714285714285714
 40
0.1714285714285714
 40
0.1714285714285714
 40
0.1714285714285714
 40
0.2
 40
0.2
 40
0.2
 40
0.2
 40
0.2285714285714286
 40
0.2285714285714286
 40
0.2285714285714286
 40
0.2285714285714286
 40
0.2571428571428572
 40
0.2571428571428572
 40
0.2571428571428572
 40
0.2571428571428572
 40
0.2857142857142858
 40
0.2857142857142858
 40
0.2857142857142858
 40
0.2857142857142858
 40
0.3142857142857143
 40
0.3142857142857143
 40
0.3142857142857143
 40
0.3142857142857143
 40
0.3428571428571429
 40
0.3428571428571429
 40
0.3428571428571429
 40
0.3428571428571429
 40
0.3714285714285715
 40
0.3714285714285715
 40
0.3714285714285715
 40
0.3714285714285715
 40
0.4000000000000001
 40
0.4000000000000001
 40
0.4000000000000001
 40
0.4000000000000001
 40
0.4285714285714287
 40
0.4285714285714287
 40
0.4285714285714287
 40
0.4285714285714287
 40
0.4571428571428572
 40
0.4571428571428572
 40
0.4571428571428572
 40
0.4571428571428572
 40
0.4857142857142858
 40
0.4857142857142858
 40
0.4857142857142858
 40
0.4857142857142858
 40
0.5142857142857144
 40
0.5142857142857144
 40
0.5142857142857144
 40
0.5142857142857144
 40
0.5428571428571429
 40
0.5428571428571429
 40
0.5428571428571429
 40
0.5428571428571429
 40
0.5714285714285715
 40
0.5714285714285715
 40
0.5714285714285715
 40
0.5714285714285715
 40
0.6000000000000001
 40
0.6000000000000001
 40
0.6000000000000001
 40
0.6000000000000001
 40
0.6285714285714287
 40
0.6285714285714287
 40
0.6285714285714287
 40
0.6285714285714287
 40
0.6571428571428573
 40
0.6571428571428573
 40
0.6571428571428573
 40
0.6571428571428573
 40
0.6857142857142858
 40
0.6857142857142858
 40
0.6857142857142858
 40
0.6857142857142858
 40
0.7142857142857144
 40
0.7142857142857144
 40
0.7142857142857144
 40
0.7142857142857144
 40
0.742857142857143
 40
0.742857142857143
 40
0.742857142857143
 40
0.742857142857143
 40
0.7714285714285716
 40
0.7714285714285716
 40
0.7714285714285716
 40
0.7714285714285716
 40
0.8000000000000002
 40
0.8000000000000002
 40
0.8000000000000002
 40
0.8000000000000002
 40
0.8285714285714287
 40
0.8285714285714287
 40
0.8285714285714287
 40
0.8285714285714287
 40
0.8571428571428573
 40
0.8571428571428573
 40
0.8571428571428573
 40
0.8571428571428573
 40
0.8857142857142859
 40
0.8857142857142859
 40
0.8857142857142859
 40
0.8857142857142859
 40
0.9142857142857145
 40
0.9142857142857145
 40
0.9142857142857145
 40
0.9142857142857145
 40
0.9428571428571431
 40
0.9428571428571431
 40
0.9428571428571431
 40
0.9428571428571431
 40
0.9714285714285716
 40
0.9714285714285716
 40
0.9714285714285716
 40
0.9714285714285716
 40
1.0
 40
1.0
 40
1.0
 40
1.0
 10
2.5680800000000001
 20
6.8599700000000006
 30
0.0
 10
3.0379800000000001
 20
6.8955300000000008
 30
0.0
 10
3.5993200000000001
 20
6.7532900000000007
 30
0.0
 10
3.8939600000000003
 20
6.3773700000000009
 30
0.0
 10
3.8939600000000003
 20
6.3773700000000009
 30
0.0
 10
4.4146600000000005
 20
5.8185700000000002
 30
0.0
 10
4.1124000000000001
 20
3.4817700000000005
 30
0.0
 10
3.6323400000000001
 20
2.2041500000000003
 30
0.0
 10
3.6323400000000001
 20
2.2041500000000003
 30
0.0
 10
3.0354400000000004
 20
0.6115700000000001
 30
0.0
 10
1.9991200000000002
 20
-0.75748
 30
0.0
 10
1.61304
 20
-2.3830800000000001
 30
0.0
 10
1.61304
 20
-2.3830800000000001
 30
0.0
 10
1.4835
 20
-2.3018000000000001
 30
0.0
 10
1.6028800000000001
 20
-2.0046200000000001
 30
0.0
 10
1.5444600000000002
 20
-1.8573000000000002
 30
0.0
 10
1.5444600000000002
 20
-1.8573000000000002
 30
0.0
 10
1.1787000000000001
 20
-2.48468
 30
0.0
 10
0.7316600000000001
 20
-3.1171400000000005
 30
0.0
 10
0.6021200000000001
 20
-3.8435800000000002
 30
0.0
 10
0.6021200000000001
 20
-3.8435800000000002
 30
0.0
 10
0.50814
 20
-3.7115000000000005
 30
0.0
 10
0.6021200000000001
 20
-3.4448000000000003
 30
0.0
 10
0.57926
 20
-3.2797000000000001
 30
0.0
 10
0.57926
 20
-3.2797000000000001
 30
0.0
 10
-0.00747
 20
-4.1585400000000003
 30
0.0
 10
-0.27925
 20
-5.1770800000000001
 30
0.0
 10
-0.38339
 20
-6.2235600000000009
 30
0.0
 10
-0.38339
 20
-6.2235600000000009
 30
0.0
 10
-0.36815
 20
-6.4978800000000003
 30
0.0
 10
-0.20813
 20
-6.6350400000000009
 30
0.0
 10
0.03824
 20
-6.6426600000000002
 30
0.0
 10
0.03824
 20
-6.6426600000000002
 30
0.0
 10
0.3557400000000001
 20
-6.4115200000000003
 30
0.0
 10
0.34304
 20
-6.0025800000000009
 30
0.0
 10
0.3659
 20
-5.6342800000000004
 30
0.0
 10
0.3659
 20
-5.6342800000000004
 30
0.0
 10
0.3913
 20
-5.2050200000000002
 30
0.0
 10
0.63768
 20
-4.7732200000000002
 30
0.0
 10
0.9653400000000001
 20
-4.5192200000000007
 30
0.0
 10
0.9653400000000001
 20
-4.5192200000000007
 30
0.0
 10
0.8840600000000001
 20
-4.8214800000000002
 30
0.0
 10
0.71896
 20
-5.1034200000000007
 30
0.0
 10
0.6478400000000001
 20
-5.4107600000000007
 30
0.0
 10
0.6478400000000001
 20
-5.4107600000000007
 30
0.0
 10
0.5208400000000001
 20
-5.8171600000000003
 30
0.0
 10
0.50814
 20
-6.3048400000000004
 30
0.0
 10
0.25414
 20
-6.6604400000000004
 30
0.0
 10
0.25414
 20
-6.6604400000000004
 30
0.0
 10
-0.05065
 20
-7.0897000000000006
 30
0.0
 10
-0.5611900000000001
 20
-6.8026800000000005
 30
0.0
 10
-0.6627900000000001
 20
-6.3454800000000002
 30
0.0
 10
-0.6627900000000001
 20
-6.3454800000000002
 30
0.0
 10
-0.9777500000000001
 20
-4.9256200000000003
 30
0.0
 10
-0.52563
 20
-3.3889200000000002
 30
0.0
 10
-0.20813
 20
-2.0097
 30
0.0
 10
-0.20813
 20
-2.0097
 30
0.0
 10
-0.28941
 20
-1.9284200000000002
 30
0.0
 10
-0.3960900000000001
 20
-2.3678400000000002
 30
0.0
 10
-0.4900700000000001
 20
-2.4415
 30
0.0
 10
-0.4900700000000001
 20
-2.4415
 30
0.0
 10
-0.34783
 20
-1.7912600000000001
 30
0.0
 10
-0.3021100000000001
 20
-1.12324
 30
0.0
 10
-0.17257
 20
-0.48316
 30
0.0
 10
-0.17257
 20
-0.48316
 30
0.0
 10
-0.17257
 20
-0.48316
 30
0.0
 10
-0.28941
 20
-0.71684
 30
0.0
 10
-0.28941
 20
-0.71684
 30
0.0
 10
-0.28941
 20
-0.71684
 30
0.0
 10
-0.5611900000000001
 20
-1.4483600000000001
 30
0.0
 10
-0.34783
 20
-0.4679200000000001
 30
0.0
 10
-0.28941
 20
-0.16566
 30
0.0
 10
-0.28941
 20
-0.16566
 30
0.0
 10
-0.18527
 20
0.14929
 30
0.0
 10
0.03824
 20
0.41853
 30
0.0
 10
0.2135
 20
0.6979300000000001
 30
0.0
 10
0.2135
 20
0.6979300000000001
 30
0.0
 10
-0.43165
 20
0.8046100000000001
 30
0.0
 10
-1.1961900000000001
 20
0.7385700000000001
 30
0.0
 10
-1.7803900000000001
 20
1.0433700000000001
 30
0.0
 10
-1.7803900000000001
 20
1.0433700000000001
 30
0.0
 10
-1.8540500000000002
 20
0.5429900000000001
 30
0.0
 10
-1.08951
 20
-0.04882
 30
0.0
 10
-1.8515100000000002
 20
-0.1428
 30
0.0
 10
-1.8515100000000002
 20
-0.1428
 30
0.0
 10
-1.8718300000000001
 20
-0.25964
 30
0.0
 10
-1.7676900000000002
 20
-0.3942600000000001
 30
0.0
 10
-1.8184900000000002
 20
-0.5161800000000001
 30
0.0
 10
-1.8184900000000002
 20
-0.5161800000000001
 30
0.0
 10
-1.9073900000000001
 20
-0.45268
 30
0.0
 10
-1.9531100000000001
 20
-0.29266
 30
0.0
 10
-2.0877300000000001
 20
-0.2952
 30
0.0
 10
-2.0877300000000001
 20
-0.2952
 30
0.0
 10
-2.1867900000000002
 20
-0.40696
 30
0.0
 10
-2.0343900000000001
 20
-0.59238
 30
0.0
 10
-2.1486900000000002
 20
-0.71684
 30
0.0
 10
-2.1486900000000002
 20
-0.71684
 30
0.0
 10
-2.2604500000000001
 20
-0.61778
 30
0.0
 10
-2.4153900000000004
 20
-0.4780800000000001
 30
0.0
 10
-2.5093700000000001
 20
-0.6711200000000001
 30
0.0
 10
-2.5093700000000001
 20
-0.6711200000000001
 30
0.0
 10
-3.0757900000000005
 20
-0.7447800000000001
 30
0.0
 10
-2.7735300000000001
 20
-1.4102600000000001
 30
0.0
 10
-2.7405100000000004
 20
-1.8547600000000002
 30
0.0
 10
-2.7405100000000004
 20
-1.8547600000000002
 30
0.0
 10
-2.9640300000000002
 20
-1.7607800000000002
 30
0.0
 10
-3.2307300000000003
 20
-0.9810000000000001
 30
0.0
 10
-3.3602700000000003
 20
-1.5169400000000002
 30
0.0
 10
-3.3602700000000003
 20
-1.5169400000000002
 30
0.0
 10
-3.5025100000000005
 20
-1.37724
 30
0.0
 10
-3.4771100000000001
 20
-1.3518400000000002
 30
0.0
 10
-3.6269700000000005
 20
-1.4763000000000002
 30
0.0
 10
-3.6269700000000005
 20
-1.4763000000000002
 30
0.0
 10
-3.7539700000000003
 20
-0.9632200000000001
 30
0.0
 10
-3.6803100000000004
 20
-0.4044200000000001
 30
0.0
 10
-3.9622500000000005
 20
0.05785
 30
0.0
 10
-3.9622500000000005
 20
0.05785
 30
0.0
 10
-3.9089100000000001
 20
0.4439300000000001
 30
0.0
 10
-3.6955500000000003
 20
0.4312300000000001
 30
0.0
 10
-3.9647900000000003
 20
1.0078100000000001
 30
0.0
 10
-3.9647900000000003
 20
1.0078100000000001
 30
0.0
 10
-4.02067
 20
1.0916300000000001
 30
0.0
 10
-4.1121100000000004
 20
0.8985900000000001
 30
0.0
 10
-4.1603700000000003
 20
1.0001900000000001
 30
0.0
 10
-4.1603700000000003
 20
1.0001900000000001
 30
0.0
 10
-4.13497
 20
1.2948300000000001
 30
0.0
 10
-3.9114500000000003
 20
1.5081900000000001
 30
0.0
 10
-3.7615900000000004
 20
1.7520300000000002
 30
0.0
 10
-3.7615900000000004
 20
1.7520300000000002
 30
0.0
 10
-3.7692100000000002
 20
2.20669
 30
0.0
 10
-4.1044900000000002
 20
2.54705
 30
0.0
 10
-3.7971500000000002
 20
2.9763100000000002
 30
0.0
 10
-3.7971500000000002
 20
2.9763100000000002
 30
0.0
 10
-3.9520900000000001
 20
5.2115100000000005
 30
0.0
 10
-1.1479300000000001
 20
6.4230900000000002
 30
0.0
 10
0.6249800000000001
 20
5.4248700000000003
 30
0.0
 10
0.6249800000000001
 20
5.4248700000000003
 30
0.0
 10
1.2955400000000001
 20
5.8465100000000003
 30
0.0
 10
1.7197200000000001
 20
6.7532900000000007
 30
0.0
 10
2.5680800000000001
 20
6.8599700000000006
 30
0.0
  0
SPLINE
  5
26
100
AcDbEntity
  8
Ebene 1
100
AcDbSpline
210
0.0
220
0.0
230
1.0
 70
     1
 71
     3
 72
    20
 73
    16
 74
     0
 42
0.0000000001
 43
0.0000000001
 40
0.0
 40
0.0
 40
0.0
 40
0.0
 40
0.25
 40
0.25
 40
0.25
 40
0.25
 40
0.5
 40
0.5
 40
0.5
 40
0.5
 40
0.75
 40
0.75
 40
0.75
 40
0.75
 40
1.0
 40
1.0
 40
1.0
 40
1.0
 10
1.7781400000000001
 20
5.1048300000000006
 30
0.0
 10
1.61304
 20
5.0464100000000007
 30
0.0
 10
1.56732
 20
4.8482900000000004
 30
0.0
 10
1.4962000000000002
 20
4.7060500000000003
 30
0.0
 10
1.4962000000000002
 20
4.7060500000000003
 30
0.0
 10
1.4962000000000002
 20
4.7060500000000003
 30
0.0
 10
1.7197200000000001
 20
4.1878900000000003
 30
0.0
 10
1.7197200000000001
 20
4.1878900000000003
 30
0.0
 10
1.7197200000000001
 20
4.1878900000000003
 30
0.0
 10
1.8619600000000001
 20
4.45967
 30
0.0
 10
1.9788000000000001
 20
4.8127300000000002
 30
0.0
 10
1.8137000000000001
 20
5.1048300000000006
 30
0.0
 10
1.8137000000000001
 20
5.1048300000000006
 30
0.0
 10
1.8137000000000001
 20
5.1048300000000006
 30
0.0
 10
1.7781400000000001
 20
5.1048300000000006
 30
0.0
 10
1.7781400000000001
 20
5.1048300000000006
 30
0.0
  0
SPLINE
  5
27
100
AcDbEntity
  8
Ebene 1
 62
     7
100
AcDbSpline
210
0.0
220
0.0
230
1.0
 70
     1
 71
     3
 72
   264
 73
   260
 74
     0
 42
0.0000000001
 43
0.0000000001
 40
0.0
 40
0.0
 40
0.0
 40
0.0
 40
0.0153846153846154
 40
0.0153846153846154
 40
0.0153846153846154
 40
0.0153846153846154
 40
0.0307692307692308
 40
0.0307692307692308
 40
0.0307692307692308
 40
0.0307692307692308
 40
0.0461538461538462
 40
0.0461538461538462
 40
0.0461538461538462
 40
0.0461538461538462
 40
0.0615384615384615
 40
0.0615384615384615
 40
0.0615384615384615
 40
0.0615384615384615
 40
0.0769230769230769
 40
0.0769230769230769
 40
0.0769230769230769
 40
0.0769230769230769
 40
0.0923076923076923
 40
0.0923076923076923
 40
0.0923076923076923
 40
0.0923076923076923
 40
0.1076923076923077
 40
0.1076923076923077
 40
0.1076923076923077
 40
0.1076923076923077
 40
0.1230769230769231
 40
0.1230769230769231
 40
0.1230769230769231
 40
0.1230769230769231
 40
0.1384615384615385
 40
0.1384615384615385
 40
0.1384615384615385
 40
0.1384615384615385
 40
0.1538461538461539
 40
0.1538461538461539
 40
0.1538461538461539
 40
0.1538461538461539
 40
0.1692307692307692
 40
0.1692307692307692
 40
0.1692307692307692
 40
0.1692307692307692
 40
0.1846153846153846
 40
0.1846153846153846
 40
0.1846153846153846
 40
0.1846153846153846
 40
0.2
 40
0.2
 40
0.2
 40
0.2
 40
0.2153846153846154
 40
0.2153846153846154
 40
0.2153846153846154
 40
0.2153846153846154
 40
0.2307692307692308
 40
0.2307692307692308
 40
0.2307692307692308
 40
0.2307692307692308
 40
0.2461538461538462
 40
0.2461538461538462
 40
0.2461538461538462
 40
0.2461538461538462
 40
0.2615384615384616
 40
0.2615384615384616
 40
0.2615384615384616
 40
0.2615384615384616
 40
0.2769230769230769
 40
0.2769230769230769
 40
0.2769230769230769
 40
0.2769230769230769
 40
0.2923076923076923
 40
0.2923076923076923
 40
0.2923076923076923
 40
0.2923076923076923
 40
0.3076923076923077
 40
0.3076923076923077
 40
0.3076923076923077
 40
0.3076923076923077
 40
0.3230769230769231
 40
0.3230769230769231
 40
0.3230769230769231
 40
0.3230769230769231
 40
0.3384615384615385
 40
0.3384615384615385
 40
0.3384615384615385
 40
0.3384615384615385
 40
0.3538461538461539
 40
0.3538461538461539
 40
0.3538461538461539
 40
0.3538461538461539
 40
0.3692307692307693
 40
0.3692307692307693
 40
0.3692307692307693
 40
0.3692307692307693
 40
0.3846153846153846
 40
0.3846153846153846
 40
0.3846153846153846
 40
0.3846153846153846
 40
0.4
 40
0.4
 40
0.4
 40
0.4
 40
0.4153846153846154
 40
0.4153846153846154
 40
0.4153846153846154
 40
0.4153846153846154
 40
0.4307692307692308
 40
0.4307692307692308
 40
0.4307692307692308
 40
0.4307692307692308
 40
0.4461538461538462
 40
0.4461538461538462
 40
0.4461538461538462
 40
0.4461538461538462
 40
0.4615384615384616
 40
0.4615384615384616
 40
0.4615384615384616
 40
0.4615384615384616
 40
0.476923076923077
 40
0.476923076923077
 40
0.476923076923077
 40
0.476923076923077
 40
0.4923076923076923
 40
0.4923076923076923
 40
0.4923076923076923
 40
0.4923076923076923
 40
0.5076923076923077
 40
0.5076923076923077
 40
0.5076923076923077
 40
0.5076923076923077
 40
0.523076923076923
 40
0.523076923076923
 40
0.523076923076923
 40
0.523076923076923
 40
0.5384615384615383
 40
0.5384615384615383
 40
0.5384615384615383
 40
0.5384615384615383
 40
0.5538461538461537
 40
0.5538461538461537
 40
0.5538461538461537
 40
0.5538461538461537
 40
0.569230769230769
 40
0.569230769230769
 40
0.569230769230769
 40
0.569230769230769
 40
0.5846153846153843
 40
0.5846153846153843
 40
0.5846153846153843
 40
0.5846153846153843
 40
0.5999999999999996
 40
0.5999999999999996
 40
0.5999999999999996
 40
0.5999999999999996
 40
0.615384615384615
 40
0.615384615384615
 40
0.615384615384615
 40
0.615384615384615
 40
0.6307692307692303
 40
0.6307692307692303
 40
0.6307692307692303
 40
0.6307692307692303
 40
0.6461538461538456
 40
0.6461538461538456
 40
0.6461538461538456
 40
0.6461538461538456
 40
0.661538461538461
 40
0.661538461538461
 40
0.661538461538461
 40
0.661538461538461
 40
0.6769230769230763
 40
0.6769230769230763
 40
0.6769230769230763
 40
0.6769230769230763
 40
0.6923076923076916
 40
0.6923076923076916
 40
0.6923076923076916
 40
0.6923076923076916
 40
0.707692307692307
 40
0.707692307692307
 40
0.707692307692307
 40
0.707692307692307
 40
0.7230769230769223
 40
0.7230769230769223
 40
0.7230769230769223
 40
0.7230769230769223
 40
0.7384615384615376
 40
0.7384615384615376
 40
0.7384615384615376
 40
0.7384615384615376
 40
0.7538461538461529
 40
0.7538461538461529
 40
0.7538461538461529
 40
0.7538461538461529
 40
0.7692307692307683
 40
0.7692307692307683
 40
0.7692307692307683
 40
0.7692307692307683
 40
0.7846153846153836
 40
0.7846153846153836
 40
0.7846153846153836
 40
0.7846153846153836
 40
0.7999999999999989
 40
0.7999999999999989
 40
0.7999999999999989
 40
0.7999999999999989
 40
0.8153846153846143
 40
0.8153846153846143
 40
0.8153846153846143
 40
0.8153846153846143
 40
0.8307692307692296
 40
0.8307692307692296
 40
0.8307692307692296
 40
0.8307692307692296
 40
0.8461538461538449
 40
0.8461538461538449
 40
0.8461538461538449
 40
0.8461538461538449
 40
0.8615384615384603
 40
0.8615384615384603
 40
0.8615384615384603
 40
0.8615384615384603
 40
0.8769230769230756
 40
0.8769230769230756
 40
0.8769230769230756
 40
0.8769230769230756
 40
0.8923076923076909
 40
0.8923076923076909
 40
0.8923076923076909
 40
0.8923076923076909
 40
0.9076923076923062
 40
0.9076923076923062
 40
0.9076923076923062
 40
0.9076923076923062
 40
0.9230769230769216
 40
0.9230769230769216
 40
0.9230769230769216
 40
0.9230769230769216
 40
0.9384615384615369
 40
0.9384615384615369
 40
0.9384615384615369
 40
0.9384615384615369
 40
0.9538461538461522
 40
0.9538461538461522
 40
0.9538461538461522
 40
0.9538461538461522
 40
0.9692307692307676
 40
0.9692307692307676
 40
0.9692307692307676
 40
0.9692307692307676
 40
0.9846153846153829
 40
0.9846153846153829
 40
0.9846153846153829
 40
0.9846153846153829
 40
1.0
 40
1.0
 40
1.0
 40
1.0
 10
-0.3021100000000001
 20
-1.8344400000000001
 30
0.0
 10
-0.10145
 20
-1.4280400000000002
 30
0.0
 10
-0.20813
 20
-1.0470400000000002
 30
0.0
 10
-0.11415
 20
-0.6127
 30
0.0
 10
-0.11415
 20
-0.6127
 30
0.0
 10
-0.03033
 20
-0.39934
 30
0.0
 10
0.03824
 20
-0.17582
 30
0.0
 10
0.19064
 20
-0.0031
 30
0.0
 10
0.19064
 20
-0.0031
 30
0.0
 10
0.13222
 20
-0.21646
 30
0.0
 10
0.01284
 20
-0.43998
 30
0.0
 10
0.0738
 20
-0.6685800000000001
 30
0.0
 10
0.0738
 20
-0.6685800000000001
 30
0.0
 10
0.0484
 20
-1.0927600000000002
 30
0.0
 10
0.16778
 20
-0.67366
 30
0.0
 10
0.2008
 20
-0.49332
 30
0.0
 10
0.2008
 20
-0.49332
 30
0.0
 10
0.23636
 20
-0.37648
 30
0.0
 10
0.28462
 20
-0.26218
 30
0.0
 10
0.34304
 20
-0.15042
 30
0.0
 10
0.34304
 20
-0.15042
 30
0.0
 10
0.3786000000000001
 20
-0.08184
 30
0.0
 10
0.41416
 20
-0.0031
 30
0.0
 10
0.45988
 20
0.05531
 30
0.0
 10
0.45988
 20
0.05531
 30
0.0
 10
0.42432
 20
-0.35108
 30
0.0
 10
0.3557400000000001
 20
-0.8717800000000001
 30
0.0
 10
0.5183000000000001
 20
-1.2350000000000001
 30
0.0
 10
0.5183000000000001
 20
-1.2350000000000001
 30
0.0
 10
0.50814
 20
-0.7270000000000001
 30
0.0
 10
0.63768
 20
-0.20122
 30
0.0
 10
0.93232
 20
0.21025
 30
0.0
 10
0.93232
 20
0.21025
 30
0.0
 10
0.93232
 20
0.21025
 30
0.0
 10
0.95518
 20
0.11627
 30
0.0
 10
0.95518
 20
0.11627
 30
0.0
 10
0.95518
 20
0.11627
 30
0.0
 10
0.95518
 20
0.11627
 30
0.0
 10
1.0136000000000001
 20
-0.30282
 30
0.0
 10
1.0136000000000001
 20
-0.30282
 30
0.0
 10
1.0136000000000001
 20
-0.30282
 30
0.0
 10
1.0364600000000002
 20
-0.11994
 30
0.0
 10
1.10758
 20
0.06547
 30
0.0
 10
1.2015600000000002
 20
0.23819
 30
0.0
 10
1.2015600000000002
 20
0.23819
 30
0.0
 10
1.3895200000000001
 20
0.6242700000000001
 30
0.0
 10
1.1914
 20
-0.4171200000000001
 30
0.0
 10
1.32094
 20
0.04261
 30
0.0
 10
1.32094
 20
0.04261
 30
0.0
 10
1.32094
 20
0.04261
 30
0.0
 10
1.3565
 20
0.17469
 30
0.0
 10
1.3565
 20
0.17469
 30
0.0
 10
1.3565
 20
0.17469
 30
0.0
 10
1.3565
 20
0.27883
 30
0.0
 10
1.5190600000000001
 20
0.5023500000000001
 30
0.0
 10
1.3793600000000001
 20
0.5201300000000001
 30
0.0
 10
1.3793600000000001
 20
0.5201300000000001
 30
0.0
 10
1.3793600000000001
 20
0.5201300000000001
 30
0.0
 10
1.0847200000000001
 20
0.2737500000000001
 30
0.0
 10
1.0847200000000001
 20
0.2737500000000001
 30
0.0
 10
1.0847200000000001
 20
0.2737500000000001
 30
0.0
 10
1.0364600000000002
 20
0.53537
 30
0.0
 10
1.1202800000000002
 20
0.78683
 30
0.0
 10
1.1660000000000001
 20
1.0357500000000002
 30
0.0
 10
1.1660000000000001
 20
1.0357500000000002
 30
0.0
 10
1.8619600000000001
 20
1.8968100000000001
 30
0.0
 10
1.8264000000000002
 20
2.9077300000000004
 30
0.0
 10
2.1896200000000001
 20
3.8475300000000003
 30
0.0
 10
2.1896200000000001
 20
3.8475300000000003
 30
0.0
 10
2.1083400000000001
 20
3.9465900000000005
 30
0.0
 10
2.0143600000000004
 20
3.6671900000000002
 30
0.0
 10
1.8949800000000001
 20
3.6621100000000002
 30
0.0
 10
1.8949800000000001
 20
3.6621100000000002
 30
0.0
 10
1.8949800000000001
 20
3.6621100000000002
 30
0.0
 10
2.2023200000000003
 20
4.8838500000000007
 30
0.0
 10
2.2023200000000003
 20
4.8838500000000007
 30
0.0
 10
2.2023200000000003
 20
4.8838500000000007
 30
0.0
 10
2.5198200000000002
 20
4.4368100000000004
 30
0.0
 10
2.2124800000000002
 20
3.8526100000000003
 30
0.0
 10
2.16676
 20
3.3674700000000004
 30
0.0
 10
2.16676
 20
3.3674700000000004
 30
0.0
 10
2.08548
 20
3.0169500000000005
 30
0.0
 10
2.2378800000000001
 20
3.4792300000000003
 30
0.0
 10
2.24804
 20
3.6113100000000005
 30
0.0
 10
2.24804
 20
3.6113100000000005
 30
0.0
 10
2.24804
 20
3.6113100000000005
 30
0.0
 10
2.34456
 20
3.9516700000000005
 30
0.0
 10
2.34456
 20
3.9516700000000005
 30
0.0
 10
2.34456
 20
3.9516700000000005
 30
0.0
 10
2.34456
 20
3.9516700000000005
 30
0.0
 10
2.41568
 20
4.2234500000000006
 30
0.0
 10
2.41568
 20
4.2234500000000006
 30
0.0
 10
2.41568
 20
4.2234500000000006
 30
0.0
 10
2.41568
 20
4.2234500000000006
 30
0.0
 10
2.42584
 20
4.3174300000000008
 30
0.0
 10
2.42584
 20
4.3174300000000008
 30
0.0
 10
2.42584
 20
4.3174300000000008
 30
0.0
 10
2.41568
 20
4.2793300000000007
 30
0.0
 10
2.4614000000000003
 20
4.3098100000000006
 30
0.0
 10
2.42584
 20
4.3174300000000008
 30
0.0
 10
2.42584
 20
4.3174300000000008
 30
0.0
 10
2.42584
 20
4.45967
 30
0.0
 10
2.41568
 20
4.5892100000000005
 30
0.0
 10
2.3902800000000002
 20
4.71875
 30
0.0
 10
2.3902800000000002
 20
4.71875
 30
0.0
 10
2.3801200000000002
 20
4.8000300000000005
 30
0.0
 10
2.34456
 20
4.8940100000000006
 30
0.0
 10
2.3674200000000001
 20
4.97783
 30
0.0
 10
2.3674200000000001
 20
4.97783
 30
0.0
 10
2.3674200000000001
 20
4.97783
 30
0.0
 10
2.6620600000000003
 20
4.7771700000000008
 30
0.0
 10
2.6620600000000003
 20
4.7771700000000008
 30
0.0
 10
2.6620600000000003
 20
4.7771700000000008
 30
0.0
 10
2.8601800000000002
 20
4.4825300000000006
 30
0.0
 10
2.9313000000000002
 20
4.1345499999999999
 30
0.0
 10
3.0506800000000003
 20
3.8094300000000003
 30
0.0
 10
3.0506800000000003
 20
3.8094300000000003
 30
0.0
 10
3.0964
 20
3.7179900000000004
 30
0.0
 10
3.0837000000000003
 20
3.5554300000000003
 30
0.0
 10
3.1675200000000001
 20
3.5097100000000001
 30
0.0
 10
3.1675200000000001
 20
3.5097100000000001
 30
0.0
 10
3.1548200000000004
 20
3.6341700000000001
 30
0.0
 10
3.1091000000000002
 20
3.7535500000000002
 30
0.0
 10
3.0735400000000004
 20
3.8729300000000002
 30
0.0
 10
3.0735400000000004
 20
3.8729300000000002
 30
0.0
 10
2.8957400000000004
 20
4.4825300000000006
 30
0.0
 10
2.5680800000000001
 20
5.4959900000000008
 30
0.0
 10
1.7552800000000002
 20
5.2699300000000004
 30
0.0
 10
1.7552800000000002
 20
5.2699300000000004
 30
0.0
 10
1.7324200000000001
 20
5.5645700000000007
 30
0.0
 10
2.1439000000000004
 20
5.7296700000000005
 30
0.0
 10
2.3801200000000002
 20
5.8236500000000007
 30
0.0
 10
2.3801200000000002
 20
5.8236500000000007
 30
0.0
 10
2.8195400000000004
 20
6.0065300000000006
 30
0.0
 10
2.9363800000000002
 20
5.8490500000000001
 30
0.0
 10
3.0964
 20
5.5417100000000001
 30
0.0
 10
3.0964
 20
5.5417100000000001
 30
0.0
 10
3.0252800000000004
 20
6.4129300000000002
 30
0.0
 10
2.0143600000000004
 20
5.8820700000000006
 30
0.0
 10
1.5901800000000001
 20
5.5645700000000007
 30
0.0
 10
1.5901800000000001
 20
5.5645700000000007
 30
0.0
 10
1.5901800000000001
 20
5.5645700000000007
 30
0.0
 10
1.2955400000000001
 20
5.8134900000000007
 30
0.0
 10
1.2955400000000001
 20
5.8134900000000007
 30
0.0
 10
1.2955400000000001
 20
5.8134900000000007
 30
0.0
 10
1.6257400000000002
 20
6.2706900000000001
 30
0.0
 10
2.2124800000000002
 20
6.6847100000000008
 30
0.0
 10
2.7662000000000004
 20
6.4586500000000004
 30
0.0
 10
2.7662000000000004
 20
6.4586500000000004
 30
0.0
 10
2.7662000000000004
 20
6.4357900000000008
 30
0.0
 10
2.7916000000000003
 20
6.4586500000000004
 30
0.0
 10
2.7662000000000004
 20
6.4586500000000004
 30
0.0
 10
2.7662000000000004
 20
6.4586500000000004
 30
0.0
 10
2.5680800000000001
 20
6.6364500000000008
 30
0.0
 10
2.2836000000000003
 20
6.5653300000000003
 30
0.0
 10
2.0499200000000002
 20
6.5069100000000004
 30
0.0
 10
2.0499200000000002
 20
6.5069100000000004
 30
0.0
 10
2.5325200000000003
 20
6.9310900000000002
 30
0.0
 10
3.4012000000000002
 20
6.8955300000000008
 30
0.0
 10
3.8025200000000003
 20
6.3545100000000003
 30
0.0
 10
3.8025200000000003
 20
6.3545100000000003
 30
0.0
 10
3.9803200000000003
 20
5.9074700000000009
 30
0.0
 10
3.6958400000000005
 20
6.1182900000000009
 30
0.0
 10
3.4723200000000003
 20
6.2605300000000002
 30
0.0
 10
3.4723200000000003
 20
6.2605300000000002
 30
0.0
 10
3.6856800000000005
 20
6.0116100000000001
 30
0.0
 10
3.9803200000000003
 20
5.7652300000000007
 30
0.0
 10
3.9904800000000002
 20
5.4020100000000006
 30
0.0
 10
3.9904800000000002
 20
5.4020100000000006
 30
0.0
 10
3.9904800000000002
 20
5.14039
 30
0.0
 10
3.9904800000000002
 20
4.8711500000000001
 30
0.0
 10
3.9447600000000005
 20
4.6349300000000007
 30
0.0
 10
3.9447600000000005
 20
4.6349300000000007
 30
0.0
 10
3.8609400000000003
 20
4.97783
 30
0.0
 10
3.6729800000000004
 20
5.3766100000000003
 30
0.0
 10
3.4494600000000002
 20
5.6001300000000001
 30
0.0
 10
3.4494600000000002
 20
5.6001300000000001
 30
0.0
 10
3.8863400000000001
 20
5.0108500000000005
 30
0.0
 10
3.7085400000000002
 20
4.2209099999999999
 30
0.0
 10
3.7441000000000004
 20
3.5173300000000003
 30
0.0
 10
3.7441000000000004
 20
3.5173300000000003
 30
0.0
 10
3.7441000000000004
 20
3.5173300000000003
 30
0.0
 10
3.1548200000000004
 20
2.21177
 30
0.0
 10
3.1548200000000004
 20
2.21177
 30
0.0
 10
3.1548200000000004
 20
2.21177
 30
0.0
 10
3.1091000000000002
 20
2.5292700000000004
 30
0.0
 10
3.2488000000000001
 20
2.8416900000000003
 30
0.0
 10
3.2132400000000003
 20
3.1617300000000004
 30
0.0
 10
3.2132400000000003
 20
3.1617300000000004
 30
0.0
 10
2.9541600000000003
 20
1.4675500000000001
 30
0.0
 10
2.2251800000000004
 20
-0.09708
 30
0.0
 10
1.6613000000000002
 20
-1.6922000000000001
 30
0.0
 10
1.6613000000000002
 20
-1.6922000000000001
 30
0.0
 10
1.6257400000000002
 20
-1.1791200000000002
 30
0.0
 10
1.9788000000000001
 20
-0.7397
 30
0.0
 10
2.1439000000000004
 20
-0.2698
 30
0.0
 10
2.1439000000000004
 20
-0.2698
 30
0.0
 10
2.3090000000000002
 20
0.04007
 30
0.0
 10
2.2378800000000001
 20
0.12389
 30
0.0
 10
2.08548
 20
-0.219
 30
0.0
 10
2.08548
 20
-0.219
 30
0.0
 10
2.08548
 20
-0.219
 30
0.0
 10
1.8264000000000002
 20
-0.6228600000000001
 30
0.0
 10
1.8264000000000002
 20
-0.6228600000000001
 30
0.0
 10
1.8264000000000002
 20
-0.6228600000000001
 30
0.0
 10
1.6740000000000002
 20
-1.6439400000000002
 30
0.0
 10
0.95518
 20
-2.5024600000000001
 30
0.0
 10
0.6249800000000001
 20
-3.4778200000000004
 30
0.0
 10
0.6249800000000001
 20
-3.4778200000000004
 30
0.0
 10
0.63768
 20
-3.1679400000000002
 30
0.0
 10
0.82564
 20
-2.8733000000000004
 30
0.0
 10
0.8967600000000001
 20
-2.56596
 30
0.0
 10
0.8967600000000001
 20
-2.56596
 30
0.0
 10
0.16778
 20
-3.4803600000000001
 30
0.0
 10
-0.18527
 20
-4.6741600000000005
 30
0.0
 10
-0.44181
 20
-5.8070000000000004
 30
0.0
 10
-0.44181
 20
-5.8070000000000004
 30
0.0
 10
-0.5840500000000001
 20
-5.7485800000000005
 30
0.0
 10
-0.5383300000000001
 20
-5.4107600000000007
 30
0.0
 10
-0.6424700000000001
 20
-5.3396400000000002
 30
0.0
 10
-0.6424700000000001
 20
-5.3396400000000002
 30
0.0
 10
-0.6424700000000001
 20
-5.7739800000000008
 30
0.0
 10
-0.4900700000000001
 20
-6.1880000000000006
 30
0.0
 10
-0.34783
 20
-6.5613800000000007
 30
0.0
 10
-0.34783
 20
-6.5613800000000007
 30
0.0
 10
-0.5383300000000001
 20
-6.4521600000000001
 30
0.0
 10
-0.5611900000000001
 20
-6.1930800000000001
 30
0.0
 10
-0.65517
 20
-6.0127400000000009
 30
0.0
 10
-0.65517
 20
-6.0127400000000009
 30
0.0
 10
-0.68057
 20
-5.7181000000000006
 30
0.0
 10
-0.71613
 20
-5.4006000000000007
 30
0.0
 10
-0.6831100000000001
 20
-5.1161200000000004
 30
0.0
 10
-0.6831100000000001
 20
-5.1161200000000004
 30
0.0
 10
-0.6094500000000001
 20
-4.4684200000000001
 30
0.0
 10
-0.32751
 20
-3.8664400000000003
 30
0.0
 10
-0.01255
 20
-3.2924000000000002
 30
0.0
 10
-0.01255
 20
-3.2924000000000002
 30
0.0
 10
0.37352
 20
-2.5888200000000001
 30
0.0
 10
0.8383400000000001
 20
-1.9360400000000002
 30
0.0
 10
1.3895200000000001
 20
-1.3645400000000001
 30
0.0
 10
1.3895200000000001
 20
-1.3645400000000001
 30
0.0
 10
1.1914
 20
-1.4712200000000002
 30
0.0
 10
0.9780400000000001
 20
-1.6795000000000002
 30
0.0
 10
0.8129400000000001
 20
-1.8471400000000002
 30
0.0
 10
0.8129400000000001
 20
-1.8471400000000002
 30
0.0
 10
0.63768
 20
-2.2510000000000003
 30
0.0
 10
0.08396
 20
-2.4694400000000001
 30
0.0
 10
0.0611
 20
-2.9291800000000001
 30
0.0
 10
0.0611
 20
-2.9291800000000001
 30
0.0
 10
-0.01763
 20
-3.2314400000000001
 30
0.0
 10
-0.20813
 20
-3.5083000000000002
 30
0.0
 10
-0.3960900000000001
 20
-3.7648400000000004
 30
0.0
 10
-0.3960900000000001
 20
-3.7648400000000004
 30
0.0
 10
-0.4900700000000001
 20
-2.7971000000000004
 30
0.0
 10
-0.05319
 20
-1.9182600000000001
 30
0.0
 10
0.14238
 20
-1.0140200000000001
 30
0.0
 10
0.14238
 20
-1.0140200000000001
 30
0.0
 10
-0.01763
 20
-1.2248400000000002
 30
0.0
 10
-0.12431
 20
-1.5829800000000001
 30
0.0
 10
-0.3021100000000001
 20
-1.8344400000000001
 30
0.0
  0
SPLINE
  5
28
100
AcDbEntity
  8
Ebene 1
 62
     7
100
AcDbSpline
210
0.0
220
0.0
230
1.0
 70
     1
 71
     3
 72
     8
 73
     4
 74
     0
 42
0.0000000001
 43
0.0000000001
 40
0.0
 40
0.0
 40
0.0
 40
0.0
 40
1.0
 40
1.0
 40
1.0
 40
1.0
 10
2.7662000000000004
 20
6.4586500000000004
 30
0.0
 10
2.7916000000000003
 20
6.4586500000000004
 30
0.0
 10
2.7662000000000004
 20
6.4357900000000008
 30
0.0
 10
2.7662000000000004
 20
6.4586500000000004
 30
0.0
  0
SPLINE
  5
29
100
AcDbEntity
  8
Ebene 1
 62
     7
100
AcDbSpline
210
0.0
220
0.0
230
1.0
 70
     1
 71
     3
 72
   164
 73
   160
 74
     0
 42
0.0000000001
 43
0.0000000001
 40
0.0
 40
0.0
 40
0.0
 40
0.0
 40
0.025
 40
0.025
 40
0.025
 40
0.025
 40
0.05
 40
0.05
 40
0.05
 40
0.05
 40
0.075
 40
0.075
 40
0.075
 40
0.075
 40
0.1
 40
0.1
 40
0.1
 40
0.1
 40
0.125
 40
0.125
 40
0.125
 40
0.125
 40
0.15
 40
0.15
 40
0.15
 40
0.15
 40
0.175
 40
0.175
 40
0.175
 40
0.175
 40
0.2
 40
0.2
 40
0.2
 40
0.2
 40
0.225
 40
0.225
 40
0.225
 40
0.225
 40
0.25
 40
0.25
 40
0.25
 40
0.25
 40
0.275
 40
0.275
 40
0.275
 40
0.275
 40
0.3
 40
0.3
 40
0.3
 40
0.3
 40
0.325
 40
0.325
 40
0.325
 40
0.325
 40
0.35
 40
0.35
 40
0.35
 40
0.35
 40
0.3750000000000001
 40
0.3750000000000001
 40
0.3750000000000001
 40
0.3750000000000001
 40
0.4000000000000001
 40
0.4000000000000001
 40
0.4000000000000001
 40
0.4000000000000001
 40
0.4250000000000001
 40
0.4250000000000001
 40
0.4250000000000001
 40
0.4250000000000001
 40
0.4500000000000001
 40
0.4500000000000001
 40
0.4500000000000001
 40
0.4500000000000001
 40
0.4750000000000001
 40
0.4750000000000001
 40
0.4750000000000001
 40
0.4750000000000001
 40
0.5000000000000001
 40
0.5000000000000001
 40
0.5000000000000001
 40
0.5000000000000001
 40
0.5250000000000001
 40
0.5250000000000001
 40
0.5250000000000001
 40
0.5250000000000001
 40
0.5500000000000002
 40
0.5500000000000002
 40
0.5500000000000002
 40
0.5500000000000002
 40
0.5750000000000002
 40
0.5750000000000002
 40
0.5750000000000002
 40
0.5750000000000002
 40
0.6000000000000002
 40
0.6000000000000002
 40
0.6000000000000002
 40
0.6000000000000002
 40
0.6250000000000002
 40
0.6250000000000002
 40
0.6250000000000002
 40
0.6250000000000002
 40
0.6500000000000002
 40
0.6500000000000002
 40
0.6500000000000002
 40
0.6500000000000002
 40
0.6750000000000003
 40
0.6750000000000003
 40
0.6750000000000003
 40
0.6750000000000003
 40
0.7000000000000003
 40
0.7000000000000003
 40
0.7000000000000003
 40
0.7000000000000003
 40
0.7250000000000003
 40
0.7250000000000003
 40
0.7250000000000003
 40
0.7250000000000003
 40
0.7500000000000003
 40
0.7500000000000003
 40
0.7500000000000003
 40
0.7500000000000003
 40
0.7750000000000004
 40
0.7750000000000004
 40
0.7750000000000004
 40
0.7750000000000004
 40
0.8000000000000004
 40
0.8000000000000004
 40
0.8000000000000004
 40
0.8000000000000004
 40
0.8250000000000004
 40
0.8250000000000004
 40
0.8250000000000004
 40
0.8250000000000004
 40
0.8500000000000004
 40
0.8500000000000004
 40
0.8500000000000004
 40
0.8500000000000004
 40
0.8750000000000004
 40
0.8750000000000004
 40
0.8750000000000004
 40
0.8750000000000004
 40
0.9000000000000005
 40
0.9000000000000005
 40
0.9000000000000005
 40
0.9000000000000005
 40
0.9250000000000005
 40
0.9250000000000005
 40
0.9250000000000005
 40
0.9250000000000005
 40
0.9500000000000005
 40
0.9500000000000005
 40
0.9500000000000005
 40
0.9500000000000005
 40
0.9750000000000005
 40
0.9750000000000005
 40
0.9750000000000005
 40
0.9750000000000005
 40
1.0
 40
1.0
 40
1.0
 40
1.0
 10
-0.88885
 20
5.7525300000000001
 30
0.0
 10
-0.06589
 20
5.6712500000000006
 30
0.0
 10
0.7799200000000001
 20
5.5163100000000007
 30
0.0
 10
1.3717400000000002
 20
4.8203500000000004
 30
0.0
 10
1.3717400000000002
 20
4.8203500000000004
 30
0.0
 10
1.8441800000000002
 20
3.9008700000000003
 30
0.0
 10
1.9889600000000001
 20
2.75787
 30
0.0
 10
1.5317600000000002
 20
1.7901300000000002
 30
0.0
 10
1.5317600000000002
 20
1.7901300000000002
 30
0.0
 10
1.0491600000000001
 20
0.9697100000000001
 30
0.0
 10
0.02554
 20
0.45917
 30
0.0
 10
-0.8075700000000001
 20
1.02051
 30
0.0
 10
-0.8075700000000001
 20
1.02051
 30
0.0
 10
-0.7364500000000001
 20
0.7741300000000001
 30
0.0
 10
-1.1733300000000002
 20
0.89351
 30
0.0
 10
-1.3130300000000001
 20
1.02559
 30
0.0
 10
-1.3130300000000001
 20
1.02559
 30
0.0
 10
-1.2419100000000001
 20
1.0865500000000001
 30
0.0
 10
-1.0539500000000002
 20
1.06115
 30
0.0
 10
-1.04379
 20
1.1856100000000001
 30
0.0
 10
-1.04379
 20
1.1856100000000001
 30
0.0
 10
-1.2673100000000002
 20
1.10179
 30
0.0
 10
-1.4552700000000001
 20
1.2592700000000001
 30
0.0
 10
-1.63053
 20
1.3405500000000001
 30
0.0
 10
-1.63053
 20
1.3405500000000001
 30
0.0
 10
-1.8591300000000002
 20
1.2592700000000001
 30
0.0
 10
-2.0724900000000002
 20
1.1195700000000002
 30
0.0
 10
-2.2401300000000002
 20
0.9443100000000001
 30
0.0
 10
-2.2401300000000002
 20
0.9443100000000001
 30
0.0
 10
-2.3214100000000002
 20
1.0535300000000001
 30
0.0
 10
-2.2909300000000004
 20
1.2872100000000002
 30
0.0
 10
-2.4661900000000001
 20
1.2922900000000002
 30
0.0
 10
-2.4661900000000001
 20
1.2922900000000002
 30
0.0
 10
-2.61097
 20
1.1856100000000001
 30
0.0
 10
-2.60589
 20
0.9697100000000001
 30
0.0
 10
-2.5754100000000002
 20
0.8147700000000001
 30
0.0
 10
-2.5754100000000002
 20
0.8147700000000001
 30
0.0
 10
-2.7760700000000003
 20
0.8223900000000001
 30
0.0
 10
-2.9233900000000004
 20
1.2135500000000001
 30
0.0
 10
-3.1342100000000004
 20
1.02051
 30
0.0
 10
-3.1342100000000004
 20
1.02051
 30
0.0
 10
-3.3424900000000002
 20
0.7995300000000001
 30
0.0
 10
-3.0503900000000002
 20
0.43377
 30
0.0
 10
-2.9259300000000001
 20
0.21279
 30
0.0
 10
-2.9259300000000001
 20
0.21279
 30
0.0
 10
-2.9106900000000002
 20
0.3474100000000001
 30
0.0
 10
-3.2104100000000004
 20
0.8655700000000001
 30
0.0
 10
-3.0275300000000001
 20
0.8020700000000001
 30
0.0
 10
-3.0275300000000001
 20
0.8020700000000001
 30
0.0
 10
-3.0275300000000001
 20
0.8020700000000001
 30
0.0
 10
-2.8675100000000002
 20
0.45917
 30
0.0
 10
-2.8675100000000002
 20
0.45917
 30
0.0
 10
-2.8675100000000002
 20
0.45917
 30
0.0
 10
-2.8675100000000002
 20
0.45917
 30
0.0
 10
-2.7862300000000002
 20
0.26867
 30
0.0
 10
-2.7862300000000002
 20
0.26867
 30
0.0
 10
-2.7862300000000002
 20
0.26867
 30
0.0
 10
-2.52969
 20
-0.20376
 30
0.0
 10
-3.0834100000000002
 20
1.1170300000000002
 30
0.0
 10
-2.7836900000000004
 20
0.6242700000000001
 30
0.0
 10
-2.7836900000000004
 20
0.6242700000000001
 30
0.0
 10
-2.7836900000000004
 20
0.6242700000000001
 30
0.0
 10
-2.6897100000000003
 20
0.45917
 30
0.0
 10
-2.6897100000000003
 20
0.45917
 30
0.0
 10
-2.6897100000000003
 20
0.45917
 30
0.0
 10
-2.6338300000000001
 20
0.3804300000000001
 30
0.0
 10
-2.5830300000000004
 20
0.29661
 30
0.0
 10
-2.5398500000000004
 20
0.20771
 30
0.0
 10
-2.5398500000000004
 20
0.20771
 30
0.0
 10
-2.4763500000000001
 20
0.12897
 30
0.0
 10
-2.23251
 20
-0.28758
 30
0.0
 10
-2.3264900000000002
 20
-0.04882
 30
0.0
 10
-2.3264900000000002
 20
-0.04882
 30
0.0
 10
-2.4255500000000003
 20
0.15437
 30
0.0
 10
-2.5703300000000002
 20
0.37281
 30
0.0
 10
-2.56779
 20
0.59633
 30
0.0
 10
-2.56779
 20
0.59633
 30
0.0
 10
-2.56779
 20
0.59633
 30
0.0
 10
-2.1055100000000002
 20
0.20771
 30
0.0
 10
-2.1055100000000002
 20
0.20771
 30
0.0
 10
-2.1055100000000002
 20
0.20771
 30
0.0
 10
-2.3239500000000004
 20
0.28137
 30
0.0
 10
-2.2045700000000004
 20
0.03753
 30
0.0
 10
-2.1639300000000001
 20
-0.08184
 30
0.0
 10
-2.1639300000000001
 20
-0.08184
 30
0.0
 10
-2.0064500000000001
 20
-0.38918
 30
0.0
 10
-2.3696700000000002
 20
-0.31298
 30
0.0
 10
-2.5906500000000001
 20
-0.1301
 30
0.0
 10
-2.5906500000000001
 20
-0.1301
 30
0.0
 10
-2.6338300000000001
 20
-0.16566
 30
0.0
 10
-2.5398500000000004
 20
-0.20122
 30
0.0
 10
-2.5271500000000002
 20
-0.23678
 30
0.0
 10
-2.5271500000000002
 20
-0.23678
 30
0.0
 10
-2.4357100000000003
 20
-0.45268
 30
0.0
 10
-2.5703300000000002
 20
-0.6254000000000001
 30
0.0
 10
-2.6998700000000002
 20
-0.2952
 30
0.0
 10
-2.6998700000000002
 20
-0.2952
 30
0.0
 10
-2.7455900000000004
 20
-0.29266
 30
0.0
 10
-2.7151100000000001
 20
-0.4171200000000001
 30
0.0
 10
-2.6668500000000002
 20
-0.5492
 30
0.0
 10
-2.6668500000000002
 20
-0.5492
 30
0.0
 10
-2.6312900000000004
 20
-0.6406400000000001
 30
0.0
 10
-2.7836900000000004
 20
-0.6431800000000001
 30
0.0
 10
-2.8471900000000003
 20
-0.49332
 30
0.0
 10
-2.8471900000000003
 20
-0.49332
 30
0.0
 10
-3.0935700000000002
 20
-0.08946
 30
0.0
 10
-2.6617700000000002
 20
-0.92766
 30
0.0
 10
-2.8878300000000001
 20
-0.8184400000000001
 30
0.0
 10
-2.8878300000000001
 20
-0.8184400000000001
 30
0.0
 10
-2.8878300000000001
 20
-0.8184400000000001
 30
0.0
 10
-2.9411700000000001
 20
-0.6838200000000001
 30
0.0
 10
-2.9411700000000001
 20
-0.6838200000000001
 30
0.0
 10
-2.9411700000000001
 20
-0.6838200000000001
 30
0.0
 10
-2.9970500000000002
 20
-0.5974600000000001
 30
0.0
 10
-2.9538700000000002
 20
-0.73716
 30
0.0
 10
-2.94625
 20
-0.7701800000000001
 30
0.0
 10
-2.94625
 20
-0.7701800000000001
 30
0.0
 10
-2.9106900000000002
 20
-1.1156200000000001
 30
0.0
 10
-3.1494500000000003
 20
-0.5847600000000001
 30
0.0
 10
-3.3018500000000004
 20
-0.5619000000000001
 30
0.0
 10
-3.3018500000000004
 20
-0.5619000000000001
 30
0.0
 10
-3.3602700000000003
 20
-0.67366
 30
0.0
 10
-3.3348700000000004
 20
-0.8667
 30
0.0
 10
-3.3272500000000003
 20
-1.0064000000000002
 30
0.0
 10
-3.3272500000000003
 20
-1.0064000000000002
 30
0.0
 10
-3.5939500000000004
 20
-0.6457200000000001
 30
0.0
 10
-3.8123900000000002
 20
-0.23678
 30
0.0
 10
-3.8758900000000005
 20
0.23311
 30
0.0
 10
-3.8758900000000005
 20
0.23311
 30
0.0
 10
-3.8047700000000004
 20
0.21025
 30
0.0
 10
-3.6422100000000004
 20
0.08071
 30
0.0
 10
-3.6422100000000004
 20
0.23311
 30
0.0
 10
-3.6422100000000004
 20
0.23311
 30
0.0
 10
-3.6701500000000005
 20
0.6268100000000001
 30
0.0
 10
-4.0333700000000006
 20
1.0078100000000001
 30
0.0
 10
-3.6447500000000002
 20
1.3253100000000002
 30
0.0
 10
-3.6447500000000002
 20
1.3253100000000002
 30
0.0
 10
-3.7844500000000001
 20
1.2973700000000001
 30
0.0
 10
-3.9063700000000003
 20
1.0890900000000001
 30
0.0
 10
-4.0409900000000007
 20
1.11449
 30
0.0
 10
-4.0409900000000007
 20
1.11449
 30
0.0
 10
-3.9927300000000003
 20
1.3481700000000001
 30
0.0
 10
-3.7920700000000003
 20
1.7240900000000001
 30
0.0
 10
-3.5380700000000003
 20
1.6707500000000002
 30
0.0
 10
-3.5380700000000003
 20
1.6707500000000002
 30
0.0
 10
-3.6701500000000005
 20
2.0288900000000001
 30
0.0
 10
-4.1476700000000006
 20
2.6283300000000001
 30
0.0
 10
-3.6091900000000003
 20
2.8721700000000001
 30
0.0
 10
-3.6091900000000003
 20
2.8721700000000001
 30
0.0
 10
-3.9952700000000005
 20
4.0507300000000006
 30
0.0
 10
-2.8624300000000003
 20
5.4248700000000003
 30
0.0
 10
-1.6076700000000002
 20
5.5899700000000001
 30
0.0
 10
-1.6076700000000002
 20
5.5899700000000001
 30
0.0
 10
-1.6965700000000001
 20
5.5391700000000004
 30
0.0
 10
-1.7118100000000001
 20
5.4426500000000004
 30
0.0
 10
-1.5848100000000001
 20
5.4121700000000006
 30
0.0
 10
-1.5848100000000001
 20
5.4121700000000006
 30
0.0
 10
-1.3663700000000001
 20
5.3639100000000006
 30
0.0
 10
-0.4291100000000001
 20
5.4578900000000008
 30
0.0
 10
-0.88885
 20
5.7525300000000001
 30
0.0
  0
SPLINE
  5
2A
100
AcDbEntity
  8
Ebene 1
 62
     7
100
AcDbSpline
210
0.0
220
0.0
230
1.0
 70
     1
 71
     3
 72
    20
 73
    16
 74
     0
 42
0.0000000001
 43
0.0000000001
 40
0.0
 40
0.0
 40
0.0
 40
0.0
 40
0.25
 40
0.25
 40
0.25
 40
0.25
 40
0.5
 40
0.5
 40
0.5
 40
0.5
 40
0.75
 40
0.75
 40
0.75
 40
0.75
 40
1.0
 40
1.0
 40
1.0
 40
1.0
 10
1.1660000000000001
 20
5.6585500000000009
 30
0.0
 10
1.2015600000000002
 20
5.6585500000000009
 30
0.0
 10
1.23712
 20
5.6585500000000009
 30
0.0
 10
1.2498200000000002
 20
5.6255300000000004
 30
0.0
 10
1.2498200000000002
 20
5.6255300000000004
 30
0.0
 10
1.2498200000000002
 20
5.6255300000000004
 30
0.0
 10
0.9653400000000001
 20
5.3181900000000004
 30
0.0
 10
0.9653400000000001
 20
5.3181900000000004
 30
0.0
 10
0.9653400000000001
 20
5.3181900000000004
 30
0.0
 10
0.9653400000000001
 20
5.3181900000000004
 30
0.0
 10
0.87136
 20
5.3664500000000004
 30
0.0
 10
0.87136
 20
5.3664500000000004
 30
0.0
 10
0.87136
 20
5.3664500000000004
 30
0.0
 10
0.87136
 20
5.3664500000000004
 30
0.0
 10
1.1660000000000001
 20
5.6585500000000009
 30
0.0
 10
1.1660000000000001
 20
5.6585500000000009
 30
0.0
  0
SPLINE
  5
2B
100
AcDbEntity
  8
Ebene 1
 62
     7
100
AcDbSpline
210
0.0
220
0.0
230
1.0
 70
     1
 71
     3
 72
    20
 73
    16
 74
     0
 42
0.0000000001
 43
0.0000000001
 40
0.0
 40
0.0
 40
0.0
 40
0.0
 40
0.25
 40
0.25
 40
0.25
 40
0.25
 40
0.5
 40
0.5
 40
0.5
 40
0.5
 40
0.75
 40
0.75
 40
0.75
 40
0.75
 40
1.0
 40
1.0
 40
1.0
 40
1.0
 10
-1.1022100000000001
 20
5.6356900000000003
 30
0.0
 10
-1.0183900000000001
 20
5.6356900000000003
 30
0.0
 10
-0.9244100000000001
 20
5.64839
 30
0.0
 10
-0.8786900000000001
 20
5.5899700000000001
 30
0.0
 10
-0.8786900000000001
 20
5.5899700000000001
 30
0.0
 10
-1.0539500000000002
 20
5.4959900000000008
 30
0.0
 10
-1.3003300000000002
 20
5.4604300000000006
 30
0.0
 10
-1.4908300000000001
 20
5.4832900000000002
 30
0.0
 10
-1.4908300000000001
 20
5.4832900000000002
 30
0.0
 10
-1.4908300000000001
 20
5.4832900000000002
 30
0.0
 10
-1.41971
 20
5.5417100000000001
 30
0.0
 10
-1.41971
 20
5.5417100000000001
 30
0.0
 10
-1.41971
 20
5.5417100000000001
 30
0.0
 10
-1.3130300000000001
 20
5.5899700000000001
 30
0.0
 10
-1.1961900000000001
 20
5.6128300000000007
 30
0.0
 10
-1.1022100000000001
 20
5.6356900000000003
 30
0.0
  0
SPLINE
  5
2C
100
AcDbEntity
  8
Ebene 1
 62
     7
100
AcDbSpline
210
0.0
220
0.0
230
1.0
 70
     1
 71
     3
 72
    32
 73
    28
 74
     0
 42
0.0000000001
 43
0.0000000001
 40
0.0
 40
0.0
 40
0.0
 40
0.0
 40
0.1428571428571429
 40
0.1428571428571429
 40
0.1428571428571429
 40
0.1428571428571429
 40
0.2857142857142857
 40
0.2857142857142857
 40
0.2857142857142857
 40
0.2857142857142857
 40
0.4285714285714286
 40
0.4285714285714286
 40
0.4285714285714286
 40
0.4285714285714286
 40
0.5714285714285714
 40
0.5714285714285714
 40
0.5714285714285714
 40
0.5714285714285714
 40
0.7142857142857142
 40
0.7142857142857142
 40
0.7142857142857142
 40
0.7142857142857142
 40
0.857142857142857
 40
0.857142857142857
 40
0.857142857142857
 40
0.857142857142857
 40
1.0
 40
1.0
 40
1.0
 40
1.0
 10
1.3895200000000001
 20
5.5772700000000004
 30
0.0
 10
1.3895200000000001
 20
5.5772700000000004
 30
0.0
 10
1.6282800000000002
 20
5.4121700000000006
 30
0.0
 10
1.6282800000000002
 20
5.4121700000000006
 30
0.0
 10
1.6282800000000002
 20
5.4121700000000006
 30
0.0
 10
1.5216000000000001
 20
5.3639100000000006
 30
0.0
 10
1.4250800000000001
 20
5.1048300000000006
 30
0.0
 10
1.2853800000000002
 20
5.0591100000000004
 30
0.0
 10
1.2853800000000002
 20
5.0591100000000004
 30
0.0
 10
1.2498200000000002
 20
5.1175300000000004
 30
0.0
 10
1.3438000000000001
 20
5.1657900000000003
 30
0.0
 10
1.3666600000000002
 20
5.2115100000000005
 30
0.0
 10
1.3666600000000002
 20
5.2115100000000005
 30
0.0
 10
1.3666600000000002
 20
5.2115100000000005
 30
0.0
 10
1.5444600000000002
 20
5.3766100000000003
 30
0.0
 10
1.5444600000000002
 20
5.3766100000000003
 30
0.0
 10
1.5444600000000002
 20
5.3766100000000003
 30
0.0
 10
1.5444600000000002
 20
5.4350300000000002
 30
0.0
 10
1.4835
 20
5.4832900000000002
 30
0.0
 10
1.4250800000000001
 20
5.4832900000000002
 30
0.0
 10
1.4250800000000001
 20
5.4832900000000002
 30
0.0
 10
1.4250800000000001
 20
5.3664500000000004
 30
0.0
 10
1.2269600000000001
 20
5.0718100000000002
 30
0.0
 10
1.0720200000000002
 20
5.2343700000000002
 30
0.0
 10
1.0720200000000002
 20
5.2343700000000002
 30
0.0
 10
1.1660000000000001
 20
5.3537500000000007
 30
0.0
 10
1.27268
 20
5.4959900000000008
 30
0.0
 10
1.3895200000000001
 20
5.5772700000000004
 30
0.0
  0
SPLINE
  5
2D
100
AcDbEntity
  8
Ebene 1
 62
     7
100
AcDbSpline
210
0.0
220
0.0
230
1.0
 70
     1
 71
     3
 72
    16
 73
    12
 74
     0
 42
0.0000000001
 43
0.0000000001
 40
0.0
 40
0.0
 40
0.0
 40
0.0
 40
0.3333333333333333
 40
0.3333333333333333
 40
0.3333333333333333
 40
0.3333333333333333
 40
0.6666666666666666
 40
0.6666666666666666
 40
0.6666666666666666
 40
0.6666666666666666
 40
1.0
 40
1.0
 40
1.0
 40
1.0
 10
1.5774800000000002
 20
5.2826300000000002
 30
0.0
 10
1.5901800000000001
 20
5.2826300000000002
 30
0.0
 10
1.61304
 20
5.2699300000000004
 30
0.0
 10
1.61304
 20
5.2597700000000005
 30
0.0
 10
1.61304
 20
5.2597700000000005
 30
0.0
 10
1.5190600000000001
 20
5.18865
 30
0.0
 10
1.4733400000000001
 20
5.0362500000000008
 30
0.0
 10
1.3793600000000001
 20
4.97783
 30
0.0
 10
1.3793600000000001
 20
4.97783
 30
0.0
 10
1.40222
 20
5.0946700000000007
 30
0.0
 10
1.5317600000000002
 20
5.1759500000000003
 30
0.0
 10
1.5774800000000002
 20
5.2826300000000002
 30
0.0
  0
SPLINE
  5
2E
100
AcDbEntity
  8
Ebene 1
100
AcDbSpline
210
0.0
220
0.0
230
1.0
 70
     1
 71
     3
 72
    12
 73
     8
 74
     0
 42
0.0000000001
 43
0.0000000001
 40
0.0
 40
0.0
 40
0.0
 40
0.0
 40
0.5
 40
0.5
 40
0.5
 40
0.5
 40
1.0
 40
1.0
 40
1.0
 40
1.0
 10
0.0484
 20
5.2470700000000008
 30
0.0
 10
0.5437000000000001
 20
5.3410500000000001
 30
0.0
 10
1.0847200000000001
 20
4.6349300000000007
 30
0.0
 10
0.7088000000000001
 20
4.2513900000000007
 30
0.0
 10
0.7088000000000001
 20
4.2513900000000007
 30
0.0
 10
0.09666
 20
3.8627700000000003
 30
0.0
 10
-0.63231
 20
4.9422700000000006
 30
0.0
 10
0.0484
 20
5.2470700000000008
 30
0.0
  0
SPLINE
  5
2F
100
AcDbEntity
  8
Ebene 1
 62
     7
100
AcDbSpline
210
0.0
220
0.0
230
1.0
 70
     1
 71
     3
 72
    12
 73
     8
 74
     0
 42
0.0000000001
 43
0.0000000001
 40
0.0
 40
0.0
 40
0.0
 40
0.0
 40
0.5
 40
0.5
 40
0.5
 40
0.5
 40
1.0
 40
1.0
 40
1.0
 40
1.0
 10
1.5901800000000001
 20
5.1657900000000003
 30
0.0
 10
1.6028800000000001
 20
5.0819700000000001
 30
0.0
 10
1.5089000000000001
 20
4.9879900000000008
 30
0.0
 10
1.4606400000000002
 20
4.9168700000000003
 30
0.0
 10
1.4606400000000002
 20
4.9168700000000003
 30
0.0
 10
1.4606400000000002
 20
4.9168700000000003
 30
0.0
 10
1.5901800000000001
 20
5.1657900000000003
 30
0.0
 10
1.5901800000000001
 20
5.1657900000000003
 30
0.0
  0
SPLINE
  5
30
100
AcDbEntity
  8
Ebene 1
100
AcDbSpline
210
0.0
220
0.0
230
1.0
 70
     1
 71
     3
 72
    20
 73
    16
 74
     0
 42
0.0000000001
 43
0.0000000001
 40
0.0
 40
0.0
 40
0.0
 40
0.0
 40
0.25
 40
0.25
 40
0.25
 40
0.25
 40
0.5
 40
0.5
 40
0.5
 40
0.5
 40
0.75
 40
0.75
 40
0.75
 40
0.75
 40
1.0
 40
1.0
 40
1.0
 40
1.0
 10
-2.3493500000000003
 20
5.0235500000000002
 30
0.0
 10
-2.2807700000000004
 20
5.0362500000000008
 30
0.0
 10
-2.2248900000000003
 20
5.0006900000000005
 30
0.0
 10
-2.1740900000000001
 20
4.9651300000000003
 30
0.0
 10
-2.1740900000000001
 20
4.9651300000000003
 30
0.0
 10
-2.06995
 20
4.5307900000000005
 30
0.0
 10
-2.5855700000000001
 20
4.1396300000000004
 30
0.0
 10
-2.9564100000000004
 20
4.0507300000000006
 30
0.0
 10
-2.9564100000000004
 20
4.0507300000000006
 30
0.0
 10
-3.0021300000000002
 20
4.0710500000000005
 30
0.0
 10
-3.03261
 20
4.1142300000000001
 30
0.0
 10
-3.0529300000000004
 20
4.1574100000000005
 30
0.0
 10
-3.0529300000000004
 20
4.1574100000000005
 30
0.0
 10
-3.1240500000000004
 20
4.5765100000000007
 30
0.0
 10
-2.7049500000000002
 20
4.9168700000000003
 30
0.0
 10
-2.3493500000000003
 20
5.0235500000000002
 30
0.0
  0
SPLINE
  5
31
100
AcDbEntity
  8
Ebene 1
 62
     7
100
AcDbSpline
210
0.0
220
0.0
230
1.0
 70
     1
 71
     3
 72
    12
 73
     8
 74
     0
 42
0.0000000001
 43
0.0000000001
 40
0.0
 40
0.0
 40
0.0
 40
0.0
 40
0.5
 40
0.5
 40
0.5
 40
0.5
 40
1.0
 40
1.0
 40
1.0
 40
1.0
 10
0.09666
 20
5.0235500000000002
 30
0.0
 10
0.45988
 20
5.0819700000000001
 30
0.0
 10
1.0009000000000001
 20
4.6247700000000007
 30
0.0
 10
0.66054
 20
4.29711
 30
0.0
 10
0.66054
 20
4.29711
 30
0.0
 10
0.2135
 20
3.9542100000000002
 30
0.0
 10
-0.45451
 20
4.7543100000000003
 30
0.0
 10
0.09666
 20
5.0235500000000002
 30
0.0
  0
SPLINE
  5
32
100
AcDbEntity
  8
Ebene 1
 62
     7
100
AcDbSpline
210
0.0
220
0.0
230
1.0
 70
     1
 71
     3
 72
    24
 73
    20
 74
     0
 42
0.0000000001
 43
0.0000000001
 40
0.0
 40
0.0
 40
0.0
 40
0.0
 40
0.2
 40
0.2
 40
0.2
 40
0.2
 40
0.4
 40
0.4
 40
0.4
 40
0.4
 40
0.6000000000000001
 40
0.6000000000000001
 40
0.6000000000000001
 40
0.6000000000000001
 40
0.8
 40
0.8
 40
0.8
 40
0.8
 40
1.0
 40
1.0
 40
1.0
 40
1.0
 10
-2.3366500000000001
 20
4.8711500000000001
 30
0.0
 10
-2.2858500000000004
 20
4.8838500000000007
 30
0.0
 10
-2.2477500000000004
 20
4.8355900000000007
 30
0.0
 10
-2.2096500000000003
 20
4.8127300000000002
 30
0.0
 10
-2.2096500000000003
 20
4.8127300000000002
 30
0.0
 10
-2.2299700000000002
 20
4.5180899999999999
 30
0.0
 10
-2.5322300000000002
 20
4.3580700000000006
 30
0.0
 10
-2.7405100000000004
 20
4.1929700000000008
 30
0.0
 10
-2.7405100000000004
 20
4.1929700000000008
 30
0.0
 10
-2.7811500000000002
 20
4.1802700000000002
 30
0.0
 10
-2.82179
 20
4.1701100000000002
 30
0.0
 10
-2.8624300000000003
 20
4.1802700000000002
 30
0.0
 10
-2.8624300000000003
 20
4.1802700000000002
 30
0.0
 10
-2.8624300000000003
 20
4.1802700000000002
 30
0.0
 10
-2.90307
 20
4.2234500000000006
 30
0.0
 10
-2.90307
 20
4.2234500000000006
 30
0.0
 10
-2.90307
 20
4.2234500000000006
 30
0.0
 10
-2.8725900000000002
 20
4.5180899999999999
 30
0.0
 10
-2.6008100000000001
 20
4.7771700000000008
 30
0.0
 10
-2.3366500000000001
 20
4.8711500000000001
 30
0.0
  0
SPLINE
  5
33
100
AcDbEntity
  8
Ebene 1
100
AcDbSpline
210
0.0
220
0.0
230
1.0
 70
     1
 71
     3
 72
    16
 73
    12
 74
     0
 42
0.0000000001
 43
0.0000000001
 40
0.0
 40
0.0
 40
0.0
 40
0.0
 40
0.3333333333333333
 40
0.3333333333333333
 40
0.3333333333333333
 40
0.3333333333333333
 40
0.6666666666666666
 40
0.6666666666666666
 40
0.6666666666666666
 40
0.6666666666666666
 40
1.0
 40
1.0
 40
1.0
 40
1.0
 10
-1.8667500000000001
 20
4.7873300000000008
 30
0.0
 10
-1.8108700000000002
 20
4.7771700000000008
 30
0.0
 10
-1.7245100000000002
 20
4.8228900000000001
 30
0.0
 10
-1.6914900000000002
 20
4.7416100000000005
 30
0.0
 10
-1.6914900000000002
 20
4.7416100000000005
 30
0.0
 10
-1.6914900000000002
 20
4.6476300000000004
 30
0.0
 10
-1.7930900000000001
 20
4.5993700000000004
 30
0.0
 10
-1.8667500000000001
 20
4.5663500000000008
 30
0.0
 10
-1.8667500000000001
 20
4.5663500000000008
 30
0.0
 10
-2.0470900000000003
 20
4.5307900000000005
 30
0.0
 10
-1.9759700000000002
 20
4.7543100000000003
 30
0.0
 10
-1.8667500000000001
 20
4.7873300000000008
 30
0.0
  0
SPLINE
  5
34
100
AcDbEntity
  8
Ebene 1
 62
     7
100
AcDbSpline
210
0.0
220
0.0
230
1.0
 70
     1
 71
     3
 72
    16
 73
    12
 74
     0
 42
0.0000000001
 43
0.0000000001
 40
0.0
 40
0.0
 40
0.0
 40
0.0
 40
0.3333333333333333
 40
0.3333333333333333
 40
0.3333333333333333
 40
0.3333333333333333
 40
0.6666666666666666
 40
0.6666666666666666
 40
0.6666666666666666
 40
0.6666666666666666
 40
1.0
 40
1.0
 40
1.0
 40
1.0
 10
2.0245200000000003
 20
4.7771700000000008
 30
0.0
 10
2.03722
 20
4.7771700000000008
 30
0.0
 10
2.0499200000000002
 20
4.7771700000000008
 30
0.0
 10
2.0499200000000002
 20
4.7644700000000002
 30
0.0
 10
2.0499200000000002
 20
4.7644700000000002
 30
0.0
 10
2.0499200000000002
 20
4.4825300000000006
 30
0.0
 10
2.0016600000000002
 20
4.2132900000000006
 30
0.0
 10
1.8619600000000001
 20
3.9796100000000005
 30
0.0
 10
1.8619600000000001
 20
3.9796100000000005
 30
0.0
 10
1.8619600000000001
 20
3.9796100000000005
 30
0.0
 10
2.0245200000000003
 20
4.7771700000000008
 30
0.0
 10
2.0245200000000003
 20
4.7771700000000008
 30
0.0
  0
SPLINE
  5
35
100
AcDbEntity
  8
Ebene 1
100
AcDbSpline
210
0.0
220
0.0
230
1.0
 70
     1
 71
     3
 72
    12
 73
     8
 74
     0
 42
0.0000000001
 43
0.0000000001
 40
0.0
 40
0.0
 40
0.0
 40
0.0
 40
0.5
 40
0.5
 40
0.5
 40
0.5
 40
1.0
 40
1.0
 40
1.0
 40
1.0
 10
1.3793600000000001
 20
4.20059
 30
0.0
 10
1.5774800000000002
 20
4.2437700000000005
 30
0.0
 10
1.5774800000000002
 20
3.9465900000000005
 30
0.0
 10
1.4733400000000001
 20
3.8627700000000003
 30
0.0
 10
1.4733400000000001
 20
3.8627700000000003
 30
0.0
 10
1.3082400000000001
 20
3.8373700000000004
 30
0.0
 10
1.27268
 20
4.1269300000000007
 30
0.0
 10
1.3793600000000001
 20
4.20059
 30
0.0
  0
SPLINE
  5
36
100
AcDbEntity
  8
Ebene 1
 62
     7
100
AcDbSpline
210
0.0
220
0.0
230
1.0
 70
     1
 71
     3
 72
    12
 73
     8
 74
     0
 42
0.0000000001
 43
0.0000000001
 40
0.0
 40
0.0
 40
0.0
 40
0.0
 40
0.5
 40
0.5
 40
0.5
 40
0.5
 40
1.0
 40
1.0
 40
1.0
 40
1.0
 10
1.4377800000000001
 20
4.0710500000000005
 30
0.0
 10
1.4962000000000002
 20
4.0608900000000006
 30
0.0
 10
1.5190600000000001
 20
3.9669100000000004
 30
0.0
 10
1.4606400000000002
 20
3.9415100000000005
 30
0.0
 10
1.4606400000000002
 20
3.9415100000000005
 30
0.0
 10
1.4149200000000002
 20
3.9643700000000002
 30
0.0
 10
1.40222
 20
4.0354900000000002
 30
0.0
 10
1.4377800000000001
 20
4.0710500000000005
 30
0.0
  0
SPLINE
  5
37
100
AcDbEntity
  8
Ebene 1
100
AcDbSpline
210
0.0
220
0.0
230
1.0
 70
     1
 71
     3
 72
    12
 73
     8
 74
     0
 42
0.0000000001
 43
0.0000000001
 40
0.0
 40
0.0
 40
0.0
 40
0.0
 40
0.5
 40
0.5
 40
0.5
 40
0.5
 40
1.0
 40
1.0
 40
1.0
 40
1.0
 10
-3.4669500000000002
 20
4.0583499999999999
 30
0.0
 10
-3.1926300000000003
 20
4.0989900000000006
 30
0.0
 10
-3.2586700000000004
 20
3.7154500000000001
 30
0.0
 10
-3.4440900000000001
 20
3.6341700000000001
 30
0.0
 10
-3.4440900000000001
 20
3.6341700000000001
 30
0.0
 10
-3.6574500000000003
 20
3.6341700000000001
 30
0.0
 10
-3.5634700000000001
 20
3.9542100000000002
 30
0.0
 10
-3.4669500000000002
 20
4.0583499999999999
 30
0.0
  0
SPLINE
  5
38
100
AcDbEntity
  8
Ebene 1
 62
     7
100
AcDbSpline
210
0.0
220
0.0
230
1.0
 70
     1
 71
     3
 72
    12
 73
     8
 74
     0
 42
0.0000000001
 43
0.0000000001
 40
0.0
 40
0.0
 40
0.0
 40
0.0
 40
0.5
 40
0.5
 40
0.5
 40
0.5
 40
1.0
 40
1.0
 40
1.0
 40
1.0
 10
-3.3856700000000002
 20
3.9516700000000005
 30
0.0
 10
-3.2739100000000003
 20
3.9364300000000005
 30
0.0
 10
-3.3805900000000002
 20
3.7967300000000002
 30
0.0
 10
-3.4161500000000005
 20
3.7560900000000004
 30
0.0
 10
-3.4161500000000005
 20
3.7560900000000004
 30
0.0
 10
-3.4517100000000003
 20
3.8170500000000005
 30
0.0
 10
-3.4009100000000001
 20
3.8907100000000003
 30
0.0
 10
-3.3856700000000002
 20
3.9516700000000005
 30
0.0
  0
SPLINE
  5
39
100
AcDbEntity
  8
Ebene 1
100
AcDbSpline
210
0.0
220
0.0
230
1.0
 70
     1
 71
     3
 72
    48
 73
    44
 74
     0
 42
0.0000000001
 43
0.0000000001
 40
0.0
 40
0.0
 40
0.0
 40
0.0
 40
0.0909090909090909
 40
0.0909090909090909
 40
0.0909090909090909
 40
0.0909090909090909
 40
0.1818181818181818
 40
0.1818181818181818
 40
0.1818181818181818
 40
0.1818181818181818
 40
0.2727272727272727
 40
0.2727272727272727
 40
0.2727272727272727
 40
0.2727272727272727
 40
0.3636363636363637
 40
0.3636363636363637
 40
0.3636363636363637
 40
0.3636363636363637
 40
0.4545454545454546
 40
0.4545454545454546
 40
0.4545454545454546
 40
0.4545454545454546
 40
0.5454545454545455
 40
0.5454545454545455
 40
0.5454545454545455
 40
0.5454545454545455
 40
0.6363636363636365
 40
0.6363636363636365
 40
0.6363636363636365
 40
0.6363636363636365
 40
0.7272727272727274
 40
0.7272727272727274
 40
0.7272727272727274
 40
0.7272727272727274
 40
0.8181818181818183
 40
0.8181818181818183
 40
0.8181818181818183
 40
0.8181818181818183
 40
0.9090909090909093
 40
0.9090909090909093
 40
0.9090909090909093
 40
0.9090909090909093
 40
1.0
 40
1.0
 40
1.0
 40
1.0
 10
-0.37323
 20
3.8932500000000001
 30
0.0
 10
-0.32497
 20
3.8830900000000002
 30
0.0
 10
-0.22083
 20
3.9262700000000001
 30
0.0
 10
-0.24369
 20
3.8500700000000001
 30
0.0
 10
-0.24369
 20
3.8500700000000001
 30
0.0
 10
-0.9828300000000001
 20
3.6163900000000004
 30
0.0
 10
-1.9048500000000002
 20
3.0144100000000003
 30
0.0
 10
-1.8794500000000001
 20
2.13049
 30
0.0
 10
-1.8794500000000001
 20
2.13049
 30
0.0
 10
-1.75499
 20
1.9831700000000001
 30
0.0
 10
-1.71435
 20
1.78251
 30
0.0
 10
-1.5619500000000002
 20
1.6453500000000001
 30
0.0
 10
-1.5619500000000002
 20
1.6453500000000001
 30
0.0
 10
-1.5619500000000002
 20
1.6453500000000001
 30
0.0
 10
-1.4298700000000002
 20
1.3913500000000001
 30
0.0
 10
-1.4298700000000002
 20
1.3913500000000001
 30
0.0
 10
-1.4298700000000002
 20
1.3913500000000001
 30
0.0
 10
-1.54925
 20
1.4624700000000002
 30
0.0
 10
-1.6203700000000001
 20
1.6428100000000001
 30
0.0
 10
-1.7524500000000001
 20
1.73933
 30
0.0
 10
-1.7524500000000001
 20
1.73933
 30
0.0
 10
-1.8667500000000001
 20
1.69615
 30
0.0
 10
-2.0343900000000001
 20
1.7088500000000002
 30
0.0
 10
-2.0775700000000001
 20
1.8460100000000002
 30
0.0
 10
-2.0775700000000001
 20
1.8460100000000002
 30
0.0
 10
-2.0775700000000001
 20
1.8460100000000002
 30
0.0
 10
-2.0775700000000001
 20
2.0466700000000002
 30
0.0
 10
-2.0775700000000001
 20
2.0466700000000002
 30
0.0
 10
-2.0775700000000001
 20
2.0466700000000002
 30
0.0
 10
-2.0775700000000001
 20
2.0466700000000002
 30
0.0
 10
-1.9505700000000001
 20
2.1457300000000004
 30
0.0
 10
-1.9505700000000001
 20
2.1457300000000004
 30
0.0
 10
-1.9505700000000001
 20
2.1457300000000004
 30
0.0
 10
-1.9835900000000002
 20
2.4378300000000004
 30
0.0
 10
-1.8667500000000001
 20
2.7502500000000003
 30
0.0
 10
-1.9581900000000001
 20
3.0321900000000004
 30
0.0
 10
-1.9581900000000001
 20
3.0321900000000004
 30
0.0
 10
-1.8870700000000002
 20
3.0144100000000003
 30
0.0
 10
-1.8286500000000001
 20
3.0194900000000002
 30
0.0
 10
-1.7626100000000002
 20
3.0626700000000002
 30
0.0
 10
-1.7626100000000002
 20
3.0626700000000002
 30
0.0
 10
-1.3841500000000002
 20
3.4843100000000002
 30
0.0
 10
-0.88885
 20
3.7484700000000002
 30
0.0
 10
-0.37323
 20
3.8932500000000001
 30
0.0
  0
SPLINE
  5
3A
100
AcDbEntity
  8
Ebene 1
100
AcDbSpline
210
0.0
220
0.0
230
1.0
 70
     1
 71
     3
 72
    12
 73
     8
 74
     0
 42
0.0000000001
 43
0.0000000001
 40
0.0
 40
0.0
 40
0.0
 40
0.0
 40
0.5
 40
0.5
 40
0.5
 40
0.5
 40
1.0
 40
1.0
 40
1.0
 40
1.0
 10
0.5665600000000001
 20
3.7891100000000004
 30
0.0
 10
1.2015600000000002
 20
3.7713300000000003
 30
0.0
 10
1.6257400000000002
 20
3.1109300000000002
 30
0.0
 10
1.5774800000000002
 20
2.5292700000000004
 30
0.0
 10
1.5774800000000002
 20
2.5292700000000004
 30
0.0
 10
1.4504800000000002
 20
3.0347300000000001
 30
0.0
 10
1.0136000000000001
 20
3.5249500000000005
 30
0.0
 10
0.5665600000000001
 20
3.7891100000000004
 30
0.0
  0
SPLINE
  5
3B
100
AcDbEntity
  8
Ebene 1
100
AcDbSpline
210
0.0
220
0.0
230
1.0
 70
     1
 71
     3
 72
    32
 73
    28
 74
     0
 42
0.0000000001
 43
0.0000000001
 40
0.0
 40
0.0
 40
0.0
 40
0.0
 40
0.1428571428571429
 40
0.1428571428571429
 40
0.1428571428571429
 40
0.1428571428571429
 40
0.2857142857142857
 40
0.2857142857142857
 40
0.2857142857142857
 40
0.2857142857142857
 40
0.4285714285714286
 40
0.4285714285714286
 40
0.4285714285714286
 40
0.4285714285714286
 40
0.5714285714285714
 40
0.5714285714285714
 40
0.5714285714285714
 40
0.5714285714285714
 40
0.7142857142857142
 40
0.7142857142857142
 40
0.7142857142857142
 40
0.7142857142857142
 40
0.857142857142857
 40
0.857142857142857
 40
0.857142857142857
 40
0.857142857142857
 40
1.0
 40
1.0
 40
1.0
 40
1.0
 10
-2.6084300000000002
 20
3.4817700000000005
 30
0.0
 10
-2.6084300000000002
 20
3.4817700000000005
 30
0.0
 10
-2.02169
 20
3.3166700000000002
 30
0.0
 10
-2.02169
 20
3.3166700000000002
 30
0.0
 10
-2.02169
 20
3.3166700000000002
 30
0.0
 10
-2.02169
 20
3.3166700000000002
 30
0.0
 10
-2.02169
 20
3.2734900000000002
 30
0.0
 10
-2.02169
 20
3.2734900000000002
 30
0.0
 10
-2.02169
 20
3.2734900000000002
 30
0.0
 10
-2.51953
 20
3.4614500000000001
 30
0.0
 10
-3.0173700000000001
 20
3.2506300000000001
 30
0.0
 10
-3.4110700000000005
 20
2.9458300000000004
 30
0.0
 10
-3.4110700000000005
 20
2.9458300000000004
 30
0.0
 10
-3.4593300000000005
 20
2.9229700000000003
 30
0.0
 10
-3.5025100000000005
 20
2.88741
 30
0.0
 10
-3.5583900000000002
 20
2.8975700000000004
 30
0.0
 10
-3.5583900000000002
 20
2.8975700000000004
 30
0.0
 10
-3.5761700000000003
 20
2.9915500000000002
 30
0.0
 10
-3.4415500000000003
 20
2.9458300000000004
 30
0.0
 10
-3.4110700000000005
 20
3.0144100000000003
 30
0.0
 10
-3.4110700000000005
 20
3.0144100000000003
 30
0.0
 10
-3.4110700000000005
 20
3.0144100000000003
 30
0.0
 10
-3.0859500000000004
 20
3.2811100000000004
 30
0.0
 10
-3.0859500000000004
 20
3.2811100000000004
 30
0.0
 10
-3.0859500000000004
 20
3.2811100000000004
 30
0.0
 10
-2.94625
 20
3.3877900000000003
 30
0.0
 10
-2.7811500000000002
 20
3.4716100000000001
 30
0.0
 10
-2.6084300000000002
 20
3.4817700000000005
 30
0.0
  0
SPLINE
  5
3C
100
AcDbEntity
  8
Ebene 1
100
AcDbSpline
210
0.0
220
0.0
230
1.0
 70
     1
 71
     3
 72
    32
 73
    28
 74
     0
 42
0.0000000001
 43
0.0000000001
 40
0.0
 40
0.0
 40
0.0
 40
0.0
 40
0.1428571428571429
 40
0.1428571428571429
 40
0.1428571428571429
 40
0.1428571428571429
 40
0.2857142857142857
 40
0.2857142857142857
 40
0.2857142857142857
 40
0.2857142857142857
 40
0.4285714285714286
 40
0.4285714285714286
 40
0.4285714285714286
 40
0.4285714285714286
 40
0.5714285714285714
 40
0.5714285714285714
 40
0.5714285714285714
 40
0.5714285714285714
 40
0.7142857142857142
 40
0.7142857142857142
 40
0.7142857142857142
 40
0.7142857142857142
 40
0.857142857142857
 40
0.857142857142857
 40
0.857142857142857
 40
0.857142857142857
 40
1.0
 40
1.0
 40
1.0
 40
1.0
 10
2.63666
 20
3.14141
 30
0.0
 10
2.6493600000000002
 20
2.6638900000000003
 30
0.0
 10
2.4741000000000004
 20
2.0593700000000004
 30
0.0
 10
2.2378800000000001
 20
1.5920100000000001
 30
0.0
 10
2.2378800000000001
 20
1.5920100000000001
 30
0.0
 10
2.2378800000000001
 20
1.5920100000000001
 30
0.0
 10
2.1794600000000002
 20
1.5920100000000001
 30
0.0
 10
2.1794600000000002
 20
1.5920100000000001
 30
0.0
 10
2.1794600000000002
 20
1.5920100000000001
 30
0.0
 10
2.2124800000000002
 20
1.7723500000000001
 30
0.0
 10
2.3547200000000004
 20
1.9476100000000001
 30
0.0
 10
2.34456
 20
2.1279500000000002
 30
0.0
 10
2.34456
 20
2.1279500000000002
 30
0.0
 10
1.8365600000000002
 20
1.7240900000000001
 30
0.0
 10
1.6384400000000001
 20
1.1602100000000002
 30
0.0
 10
1.5317600000000002
 20
0.57855
 30
0.0
 10
1.5317600000000002
 20
0.57855
 30
0.0
 10
1.4835
 20
0.91129
 30
0.0
 10
1.6486000000000001
 20
1.2211700000000001
 30
0.0
 10
1.6740000000000002
 20
1.5513700000000001
 30
0.0
 10
1.6740000000000002
 20
1.5513700000000001
 30
0.0
 10
1.6740000000000002
 20
1.5513700000000001
 30
0.0
 10
1.7324200000000001
 20
1.5437500000000002
 30
0.0
 10
1.7324200000000001
 20
1.5437500000000002
 30
0.0
 10
1.7324200000000001
 20
1.5437500000000002
 30
0.0
 10
2.0245200000000003
 20
2.0847700000000002
 30
0.0
 10
2.5096600000000002
 20
2.5445100000000003
 30
0.0
 10
2.63666
 20
3.14141
 30
0.0
  0
SPLINE
  5
3D
100
AcDbEntity
  8
Ebene 1
100
AcDbSpline
210
0.0
220
0.0
230
1.0
 70
     1
 71
     3
 72
    56
 73
    52
 74
     0
 42
0.0000000001
 43
0.0000000001
 40
0.0
 40
0.0
 40
0.0
 40
0.0
 40
0.0769230769230769
 40
0.0769230769230769
 40
0.0769230769230769
 40
0.0769230769230769
 40
0.1538461538461539
 40
0.1538461538461539
 40
0.1538461538461539
 40
0.1538461538461539
 40
0.2307692307692308
 40
0.2307692307692308
 40
0.2307692307692308
 40
0.2307692307692308
 40
0.3076923076923077
 40
0.3076923076923077
 40
0.3076923076923077
 40
0.3076923076923077
 40
0.3846153846153846
 40
0.3846153846153846
 40
0.3846153846153846
 40
0.3846153846153846
 40
0.4615384615384616
 40
0.4615384615384616
 40
0.4615384615384616
 40
0.4615384615384616
 40
0.5384615384615386
 40
0.5384615384615386
 40
0.5384615384615386
 40
0.5384615384615386
 40
0.6153846153846154
 40
0.6153846153846154
 40
0.6153846153846154
 40
0.6153846153846154
 40
0.6923076923076923
 40
0.6923076923076923
 40
0.6923076923076923
 40
0.6923076923076923
 40
0.7692307692307692
 40
0.7692307692307692
 40
0.7692307692307692
 40
0.7692307692307692
 40
0.846153846153846
 40
0.846153846153846
 40
0.846153846153846
 40
0.846153846153846
 40
0.9230769230769229
 40
0.9230769230769229
 40
0.9230769230769229
 40
0.9230769230769229
 40
1.0
 40
1.0
 40
1.0
 40
1.0
 10
-2.23251
 20
3.0347300000000001
 30
0.0
 10
-1.7372100000000001
 20
3.05505
 30
0.0
 10
-2.4153900000000004
 20
2.3692500000000001
 30
0.0
 10
-2.4788900000000003
 20
2.7756500000000002
 30
0.0
 10
-2.4788900000000003
 20
2.7756500000000002
 30
0.0
 10
-2.5474700000000001
 20
2.7375500000000001
 30
0.0
 10
-2.6312900000000004
 20
2.71469
 30
0.0
 10
-2.6770100000000001
 20
2.6461100000000002
 30
0.0
 10
-2.6770100000000001
 20
2.6461100000000002
 30
0.0
 10
-2.4611100000000001
 20
2.4479900000000003
 30
0.0
 10
-2.2909300000000004
 20
2.21177
 30
0.0
 10
-2.1715500000000003
 20
1.9526900000000003
 30
0.0
 10
-2.1715500000000003
 20
1.9526900000000003
 30
0.0
 10
-2.2452100000000002
 20
1.9095100000000003
 30
0.0
 10
-2.2909300000000004
 20
2.0263500000000003
 30
0.0
 10
-2.3264900000000002
 20
2.0695300000000003
 30
0.0
 10
-2.3264900000000002
 20
2.0695300000000003
 30
0.0
 10
-2.4331700000000001
 20
1.9145900000000002
 30
0.0
 10
-2.2452100000000002
 20
1.6631300000000002
 30
0.0
 10
-2.3976100000000002
 20
1.5335900000000002
 30
0.0
 10
-2.3976100000000002
 20
1.5335900000000002
 30
0.0
 10
-2.6744700000000003
 20
1.3278500000000002
 30
0.0
 10
-3.0986500000000001
 20
1.7672700000000001
 30
0.0
 10
-3.2688300000000003
 20
1.4624700000000002
 30
0.0
 10
-3.2688300000000003
 20
1.4624700000000002
 30
0.0
 10
-3.2840700000000003
 20
1.4396100000000001
 30
0.0
 10
-3.3145500000000001
 20
1.44469
 30
0.0
 10
-3.3348700000000004
 20
1.4497700000000002
 30
0.0
 10
-3.3348700000000004
 20
1.4497700000000002
 30
0.0
 10
-3.3297900000000005
 20
1.5615300000000001
 30
0.0
 10
-3.1545300000000003
 20
1.6605900000000002
 30
0.0
 10
-3.3602700000000003
 20
1.7164700000000002
 30
0.0
 10
-3.3602700000000003
 20
1.7164700000000002
 30
0.0
 10
-3.4186900000000002
 20
1.6859900000000001
 30
0.0
 10
-3.4212300000000004
 20
1.57169
 30
0.0
 10
-3.4872700000000001
 20
1.56915
 30
0.0
 10
-3.4872700000000001
 20
1.56915
 30
0.0
 10
-3.4872700000000001
 20
1.56915
 30
0.0
 10
-3.3856700000000002
 20
2.0339700000000001
 30
0.0
 10
-3.3856700000000002
 20
2.0339700000000001
 30
0.0
 10
-3.3856700000000002
 20
2.0339700000000001
 30
0.0
 10
-3.4440900000000001
 20
2.0263500000000003
 30
0.0
 10
-3.5609300000000004
 20
2.0212700000000003
 30
0.0
 10
-3.5812500000000003
 20
2.09239
 30
0.0
 10
-3.5812500000000003
 20
2.09239
 30
0.0
 10
-3.0961100000000004
 20
2.08731
 30
0.0
 10
-2.9233900000000004
 20
2.8315300000000003
 30
0.0
 10
-2.4458700000000002
 20
2.8518500000000002
 30
0.0
 10
-2.4458700000000002
 20
2.8518500000000002
 30
0.0
 10
-2.40523
 20
2.9458300000000004
 30
0.0
 10
-2.31887
 20
2.9991700000000003
 30
0.0
 10
-2.23251
 20
3.0347300000000001
 30
0.0
  0
SPLINE
  5
3E
100
AcDbEntity
  8
Ebene 1
 62
     7
100
AcDbSpline
210
0.0
220
0.0
230
1.0
 70
     1
 71
     3
 72
    12
 73
     8
 74
     0
 42
0.0000000001
 43
0.0000000001
 40
0.0
 40
0.0
 40
0.0
 40
0.0
 40
0.5
 40
0.5
 40
0.5
 40
0.5
 40
1.0
 40
1.0
 40
1.0
 40
1.0
 10
-2.1613900000000004
 20
2.9407500000000004
 30
0.0
 10
-2.0318500000000004
 20
2.9001100000000002
 30
0.0
 10
-2.2172700000000001
 20
2.7350100000000004
 30
0.0
 10
-2.2985500000000001
 20
2.7451700000000003
 30
0.0
 10
-2.2985500000000001
 20
2.7451700000000003
 30
0.0
 10
-2.3264900000000002
 20
2.8239100000000001
 30
0.0
 10
-2.2147300000000003
 20
2.8950300000000002
 30
0.0
 10
-2.1613900000000004
 20
2.9407500000000004
 30
0.0
  0
SPLINE
  5
3F
100
AcDbEntity
  8
Ebene 1
100
AcDbSpline
210
0.0
220
0.0
230
1.0
 70
     1
 71
     3
 72
    16
 73
    12
 74
     0
 42
0.0000000001
 43
0.0000000001
 40
0.0
 40
0.0
 40
0.0
 40
0.0
 40
0.3333333333333333
 40
0.3333333333333333
 40
0.3333333333333333
 40
0.3333333333333333
 40
0.6666666666666666
 40
0.6666666666666666
 40
0.6666666666666666
 40
0.6666666666666666
 40
1.0
 40
1.0
 40
1.0
 40
1.0
 10
-3.03261
 20
2.9178900000000003
 30
0.0
 10
-2.9691100000000001
 20
2.9356700000000004
 30
0.0
 10
-2.8852900000000004
 20
2.8797900000000003
 30
0.0
 10
-2.9411700000000001
 20
2.8162900000000004
 30
0.0
 10
-2.9411700000000001
 20
2.8162900000000004
 30
0.0
 10
-2.9818100000000003
 20
2.7908900000000001
 30
0.0
 10
-3.0275300000000001
 20
2.7807300000000001
 30
0.0
 10
-3.0757900000000005
 20
2.7934300000000003
 30
0.0
 10
-3.0757900000000005
 20
2.7934300000000003
 30
0.0
 10
-3.0935700000000002
 20
2.8416900000000003
 30
0.0
 10
-3.0681700000000003
 20
2.8924900000000004
 30
0.0
 10
-3.03261
 20
2.9178900000000003
 30
0.0
  0
SPLINE
  5
40
100
AcDbEntity
  8
Ebene 1
100
AcDbSpline
210
0.0
220
0.0
230
1.0
 70
     1
 71
     3
 72
    12
 73
     8
 74
     0
 42
0.0000000001
 43
0.0000000001
 40
0.0
 40
0.0
 40
0.0
 40
0.0
 40
0.5
 40
0.5
 40
0.5
 40
0.5
 40
1.0
 40
1.0
 40
1.0
 40
1.0
 10
-3.3602700000000003
 20
2.7045300000000001
 30
0.0
 10
-2.9792700000000001
 20
2.6969100000000004
 30
0.0
 10
-3.2967700000000004
 20
2.1762100000000002
 30
0.0
 10
-3.5482300000000002
 20
2.2346300000000001
 30
0.0
 10
-3.5482300000000002
 20
2.2346300000000001
 30
0.0
 10
-3.7234900000000004
 20
2.37941
 30
0.0
 10
-3.5507700000000004
 20
2.6867500000000004
 30
0.0
 10
-3.3602700000000003
 20
2.7045300000000001
 30
0.0
  0
SPLINE
  5
41
100
AcDbEntity
  8
Ebene 1
 62
     7
100
AcDbSpline
210
0.0
220
0.0
230
1.0
 70
     1
 71
     3
 72
    12
 73
     8
 74
     0
 42
0.0000000001
 43
0.0000000001
 40
0.0
 40
0.0
 40
0.0
 40
0.0
 40
0.5
 40
0.5
 40
0.5
 40
0.5
 40
1.0
 40
1.0
 40
1.0
 40
1.0
 10
-3.3501100000000004
 20
2.6588100000000003
 30
0.0
 10
-3.1113500000000003
 20
2.6562700000000001
 30
0.0
 10
-3.2586700000000004
 20
2.38449
 30
0.0
 10
-3.4186900000000002
 20
2.3768700000000003
 30
0.0
 10
-3.4186900000000002
 20
2.3768700000000003
 30
0.0
 10
-3.5533100000000002
 20
2.4378300000000004
 30
0.0
 10
-3.4288500000000002
 20
2.6003900000000004
 30
0.0
 10
-3.3501100000000004
 20
2.6588100000000003
 30
0.0
  0
SPLINE
  5
42
100
AcDbEntity
  8
Ebene 1
 62
     7
100
AcDbSpline
210
0.0
220
0.0
230
1.0
 70
     1
 71
     3
 72
    20
 73
    16
 74
     0
 42
0.0000000001
 43
0.0000000001
 40
0.0
 40
0.0
 40
0.0
 40
0.0
 40
0.25
 40
0.25
 40
0.25
 40
0.25
 40
0.5
 40
0.5
 40
0.5
 40
0.5
 40
0.75
 40
0.75
 40
0.75
 40
0.75
 40
1.0
 40
1.0
 40
1.0
 40
1.0
 10
3.4723200000000003
 20
2.5876900000000003
 30
0.0
 10
3.4850200000000005
 20
2.34639
 30
0.0
 10
3.4494600000000002
 20
1.9704700000000002
 30
0.0
 10
3.2488000000000001
 20
1.7748900000000001
 30
0.0
 10
3.2488000000000001
 20
1.7748900000000001
 30
0.0
 10
3.1091000000000002
 20
1.2922900000000002
 30
0.0
 10
2.9211400000000003
 20
0.78429
 30
0.0
 10
2.5680800000000001
 20
0.41599
 30
0.0
 10
2.5680800000000001
 20
0.41599
 30
0.0
 10
2.6265000000000001
 20
0.6471300000000001
 30
0.0
 10
2.6722200000000003
 20
0.89097
 30
0.0
 10
2.8500200000000002
 20
1.0738500000000002
 30
0.0
 10
2.8500200000000002
 20
1.0738500000000002
 30
0.0
 10
2.9211400000000003
 20
1.6224900000000002
 30
0.0
 10
3.2132400000000003
 20
2.1050900000000001
 30
0.0
 10
3.4723200000000003
 20
2.5876900000000003
 30
0.0
  0
SPLINE
  5
43
100
AcDbEntity
  8
Ebene 1
 62
     7
100
AcDbSpline
210
0.0
220
0.0
230
1.0
 70
     1
 71
     3
 72
    16
 73
    12
 74
     0
 42
0.0000000001
 43
0.0000000001
 40
0.0
 40
0.0
 40
0.0
 40
0.0
 40
0.3333333333333333
 40
0.3333333333333333
 40
0.3333333333333333
 40
0.3333333333333333
 40
0.6666666666666666
 40
0.6666666666666666
 40
0.6666666666666666
 40
0.6666666666666666
 40
1.0
 40
1.0
 40
1.0
 40
1.0
 10
-2.9259300000000001
 20
2.1406500000000004
 30
0.0
 10
-2.9259300000000001
 20
2.1406500000000004
 30
0.0
 10
-2.8929100000000001
 20
2.1381100000000002
 30
0.0
 10
-2.8929100000000001
 20
2.1381100000000002
 30
0.0
 10
-2.8929100000000001
 20
2.1381100000000002
 30
0.0
 10
-2.9233900000000004
 20
2.0517500000000002
 30
0.0
 10
-3.0148300000000003
 20
1.9958700000000003
 30
0.0
 10
-3.0986500000000001
 20
1.9907900000000001
 30
0.0
 10
-3.0986500000000001
 20
1.9907900000000001
 30
0.0
 10
-3.0783300000000002
 20
2.0669900000000001
 30
0.0
 10
-2.9818100000000003
 20
2.1000100000000002
 30
0.0
 10
-2.9259300000000001
 20
2.1406500000000004
 30
0.0
  0
SPLINE
  5
44
100
AcDbEntity
  8
Ebene 1
100
AcDbSpline
210
0.0
220
0.0
230
1.0
 70
     1
 71
     3
 72
    12
 73
     8
 74
     0
 42
0.0000000001
 43
0.0000000001
 40
0.0
 40
0.0
 40
0.0
 40
0.0
 40
0.5
 40
0.5
 40
0.5
 40
0.5
 40
1.0
 40
1.0
 40
1.0
 40
1.0
 10
-1.6076700000000002
 20
2.1050900000000001
 30
0.0
 10
-1.4679700000000002
 20
2.16351
 30
0.0
 10
-1.25461
 20
1.9907900000000001
 30
0.0
 10
-1.4070100000000001
 20
1.8739500000000002
 30
0.0
 10
-1.4070100000000001
 20
1.8739500000000002
 30
0.0
 10
-1.54925
 20
1.8129900000000001
 30
0.0
 10
-1.6660900000000001
 20
1.9831700000000001
 30
0.0
 10
-1.6076700000000002
 20
2.1050900000000001
 30
0.0
  0
SPLINE
  5
45
100
AcDbEntity
  8
Ebene 1
 62
     7
100
AcDbSpline
210
0.0
220
0.0
230
1.0
 70
     1
 71
     3
 72
    12
 73
     8
 74
     0
 42
0.0000000001
 43
0.0000000001
 40
0.0
 40
0.0
 40
0.0
 40
0.0
 40
0.5
 40
0.5
 40
0.5
 40
0.5
 40
1.0
 40
1.0
 40
1.0
 40
1.0
 10
-1.50099
 20
2.0238100000000001
 30
0.0
 10
-1.4552700000000001
 20
2.0288900000000001
 30
0.0
 10
-1.3841500000000002
 20
1.9628500000000002
 30
0.0
 10
-1.4425700000000001
 20
1.9323700000000001
 30
0.0
 10
-1.4425700000000001
 20
1.9323700000000001
 30
0.0
 10
-1.4908300000000001
 20
1.9196700000000002
 30
0.0
 10
-1.5365500000000001
 20
1.9907900000000001
 30
0.0
 10
-1.50099
 20
2.0238100000000001
 30
0.0
  0
SPLINE
  5
46
100
AcDbEntity
  8
Ebene 1
 62
     7
100
AcDbSpline
210
0.0
220
0.0
230
1.0
 70
     1
 71
     3
 72
    12
 73
     8
 74
     0
 42
0.0000000001
 43
0.0000000001
 40
0.0
 40
0.0
 40
0.0
 40
0.0
 40
0.5
 40
0.5
 40
0.5
 40
0.5
 40
1.0
 40
1.0
 40
1.0
 40
1.0
 10
-1.9378700000000002
 20
2.01111
 30
0.0
 10
-1.8667500000000001
 20
1.9704700000000002
 30
0.0
 10
-1.7626100000000002
 20
1.8180700000000001
 30
0.0
 10
-1.8896100000000002
 20
1.7774300000000001
 30
0.0
 10
-1.8896100000000002
 20
1.7774300000000001
 30
0.0
 10
-1.9683500000000003
 20
1.8256900000000003
 30
0.0
 10
-2.02169
 20
1.9476100000000001
 30
0.0
 10
-1.9378700000000002
 20
2.01111
 30
0.0
  0
SPLINE
  5
47
100
AcDbEntity
  8
Ebene 1
100
AcDbSpline
210
0.0
220
0.0
230
1.0
 70
     1
 71
     3
 72
    12
 73
     8
 74
     0
 42
0.0000000001
 43
0.0000000001
 40
0.0
 40
0.0
 40
0.0
 40
0.0
 40
0.5
 40
0.5
 40
0.5
 40
0.5
 40
1.0
 40
1.0
 40
1.0
 40
1.0
 10
-2.10297
 20
1.3049900000000001
 30
0.0
 10
-2.02169
 20
1.3253100000000002
 30
0.0
 10
-2.0064500000000001
 20
1.2084700000000002
 30
0.0
 10
-2.06995
 20
1.1805300000000001
 30
0.0
 10
-2.06995
 20
1.1805300000000001
 30
0.0
 10
-2.15123
 20
1.14751
 30
0.0
 10
-2.1309100000000001
 20
1.2668900000000001
 30
0.0
 10
-2.10297
 20
1.3049900000000001
 30
0.0
  0
SPLINE
  5
48
100
AcDbEntity
  8
Ebene 1
 62
     7
100
AcDbSpline
210
0.0
220
0.0
230
1.0
 70
     1
 71
     3
 72
    16
 73
    12
 74
     0
 42
0.0000000001
 43
0.0000000001
 40
0.0
 40
0.0
 40
0.0
 40
0.0
 40
0.3333333333333333
 40
0.3333333333333333
 40
0.3333333333333333
 40
0.3333333333333333
 40
0.6666666666666666
 40
0.6666666666666666
 40
0.6666666666666666
 40
0.6666666666666666
 40
1.0
 40
1.0
 40
1.0
 40
1.0
 10
-2.44333
 20
1.18815
 30
0.0
 10
-2.3645900000000002
 20
1.1221100000000002
 30
0.0
 10
-2.3290300000000004
 20
1.0128900000000001
 30
0.0
 10
-2.2909300000000004
 20
0.9163700000000001
 30
0.0
 10
-2.2909300000000004
 20
0.9163700000000001
 30
0.0
 10
-2.2909300000000004
 20
0.9163700000000001
 30
0.0
 10
-2.4077700000000002
 20
0.8223900000000001
 30
0.0
 10
-2.4077700000000002
 20
0.8223900000000001
 30
0.0
 10
-2.4077700000000002
 20
0.8223900000000001
 30
0.0
 10
-2.4915900000000004
 20
0.91383
 30
0.0
 10
-2.4788900000000003
 20
1.0763900000000002
 30
0.0
 10
-2.44333
 20
1.18815
 30
0.0
  0
SPLINE
  5
49
100
AcDbEntity
  8
Ebene 1
 62
     7
100
AcDbSpline
210
0.0
220
0.0
230
1.0
 70
     1
 71
     3
 72
    12
 73
     8
 74
     0
 42
0.0000000001
 43
0.0000000001
 40
0.0
 40
0.0
 40
0.0
 40
0.0
 40
0.5
 40
0.5
 40
0.5
 40
0.5
 40
1.0
 40
1.0
 40
1.0
 40
1.0
 10
-2.0318500000000004
 20
0.9417700000000001
 30
0.0
 10
-1.9480300000000002
 20
0.95447
 30
0.0
 10
-1.9099300000000001
 20
0.7995300000000001
 30
0.0
 10
-1.9734300000000002
 20
0.76397
 30
0.0
 10
-1.9734300000000002
 20
0.76397
 30
0.0
 10
-2.0140700000000002
 20
0.80715
 30
0.0
 10
-2.05979
 20
0.8808100000000001
 30
0.0
 10
-2.0318500000000004
 20
0.9417700000000001
 30
0.0
  0
SPLINE
  5
4A
100
AcDbEntity
  8
Ebene 1
 62
     7
100
AcDbSpline
210
0.0
220
0.0
230
1.0
 70
     1
 71
     3
 72
    40
 73
    36
 74
     0
 42
0.0000000001
 43
0.0000000001
 40
0.0
 40
0.0
 40
0.0
 40
0.0
 40
0.1111111111111111
 40
0.1111111111111111
 40
0.1111111111111111
 40
0.1111111111111111
 40
0.2222222222222222
 40
0.2222222222222222
 40
0.2222222222222222
 40
0.2222222222222222
 40
0.3333333333333333
 40
0.3333333333333333
 40
0.3333333333333333
 40
0.3333333333333333
 40
0.4444444444444444
 40
0.4444444444444444
 40
0.4444444444444444
 40
0.4444444444444444
 40
0.5555555555555556
 40
0.5555555555555556
 40
0.5555555555555556
 40
0.5555555555555556
 40
0.6666666666666667
 40
0.6666666666666667
 40
0.6666666666666667
 40
0.6666666666666667
 40
0.7777777777777779
 40
0.7777777777777779
 40
0.7777777777777779
 40
0.7777777777777779
 40
0.8888888888888891
 40
0.8888888888888891
 40
0.8888888888888891
 40
0.8888888888888891
 40
1.0
 40
1.0
 40
1.0
 40
1.0
 10
-2.1613900000000004
 20
0.8223900000000001
 30
0.0
 10
-2.0293100000000002
 20
0.6496700000000001
 30
0.0
 10
-1.75499
 20
0.5633100000000001
 30
0.0
 10
-1.7016500000000001
 20
0.31439
 30
0.0
 10
-1.7016500000000001
 20
0.31439
 30
0.0
 10
-1.9658100000000001
 20
0.40329
 30
0.0
 10
-1.79817
 20
0.09849
 30
0.0
 10
-1.8184900000000002
 20
-0.01072
 30
0.0
 10
-1.8184900000000002
 20
-0.01072
 30
0.0
 10
-1.9175500000000001
 20
0.01467
 30
0.0
 10
-2.0851900000000003
 20
0.14929
 30
0.0
 10
-2.06995
 20
0.23311
 30
0.0
 10
-2.06995
 20
0.23311
 30
0.0
 10
-2.18425
 20
0.32201
 30
0.0
 10
-2.2934700000000001
 20
0.43631
 30
0.0
 10
-2.3595100000000002
 20
0.5633100000000001
 30
0.0
 10
-2.3595100000000002
 20
0.5633100000000001
 30
0.0
 10
-2.3645900000000002
 20
0.59633
 30
0.0
 10
-2.3747500000000001
 20
0.6293500000000001
 30
0.0
 10
-2.3442700000000003
 20
0.65729
 30
0.0
 10
-2.3442700000000003
 20
0.65729
 30
0.0
 10
-2.3442700000000003
 20
0.65729
 30
0.0
 10
-2.1867900000000002
 20
0.53791
 30
0.0
 10
-2.1867900000000002
 20
0.53791
 30
0.0
 10
-2.1867900000000002
 20
0.53791
 30
0.0
 10
-2.0674100000000002
 20
0.57601
 30
0.0
 10
-1.9353300000000002
 20
0.20517
 30
0.0
 10
-1.9327900000000002
 20
0.3677300000000001
 30
0.0
 10
-1.9327900000000002
 20
0.3677300000000001
 30
0.0
 10
-1.9327900000000002
 20
0.3677300000000001
 30
0.0
 10
-2.0089900000000003
 20
0.47949
 30
0.0
 10
-2.0089900000000003
 20
0.47949
 30
0.0
 10
-2.0089900000000003
 20
0.47949
 30
0.0
 10
-2.1105900000000002
 20
0.57855
 30
0.0
 10
-2.2121900000000001
 20
0.68269
 30
0.0
 10
-2.1613900000000004
 20
0.8223900000000001
 30
0.0
  0
SPLINE
  5
4B
100
AcDbEntity
  8
Ebene 1
 62
     7
100
AcDbSpline
210
0.0
220
0.0
230
1.0
 70
     1
 71
     3
 72
    12
 73
     8
 74
     0
 42
0.0000000001
 43
0.0000000001
 40
0.0
 40
0.0
 40
0.0
 40
0.0
 40
0.5
 40
0.5
 40
0.5
 40
0.5
 40
1.0
 40
1.0
 40
1.0
 40
1.0
 10
0.3557400000000001
 20
0.57601
 30
0.0
 10
0.23636
 20
0.25597
 30
0.0
 10
-0.06589
 20
-0.03612
 30
0.0
 10
-0.23099
 20
-0.3587
 30
0.0
 10
-0.23099
 20
-0.3587
 30
0.0
 10
-0.17257
 20
-0.00056
 30
0.0
 10
0.11952
 20
0.31185
 30
0.0
 10
0.3557400000000001
 20
0.57601
 30
0.0
  0
SPLINE
  5
4C
100
AcDbEntity
  8
Ebene 1
 62
     7
100
AcDbSpline
210
0.0
220
0.0
230
1.0
 70
     1
 71
     3
 72
    12
 73
     8
 74
     0
 42
0.0000000001
 43
0.0000000001
 40
0.0
 40
0.0
 40
0.0
 40
0.0
 40
0.5
 40
0.5
 40
0.5
 40
0.5
 40
1.0
 40
1.0
 40
1.0
 40
1.0
 10
-1.6914900000000002
 20
0.4109100000000001
 30
0.0
 10
-1.6432300000000002
 20
0.40329
 30
0.0
 10
-1.58989
 20
0.2737500000000001
 30
0.0
 10
-1.58989
 20
0.23057
 30
0.0
 10
-1.58989
 20
0.23057
 30
0.0
 10
-1.6381500000000002
 20
0.25343
 30
0.0
 10
-1.6787900000000002
 20
0.3677300000000001
 30
0.0
 10
-1.6914900000000002
 20
0.4109100000000001
 30
0.0
  0
SPLINE
  5
4D
100
AcDbEntity
  8
Ebene 1
 62
     7
100
AcDbSpline
210
0.0
220
0.0
230
1.0
 70
     1
 71
     3
 72
    12
 73
     8
 74
     0
 42
0.0000000001
 43
0.0000000001
 40
0.0
 40
0.0
 40
0.0
 40
0.0
 40
0.5
 40
0.5
 40
0.5
 40
0.5
 40
1.0
 40
1.0
 40
1.0
 40
1.0
 10
-1.8083300000000002
 20
0.28137
 30
0.0
 10
-1.6914900000000002
 20
0.26867
 30
0.0
 10
-1.6660900000000001
 20
0.12135
 30
0.0
 10
-1.63053
 20
0.03753
 30
0.0
 10
-1.63053
 20
0.03753
 30
0.0
 10
-1.7651500000000002
 20
0.03245
 30
0.0
 10
-1.75753
 20
0.19755
 30
0.0
 10
-1.8083300000000002
 20
0.28137
 30
0.0
  0
SPLINE
  5
4E
100
AcDbEntity
  8
Ebene 1
 62
     7
100
AcDbSpline
210
0.0
220
0.0
230
1.0
 70
     1
 71
     3
 72
    12
 73
     8
 74
     0
 42
0.0000000001
 43
0.0000000001
 40
0.0
 40
0.0
 40
0.0
 40
0.0
 40
0.5
 40
0.5
 40
0.5
 40
0.5
 40
1.0
 40
1.0
 40
1.0
 40
1.0
 10
-2.1486900000000002
 20
0.09341
 30
0.0
 10
-2.01661
 20
0.03753
 30
0.0
 10
-1.9607300000000001
 20
-0.14026
 30
0.0
 10
-1.9277100000000003
 20
-0.26472
 30
0.0
 10
-1.9277100000000003
 20
-0.26472
 30
0.0
 10
-2.0750300000000004
 20
-0.21646
 30
0.0
 10
-2.1359900000000001
 20
-0.04628
 30
0.0
 10
-2.1486900000000002
 20
0.09341
 30
0.0
  0
SPLINE
  5
4F
100
AcDbEntity
  8
Ebene 1
 62
     7
100
AcDbSpline
210
0.0
220
0.0
230
1.0
 70
     1
 71
     3
 72
    12
 73
     8
 74
     0
 42
0.0000000001
 43
0.0000000001
 40
0.0
 40
0.0
 40
0.0
 40
0.0
 40
0.5
 40
0.5
 40
0.5
 40
0.5
 40
1.0
 40
1.0
 40
1.0
 40
1.0
 10
-2.3595100000000002
 20
-0.35108
 30
0.0
 10
-2.2553700000000001
 20
-0.3536200000000001
 30
0.0
 10
-2.1715500000000003
 20
-0.4984000000000001
 30
0.0
 10
-2.1867900000000002
 20
-0.5822200000000001
 30
0.0
 10
-2.1867900000000002
 20
-0.5822200000000001
 30
0.0
 10
-2.2299700000000002
 20
-0.4984000000000001
 30
0.0
 10
-2.43825
 20
-0.47046
 30
0.0
 10
-2.3595100000000002
 20
-0.35108
 30
0.0
  0
SPLINE
  5
50
100
AcDbEntity
  8
Ebene 1
 62
     7
100
AcDbSpline
210
0.0
220
0.0
230
1.0
 70
     1
 71
     3
 72
    16
 73
    12
 74
     0
 42
0.0000000001
 43
0.0000000001
 40
0.0
 40
0.0
 40
0.0
 40
0.0
 40
0.3333333333333333
 40
0.3333333333333333
 40
0.3333333333333333
 40
0.3333333333333333
 40
0.6666666666666666
 40
0.6666666666666666
 40
0.6666666666666666
 40
0.6666666666666666
 40
1.0
 40
1.0
 40
1.0
 40
1.0
 10
-3.2459700000000002
 20
-0.7549400000000001
 30
0.0
 10
-3.0427700000000004
 20
-0.9251200000000001
 30
0.0
 10
-2.8979900000000001
 20
-1.2248400000000002
 30
0.0
 10
-2.9056100000000002
 20
-1.4890000000000001
 30
0.0
 10
-2.9056100000000002
 20
-1.4890000000000001
 30
0.0
 10
-2.9056100000000002
 20
-1.4890000000000001
 30
0.0
 10
-3.1926300000000003
 20
-1.20706
 30
0.0
 10
-3.1926300000000003
 20
-1.20706
 30
0.0
 10
-3.1926300000000003
 20
-1.20706
 30
0.0
 10
-3.2434300000000005
 20
-1.0622800000000001
 30
0.0
 10
-3.2662900000000001
 20
-0.90988
 30
0.0
 10
-3.2459700000000002
 20
-0.7549400000000001
 30
0.0
  0
SPLINE
  5
51
100
AcDbEntity
  8
Ebene 1
 62
     7
100
AcDbSpline
210
0.0
220
0.0
230
1.0
 70
     1
 71
     3
 72
    12
 73
     8
 74
     0
 42
0.0000000001
 43
0.0000000001
 40
0.0
 40
0.0
 40
0.0
 40
0.0
 40
0.5
 40
0.5
 40
0.5
 40
0.5
 40
1.0
 40
1.0
 40
1.0
 40
1.0
 10
-3.5736300000000001
 20
-0.8336800000000001
 30
0.0
 10
-3.4415500000000003
 20
-0.94798
 30
0.0
 10
-3.2662900000000001
 20
-1.1740400000000002
 30
0.0
 10
-3.4085300000000003
 20
-1.3391400000000002
 30
0.0
 10
-3.4085300000000003
 20
-1.3391400000000002
 30
0.0
 10
-3.5380700000000003
 20
-1.2197600000000002
 30
0.0
 10
-3.5533100000000002
 20
-0.9987800000000001
 30
0.0
 10
-3.5736300000000001
 20
-0.8336800000000001
 30
0.0
  0
SPLINE
  5
52
100
AcDbEntity
  8
Ebene 1
 62
     7
100
AcDbSpline
210
0.0
220
0.0
230
1.0
 70
     1
 71
     3
 72
    16
 73
    12
 74
     0
 42
0.0000000001
 43
0.0000000001
 40
0.0
 40
0.0
 40
0.0
 40
0.0
 40
0.3333333333333333
 40
0.3333333333333333
 40
0.3333333333333333
 40
0.3333333333333333
 40
0.6666666666666666
 40
0.6666666666666666
 40
0.6666666666666666
 40
0.6666666666666666
 40
1.0
 40
1.0
 40
1.0
 40
1.0
 10
-3.6777700000000002
 20
-0.8921000000000001
 30
0.0
 10
-3.6777700000000002
 20
-0.8921000000000001
 30
0.0
 10
-3.5964900000000002
 20
-0.9200400000000001
 30
0.0
 10
-3.5964900000000002
 20
-0.9200400000000001
 30
0.0
 10
-3.5964900000000002
 20
-0.9200400000000001
 30
0.0
 10
-3.5964900000000002
 20
-0.9200400000000001
 30
0.0
 10
-3.5964900000000002
 20
-1.3289800000000001
 30
0.0
 10
-3.5964900000000002
 20
-1.3289800000000001
 30
0.0
 10
-3.5964900000000002
 20
-1.3289800000000001
 30
0.0
 10
-3.6396700000000002
 20
-1.1943600000000001
 30
0.0
 10
-3.6803100000000004
 20
-1.0445
 30
0.0
 10
-3.6777700000000002
 20
-0.8921000000000001
 30
0.0
  0
SPLINE
  5
53
100
AcDbEntity
  8
Ebene 1
 62
     7
100
AcDbSpline
210
0.0
220
0.0
230
1.0
 70
     1
 71
     3
 72
    12
 73
     8
 74
     0
 42
0.0000000001
 43
0.0000000001
 40
0.0
 40
0.0
 40
0.0
 40
0.0
 40
0.5
 40
0.5
 40
0.5
 40
0.5
 40
1.0
 40
1.0
 40
1.0
 40
1.0
 10
0.2617600000000001
 20
-6.4928000000000008
 30
0.0
 10
0.3786000000000001
 20
-6.1829200000000002
 30
0.0
 10
0.3557400000000001
 20
-5.8197000000000001
 30
0.0
 10
0.4725800000000001
 20
-5.5174400000000006
 30
0.0
 10
0.4725800000000001
 20
-5.5174400000000006
 30
0.0
 10
0.531
 20
-5.8578000000000001
 30
0.0
 10
0.48528
 20
-6.2210200000000002
 30
0.0
 10
0.2617600000000001
 20
-6.4928000000000008
 30
0.0
  0
ENDSEC
  0
SECTION
  2
OBJECTS
  0
DICTIONARY
  5
19
100
AcDbDictionary
280
     0
281
     1
  3
ACAD_GROUP
350
1A
  3
ACAD_MLINESTYLE
350
1B
  3
ACAD_LAYOUT
350
1E
  3
ACAD_PLOTSETTINGS
350
22
  3
ACAD_PLOTSTYLENAME
350
1F
  3
ACAD_WIPEOUT_VARS
350
23
  0
DICTIONARY
  5
1A
102
{ACAD_REACTORS
330
19
102
}
100
AcDbDictionary
280
     0
281
     1
  0
DICTIONARY
  5
1B
102
{ACAD_REACTORS
330
19
102
}
100
AcDbDictionary
280
     0
281
     1
  3
Standard
350
1C
  0
MLINESTYLE
  5
1C
102
{ACAD_REACTORS
330
1B
102
}
100
AcDbMlineStyle
  2
Standard
 70
     0
  3

 62
     0
 51
90.0
 52
90.0
 71
     2
 49
0.5
 62
   256
  6
BYLAYER
 49
-0.5
 62
   256
  6
BYLAYER
  0
ACDBDICTIONARYWDFLT
  5
1F
102
{ACAD_REACTORS
330
19
102
}
100
AcDbDictionary
281
     1
  3
Normal
350
1D
100
AcDbDictionaryWithDefault
340
1D
  0
ACDBPLACEHOLDER
  5
1D
102
{ACAD_REACTORS
330
1F
102
}
  0
LAYOUT
  5
20
102
{ACAD_REACTORS
330
1E
102
}
100
AcDbPlotSettings
  1

  2

  4

  6

 40
0.0
 41
0.0
 42
0.0
 43
0.0
 44
0.0
 45
0.0
 46
0.0
 47
0.0
 48
0.0
 49
0.0
140
0.0
141
0.0
142
1.0
143
1.0
 70
  1024
 72
     0
 73
     0
 74
     0
  7

 75
     0
147
1.0
148
0.0
149
0.0
100
AcDbLayout
  1
Model
 70
     0
 71
     0
 10
0.0
 20
0.0
 11
0.0
 21
0.0
 12
0.0
 22
0.0
 32
0.0
 14
0.0
 24
0.0
 34
0.0
 15
0.0
 25
0.0
 35
0.0
146
0.0
 13
0.0
 23
0.0
 33
0.0
 16
0.0
 26
0.0
 36
0.0
 17
0.0
 27
0.0
 37
0.0
 76
     0
330
A
331
0
345
0
346
0
  0
LAYOUT
  5
21
102
{ACAD_REACTORS
330
1E
102
}
100
AcDbPlotSettings
  1

  2

  4

  6

 40
0.0
 41
0.0
 42
0.0
 43
0.0
 44
0.0
 45
0.0
 46
0.0
 47
0.0
 48
0.0
 49
0.0
140
0.0
141
0.0
142
1.0
143
1.0
 70
     0
 72
     0
 73
     0
 74
     0
  7

 75
     0
147
1.0
148
0.0
149
0.0
100
AcDbLayout
  1
Layout1
 70
     0
 71
     0
 10
0.0
 20
0.0
 11
0.0
 21
0.0
 12
0.0
 22
0.0
 32
0.0
 14
0.0
 24
0.0
 34
0.0
 15
0.0
 25
0.0
 35
0.0
146
0.0
 13
0.0
 23
0.0
 33
0.0
 16
0.0
 26
0.0
 36
0.0
 17
0.0
 27
0.0
 37
0.0
 76
     0
330
B
331
0
345
0
346
0
  0
DICTIONARY
  5
1E
102
{ACAD_REACTORS
330
19
102
}
100
AcDbDictionary
280
     0
281
     1
  3
Layout1
350
21
  3
Model
350
20
  0
DICTIONARY
  5
22
102
{ACAD_REACTORS
330
19
102
}
100
AcDbDictionary
280
     0
281
     1
  0
WIPEOUTVARIABLES
  5
23
100
AcDbWipeoutVariables
 70
     1
  0
ENDSEC
  0
EOF
