  0
SECTION
  2
HEADER
  9
$ACADVER
  1
AC1015
  9
$ACADMAINTVER
 70
     6
  9
$DWGCODEPAGE
  3
DOS850
  9
$INSBASE
 10
0.0
 20
0.0
 30
0.0
  9
$EXTMIN
 10
-5.47863
 20
-5.64408
 30
1.000000E+20
  9
$EXTMAX
 10
5.48461
 20
5.63823
 30
-1.000000E+20
  9
$LIMMIN
 10
0.0
 20
0.0
  9
$LIMMAX
 10
0.0
 20
0.0
  9
$ORTHOMODE
 70
     0
  9
$REGENMODE
 70
     1
  9
$FILLMODE
 70
     1
  9
$QTEXTMODE
 70
     0
  9
$MIRRTEXT
 70
     1
  9
$LTSCALE
 40
1.0
  9
$ATTMODE
 70
     1
  9
$TEXTSIZE
 40
0.2
  9
$TRACEWID
 40
0.05
  9
$TEXTSTYLE
  7
Standard
  9
$CLAYER
  8
0
  9
$CELTYPE
  6
Continuous
  9
$CECOLOR
 62
   256
  9
$CELTSCALE
 40
1.0
  9
$DISPSILH
 70
     0
  9
$DIMSCALE
 40
1.0
  9
$DIMASZ
 40
0.18
  9
$DIMEXO
 40
0.0625
  9
$DIMDLI
 40
0.38
  9
$DIMRND
 40
0.0
  9
$DIMDLE
 40
0.0
  9
$DIMEXE
 40
0.18
  9
$DIMTP
 40
0.0
  9
$DIMTM
 40
0.0
  9
$DIMTXT
 40
0.18
  9
$DIMCEN
 40
0.09
  9
$DIMTSZ
 40
0.0
  9
$DIMTOL
 70
     0
  9
$DIMLIM
 70
     0
  9
$DIMTIH
 70
     1
  9
$DIMTOH
 70
     1
  9
$DIMSE1
 70
     0
  9
$DIMSE2
 70
     0
  9
$DIMTAD
 70
     0
  9
$DIMZIN
 70
     0
  9
$DIMBLK
  1

  9
$DIMASO
 70
     1
  9
$DIMSHO
 70
     1
  9
$DIMPOST
  1

  9
$DIMAPOST
  1

  9
$DIMALT
 70
     0
  9
$DIMALTD
 70
     2
  9
$DIMALTF
 40
25.4
  9
$DIMLFAC
 40
1.0
  9
$DIMTOFL
 70
     0
  9
$DIMTVP
 40
0.0
  9
$DIMTIX
 70
     0
  9
$DIMSOXD
 70
     0
  9
$DIMSAH
 70
     0
  9
$DIMBLK1
  1

  9
$DIMBLK2
  1

  9
$DIMSTYLE
  2
Standard
  9
$DIMCLRD
 70
     0
  9
$DIMCLRE
 70
     0
  9
$DIMCLRT
 70
     0
  9
$DIMTFAC
 40
1.0
  9
$DIMGAP
 40
0.09
  9
$DIMJUST
 70
     0
  9
$DIMSD1
 70
     0
  9
$DIMSD2
 70
     0
  9
$DIMTOLJ
 70
     1
  9
$DIMTZIN
 70
     0
  9
$DIMALTZ
 70
     0
  9
$DIMALTTZ
 70
     0
  9
$DIMUPT
 70
     0
  9
$DIMDEC
 70
     4
  9
$DIMTDEC
 70
     4
  9
$DIMALTU
 70
     2
  9
$DIMALTTD
 70
     2
  9
$DIMTXSTY
  7
Standard
  9
$DIMAUNIT
 70
     0
  9
$DIMADEC
 70
     0
  9
$DIMALTRND
 40
0.0
  9
$DIMAZIN
 70
     0
  9
$DIMDSEP
 70
     0
  9
$DIMATFIT
 70
     3
  9
$DIMFRAC
 70
     0
  9
$DIMLDRBLK
  1

  9
$DIMLUNIT
 70
     2
  9
$DIMLWD
 70
     0
  9
$DIMLWE
 70
     0
  9
$DIMTMOVE
 70
     0
  9
$LUNITS
 70
     2
  9
$LUPREC
 70
     4
  9
$SKETCHINC
 40
0.1
  9
$FILLETRAD
 40
0.0
  9
$AUNITS
 70
     0
  9
$AUPREC
 70
     0
  9
$MENU
  1
acad
  9
$ELEVATION
 40
0.0
  9
$PELEVATION
 40
0.0
  9
$THICKNESS
 40
0.0
  9
$LIMCHECK
 70
     0
  9
$CHAMFERA
 40
0.0
  9
$CHAMFERB
 40
0.0
  9
$CHAMFERC
 40
0.0
  9
$CHAMFERD
 40
0.0
  9
$SKPOLY
 70
     0
  9
$TDCREATE
 40
0.000000000
  9
$TDUCREATE
 40
0.000000000
  9
$TDUPDATE
 40
0.000000000
  9
$TDUUPDATE
 40
0.000000000
  9
$TDINDWG
 40
0.0000000000
  9
$TDUSRTIMER
 40
0.0000000000
  9
$USRTIMER
 70
     1
  9
$ANGBASE
 50
0.0
  9
$ANGDIR
 70
     0
  9
$PDMODE
 70
     0
  9
$PDSIZE
 40
0.0
  9
$PLINEWID
 40
0.0
  9
$SPLFRAME
 70
     0
  9
$SPLINETYPE
 70
     6
  9
$SPLINESEGS
 70
     8
  9
$HANDSEED
  5
5C
  9
$SURFTAB1
 70
     6
  9
$SURFTAB2
 70
     6
  9
$SURFTYPE
 70
     6
  9
$SURFU
 70
     6
  9
$SURFV
 70
     6
  9
$UCSBASE
  2

  9
$UCSNAME
  2

  9
$UCSORG
 10
0.0
 20
0.0
 30
0.0
  9
$UCSXDIR
 10
1.0
 20
0.0
 30
0.0
  9
$UCSYDIR
 10
0.0
 20
1.0
 30
0.0
  9
$UCSORTHOREF
  2

  9
$UCSORTHOVIEW
 70
     0
  9
$UCSORGTOP
 10
0.0
 20
0.0
 30
0.0
  9
$UCSORGBOTTOM
 10
0.0
 20
0.0
 30
0.0
  9
$UCSORGLEFT
 10
0.0
 20
0.0
 30
0.0
  9
$UCSORGRIGHT
 10
0.0
 20
0.0
 30
0.0
  9
$UCSORGFRONT
 10
0.0
 20
0.0
 30
0.0
  9
$UCSORGBACK
 10
0.0
 20
0.0
 30
0.0
  9
$PUCSBASE
  2

  9
$PUCSNAME
  2

  9
$PUCSORG
 10
0.0
 20
0.0
 30
0.0
  9
$PUCSXDIR
 10
1.0
 20
0.0
 30
0.0
  9
$PUCSYDIR
 10
0.0
 20
1.0
 30
0.0
  9
$PUCSORTHOREF
  2

  9
$PUCSORTHOVIEW
 70
     0
  9
$PUCSORGTOP
 10
0.0
 20
0.0
 30
0.0
  9
$PUCSORGBOTTOM
 10
0.0
 20
0.0
 30
0.0
  9
$PUCSORGLEFT
 10
0.0
 20
0.0
 30
0.0
  9
$PUCSORGRIGHT
 10
0.0
 20
0.0
 30
0.0
  9
$PUCSORGFRONT
 10
0.0
 20
0.0
 30
0.0
  9
$PUCSORGBACK
 10
0.0
 20
0.0
 30
0.0
  9
$USERI1
 70
     0
  9
$USERI2
 70
     0
  9
$USERI3
 70
     0
  9
$USERI4
 70
     0
  9
$USERI5
 70
     0
  9
$USERR1
 40
0.0
  9
$USERR2
 40
0.0
  9
$USERR3
 40
0.0
  9
$USERR4
 40
0.0
  9
$USERR5
 40
0.0
  9
$WORLDVIEW
 70
     1
  9
$SHADEDGE
 70
     3
  9
$SHADEDIF
 70
    70
  9
$TILEMODE
 70
     1
  9
$MAXACTVP
 70
    16
  9
$PINSBASE
 10
0.0
 20
0.0
 30
0.0
  9
$PLIMCHECK
 70
     0
  9
$PEXTMIN
 10
1.000000E+20
 20
1.000000E+20
 30
1.000000E+20
  9
$PEXTMAX
 10
-1.000000E+20
 20
-1.000000E+20
 30
-1.000000E+20
  9
$PLIMMIN
 10
0.0
 20
0.0
  9
$PLIMMAX
 10
12.0
 20
9.0
  9
$UNITMODE
 70
     0
  9
$VISRETAIN
 70
     0
  9
$PLINEGEN
 70
     1
  9
$PSLTSCALE
 70
     0
  9
$TREEDEPTH
 70
  3020
  9
$CMLSTYLE
  2
Standard
  9
$CMLJUST
 70
     0
  9
$CMLSCALE
 40
1.0
  9
$PROXYGRAPHICS
 70
     0
  9
$MEASUREMENT
 70
     0
  9
$CELWEIGHT
370
     0
  9
$ENDCAPS
280
     0
  9
$JOINSTYLE
280
     0
  9
$LWDISPLAY
290
     0
  9
$INSUNITS
 70
     5
  9
$HYPERLINKBASE
  1

  9
$XEDIT
290
     1
  9
$CEPSNTYPE
380
     0
  9
$PSTYLEMODE
290
     1
  9
$FINGERPRINTGUID
  2

  9
$VERSIONGUID
  2

  9
$EXTNAMES
290
     1
  9
$PSVPSCALE
 40
0.0
  0
ENDSEC
  0
SECTION
  2
CLASSES
  0
CLASS
  1
LWPOLYLINE
  2
AcDbPolyline
  3
AutoCAD 2000
 90
    32768
280
     0
281
     1
  0
CLASS
  1
IMAGE
  2
AcDbRasterImage
  3
ISM
 90
    32895
280
     0
281
     1
  0
CLASS
  1
OLE2FRAME
  2
AcDbOle2Frame
  3
AutoCAD 2000
 90
    32768
280
     0
281
     1
  0
CLASS
  1
HATCH
  2
AcDbHatch
  3
AutoCAD 2000
 90
    32768
280
     0
281
     1
  0
CLASS
  1
DICTIONARYVAR
  2
AcDbDictionaryVar
  3
AutoCAD 2000
 90
    32768
280
     0
281
     0
  0
CLASS
  1
RASTERVARIABLES
  2
AcDbRasterVariables
  3
ISM
 90
    32768
280
     0
281
     0
  0
CLASS
  1
IMAGEDEF
  2
AcDbRasterImageDef
  3
ISM
 90
    32768
280
     0
281
     0
  0
CLASS
  1
IMAGEDEF_REACTOR
  2
AcDbRasterImageDefReactor
  3
ISM
 90
    32769
280
     0
281
     0
  0
CLASS
  1
IDBUFFER
  2
AcDbIdBuffer
  3
AutoCAD 2000
 90
    32768
280
     0
281
     0
  0
CLASS
  1
SPATIAL_FILTER
  2
AcDbSpatialFilter
  3
AutoCAD 2000
 90
    32768
280
     0
281
     0
  0
CLASS
  1
XRECORD
  2
AcDbXrecord
  3
AutoCAD 2000
 90
    32768
280
     0
281
     0
  0
CLASS
  1
SORTENTSTABLE
  2
AcDbSortentsTable
  3
AutoCAD 2000
 90
    32768
280
     0
281
     0
  0
CLASS
  1
LAYER_INDEX
  2
AcDbLayerIndex
  3
AutoCAD 2000
 90
    32768
280
     0
281
     0
  0
CLASS
  1
SPATIAL_INDEX
  2
AcDbSpatialIndex
  3
AutoCAD 2000
 90
    32768
280
     0
281
     0
  0
CLASS
  1
OBJECT_PTR
  2
CAseDLPNTableRecord
  3
"ASE-LPNTableRecord"
 90
    32769
280
     0
281
     0
  0
CLASS
  1
LAYOUT
  2
AcDbLayout
  3
AutoCAD 2000
 90
        0
280
     0
281
     0
  0
CLASS
  1
PLOTSETTINGS
  2
AcDbPlotSettings
  3
AutoCAD 2000
 90
    32768
280
     0
281
     0
  0
CLASS
  1
ACDBDICTIONARYWDFLT
  2
AcDbDictionaryWithDefault
  3
AutoCAD 2000
 90
        0
280
     0
281
     0
  0
CLASS
  1
ACDBPLACEHOLDER
  2
AcDbPlaceHolder
  3
AutoCAD 2000
 90
        0
280
     0
281
     0
  0
CLASS
  1
VBA_PROJECT
  2
AcDbVbaProject
  3
acadvba
 90
    32768
280
     0
281
     0
  0
CLASS
  1
WIPEOUT
  2
AcDbWipeout
  3
WipeOut|AutoCAD Express Tool|expresstools@autodesk.com
 90
    32895
280
     0
281
     1
  0
CLASS
  1
WIPEOUTVARIABLES
  2
AcDbWipeoutVariables
  3
WipeOut|AutoCAD Express Tool|expresstools@autodesk.com
 90
        0
280
     0
281
     0
  0
CLASS
  1
RTEXT
  2
RText
  3
RText|AutoCAD Express Tool|expresstools@autodesk.com
 90
    32768
280
     0
281
     1
  0
CLASS
  1
ARCALIGNEDTEXT
  2
AcDbArcAlignedText
  3
ATEXT|AutoCAD Express Tool|expresstools@autodesk.com
 90
    32768
280
     0
281
     1
  0
ENDSEC
  0
SECTION
  2
TABLES
  0
TABLE
  2
VPORT
  5
7
100
AcDbSymbolTable
 70
     1
  0
VPORT
  5
15
100
AcDbSymbolTableRecord
100
AcDbViewportTableRecord
  2
*ACTIVE
 70
     0
 10
0.0
 20
0.0
 11
1.0
 21
1.0
 12
6.591288
 22
4.579184
 13
0.0
 23
0.0
 14
1.0
 24
1.0
 15
0.0
 25
0.0
 16
0.0
 26
0.0
 36
1.0
 17
0.0
 27
0.0
 37
0.0
 40
9.158369
 41
0.688564
 42
50.0
 43
0.0
 44
0.0
 50
0.0
 51
0.0
 71
     0
 72
   100
 73
     1
 74
     1
 75
     0
 76
     0
 77
     0
 78
     0
281
     0
 65
     0
110
0.0
120
0.0
130
0.0
111
1.0
121
0.0
131
0.0
112
0.0
122
1.0
132
0.0
345
0
346
0
 79
     0
146
0.0
  0
ENDTAB
  0
TABLE
  2
LTYPE
  5
4
100
AcDbSymbolTable
 70
     3
  0
LTYPE
  5
11
100
AcDbSymbolTableRecord
100
AcDbLinetypeTableRecord
  2
ByBlock
 70
    64
  3

 72
    65
 73
     0
 40
0.0
  0
LTYPE
  5
12
100
AcDbSymbolTableRecord
100
AcDbLinetypeTableRecord
  2
ByLayer
 70
    64
  3

 72
    65
 73
     0
 40
0.0
  0
LTYPE
  5
13
100
AcDbSymbolTableRecord
100
AcDbLinetypeTableRecord
  2
Continuous
 70
    64
  3
Solid line
 72
    65
 73
     0
 40
0.0
  0
ENDTAB
  0
TABLE
  2
LAYER
  5
2
100
AcDbSymbolTable
 70
     2
  0
LAYER
  5
14
100
AcDbSymbolTableRecord
100
AcDbLayerTableRecord
  2
0
 70
     0
 62
     7
  6
Continuous
290
     1
370
    -3
390
1D
  0
LAYER
  5
24
100
AcDbSymbolTableRecord
100
AcDbLayerTableRecord
  2
Ebene 1
 70
     0
 62
     7
  6
Continuous
290
     1
370
    -3
390
1F
  0
ENDTAB
  0
TABLE
  2
STYLE
  5
3
100
AcDbSymbolTable
 70
     1
  0
STYLE
  5
17
100
AcDbSymbolTableRecord
100
AcDbTextStyleTableRecord
  2
Standard
 70
     0
 40
0.0
 41
1.0
 50
0.0
 71
     0
 42
0.0
  3
txt
  4

  0
ENDTAB
  0
TABLE
  2
VIEW
  5
5
100
AcDbSymbolTable
 70
     0
  0
ENDTAB
  0
TABLE
  2
UCS
  5
6
100
AcDbSymbolTable
 70
     0
  0
ENDTAB
  0
TABLE
  2
APPID
  5
8
100
AcDbSymbolTable
 70
     1
  0
APPID
  5
16
100
AcDbSymbolTableRecord
100
AcDbRegAppTableRecord
  2
ACAD
 70
     0
  0
ENDTAB
  0
TABLE
  2
DIMSTYLE
  5
9
100
AcDbSymbolTable
 70
     1
100
AcDbDimStyleTable
 71
     0
  0
DIMSTYLE
105
18
100
AcDbSymbolTableRecord
100
AcDbDimStyleTableRecord
  2
Standard
 70
     0
  3

  4

 40
1.0
 41
0.18
 42
0.0625
 43
0.38
 44
0.18
 45
0.0
 46
0.0
 47
0.0
 48
0.0
 71
     0
 72
     0
 73
     1
 74
     1
 75
     0
 76
     0
 77
     0
 78
     0
 79
     0
140
0.18
141
0.09
142
0.0
143
25.4
144
1.0
145
0.0
146
1.0
147
0.09
148
0.0
170
     0
171
     2
172
     0
173
     0
174
     0
175
     0
176
     0
177
     0
178
     0
179
     0
271
     4
272
     4
273
     2
274
     2
275
     0
276
     0
277
     2
278
    46
279
     0
280
     0
281
     0
282
     0
283
     1
284
     0
285
     0
286
     0
288
     0
340
17
341
0
342
0
343
0
344
0
371
    -2
372
    -2
  0
ENDTAB
  0
TABLE
  2
BLOCK_RECORD
  5
1
100
AcDbSymbolTable
 70
     0
  0
BLOCK_RECORD
  5
A
100
AcDbSymbolTableRecord
100
AcDbBlockTableRecord
  2
*MODEL_SPACE
340
20
  0
BLOCK_RECORD
  5
B
100
AcDbSymbolTableRecord
100
AcDbBlockTableRecord
  2
*PAPER_SPACE
340
21
  0
ENDTAB
  0
ENDSEC
  0
SECTION
  2
BLOCKS
  0
BLOCK
  5
D
100
AcDbEntity
  8
0
100
AcDbBlockBegin
  2
*MODEL_SPACE
 70
     0
 10
0.0
 20
0.0
 30
0.0
  3
*MODEL_SPACE
  1

  0
ENDBLK
  5
E
100
AcDbEntity
  8
0
100
AcDbBlockEnd
  0
BLOCK
  5
F
100
AcDbEntity
 67
     1
  8
0
100
AcDbBlockBegin
  2
*PAPER_SPACE
 70
     0
 10
0.0
 20
0.0
 30
0.0
  3
*PAPER_SPACE
  1

  0
ENDBLK
  5
10
100
AcDbEntity
 67
     1
  8
0
100
AcDbBlockEnd
  0
ENDSEC
  0
SECTION
  2
ENTITIES
  0
SPLINE
  5
25
100
AcDbEntity
  8
Ebene 1
100
AcDbSpline
210
0.0
220
0.0
230
1.0
 70
     1
 71
     3
 72
   316
 73
   312
 74
     0
 42
0.0000000001
 43
0.0000000001
 40
0.0
 40
0.0
 40
0.0
 40
0.0
 40
0.0128205128205128
 40
0.0128205128205128
 40
0.0128205128205128
 40
0.0128205128205128
 40
0.0256410256410256
 40
0.0256410256410256
 40
0.0256410256410256
 40
0.0256410256410256
 40
0.0384615384615385
 40
0.0384615384615385
 40
0.0384615384615385
 40
0.0384615384615385
 40
0.0512820512820513
 40
0.0512820512820513
 40
0.0512820512820513
 40
0.0512820512820513
 40
0.0641025641025641
 40
0.0641025641025641
 40
0.0641025641025641
 40
0.0641025641025641
 40
0.0769230769230769
 40
0.0769230769230769
 40
0.0769230769230769
 40
0.0769230769230769
 40
0.0897435897435897
 40
0.0897435897435897
 40
0.0897435897435897
 40
0.0897435897435897
 40
0.1025641025641026
 40
0.1025641025641026
 40
0.1025641025641026
 40
0.1025641025641026
 40
0.1153846153846154
 40
0.1153846153846154
 40
0.1153846153846154
 40
0.1153846153846154
 40
0.1282051282051282
 40
0.1282051282051282
 40
0.1282051282051282
 40
0.1282051282051282
 40
0.141025641025641
 40
0.141025641025641
 40
0.141025641025641
 40
0.141025641025641
 40
0.1538461538461539
 40
0.1538461538461539
 40
0.1538461538461539
 40
0.1538461538461539
 40
0.1666666666666667
 40
0.1666666666666667
 40
0.1666666666666667
 40
0.1666666666666667
 40
0.1794871794871795
 40
0.1794871794871795
 40
0.1794871794871795
 40
0.1794871794871795
 40
0.1923076923076924
 40
0.1923076923076924
 40
0.1923076923076924
 40
0.1923076923076924
 40
0.2051282051282052
 40
0.2051282051282052
 40
0.2051282051282052
 40
0.2051282051282052
 40
0.217948717948718
 40
0.217948717948718
 40
0.217948717948718
 40
0.217948717948718
 40
0.2307692307692308
 40
0.2307692307692308
 40
0.2307692307692308
 40
0.2307692307692308
 40
0.2435897435897437
 40
0.2435897435897437
 40
0.2435897435897437
 40
0.2435897435897437
 40
0.2564102564102565
 40
0.2564102564102565
 40
0.2564102564102565
 40
0.2564102564102565
 40
0.2692307692307693
 40
0.2692307692307693
 40
0.2692307692307693
 40
0.2692307692307693
 40
0.2820512820512822
 40
0.2820512820512822
 40
0.2820512820512822
 40
0.2820512820512822
 40
0.294871794871795
 40
0.294871794871795
 40
0.294871794871795
 40
0.294871794871795
 40
0.3076923076923078
 40
0.3076923076923078
 40
0.3076923076923078
 40
0.3076923076923078
 40
0.3205128205128207
 40
0.3205128205128207
 40
0.3205128205128207
 40
0.3205128205128207
 40
0.3333333333333335
 40
0.3333333333333335
 40
0.3333333333333335
 40
0.3333333333333335
 40
0.3461538461538463
 40
0.3461538461538463
 40
0.3461538461538463
 40
0.3461538461538463
 40
0.3589743589743591
 40
0.3589743589743591
 40
0.3589743589743591
 40
0.3589743589743591
 40
0.371794871794872
 40
0.371794871794872
 40
0.371794871794872
 40
0.371794871794872
 40
0.3846153846153848
 40
0.3846153846153848
 40
0.3846153846153848
 40
0.3846153846153848
 40
0.3974358974358976
 40
0.3974358974358976
 40
0.3974358974358976
 40
0.3974358974358976
 40
0.4102564102564105
 40
0.4102564102564105
 40
0.4102564102564105
 40
0.4102564102564105
 40
0.4230769230769233
 40
0.4230769230769233
 40
0.4230769230769233
 40
0.4230769230769233
 40
0.4358974358974361
 40
0.4358974358974361
 40
0.4358974358974361
 40
0.4358974358974361
 40
0.448717948717949
 40
0.448717948717949
 40
0.448717948717949
 40
0.448717948717949
 40
0.4615384615384618
 40
0.4615384615384618
 40
0.4615384615384618
 40
0.4615384615384618
 40
0.4743589743589746
 40
0.4743589743589746
 40
0.4743589743589746
 40
0.4743589743589746
 40
0.4871794871794875
 40
0.4871794871794875
 40
0.4871794871794875
 40
0.4871794871794875
 40
0.5000000000000002
 40
0.5000000000000002
 40
0.5000000000000002
 40
0.5000000000000002
 40
0.512820512820513
 40
0.512820512820513
 40
0.512820512820513
 40
0.512820512820513
 40
0.5256410256410258
 40
0.5256410256410258
 40
0.5256410256410258
 40
0.5256410256410258
 40
0.5384615384615386
 40
0.5384615384615386
 40
0.5384615384615386
 40
0.5384615384615386
 40
0.5512820512820513
 40
0.5512820512820513
 40
0.5512820512820513
 40
0.5512820512820513
 40
0.5641025641025641
 40
0.5641025641025641
 40
0.5641025641025641
 40
0.5641025641025641
 40
0.5769230769230769
 40
0.5769230769230769
 40
0.5769230769230769
 40
0.5769230769230769
 40
0.5897435897435897
 40
0.5897435897435897
 40
0.5897435897435897
 40
0.5897435897435897
 40
0.6025641025641024
 40
0.6025641025641024
 40
0.6025641025641024
 40
0.6025641025641024
 40
0.6153846153846152
 40
0.6153846153846152
 40
0.6153846153846152
 40
0.6153846153846152
 40
0.628205128205128
 40
0.628205128205128
 40
0.628205128205128
 40
0.628205128205128
 40
0.6410256410256408
 40
0.6410256410256408
 40
0.6410256410256408
 40
0.6410256410256408
 40
0.6538461538461535
 40
0.6538461538461535
 40
0.6538461538461535
 40
0.6538461538461535
 40
0.6666666666666663
 40
0.6666666666666663
 40
0.6666666666666663
 40
0.6666666666666663
 40
0.6794871794871791
 40
0.6794871794871791
 40
0.6794871794871791
 40
0.6794871794871791
 40
0.6923076923076919
 40
0.6923076923076919
 40
0.6923076923076919
 40
0.6923076923076919
 40
0.7051282051282046
 40
0.7051282051282046
 40
0.7051282051282046
 40
0.7051282051282046
 40
0.7179487179487174
 40
0.7179487179487174
 40
0.7179487179487174
 40
0.7179487179487174
 40
0.7307692307692302
 40
0.7307692307692302
 40
0.7307692307692302
 40
0.7307692307692302
 40
0.743589743589743
 40
0.743589743589743
 40
0.743589743589743
 40
0.743589743589743
 40
0.7564102564102557
 40
0.7564102564102557
 40
0.7564102564102557
 40
0.7564102564102557
 40
0.7692307692307685
 40
0.7692307692307685
 40
0.7692307692307685
 40
0.7692307692307685
 40
0.7820512820512813
 40
0.7820512820512813
 40
0.7820512820512813
 40
0.7820512820512813
 40
0.7948717948717941
 40
0.7948717948717941
 40
0.7948717948717941
 40
0.7948717948717941
 40
0.8076923076923068
 40
0.8076923076923068
 40
0.8076923076923068
 40
0.8076923076923068
 40
0.8205128205128196
 40
0.8205128205128196
 40
0.8205128205128196
 40
0.8205128205128196
 40
0.8333333333333324
 40
0.8333333333333324
 40
0.8333333333333324
 40
0.8333333333333324
 40
0.8461538461538452
 40
0.8461538461538452
 40
0.8461538461538452
 40
0.8461538461538452
 40
0.8589743589743579
 40
0.8589743589743579
 40
0.8589743589743579
 40
0.8589743589743579
 40
0.8717948717948707
 40
0.8717948717948707
 40
0.8717948717948707
 40
0.8717948717948707
 40
0.8846153846153835
 40
0.8846153846153835
 40
0.8846153846153835
 40
0.8846153846153835
 40
0.8974358974358963
 40
0.8974358974358963
 40
0.8974358974358963
 40
0.8974358974358963
 40
0.910256410256409
 40
0.910256410256409
 40
0.910256410256409
 40
0.910256410256409
 40
0.9230769230769218
 40
0.9230769230769218
 40
0.9230769230769218
 40
0.9230769230769218
 40
0.9358974358974346
 40
0.9358974358974346
 40
0.9358974358974346
 40
0.9358974358974346
 40
0.9487179487179474
 40
0.9487179487179474
 40
0.9487179487179474
 40
0.9487179487179474
 40
0.9615384615384601
 40
0.9615384615384601
 40
0.9615384615384601
 40
0.9615384615384601
 40
0.9743589743589729
 40
0.9743589743589729
 40
0.9743589743589729
 40
0.9743589743589729
 40
0.9871794871794857
 40
0.9871794871794857
 40
0.9871794871794857
 40
0.9871794871794857
 40
1.0
 40
1.0
 40
1.0
 40
1.0
 10
5.1411000000000007
 20
0.7080900000000001
 30
0.0
 10
5.1411000000000007
 20
0.7080900000000001
 30
0.0
 10
5.1233200000000005
 20
0.6903100000000001
 30
0.0
 10
5.1233200000000005
 20
0.6903100000000001
 30
0.0
 10
5.1233200000000005
 20
0.6903100000000001
 30
0.0
 10
5.0877600000000003
 20
0.6903100000000001
 30
0.0
 10
5.1233200000000005
 20
0.6547500000000001
 30
0.0
 10
5.1233200000000005
 20
0.6903100000000001
 30
0.0
 10
5.1233200000000005
 20
0.6903100000000001
 30
0.0
 10
5.1233200000000005
 20
0.6903100000000001
 30
0.0
 10
5.1411000000000007
 20
0.7080900000000001
 30
0.0
 10
5.1411000000000007
 20
0.7080900000000001
 30
0.0
 10
5.1411000000000007
 20
0.7080900000000001
 30
0.0
 10
5.1969800000000008
 20
0.7614300000000001
 30
0.0
 10
5.2655600000000007
 20
0.8173100000000001
 30
0.0
 10
5.3570000000000002
 20
0.8173100000000001
 30
0.0
 10
5.3570000000000002
 20
0.8173100000000001
 30
0.0
 10
5.3036600000000007
 20
0.43885
 30
0.0
 10
5.0522
 20
0.09849
 30
0.0
 10
4.76518
 20
-0.15042
 30
0.0
 10
4.76518
 20
-0.15042
 30
0.0
 10
4.9074200000000001
 20
-0.20376
 30
0.0
 10
5.0344200000000008
 20
0.00959
 30
0.0
 10
5.17666
 20
-0.05898
 30
0.0
 10
5.17666
 20
-0.05898
 30
0.0
 10
5.1055400000000004
 20
-0.32822
 30
0.0
 10
4.9074200000000001
 20
-0.6508000000000001
 30
0.0
 10
4.6762800000000002
 20
-0.8133600000000001
 30
0.0
 10
4.6762800000000002
 20
-0.8133600000000001
 30
0.0
 10
4.8007400000000002
 20
-0.8667
 30
0.0
 10
4.9429800000000004
 20
-0.7397
 30
0.0
 10
5.0699800000000002
 20
-0.72192
 30
0.0
 10
5.0699800000000002
 20
-0.72192
 30
0.0
 10
5.0166400000000007
 20
-1.0267200000000001
 30
0.0
 10
4.8540800000000006
 20
-1.3137400000000001
 30
0.0
 10
4.6026199999999999
 20
-1.5118600000000002
 30
0.0
 10
4.6026199999999999
 20
-1.5118600000000002
 30
0.0
 10
4.7118400000000005
 20
-1.54742
 30
0.0
 10
4.8363000000000005
 20
-1.33152
 30
0.0
 10
4.9633000000000003
 20
-1.4026400000000001
 30
0.0
 10
4.9633000000000003
 20
-1.4026400000000001
 30
0.0
 10
4.8744000000000005
 20
-1.67188
 30
0.0
 10
4.7829600000000001
 20
-1.9589000000000001
 30
0.0
 10
4.5670600000000006
 20
-2.1570200000000002
 30
0.0
 10
4.5670600000000006
 20
-2.1570200000000002
 30
0.0
 10
4.9074200000000001
 20
-2.3703800000000004
 30
0.0
 10
4.1022400000000001
 20
-2.7310600000000003
 30
0.0
 10
3.8152200000000005
 20
-2.7488400000000004
 30
0.0
 10
3.8152200000000005
 20
-2.7488400000000004
 30
0.0
 10
3.8685600000000004
 20
-2.8733000000000004
 30
0.0
 10
4.08446
 20
-2.7844000000000002
 30
0.0
 10
4.1733600000000006
 20
-2.8377400000000002
 30
0.0
 10
4.1733600000000006
 20
-2.8377400000000002
 30
0.0
 10
3.9396800000000005
 20
-3.1069800000000001
 30
0.0
 10
3.5104200000000003
 20
-3.3203400000000003
 30
0.0
 10
3.1522800000000002
 20
-3.1958800000000003
 30
0.0
 10
3.1522800000000002
 20
-3.1958800000000003
 30
0.0
 10
3.7263200000000003
 20
-3.4829000000000003
 30
0.0
 10
2.9541600000000003
 20
-3.6784800000000004
 30
0.0
 10
2.5960200000000002
 20
-3.5718000000000001
 30
0.0
 10
2.5960200000000002
 20
-3.5718000000000001
 30
0.0
 10
2.2556600000000002
 20
-3.4295600000000004
 30
0.0
 10
2.2556600000000002
 20
-2.9799800000000003
 30
0.0
 10
2.1489800000000003
 20
-2.7107400000000004
 30
0.0
 10
2.1489800000000003
 20
-2.7107400000000004
 30
0.0
 10
1.9686400000000002
 20
-3.1603200000000005
 30
0.0
 10
2.16676
 20
-3.6607000000000003
 30
0.0
 10
1.8797400000000002
 20
-4.05694
 30
0.0
 10
1.8797400000000002
 20
-4.05694
 30
0.0
 10
1.5749400000000002
 20
-4.0036000000000005
 30
0.0
 10
1.1990200000000002
 20
-4.05694
 30
0.0
 10
0.9831200000000001
 20
-4.30586
 30
0.0
 10
0.9831200000000001
 20
-4.30586
 30
0.0
 10
0.8561200000000001
 20
-4.5776400000000006
 30
0.0
 10
1.23458
 20
-5.2558200000000008
 30
0.0
 10
0.8408800000000001
 20
-5.1669200000000002
 30
0.0
 10
0.8408800000000001
 20
-5.1669200000000002
 30
0.0
 10
0.9475600000000001
 20
-5.5453800000000006
 30
0.0
 10
0.6072000000000001
 20
-5.4895000000000005
 30
0.0
 10
0.53354
 20
-5.2380400000000007
 30
0.0
 10
0.53354
 20
-5.2380400000000007
 30
0.0
 10
0.53354
 20
-5.2380400000000007
 30
0.0
 10
0.42686
 20
-5.2736000000000001
 30
0.0
 10
0.42686
 20
-5.2736000000000001
 30
0.0
 10
0.42686
 20
-5.2736000000000001
 30
0.0
 10
0.5894200000000001
 20
-5.5784000000000002
 30
0.0
 10
-0.07097
 20
-5.6876200000000008
 30
0.0
 10
0.00014
 20
-5.3472600000000003
 30
0.0
 10
0.00014
 20
-5.3472600000000003
 30
0.0
 10
0.00014
 20
-5.3472600000000003
 30
0.0
 10
-0.12431
 20
-5.2939200000000008
 30
0.0
 10
-0.12431
 20
-5.2939200000000008
 30
0.0
 10
-0.12431
 20
-5.2939200000000008
 30
0.0
 10
-0.34021
 20
-5.2736000000000001
 30
0.0
 10
-0.19797
 20
-5.5250600000000007
 30
0.0
 10
-0.25131
 20
-5.6342800000000004
 30
0.0
 10
-0.25131
 20
-5.6342800000000004
 30
0.0
 10
-0.59167
 20
-5.7409600000000003
 30
0.0
 10
-0.46467
 20
-4.9332400000000005
 30
0.0
 10
-0.7288300000000001
 20
-5.2939200000000008
 30
0.0
 10
-0.7288300000000001
 20
-5.2939200000000008
 30
0.0
 10
-0.7288300000000001
 20
-5.2939200000000008
 30
0.0
 10
-0.8558300000000001
 20
-5.1847000000000003
 30
0.0
 10
-0.8558300000000001
 20
-5.1847000000000003
 30
0.0
 10
-0.8558300000000001
 20
-5.1847000000000003
 30
0.0
 10
-0.9244100000000001
 20
-4.8443400000000008
 30
0.0
 10
-0.6450100000000001
 20
-4.5573200000000007
 30
0.0
 10
-0.84567
 20
-4.2347400000000004
 30
0.0
 10
-0.84567
 20
-4.2347400000000004
 30
0.0
 10
-1.1885700000000001
 20
-4.0798000000000005
 30
0.0
 10
-1.29779
 20
-4.1763200000000005
 30
0.0
 10
-1.5340100000000001
 20
-4.2068000000000003
 30
0.0
 10
-1.5340100000000001
 20
-4.2068000000000003
 30
0.0
 10
-1.9962900000000001
 20
-4.26776
 30
0.0
 10
-1.7321300000000002
 20
-3.5718000000000001
 30
0.0
 10
-2.02677
 20
-2.8910800000000001
 30
0.0
 10
-2.02677
 20
-2.8910800000000001
 30
0.0
 10
-1.9937500000000001
 20
-3.3381200000000004
 30
0.0
 10
-2.5169900000000003
 20
-3.6607000000000003
 30
0.0
 10
-2.9335500000000003
 20
-3.6251400000000005
 30
0.0
 10
-2.9335500000000003
 20
-3.6251400000000005
 30
0.0
 10
-2.8675100000000002
 20
-3.3762200000000004
 30
0.0
 10
-2.6262100000000004
 20
-3.1603200000000005
 30
0.0
 10
-2.5830300000000004
 20
-2.8910800000000001
 30
0.0
 10
-2.5830300000000004
 20
-2.8910800000000001
 30
0.0
 10
-2.6820900000000001
 20
-3.0714200000000003
 30
0.0
 10
-2.7684500000000001
 20
-3.3203400000000003
 30
0.0
 10
-2.9945100000000004
 20
-3.3762200000000004
 30
0.0
 10
-2.9945100000000004
 20
-3.3762200000000004
 30
0.0
 10
-3.1697700000000002
 20
-3.4473400000000001
 30
0.0
 10
-3.3450300000000004
 20
-3.4651200000000002
 30
0.0
 10
-3.5431500000000002
 20
-3.4473400000000001
 30
0.0
 10
-3.5431500000000002
 20
-3.4473400000000001
 30
0.0
 10
-3.5431500000000002
 20
-3.4473400000000001
 30
0.0
 10
-3.2789900000000003
 20
-3.0714200000000003
 30
0.0
 10
-3.2789900000000003
 20
-3.0714200000000003
 30
0.0
 10
-3.2789900000000003
 20
-3.0714200000000003
 30
0.0
 10
-3.2789900000000003
 20
-3.0714200000000003
 30
0.0
 10
-3.2612100000000002
 20
-3.0536400000000001
 30
0.0
 10
-3.2612100000000002
 20
-3.0536400000000001
 30
0.0
 10
-3.2612100000000002
 20
-3.0536400000000001
 30
0.0
 10
-3.2612100000000002
 20
-3.0536400000000001
 30
0.0
 10
-3.2434300000000005
 20
-3.0333200000000002
 30
0.0
 10
-3.2434300000000005
 20
-3.0333200000000002
 30
0.0
 10
-3.2434300000000005
 20
-3.0333200000000002
 30
0.0
 10
-3.2205700000000004
 20
-3.0333200000000002
 30
0.0
 10
-3.2027900000000002
 20
-2.9977600000000004
 30
0.0
 10
-3.2078700000000002
 20
-2.9799800000000003
 30
0.0
 10
-3.2078700000000002
 20
-2.9799800000000003
 30
0.0
 10
-3.2078700000000002
 20
-2.9799800000000003
 30
0.0
 10
-3.1900900000000001
 20
-2.9647400000000004
 30
0.0
 10
-3.1900900000000001
 20
-2.9647400000000004
 30
0.0
 10
-3.1900900000000001
 20
-2.9647400000000004
 30
0.0
 10
-3.15707
 20
-2.9647400000000004
 30
0.0
 10
-3.1926300000000003
 20
-2.9266400000000004
 30
0.0
 10
-3.1900900000000001
 20
-2.9647400000000004
 30
0.0
 10
-3.1900900000000001
 20
-2.9647400000000004
 30
0.0
 10
-3.1900900000000001
 20
-2.9647400000000004
 30
0.0
 10
-3.2078700000000002
 20
-2.9799800000000003
 30
0.0
 10
-3.2078700000000002
 20
-2.9799800000000003
 30
0.0
 10
-3.2078700000000002
 20
-2.9799800000000003
 30
0.0
 10
-3.2307300000000003
 20
-2.9799800000000003
 30
0.0
 10
-3.2485100000000005
 20
-3.0155400000000001
 30
0.0
 10
-3.2434300000000005
 20
-3.0333200000000002
 30
0.0
 10
-3.2434300000000005
 20
-3.0333200000000002
 30
0.0
 10
-3.2434300000000005
 20
-3.0333200000000002
 30
0.0
 10
-3.2612100000000002
 20
-3.0536400000000001
 30
0.0
 10
-3.2612100000000002
 20
-3.0536400000000001
 30
0.0
 10
-3.2612100000000002
 20
-3.0536400000000001
 30
0.0
 10
-3.2612100000000002
 20
-3.0536400000000001
 30
0.0
 10
-3.2789900000000003
 20
-3.0714200000000003
 30
0.0
 10
-3.2789900000000003
 20
-3.0714200000000003
 30
0.0
 10
-3.2789900000000003
 20
-3.0714200000000003
 30
0.0
 10
-3.5177500000000004
 20
-3.2873200000000002
 30
0.0
 10
-3.9800300000000002
 20
-3.1781000000000001
 30
0.0
 10
-4.19339
 20
-3.0333200000000002
 30
0.0
 10
-4.19339
 20
-3.0333200000000002
 30
0.0
 10
-3.8962100000000004
 20
-2.9799800000000003
 30
0.0
 10
-3.6625300000000003
 20
-2.7666200000000001
 30
0.0
 10
-3.4618700000000002
 20
-2.5329400000000004
 30
0.0
 10
-3.4618700000000002
 20
-2.5329400000000004
 30
0.0
 10
-3.7209500000000002
 20
-2.8555200000000003
 30
0.0
 10
-4.2848300000000004
 20
-2.81996
 30
0.0
 10
-4.5642300000000002
 20
-2.4440400000000002
 30
0.0
 10
-4.5642300000000002
 20
-2.4440400000000002
 30
0.0
 10
-4.2848300000000004
 20
-2.4262600000000001
 30
0.0
 10
-3.9901900000000001
 20
-2.3348200000000001
 30
0.0
 10
-3.7666700000000004
 20
-2.1570200000000002
 30
0.0
 10
-3.7666700000000004
 20
-2.1570200000000002
 30
0.0
 10
-4.1959300000000006
 20
-2.6929600000000002
 30
0.0
 10
-5.0722300000000002
 20
-1.42042
 30
0.0
 10
-4.52867
 20
-1.6541000000000001
 30
0.0
 10
-4.52867
 20
-1.6541000000000001
 30
0.0
 10
-4.4550100000000006
 20
-1.6541000000000001
 30
0.0
 10
-4.3483300000000007
 20
-1.7074400000000001
 30
0.0
 10
-4.2848300000000004
 20
-1.6541000000000001
 30
0.0
 10
-4.2848300000000004
 20
-1.6541000000000001
 30
0.0
 10
-4.5743900000000002
 20
-1.4763000000000002
 30
0.0
 10
-4.9528500000000006
 20
-0.9733800000000001
 30
0.0
 10
-4.4473900000000004
 20
-1.20706
 30
0.0
 10
-4.4473900000000004
 20
-1.20706
 30
0.0
 10
-4.6836100000000007
 20
-0.9556000000000001
 30
0.0
 10
-4.9477700000000002
 20
-0.6508000000000001
 30
0.0
 10
-4.4296100000000003
 20
-0.75748
 30
0.0
 10
-4.4296100000000003
 20
-0.75748
 30
0.0
 10
-4.8461700000000008
 20
-0.6863600000000001
 30
0.0
 10
-4.9985700000000008
 20
-0.18598
 30
0.0
 10
-5.1027100000000001
 20
0.17215
 30
0.0
 10
-5.1027100000000001
 20
0.17215
 30
0.0
 10
-4.9553900000000004
 20
0.08071
 30
0.0
 10
-4.7801300000000007
 20
-0.05898
 30
0.0
 10
-4.6099500000000004
 20
-0.02342
 30
0.0
 10
-4.6099500000000004
 20
-0.02342
 30
0.0
 10
-4.6099500000000004
 20
-0.02342
 30
0.0
 10
-4.7979100000000008
 20
0.04515
 30
0.0
 10
-4.7979100000000008
 20
0.04515
 30
0.0
 10
-4.7979100000000008
 20
0.04515
 30
0.0
 10
-4.7979100000000008
 20
0.04515
 30
0.0
 10
-4.8741100000000008
 20
0.09849
 30
0.0
 10
-4.8741100000000008
 20
0.09849
 30
0.0
 10
-4.8741100000000008
 20
0.09849
 30
0.0
 10
-5.2830500000000002
 20
0.61919
 30
0.0
 10
-5.4227500000000006
 20
1.3532500000000001
 30
0.0
 10
-5.4786300000000008
 20
2.0187300000000001
 30
0.0
 10
-5.4786300000000008
 20
2.0187300000000001
 30
0.0
 10
-5.3541700000000008
 20
2.0187300000000001
 30
0.0
 10
-5.2525700000000004
 20
1.6402700000000001
 30
0.0
 10
-5.1966900000000003
 20
1.7291700000000001
 30
0.0
 10
-5.1966900000000003
 20
1.7291700000000001
 30
0.0
 10
-5.3516300000000001
 20
2.2854300000000003
 30
0.0
 10
-5.3567100000000005
 20
2.93059
 30
0.0
 10
-5.2525700000000004
 20
3.4868500000000004
 30
0.0
 10
-5.2525700000000004
 20
3.4868500000000004
 30
0.0
 10
-5.1230300000000009
 20
3.4868500000000004
 30
0.0
 10
-5.2144700000000004
 20
3.1820500000000003
 30
0.0
 10
-5.0900100000000004
 20
3.1998300000000004
 30
0.0
 10
-5.0900100000000004
 20
3.1998300000000004
 30
0.0
 10
-5.0671500000000007
 20
3.8094300000000003
 30
0.0
 10
-4.9096700000000002
 20
4.50793
 30
0.0
 10
-4.5337500000000004
 20
4.9219500000000007
 30
0.0
 10
-4.5337500000000004
 20
4.9219500000000007
 30
0.0
 10
-4.5337500000000004
 20
4.9219500000000007
 30
0.0
 10
-4.5515300000000005
 20
4.1497900000000003
 30
0.0
 10
-4.5515300000000005
 20
4.1497900000000003
 30
0.0
 10
-4.5515300000000005
 20
4.1497900000000003
 30
0.0
 10
-4.5845500000000001
 20
3.8449900000000001
 30
0.0
 10
-4.4753300000000005
 20
3.6646500000000004
 30
0.0
 10
-4.48041
 20
4.0608900000000006
 30
0.0
 10
-4.48041
 20
4.0608900000000006
 30
0.0
 10
-4.3280099999999999
 20
4.5257100000000001
 30
0.0
 10
-4.0841700000000003
 20
5.0641900000000009
 30
0.0
 10
-3.6955500000000003
 20
5.35121
 30
0.0
 10
-3.6955500000000003
 20
5.35121
 30
0.0
 10
-4.4067500000000006
 20
3.5935300000000003
 30
0.0
 10
-3.6574500000000003
 20
1.7291700000000001
 30
0.0
 10
-2.5271500000000002
 20
0.38551
 30
0.0
 10
-2.5271500000000002
 20
0.38551
 30
0.0
 10
-2.57287
 20
0.02737
 30
0.0
 10
-2.9792700000000001
 20
-0.2571
 30
0.0
 10
-2.8141700000000003
 20
-0.6508000000000001
 30
0.0
 10
-2.8141700000000003
 20
-0.6508000000000001
 30
0.0
 10
-2.7278100000000003
 20
-0.9022600000000001
 30
0.0
 10
-2.5931900000000003
 20
-1.11816
 30
0.0
 10
-2.3595100000000002
 20
-1.2781800000000001
 30
0.0
 10
-2.3595100000000002
 20
-1.2781800000000001
 30
0.0
 10
-2.1588500000000002
 20
-1.33152
 30
0.0
 10
-2.22743
 20
-0.9733800000000001
 30
0.0
 10
-2.1004300000000002
 20
-0.8667
 30
0.0
 10
-2.1004300000000002
 20
-0.8667
 30
0.0
 10
-1.8007100000000003
 20
0.45663
 30
0.0
 10
-0.3757700000000001
 20
0.97733
 30
0.0
 10
0.8561200000000001
 20
0.7969900000000001
 30
0.0
 10
0.8561200000000001
 20
0.7969900000000001
 30
0.0
 10
1.7171800000000002
 20
0.53029
 30
0.0
 10
2.0956400000000004
 20
-0.4349
 30
0.0
 10
2.3267800000000003
 20
-1.1715
 30
0.0
 10
2.3267800000000003
 20
-1.1715
 30
0.0
 10
2.5426800000000003
 20
-1.08006
 30
0.0
 10
2.7230200000000004
 20
-0.9200400000000001
 30
0.0
 10
2.8297000000000003
 20
-0.72192
 30
0.0
 10
2.8297000000000003
 20
-0.72192
 30
0.0
 10
3.1345000000000001
 20
-0.20376
 30
0.0
 10
2.5782400000000001
 20
0.20771
 30
0.0
 10
2.7230200000000004
 20
0.6903100000000001
 30
0.0
 10
2.7230200000000004
 20
0.6903100000000001
 30
0.0
 10
3.8863400000000001
 20
2.0187300000000001
 30
0.0
 10
4.0489000000000006
 20
4.1142300000000001
 30
0.0
 10
3.4570800000000004
 20
5.6382300000000001
 30
0.0
 10
3.4570800000000004
 20
5.6382300000000001
 30
0.0
 10
3.8330000000000002
 20
5.2445300000000001
 30
0.0
 10
4.1200200000000002
 20
4.7771700000000008
 30
0.0
 10
4.3359200000000007
 20
4.2920300000000005
 30
0.0
 10
4.3359200000000007
 20
4.2920300000000005
 30
0.0
 10
4.4248200000000004
 20
4.4723700000000006
 30
0.0
 10
4.3359200000000007
 20
4.7593900000000007
 30
0.0
 10
4.3181400000000005
 20
4.9549700000000003
 30
0.0
 10
4.3181400000000005
 20
4.9549700000000003
 30
0.0
 10
4.9074200000000001
 20
4.5993700000000004
 30
0.0
 10
5.0877600000000003
 20
3.7560900000000004
 30
0.0
 10
4.9988600000000005
 20
3.0753700000000004
 30
0.0
 10
4.9988600000000005
 20
3.0753700000000004
 30
0.0
 10
5.1055400000000004
 20
3.1287100000000003
 30
0.0
 10
5.0699800000000002
 20
3.4157300000000004
 30
0.0
 10
5.2300000000000004
 20
3.4868500000000004
 30
0.0
 10
5.2300000000000004
 20
3.4868500000000004
 30
0.0
 10
5.3570000000000002
 20
3.0753700000000004
 30
0.0
 10
5.3747800000000003
 20
2.5368900000000001
 30
0.0
 10
5.3036600000000007
 20
2.08731
 30
0.0
 10
5.3036600000000007
 20
2.08731
 30
0.0
 10
5.7151400000000008
 20
2.2320900000000004
 30
0.0
 10
5.3214400000000008
 20
1.0484500000000001
 30
0.0
 10
5.1411000000000007
 20
0.7080900000000001
 30
0.0
  0
SPLINE
  5
26
100
AcDbEntity
  8
Ebene 1
 62
     7
100
AcDbSpline
210
0.0
220
0.0
230
1.0
 70
     1
 71
     3
 72
    28
 73
    24
 74
     0
 42
0.0000000001
 43
0.0000000001
 40
0.0
 40
0.0
 40
0.0
 40
0.0
 40
0.1666666666666667
 40
0.1666666666666667
 40
0.1666666666666667
 40
0.1666666666666667
 40
0.3333333333333333
 40
0.3333333333333333
 40
0.3333333333333333
 40
0.3333333333333333
 40
0.5
 40
0.5
 40
0.5
 40
0.5
 40
0.6666666666666666
 40
0.6666666666666666
 40
0.6666666666666666
 40
0.6666666666666666
 40
0.8333333333333333
 40
0.8333333333333333
 40
0.8333333333333333
 40
0.8333333333333333
 40
1.0
 40
1.0
 40
1.0
 40
1.0
 10
3.8863400000000001
 20
4.7593900000000007
 30
0.0
 10
4.0311200000000005
 20
4.63239
 30
0.0
 10
4.1378000000000004
 20
4.4012500000000001
 30
0.0
 10
4.2267000000000001
 20
4.2209099999999999
 30
0.0
 10
4.2267000000000001
 20
4.2209099999999999
 30
0.0
 10
4.2267000000000001
 20
3.2887300000000002
 30
0.0
 10
4.1733600000000006
 20
2.3565500000000004
 30
0.0
 10
3.6729800000000004
 20
1.5869300000000002
 30
0.0
 10
3.6729800000000004
 20
1.5869300000000002
 30
0.0
 10
3.6907600000000005
 20
1.8206100000000001
 30
0.0
 10
3.8152200000000005
 20
2.0517500000000002
 30
0.0
 10
3.7441000000000004
 20
2.2854300000000003
 30
0.0
 10
3.7441000000000004
 20
2.2854300000000003
 30
0.0
 10
3.7441000000000004
 20
2.2854300000000003
 30
0.0
 10
3.6907600000000005
 20
2.2143100000000002
 30
0.0
 10
3.6907600000000005
 20
2.2143100000000002
 30
0.0
 10
3.6907600000000005
 20
2.2143100000000002
 30
0.0
 10
3.6729800000000004
 20
2.17875
 30
0.0
 10
3.6729800000000004
 20
2.2320900000000004
 30
0.0
 10
3.6729800000000004
 20
2.24987
 30
0.0
 10
3.6729800000000004
 20
2.24987
 30
0.0
 10
3.9219000000000004
 20
3.0372700000000004
 30
0.0
 10
3.9396800000000005
 20
3.9161100000000002
 30
0.0
 10
3.8863400000000001
 20
4.7593900000000007
 30
0.0
  0
SPLINE
  5
27
100
AcDbEntity
  8
Ebene 1
 62
     7
100
AcDbSpline
210
0.0
220
0.0
230
1.0
 70
     1
 71
     3
 72
    12
 73
     8
 74
     0
 42
0.0000000001
 43
0.0000000001
 40
0.0
 40
0.0
 40
0.0
 40
0.0
 40
0.5
 40
0.5
 40
0.5
 40
0.5
 40
1.0
 40
1.0
 40
1.0
 40
1.0
 10
-4.0867100000000001
 20
4.5993700000000004
 30
0.0
 10
-4.0613100000000006
 20
3.6646500000000004
 30
0.0
 10
-3.9241500000000005
 20
2.6791300000000002
 30
0.0
 10
-3.7666700000000004
 20
1.7647300000000001
 30
0.0
 10
-3.7666700000000004
 20
1.7647300000000001
 30
0.0
 10
-4.25943
 20
2.5368900000000001
 30
0.0
 10
-4.56677
 20
3.7205300000000001
 30
0.0
 10
-4.0867100000000001
 20
4.5993700000000004
 30
0.0
  0
SPLINE
  5
28
100
AcDbEntity
  8
Ebene 1
 62
     7
100
AcDbSpline
210
0.0
220
0.0
230
1.0
 70
     1
 71
     3
 72
    12
 73
     8
 74
     0
 42
0.0000000001
 43
0.0000000001
 40
0.0
 40
0.0
 40
0.0
 40
0.0
 40
0.5
 40
0.5
 40
0.5
 40
0.5
 40
1.0
 40
1.0
 40
1.0
 40
1.0
 10
4.5492800000000004
 20
4.3479100000000006
 30
0.0
 10
5.2300000000000004
 20
3.3979500000000002
 30
0.0
 10
4.64072
 20
2.1431900000000002
 30
0.0
 10
3.8152200000000005
 20
1.4802500000000001
 30
0.0
 10
3.8152200000000005
 20
1.4802500000000001
 30
0.0
 10
4.3359200000000007
 20
2.3565500000000004
 30
0.0
 10
4.3892600000000002
 20
3.3598500000000002
 30
0.0
 10
4.5492800000000004
 20
4.3479100000000006
 30
0.0
  0
SPLINE
  5
29
100
AcDbEntity
  8
Ebene 1
 62
     7
100
AcDbSpline
210
0.0
220
0.0
230
1.0
 70
     1
 71
     3
 72
    12
 73
     8
 74
     0
 42
0.0000000001
 43
0.0000000001
 40
0.0
 40
0.0
 40
0.0
 40
0.0
 40
0.5
 40
0.5
 40
0.5
 40
0.5
 40
1.0
 40
1.0
 40
1.0
 40
1.0
 10
-4.7496500000000008
 20
4.3098100000000006
 30
0.0
 10
-4.7318700000000007
 20
3.2353900000000002
 30
0.0
 10
-4.26959
 20
2.17875
 30
0.0
 10
-3.7666700000000004
 20
1.2643500000000001
 30
0.0
 10
-3.7666700000000004
 20
1.2643500000000001
 30
0.0
 10
-4.72933
 20
1.8383900000000002
 30
0.0
 10
-5.23733
 20
3.2353900000000002
 30
0.0
 10
-4.7496500000000008
 20
4.3098100000000006
 30
0.0
  0
SPLINE
  5
2A
100
AcDbEntity
  8
Ebene 1
 62
     7
100
AcDbSpline
210
0.0
220
0.0
230
1.0
 70
     1
 71
     3
 72
    12
 73
     8
 74
     0
 42
0.0000000001
 43
0.0000000001
 40
0.0
 40
0.0
 40
0.0
 40
0.0
 40
0.5
 40
0.5
 40
0.5
 40
0.5
 40
1.0
 40
1.0
 40
1.0
 40
1.0
 10
5.0877600000000003
 20
2.8772500000000001
 30
0.0
 10
5.5703600000000009
 20
1.9628500000000002
 30
0.0
 10
4.5848400000000007
 20
1.06623
 30
0.0
 10
3.7441000000000004
 20
0.87065
 30
0.0
 10
3.7441000000000004
 20
0.87065
 30
0.0
 10
4.2622600000000004
 20
1.4980300000000002
 30
0.0
 10
4.8363000000000005
 20
2.1076300000000003
 30
0.0
 10
5.0877600000000003
 20
2.8772500000000001
 30
0.0
  0
SPLINE
  5
2B
100
AcDbEntity
  8
Ebene 1
 62
     7
100
AcDbSpline
210
0.0
220
0.0
230
1.0
 70
     1
 71
     3
 72
    16
 73
    12
 74
     0
 42
0.0000000001
 43
0.0000000001
 40
0.0
 40
0.0
 40
0.0
 40
0.0
 40
0.3333333333333333
 40
0.3333333333333333
 40
0.3333333333333333
 40
0.3333333333333333
 40
0.6666666666666666
 40
0.6666666666666666
 40
0.6666666666666666
 40
0.6666666666666666
 40
1.0
 40
1.0
 40
1.0
 40
1.0
 10
-5.1255700000000006
 20
2.6080100000000002
 30
0.0
 10
-4.8004500000000005
 20
2.0187300000000001
 30
0.0
 10
-4.3991300000000004
 20
1.4243700000000001
 30
0.0
 10
-3.8200100000000003
 20
1.0128900000000001
 30
0.0
 10
-3.8200100000000003
 20
1.0128900000000001
 30
0.0
 10
-3.7488900000000003
 20
0.7969900000000001
 30
0.0
 10
-3.6041100000000004
 20
0.60141
 30
0.0
 10
-3.4618700000000002
 20
0.4210700000000001
 30
0.0
 10
-3.4618700000000002
 20
0.4210700000000001
 30
0.0
 10
-4.3991300000000004
 20
0.60141
 30
0.0
 10
-5.3541700000000008
 20
1.6047100000000001
 30
0.0
 10
-5.1255700000000006
 20
2.6080100000000002
 30
0.0
  0
SPLINE
  5
2C
100
AcDbEntity
  8
Ebene 1
 62
     7
100
AcDbSpline
210
0.0
220
0.0
230
1.0
 70
     1
 71
     3
 72
   104
 73
   100
 74
     0
 42
0.0000000001
 43
0.0000000001
 40
0.0
 40
0.0
 40
0.0
 40
0.0
 40
0.04
 40
0.04
 40
0.04
 40
0.04
 40
0.08
 40
0.08
 40
0.08
 40
0.08
 40
0.12
 40
0.12
 40
0.12
 40
0.12
 40
0.16
 40
0.16
 40
0.16
 40
0.16
 40
0.2
 40
0.2
 40
0.2
 40
0.2
 40
0.24
 40
0.24
 40
0.24
 40
0.24
 40
0.28
 40
0.28
 40
0.28
 40
0.28
 40
0.32
 40
0.32
 40
0.32
 40
0.32
 40
0.36
 40
0.36
 40
0.36
 40
0.36
 40
0.4
 40
0.4
 40
0.4
 40
0.4
 40
0.44
 40
0.44
 40
0.44
 40
0.44
 40
0.4799999999999999
 40
0.4799999999999999
 40
0.4799999999999999
 40
0.4799999999999999
 40
0.5199999999999999
 40
0.5199999999999999
 40
0.5199999999999999
 40
0.5199999999999999
 40
0.5599999999999999
 40
0.5599999999999999
 40
0.5599999999999999
 40
0.5599999999999999
 40
0.6
 40
0.6
 40
0.6
 40
0.6
 40
0.64
 40
0.64
 40
0.64
 40
0.64
 40
0.6800000000000001
 40
0.6800000000000001
 40
0.6800000000000001
 40
0.6800000000000001
 40
0.7200000000000001
 40
0.7200000000000001
 40
0.7200000000000001
 40
0.7200000000000001
 40
0.7600000000000001
 40
0.7600000000000001
 40
0.7600000000000001
 40
0.7600000000000001
 40
0.8000000000000002
 40
0.8000000000000002
 40
0.8000000000000002
 40
0.8000000000000002
 40
0.8400000000000002
 40
0.8400000000000002
 40
0.8400000000000002
 40
0.8400000000000002
 40
0.8800000000000002
 40
0.8800000000000002
 40
0.8800000000000002
 40
0.8800000000000002
 40
0.9200000000000003
 40
0.9200000000000003
 40
0.9200000000000003
 40
0.9200000000000003
 40
0.9600000000000003
 40
0.9600000000000003
 40
0.9600000000000003
 40
0.9600000000000003
 40
1.0
 40
1.0
 40
1.0
 40
1.0
 10
3.2411800000000004
 20
-2.1570200000000002
 30
0.0
 10
2.9008200000000004
 20
-2.1036800000000002
 30
0.0
 10
2.8119200000000002
 20
-1.1537200000000001
 30
0.0
 10
2.7230200000000004
 20
-1.7811000000000001
 30
0.0
 10
2.7230200000000004
 20
-1.7811000000000001
 30
0.0
 10
2.7230200000000004
 20
-1.7811000000000001
 30
0.0
 10
2.7585800000000003
 20
-2.3526000000000002
 30
0.0
 10
2.7585800000000003
 20
-2.3526000000000002
 30
0.0
 10
2.7585800000000003
 20
-2.3526000000000002
 30
0.0
 10
2.6138000000000003
 20
-2.2459200000000004
 30
0.0
 10
2.5249000000000001
 20
-1.8522200000000002
 30
0.0
 10
2.4715600000000002
 20
-2.2103600000000001
 30
0.0
 10
2.4715600000000002
 20
-2.2103600000000001
 30
0.0
 10
2.4715600000000002
 20
-2.2103600000000001
 30
0.0
 10
2.4360000000000004
 20
-2.6218400000000002
 30
0.0
 10
2.4360000000000004
 20
-2.6218400000000002
 30
0.0
 10
2.4360000000000004
 20
-2.6218400000000002
 30
0.0
 10
2.34456
 20
-2.4973800000000002
 30
0.0
 10
2.3801200000000002
 20
-2.3348200000000001
 30
0.0
 10
2.3801200000000002
 20
-2.19258
 30
0.0
 10
2.3801200000000002
 20
-2.19258
 30
0.0
 10
2.2378800000000001
 20
-1.5296400000000001
 30
0.0
 10
2.84748
 20
-0.7752600000000001
 30
0.0
 10
3.0633800000000004
 20
-0.5619000000000001
 30
0.0
 10
3.0633800000000004
 20
-0.5619000000000001
 30
0.0
 10
3.1167200000000004
 20
-0.1301
 30
0.0
 10
2.8652600000000001
 20
0.18993
 30
0.0
 10
2.7941400000000001
 20
0.5836300000000001
 30
0.0
 10
2.7941400000000001
 20
0.5836300000000001
 30
0.0
 10
2.7941400000000001
 20
0.5836300000000001
 30
0.0
 10
3.5815400000000004
 20
1.7647300000000001
 30
0.0
 10
3.5815400000000004
 20
1.7647300000000001
 30
0.0
 10
3.5815400000000004
 20
1.7647300000000001
 30
0.0
 10
3.5459800000000001
 20
1.40659
 30
0.0
 10
3.2589600000000001
 20
1.1195700000000002
 30
0.0
 10
3.0989400000000002
 20
0.8173100000000001
 30
0.0
 10
3.0989400000000002
 20
0.8173100000000001
 30
0.0
 10
3.0989400000000002
 20
0.8173100000000001
 30
0.0
 10
3.2234000000000003
 20
0.8173100000000001
 30
0.0
 10
3.2234000000000003
 20
0.8173100000000001
 30
0.0
 10
3.2234000000000003
 20
0.8173100000000001
 30
0.0
 10
3.4748600000000005
 20
0.9595500000000001
 30
0.0
 10
3.7263200000000003
 20
0.9951100000000001
 30
0.0
 10
3.4037400000000004
 20
0.72587
 30
0.0
 10
3.4037400000000004
 20
0.72587
 30
0.0
 10
2.9897200000000002
 20
0.5480700000000001
 30
0.0
 10
3.3504000000000005
 20
0.29661
 30
0.0
 10
3.6171000000000002
 20
0.51251
 30
0.0
 10
3.6171000000000002
 20
0.51251
 30
0.0
 10
3.6171000000000002
 20
0.51251
 30
0.0
 10
3.9219000000000004
 20
0.6547500000000001
 30
0.0
 10
3.9219000000000004
 20
0.6547500000000001
 30
0.0
 10
3.9219000000000004
 20
0.6547500000000001
 30
0.0
 10
3.8152200000000005
 20
0.38551
 30
0.0
 10
3.5104200000000003
 20
0.24327
 30
0.0
 10
3.2589600000000001
 20
0.15183
 30
0.0
 10
3.2589600000000001
 20
0.15183
 30
0.0
 10
3.2767400000000002
 20
-0.05898
 30
0.0
 10
3.7263200000000003
 20
-0.11232
 30
0.0
 10
3.9396800000000005
 20
-0.0412
 30
0.0
 10
3.9396800000000005
 20
-0.0412
 30
0.0
 10
3.7974400000000004
 20
-0.20376
 30
0.0
 10
3.5282000000000004
 20
-0.2571
 30
0.0
 10
3.2945200000000003
 20
-0.23932
 30
0.0
 10
3.2945200000000003
 20
-0.23932
 30
0.0
 10
3.3681800000000002
 20
-0.3637800000000001
 30
0.0
 10
3.5815400000000004
 20
-0.4171200000000001
 30
0.0
 10
3.7441000000000004
 20
-0.4171200000000001
 30
0.0
 10
3.7441000000000004
 20
-0.4171200000000001
 30
0.0
 10
3.8863400000000001
 20
-0.39934
 30
0.0
 10
3.9041200000000003
 20
-0.45268
 30
0.0
 10
3.7796600000000002
 20
-0.50856
 30
0.0
 10
3.7796600000000002
 20
-0.50856
 30
0.0
 10
3.5993200000000001
 20
-0.5796800000000001
 30
0.0
 10
3.4215200000000001
 20
-0.52634
 30
0.0
 10
3.2411800000000004
 20
-0.4907800000000001
 30
0.0
 10
3.2411800000000004
 20
-0.4907800000000001
 30
0.0
 10
3.1700600000000003
 20
-0.8311400000000001
 30
0.0
 10
3.6348800000000003
 20
-0.9378200000000001
 30
0.0
 10
3.8152200000000005
 20
-1.0445
 30
0.0
 10
3.8152200000000005
 20
-1.0445
 30
0.0
 10
3.5993200000000001
 20
-1.11816
 30
0.0
 10
3.3504000000000005
 20
-1.0622800000000001
 30
0.0
 10
3.1345000000000001
 20
-0.99116
 30
0.0
 10
3.1345000000000001
 20
-0.99116
 30
0.0
 10
3.0633800000000004
 20
-1.1359400000000002
 30
0.0
 10
3.3504000000000005
 20
-1.29596
 30
0.0
 10
3.4748600000000005
 20
-1.3137400000000001
 30
0.0
 10
3.4748600000000005
 20
-1.3137400000000001
 30
0.0
 10
3.7441000000000004
 20
-1.4763000000000002
 30
0.0
 10
3.0989400000000002
 20
-1.3493000000000002
 30
0.0
 10
2.97194
 20
-1.2426200000000001
 30
0.0
 10
2.97194
 20
-1.2426200000000001
 30
0.0
 10
2.9363800000000002
 20
-1.4763000000000002
 30
0.0
 10
3.1878400000000005
 20
-1.5652000000000001
 30
0.0
 10
3.3123000000000005
 20
-1.6896600000000002
 30
0.0
 10
3.3123000000000005
 20
-1.6896600000000002
 30
0.0
 10
2.8830400000000003
 20
-1.4407400000000001
 30
0.0
 10
3.0278200000000002
 20
-1.9411200000000002
 30
0.0
 10
3.2411800000000004
 20
-2.1570200000000002
 30
0.0
  0
SPLINE
  5
2D
100
AcDbEntity
  8
Ebene 1
 62
     7
100
AcDbSpline
210
0.0
220
0.0
230
1.0
 70
     1
 71
     3
 72
   116
 73
   112
 74
     0
 42
0.0000000001
 43
0.0000000001
 40
0.0
 40
0.0
 40
0.0
 40
0.0
 40
0.0357142857142857
 40
0.0357142857142857
 40
0.0357142857142857
 40
0.0357142857142857
 40
0.0714285714285714
 40
0.0714285714285714
 40
0.0714285714285714
 40
0.0714285714285714
 40
0.1071428571428571
 40
0.1071428571428571
 40
0.1071428571428571
 40
0.1071428571428571
 40
0.1428571428571429
 40
0.1428571428571429
 40
0.1428571428571429
 40
0.1428571428571429
 40
0.1785714285714286
 40
0.1785714285714286
 40
0.1785714285714286
 40
0.1785714285714286
 40
0.2142857142857143
 40
0.2142857142857143
 40
0.2142857142857143
 40
0.2142857142857143
 40
0.2499999999999999
 40
0.2499999999999999
 40
0.2499999999999999
 40
0.2499999999999999
 40
0.2857142857142856
 40
0.2857142857142856
 40
0.2857142857142856
 40
0.2857142857142856
 40
0.3214285714285713
 40
0.3214285714285713
 40
0.3214285714285713
 40
0.3214285714285713
 40
0.357142857142857
 40
0.357142857142857
 40
0.357142857142857
 40
0.357142857142857
 40
0.3928571428571427
 40
0.3928571428571427
 40
0.3928571428571427
 40
0.3928571428571427
 40
0.4285714285714284
 40
0.4285714285714284
 40
0.4285714285714284
 40
0.4285714285714284
 40
0.4642857142857141
 40
0.4642857142857141
 40
0.4642857142857141
 40
0.4642857142857141
 40
0.4999999999999998
 40
0.4999999999999998
 40
0.4999999999999998
 40
0.4999999999999998
 40
0.5357142857142856
 40
0.5357142857142856
 40
0.5357142857142856
 40
0.5357142857142856
 40
0.5714285714285713
 40
0.5714285714285713
 40
0.5714285714285713
 40
0.5714285714285713
 40
0.607142857142857
 40
0.607142857142857
 40
0.607142857142857
 40
0.607142857142857
 40
0.6428571428571427
 40
0.6428571428571427
 40
0.6428571428571427
 40
0.6428571428571427
 40
0.6785714285714284
 40
0.6785714285714284
 40
0.6785714285714284
 40
0.6785714285714284
 40
0.7142857142857141
 40
0.7142857142857141
 40
0.7142857142857141
 40
0.7142857142857141
 40
0.7499999999999998
 40
0.7499999999999998
 40
0.7499999999999998
 40
0.7499999999999998
 40
0.7857142857142855
 40
0.7857142857142855
 40
0.7857142857142855
 40
0.7857142857142855
 40
0.8214285714285712
 40
0.8214285714285712
 40
0.8214285714285712
 40
0.8214285714285712
 40
0.8571428571428569
 40
0.8571428571428569
 40
0.8571428571428569
 40
0.8571428571428569
 40
0.8928571428571426
 40
0.8928571428571426
 40
0.8928571428571426
 40
0.8928571428571426
 40
0.9285714285714283
 40
0.9285714285714283
 40
0.9285714285714283
 40
0.9285714285714283
 40
0.964285714285714
 40
0.964285714285714
 40
0.964285714285714
 40
0.964285714285714
 40
1.0
 40
1.0
 40
1.0
 40
1.0
 10
-2.8141700000000003
 20
-2.4440400000000002
 30
0.0
 10
-2.7557500000000004
 20
-2.19258
 30
0.0
 10
-2.6312900000000004
 20
-1.9055600000000001
 30
0.0
 10
-2.7100300000000002
 20
-1.6363200000000002
 30
0.0
 10
-2.7100300000000002
 20
-1.6363200000000002
 30
0.0
 10
-2.8141700000000003
 20
-1.6896600000000002
 30
0.0
 10
-2.8954500000000003
 20
-1.8700000000000001
 30
0.0
 10
-3.0402300000000002
 20
-1.8877800000000002
 30
0.0
 10
-3.0402300000000002
 20
-1.8877800000000002
 30
0.0
 10
-2.9487900000000002
 20
-1.7430000000000001
 30
0.0
 10
-2.8725900000000002
 20
-1.6007600000000002
 30
0.0
 10
-2.8522700000000003
 20
-1.4407400000000001
 30
0.0
 10
-2.8522700000000003
 20
-1.4407400000000001
 30
0.0
 10
-2.94625
 20
-1.3670800000000001
 30
0.0
 10
-3.0300700000000003
 20
-1.5118600000000002
 30
0.0
 10
-3.1189700000000005
 20
-1.5296400000000001
 30
0.0
 10
-3.1189700000000005
 20
-1.5296400000000001
 30
0.0
 10
-3.0478500000000004
 20
-1.42042
 30
0.0
 10
-2.85989
 20
-1.3137400000000001
 30
0.0
 10
-2.9259300000000001
 20
-1.1715
 30
0.0
 10
-2.9259300000000001
 20
-1.1715
 30
0.0
 10
-3.1621500000000005
 20
-1.2781800000000001
 30
0.0
 10
-3.4491700000000001
 20
-1.2604000000000002
 30
0.0
 10
-3.6853900000000004
 20
-1.1715
 30
0.0
 10
-3.6853900000000004
 20
-1.1715
 30
0.0
 10
-3.6853900000000004
 20
-1.1715
 30
0.0
 10
-3.3628100000000001
 20
-1.0622800000000001
 30
0.0
 10
-3.3628100000000001
 20
-1.0622800000000001
 30
0.0
 10
-3.3628100000000001
 20
-1.0622800000000001
 30
0.0
 10
-3.3628100000000001
 20
-1.0622800000000001
 30
0.0
 10
-3.0961100000000004
 20
-0.9022600000000001
 30
0.0
 10
-3.0961100000000004
 20
-0.9022600000000001
 30
0.0
 10
-3.0961100000000004
 20
-0.9022600000000001
 30
0.0
 10
-2.7709900000000003
 20
-0.61524
 30
0.0
 10
-3.9520900000000001
 20
-0.9378200000000001
 30
0.0
 10
-3.6498300000000001
 20
-0.6685800000000001
 30
0.0
 10
-3.6498300000000001
 20
-0.6685800000000001
 30
0.0
 10
-3.5380700000000003
 20
-0.6508000000000001
 30
0.0
 10
-3.4313900000000004
 20
-0.61524
 30
0.0
 10
-3.3272500000000003
 20
-0.5619000000000001
 30
0.0
 10
-3.3272500000000003
 20
-0.5619000000000001
 30
0.0
 10
-3.2459700000000002
 20
-0.5441200000000001
 30
0.0
 10
-3.1697700000000002
 20
-0.346
 30
0.0
 10
-3.2967700000000004
 20
-0.38156
 30
0.0
 10
-3.2967700000000004
 20
-0.38156
 30
0.0
 10
-3.7234900000000004
 20
-0.3637800000000001
 30
0.0
 10
-3.1062700000000003
 20
-0.2571
 30
0.0
 10
-3.1672300000000004
 20
-0.07676
 30
0.0
 10
-3.1672300000000004
 20
-0.07676
 30
0.0
 10
-3.2942300000000002
 20
-0.0412
 30
0.0
 10
-3.5507700000000004
 20
-0.1301
 30
0.0
 10
-3.6676100000000003
 20
0.04515
 30
0.0
 10
-3.6676100000000003
 20
0.04515
 30
0.0
 10
-3.5126700000000004
 20
0.02737
 30
0.0
 10
-3.1392900000000004
 20
0.08071
 30
0.0
 10
-3.4186900000000002
 20
0.22549
 30
0.0
 10
-3.4186900000000002
 20
0.22549
 30
0.0
 10
-3.3145500000000001
 20
0.22549
 30
0.0
 10
-3.2027900000000002
 20
0.18993
 30
0.0
 10
-3.1037300000000001
 20
0.24327
 30
0.0
 10
-3.1037300000000001
 20
0.24327
 30
0.0
 10
-3.0580100000000003
 20
0.43885
 30
0.0
 10
-3.3450300000000004
 20
0.40329
 30
0.0
 10
-3.4009100000000001
 20
0.5658500000000001
 30
0.0
 10
-3.4009100000000001
 20
0.5658500000000001
 30
0.0
 10
-3.4720300000000002
 20
0.63697
 30
0.0
 10
-3.5126700000000004
 20
0.7080900000000001
 30
0.0
 10
-3.5507700000000004
 20
0.7969900000000001
 30
0.0
 10
-3.5507700000000004
 20
0.7969900000000001
 30
0.0
 10
-3.7285700000000004
 20
0.97733
 30
0.0
 10
-2.7887700000000004
 20
0.31439
 30
0.0
 10
-3.11389
 20
0.7080900000000001
 30
0.0
 10
-3.11389
 20
0.7080900000000001
 30
0.0
 10
-3.11389
 20
0.7080900000000001
 30
0.0
 10
-3.2662900000000001
 20
0.8884300000000001
 30
0.0
 10
-3.2662900000000001
 20
0.8884300000000001
 30
0.0
 10
-3.2662900000000001
 20
0.8884300000000001
 30
0.0
 10
-3.3221700000000003
 20
0.97733
 30
0.0
 10
-3.3856700000000002
 20
1.0840100000000001
 30
0.0
 10
-3.4263100000000004
 20
1.19323
 30
0.0
 10
-3.4263100000000004
 20
1.19323
 30
0.0
 10
-3.4948900000000003
 20
1.3532500000000001
 30
0.0
 10
-3.5634700000000001
 20
1.5335900000000002
 30
0.0
 10
-3.5787100000000005
 20
1.7113900000000002
 30
0.0
 10
-3.5787100000000005
 20
1.7113900000000002
 30
0.0
 10
-3.3094700000000001
 20
1.2821300000000002
 30
0.0
 10
-2.8979900000000001
 20
0.9062100000000001
 30
0.0
 10
-2.6719300000000001
 20
0.45663
 30
0.0
 10
-2.6719300000000001
 20
0.45663
 30
0.0
 10
-2.6719300000000001
 20
0.45663
 30
0.0
 10
-2.69225
 20
0.26105
 30
0.0
 10
-2.69225
 20
0.26105
 30
0.0
 10
-2.69225
 20
0.26105
 30
0.0
 10
-3.1621500000000005
 20
-0.32822
 30
0.0
 10
-2.9386300000000003
 20
-1.2426200000000001
 30
0.0
 10
-2.27569
 20
-1.6185400000000001
 30
0.0
 10
-2.27569
 20
-1.6185400000000001
 30
0.0
 10
-2.3544300000000002
 20
-1.9766800000000002
 30
0.0
 10
-2.1156700000000002
 20
-2.3881600000000001
 30
0.0
 10
-2.3468100000000001
 20
-2.6574000000000004
 30
0.0
 10
-2.3468100000000001
 20
-2.6574000000000004
 30
0.0
 10
-2.40523
 20
-2.4084800000000004
 30
0.0
 10
-2.3214100000000002
 20
-2.0655800000000002
 30
0.0
 10
-2.4560300000000002
 20
-1.8522200000000002
 30
0.0
 10
-2.4560300000000002
 20
-1.8522200000000002
 30
0.0
 10
-2.5373100000000002
 20
-1.8877800000000002
 30
0.0
 10
-2.4839700000000002
 20
-1.9970000000000001
 30
0.0
 10
-2.5398500000000004
 20
-2.0478000000000001
 30
0.0
 10
-2.5398500000000004
 20
-2.0478000000000001
 30
0.0
 10
-2.6135100000000002
 20
-2.19258
 30
0.0
 10
-2.6770100000000001
 20
-2.3526000000000002
 30
0.0
 10
-2.8141700000000003
 20
-2.4440400000000002
 30
0.0
  0
SPLINE
  5
2E
100
AcDbEntity
  8
Ebene 1
 62
     7
100
AcDbSpline
210
0.0
220
0.0
230
1.0
 70
     1
 71
     3
 72
    16
 73
    12
 74
     0
 42
0.0000000001
 43
0.0000000001
 40
0.0
 40
0.0
 40
0.0
 40
0.0
 40
0.3333333333333333
 40
0.3333333333333333
 40
0.3333333333333333
 40
0.3333333333333333
 40
0.6666666666666666
 40
0.6666666666666666
 40
0.6666666666666666
 40
0.6666666666666666
 40
1.0
 40
1.0
 40
1.0
 40
1.0
 10
5.2122200000000003
 20
1.6402700000000001
 30
0.0
 10
5.3214400000000008
 20
0.7969900000000001
 30
0.0
 10
4.5315000000000003
 20
0.09849
 30
0.0
 10
3.7085400000000002
 20
0.15183
 30
0.0
 10
3.7085400000000002
 20
0.15183
 30
0.0
 10
3.7618800000000001
 20
0.24327
 30
0.0
 10
3.8507800000000003
 20
0.33217
 30
0.0
 10
3.9219000000000004
 20
0.40329
 30
0.0
 10
3.9219000000000004
 20
0.40329
 30
0.0
 10
4.1733600000000006
 20
0.97733
 30
0.0
 10
4.8185200000000004
 20
1.1576700000000002
 30
0.0
 10
5.2122200000000003
 20
1.6402700000000001
 30
0.0
  0
SPLINE
  5
2F
100
AcDbEntity
  8
Ebene 1
 62
     7
100
AcDbSpline
210
0.0
220
0.0
230
1.0
 70
     1
 71
     3
 72
    20
 73
    16
 74
     0
 42
0.0000000001
 43
0.0000000001
 40
0.0
 40
0.0
 40
0.0
 40
0.0
 40
0.25
 40
0.25
 40
0.25
 40
0.25
 40
0.5
 40
0.5
 40
0.5
 40
0.5
 40
0.75
 40
0.75
 40
0.75
 40
0.75
 40
1.0
 40
1.0
 40
1.0
 40
1.0
 10
-5.1966900000000003
 20
1.22879
 30
0.0
 10
-4.8664900000000006
 20
0.87065
 30
0.0
 10
-4.4499300000000002
 20
0.5836300000000001
 30
0.0
 10
-4.0003500000000001
 20
0.4210700000000001
 30
0.0
 10
-4.0003500000000001
 20
0.4210700000000001
 30
0.0
 10
-3.9876500000000004
 20
0.20771
 30
0.0
 10
-3.7692100000000002
 20
0.04515
 30
0.0
 10
-3.6955500000000003
 20
-0.1301
 30
0.0
 10
-3.6955500000000003
 20
-0.1301
 30
0.0
 10
-4.1273500000000007
 20
-0.05898
 30
0.0
 10
-4.5769299999999999
 20
0.06293
 30
0.0
 10
-4.9045900000000007
 20
0.34995
 30
0.0
 10
-4.9045900000000007
 20
0.34995
 30
0.0
 10
-5.03667
 20
0.63697
 30
0.0
 10
-5.1154100000000007
 20
0.9239900000000001
 30
0.0
 10
-5.1966900000000003
 20
1.22879
 30
0.0
  0
SPLINE
  5
30
100
AcDbEntity
  8
Ebene 1
 62
     7
100
AcDbSpline
210
0.0
220
0.0
230
1.0
 70
     1
 71
     3
 72
    12
 73
     8
 74
     0
 42
0.0000000001
 43
0.0000000001
 40
0.0
 40
0.0
 40
0.0
 40
0.0
 40
0.5
 40
0.5
 40
0.5
 40
0.5
 40
1.0
 40
1.0
 40
1.0
 40
1.0
 10
5.1411000000000007
 20
0.7080900000000001
 30
0.0
 10
5.1411000000000007
 20
0.7080900000000001
 30
0.0
 10
5.1233200000000005
 20
0.6903100000000001
 30
0.0
 10
5.1233200000000005
 20
0.6903100000000001
 30
0.0
 10
5.1233200000000005
 20
0.6903100000000001
 30
0.0
 10
5.1233200000000005
 20
0.6903100000000001
 30
0.0
 10
5.1411000000000007
 20
0.7080900000000001
 30
0.0
 10
5.1411000000000007
 20
0.7080900000000001
 30
0.0
  0
SPLINE
  5
31
100
AcDbEntity
  8
Ebene 1
 62
     7
100
AcDbSpline
210
0.0
220
0.0
230
1.0
 70
     1
 71
     3
 72
     8
 73
     4
 74
     0
 42
0.0000000001
 43
0.0000000001
 40
0.0
 40
0.0
 40
0.0
 40
0.0
 40
1.0
 40
1.0
 40
1.0
 40
1.0
 10
5.1233200000000005
 20
0.6903100000000001
 30
0.0
 10
5.1233200000000005
 20
0.6547500000000001
 30
0.0
 10
5.0877600000000003
 20
0.6903100000000001
 30
0.0
 10
5.1233200000000005
 20
0.6903100000000001
 30
0.0
  0
SPLINE
  5
32
100
AcDbEntity
  8
Ebene 1
 62
     7
100
AcDbSpline
210
0.0
220
0.0
230
1.0
 70
     1
 71
     3
 72
   116
 73
   112
 74
     0
 42
0.0000000001
 43
0.0000000001
 40
0.0
 40
0.0
 40
0.0
 40
0.0
 40
0.0357142857142857
 40
0.0357142857142857
 40
0.0357142857142857
 40
0.0357142857142857
 40
0.0714285714285714
 40
0.0714285714285714
 40
0.0714285714285714
 40
0.0714285714285714
 40
0.1071428571428571
 40
0.1071428571428571
 40
0.1071428571428571
 40
0.1071428571428571
 40
0.1428571428571429
 40
0.1428571428571429
 40
0.1428571428571429
 40
0.1428571428571429
 40
0.1785714285714286
 40
0.1785714285714286
 40
0.1785714285714286
 40
0.1785714285714286
 40
0.2142857142857143
 40
0.2142857142857143
 40
0.2142857142857143
 40
0.2142857142857143
 40
0.2499999999999999
 40
0.2499999999999999
 40
0.2499999999999999
 40
0.2499999999999999
 40
0.2857142857142856
 40
0.2857142857142856
 40
0.2857142857142856
 40
0.2857142857142856
 40
0.3214285714285713
 40
0.3214285714285713
 40
0.3214285714285713
 40
0.3214285714285713
 40
0.357142857142857
 40
0.357142857142857
 40
0.357142857142857
 40
0.357142857142857
 40
0.3928571428571427
 40
0.3928571428571427
 40
0.3928571428571427
 40
0.3928571428571427
 40
0.4285714285714284
 40
0.4285714285714284
 40
0.4285714285714284
 40
0.4285714285714284
 40
0.4642857142857141
 40
0.4642857142857141
 40
0.4642857142857141
 40
0.4642857142857141
 40
0.4999999999999998
 40
0.4999999999999998
 40
0.4999999999999998
 40
0.4999999999999998
 40
0.5357142857142856
 40
0.5357142857142856
 40
0.5357142857142856
 40
0.5357142857142856
 40
0.5714285714285713
 40
0.5714285714285713
 40
0.5714285714285713
 40
0.5714285714285713
 40
0.607142857142857
 40
0.607142857142857
 40
0.607142857142857
 40
0.607142857142857
 40
0.6428571428571427
 40
0.6428571428571427
 40
0.6428571428571427
 40
0.6428571428571427
 40
0.6785714285714284
 40
0.6785714285714284
 40
0.6785714285714284
 40
0.6785714285714284
 40
0.7142857142857141
 40
0.7142857142857141
 40
0.7142857142857141
 40
0.7142857142857141
 40
0.7499999999999998
 40
0.7499999999999998
 40
0.7499999999999998
 40
0.7499999999999998
 40
0.7857142857142855
 40
0.7857142857142855
 40
0.7857142857142855
 40
0.7857142857142855
 40
0.8214285714285712
 40
0.8214285714285712
 40
0.8214285714285712
 40
0.8214285714285712
 40
0.8571428571428569
 40
0.8571428571428569
 40
0.8571428571428569
 40
0.8571428571428569
 40
0.8928571428571426
 40
0.8928571428571426
 40
0.8928571428571426
 40
0.8928571428571426
 40
0.9285714285714283
 40
0.9285714285714283
 40
0.9285714285714283
 40
0.9285714285714283
 40
0.964285714285714
 40
0.964285714285714
 40
0.964285714285714
 40
0.964285714285714
 40
1.0
 40
1.0
 40
1.0
 40
1.0
 10
0.5005200000000001
 20
0.6725300000000001
 30
0.0
 10
0.8231000000000001
 20
0.6903100000000001
 30
0.0
 10
1.11012
 20
0.51251
 30
0.0
 10
1.35904
 20
0.33217
 30
0.0
 10
1.35904
 20
0.33217
 30
0.0
 10
2.0575400000000004
 20
-0.38156
 30
0.0
 10
2.50712
 20
-1.42042
 30
0.0
 10
2.1845400000000001
 20
-2.4084800000000004
 30
0.0
 10
2.1845400000000001
 20
-2.4084800000000004
 30
0.0
 10
2.1312000000000002
 20
-2.4796
 30
0.0
 10
2.0956400000000004
 20
-2.5507200000000001
 30
0.0
 10
2.0778600000000003
 20
-2.6421600000000001
 30
0.0
 10
2.0778600000000003
 20
-2.6421600000000001
 30
0.0
 10
1.9508600000000003
 20
-2.81996
 30
0.0
 10
2.1312000000000002
 20
-2.3348200000000001
 30
0.0
 10
2.1489800000000003
 20
-2.2281400000000002
 30
0.0
 10
2.1489800000000003
 20
-2.2281400000000002
 30
0.0
 10
2.1489800000000003
 20
-2.2281400000000002
 30
0.0
 10
2.1845400000000001
 20
-1.7430000000000001
 30
0.0
 10
2.1845400000000001
 20
-1.7430000000000001
 30
0.0
 10
2.1845400000000001
 20
-1.7430000000000001
 30
0.0
 10
1.8441800000000002
 20
-2.2637
 30
0.0
 10
1.8086200000000001
 20
-3.0155400000000001
 30
0.0
 10
1.9508600000000003
 20
-3.6607000000000003
 30
0.0
 10
1.9508600000000003
 20
-3.6607000000000003
 30
0.0
 10
1.8441800000000002
 20
-3.8766000000000003
 30
0.0
 10
1.5749400000000002
 20
-3.7343600000000001
 30
0.0
 10
1.4327000000000001
 20
-3.8410400000000005
 30
0.0
 10
1.4327000000000001
 20
-3.8410400000000005
 30
0.0
 10
1.4327000000000001
 20
-3.8410400000000005
 30
0.0
 10
1.7552800000000002
 20
-3.9477200000000003
 30
0.0
 10
1.7552800000000002
 20
-3.9477200000000003
 30
0.0
 10
1.7552800000000002
 20
-3.9477200000000003
 30
0.0
 10
1.3768200000000002
 20
-3.9832800000000002
 30
0.0
 10
1.0009000000000001
 20
-4.1280600000000005
 30
0.0
 10
0.67832
 20
-3.8588200000000001
 30
0.0
 10
0.67832
 20
-3.8588200000000001
 30
0.0
 10
0.7316600000000001
 20
-4.2703000000000007
 30
0.0
 10
0.7494400000000001
 20
-4.6843200000000005
 30
0.0
 10
0.8764400000000001
 20
-4.9713400000000005
 30
0.0
 10
0.8764400000000001
 20
-4.9713400000000005
 30
0.0
 10
0.64276
 20
-4.90022
 30
0.0
 10
0.4827400000000001
 20
-5.4006000000000007
 30
0.0
 10
0.32018
 20
-5.02468
 30
0.0
 10
0.32018
 20
-5.02468
 30
0.0
 10
0.10428
 20
-5.1313600000000008
 30
0.0
 10
0.00014
 20
-5.0424600000000002
 30
0.0
 10
-0.01763
 20
-4.8265600000000006
 30
0.0
 10
-0.01763
 20
-4.8265600000000006
 30
0.0
 10
-0.03541
 20
-4.9713400000000005
 30
0.0
 10
0.01538
 20
-5.2024800000000004
 30
0.0
 10
-0.12431
 20
-5.2380400000000007
 30
0.0
 10
-0.12431
 20
-5.2380400000000007
 30
0.0
 10
-0.3757700000000001
 20
-5.2228000000000003
 30
0.0
 10
-0.15987
 20
-4.7198800000000007
 30
0.0
 10
-0.34021
 20
-5.0780200000000004
 30
0.0
 10
-0.34021
 20
-5.0780200000000004
 30
0.0
 10
-0.46467
 20
-4.86212
 30
0.0
 10
-0.46467
 20
-4.8265600000000006
 30
0.0
 10
-0.55611
 20
-5.1313600000000008
 30
0.0
 10
-0.55611
 20
-5.1313600000000008
 30
0.0
 10
-0.5205500000000001
 20
-4.6106600000000002
 30
0.0
 10
-0.7923300000000001
 20
-5.0069000000000008
 30
0.0
 10
-0.6272300000000001
 20
-4.4684200000000001
 30
0.0
 10
-0.6272300000000001
 20
-4.4684200000000001
 30
0.0
 10
-0.59167
 20
-4.5039800000000003
 30
0.0
 10
-0.6094500000000001
 20
-4.7198800000000007
 30
0.0
 10
-0.5383300000000001
 20
-4.6284400000000003
 30
0.0
 10
-0.5383300000000001
 20
-4.6284400000000003
 30
0.0
 10
-0.5205500000000001
 20
-4.3617400000000002
 30
0.0
 10
-0.6450100000000001
 20
-4.0925000000000002
 30
0.0
 10
-0.5002300000000001
 20
-3.8588200000000001
 30
0.0
 10
-0.5002300000000001
 20
-3.8588200000000001
 30
0.0
 10
-0.68057
 20
-3.9477200000000003
 30
0.0
 10
-1.21143
 20
-4.2703000000000007
 30
0.0
 10
-0.9904500000000001
 20
-3.9121600000000005
 30
0.0
 10
-0.9904500000000001
 20
-3.9121600000000005
 30
0.0
 10
-0.9904500000000001
 20
-3.9121600000000005
 30
0.0
 10
-1.3917700000000002
 20
-4.0036000000000005
 30
0.0
 10
-1.3917700000000002
 20
-4.0036000000000005
 30
0.0
 10
-1.3917700000000002
 20
-4.0036000000000005
 30
0.0
 10
-1.3917700000000002
 20
-4.0036000000000005
 30
0.0
 10
-1.41971
 20
-3.8232600000000003
 30
0.0
 10
-1.41971
 20
-3.8232600000000003
 30
0.0
 10
-1.41971
 20
-3.8232600000000003
 30
0.0
 10
-1.8845300000000003
 20
-3.6429200000000002
 30
0.0
 10
-1.6813300000000002
 20
-3.0155400000000001
 30
0.0
 10
-1.6660900000000001
 20
-2.6218400000000002
 30
0.0
 10
-1.6660900000000001
 20
-2.6218400000000002
 30
0.0
 10
-1.8108700000000002
 20
-2.3348200000000001
 30
0.0
 10
-1.9581900000000001
 20
-2.0122400000000003
 30
0.0
 10
-1.9480300000000002
 20
-1.7074400000000001
 30
0.0
 10
-1.9480300000000002
 20
-1.7074400000000001
 30
0.0
 10
-2.1004300000000002
 20
-2.0655800000000002
 30
0.0
 10
-1.7905500000000001
 20
-2.4084800000000004
 30
0.0
 10
-1.8286500000000001
 20
-2.7844000000000002
 30
0.0
 10
-1.8286500000000001
 20
-2.7844000000000002
 30
0.0
 10
-1.8616700000000002
 20
-3.0155400000000001
 30
0.0
 10
-1.9708900000000003
 20
-2.7666200000000001
 30
0.0
 10
-2.0064500000000001
 20
-2.6574000000000004
 30
0.0
 10
-2.0064500000000001
 20
-2.6574000000000004
 30
0.0
 10
-2.2909300000000004
 20
-1.8522200000000002
 30
0.0
 10
-2.1791700000000001
 20
-0.9733800000000001
 30
0.0
 10
-1.6965700000000001
 20
-0.2571
 30
0.0
 10
-1.6965700000000001
 20
-0.2571
 30
0.0
 10
-1.4400300000000001
 20
0.06293
 30
0.0
 10
-1.08697
 20
0.27883
 30
0.0
 10
-0.7466100000000001
 20
0.53029
 30
0.0
 10
-0.7466100000000001
 20
0.53029
 30
0.0
 10
-0.26909
 20
0.8173100000000001
 30
0.0
 10
0.12206
 20
0.27883
 30
0.0
 10
0.5005200000000001
 20
0.6725300000000001
 30
0.0
  0
SPLINE
  5
33
100
AcDbEntity
  8
Ebene 1
 62
     7
100
AcDbSpline
210
0.0
220
0.0
230
1.0
 70
     1
 71
     3
 72
    20
 73
    16
 74
     0
 42
0.0000000001
 43
0.0000000001
 40
0.0
 40
0.0
 40
0.0
 40
0.0
 40
0.25
 40
0.25
 40
0.25
 40
0.25
 40
0.5
 40
0.5
 40
0.5
 40
0.5
 40
0.75
 40
0.75
 40
0.75
 40
0.75
 40
1.0
 40
1.0
 40
1.0
 40
1.0
 10
4.9429800000000004
 20
0.3677300000000001
 30
0.0
 10
4.9429800000000004
 20
0.3677300000000001
 30
0.0
 10
4.9988600000000005
 20
0.34995
 30
0.0
 10
4.9988600000000005
 20
0.34995
 30
0.0
 10
4.9988600000000005
 20
0.34995
 30
0.0
 10
4.8185200000000004
 20
-0.00564
 30
0.0
 10
4.3892600000000002
 20
-0.27488
 30
0.0
 10
3.9955600000000002
 20
-0.22154
 30
0.0
 10
3.9955600000000002
 20
-0.22154
 30
0.0
 10
4.1200200000000002
 20
-0.15042
 30
0.0
 10
4.1200200000000002
 20
-0.02342
 30
0.0
 10
4.1733600000000006
 20
0.08071
 30
0.0
 10
4.1733600000000006
 20
0.08071
 30
0.0
 10
4.1733600000000006
 20
0.08071
 30
0.0
 10
4.9429800000000004
 20
0.3677300000000001
 30
0.0
 10
4.9429800000000004
 20
0.3677300000000001
 30
0.0
  0
SPLINE
  5
34
100
AcDbEntity
  8
Ebene 1
 62
     7
100
AcDbSpline
210
0.0
220
0.0
230
1.0
 70
     1
 71
     3
 72
    12
 73
     8
 74
     0
 42
0.0000000001
 43
0.0000000001
 40
0.0
 40
0.0
 40
0.0
 40
0.0
 40
0.5
 40
0.5
 40
0.5
 40
0.5
 40
1.0
 40
1.0
 40
1.0
 40
1.0
 10
-3.8708100000000005
 20
0.31439
 30
0.0
 10
-3.7920700000000003
 20
0.27883
 30
0.0
 10
-3.7031700000000005
 20
0.22549
 30
0.0
 10
-3.6422100000000004
 20
0.17215
 30
0.0
 10
-3.6422100000000004
 20
0.17215
 30
0.0
 10
-3.7361900000000001
 20
0.15183
 30
0.0
 10
-3.8200100000000003
 20
0.24327
 30
0.0
 10
-3.8708100000000005
 20
0.31439
 30
0.0
  0
SPLINE
  5
35
100
AcDbEntity
  8
Ebene 1
100
AcDbSpline
210
0.0
220
0.0
230
1.0
 70
     1
 71
     3
 72
    20
 73
    16
 74
     0
 42
0.0000000001
 43
0.0000000001
 40
0.0
 40
0.0
 40
0.0
 40
0.0
 40
0.25
 40
0.25
 40
0.25
 40
0.25
 40
0.5
 40
0.5
 40
0.5
 40
0.5
 40
0.75
 40
0.75
 40
0.75
 40
0.75
 40
1.0
 40
1.0
 40
1.0
 40
1.0
 10
0.06872
 20
-0.05898
 30
0.0
 10
0.06872
 20
-0.05898
 30
0.0
 10
0.12206
 20
-0.05898
 30
0.0
 10
0.12206
 20
-0.05898
 30
0.0
 10
0.12206
 20
-0.05898
 30
0.0
 10
0.3024
 20
-0.5974600000000001
 30
0.0
 10
0.12206
 20
-1.20706
 30
0.0
 10
0.17794
 20
-1.7430000000000001
 30
0.0
 10
0.17794
 20
-1.7430000000000001
 30
0.0
 10
0.14238
 20
-1.7252200000000002
 30
0.0
 10
0.10428
 20
-1.7252200000000002
 30
0.0
 10
0.06872
 20
-1.7074400000000001
 30
0.0
 10
0.06872
 20
-1.7074400000000001
 30
0.0
 10
0.12206
 20
-1.1537200000000001
 30
0.0
 10
0.12206
 20
-0.5796800000000001
 30
0.0
 10
0.06872
 20
-0.05898
 30
0.0
  0
SPLINE
  5
36
100
AcDbEntity
  8
Ebene 1
 62
     7
100
AcDbSpline
210
0.0
220
0.0
230
1.0
 70
     1
 71
     3
 72
    20
 73
    16
 74
     0
 42
0.0000000001
 43
0.0000000001
 40
0.0
 40
0.0
 40
0.0
 40
0.0
 40
0.25
 40
0.25
 40
0.25
 40
0.25
 40
0.5
 40
0.5
 40
0.5
 40
0.5
 40
0.75
 40
0.75
 40
0.75
 40
0.75
 40
1.0
 40
1.0
 40
1.0
 40
1.0
 10
-4.8918900000000001
 20
-0.09454
 30
0.0
 10
-4.4880300000000002
 20
-0.27488
 30
0.0
 10
-4.0181300000000002
 20
-0.32822
 30
0.0
 10
-3.6422100000000004
 20
-0.5441200000000001
 30
0.0
 10
-3.6422100000000004
 20
-0.5441200000000001
 30
0.0
 10
-3.7641300000000002
 20
-0.5974600000000001
 30
0.0
 10
-3.8962100000000004
 20
-0.6508000000000001
 30
0.0
 10
-4.0130500000000007
 20
-0.5619000000000001
 30
0.0
 10
-4.0130500000000007
 20
-0.5619000000000001
 30
0.0
 10
-4.0130500000000007
 20
-0.5619000000000001
 30
0.0
 10
-4.0714700000000006
 20
-0.6685800000000001
 30
0.0
 10
-4.0714700000000006
 20
-0.6685800000000001
 30
0.0
 10
-4.0714700000000006
 20
-0.6685800000000001
 30
0.0
 10
-4.4778700000000002
 20
-0.75748
 30
0.0
 10
-4.7648900000000003
 20
-0.4349
 30
0.0
 10
-4.8918900000000001
 20
-0.09454
 30
0.0
  0
SPLINE
  5
37
100
AcDbEntity
  8
Ebene 1
 62
     7
100
AcDbSpline
210
0.0
220
0.0
230
1.0
 70
     1
 71
     3
 72
    20
 73
    16
 74
     0
 42
0.0000000001
 43
0.0000000001
 40
0.0
 40
0.0
 40
0.0
 40
0.0
 40
0.25
 40
0.25
 40
0.25
 40
0.25
 40
0.5
 40
0.5
 40
0.5
 40
0.5
 40
0.75
 40
0.75
 40
0.75
 40
0.75
 40
1.0
 40
1.0
 40
1.0
 40
1.0
 10
4.8540800000000006
 20
-0.27488
 30
0.0
 10
4.8540800000000006
 20
-0.27488
 30
0.0
 10
4.9429800000000004
 20
-0.29266
 30
0.0
 10
4.9429800000000004
 20
-0.29266
 30
0.0
 10
4.9429800000000004
 20
-0.29266
 30
0.0
 10
4.76518
 20
-0.7041400000000001
 30
0.0
 10
4.2444800000000003
 20
-0.8489200000000001
 30
0.0
 10
3.8507800000000003
 20
-0.6685800000000001
 30
0.0
 10
3.8507800000000003
 20
-0.6685800000000001
 30
0.0
 10
3.8507800000000003
 20
-0.6685800000000001
 30
0.0
 10
4.2444800000000003
 20
-0.3637800000000001
 30
0.0
 10
4.2444800000000003
 20
-0.3637800000000001
 30
0.0
 10
4.2444800000000003
 20
-0.3637800000000001
 30
0.0
 10
4.4426000000000005
 20
-0.39934
 30
0.0
 10
4.6762800000000002
 20
-0.32822
 30
0.0
 10
4.8540800000000006
 20
-0.27488
 30
0.0
  0
SPLINE
  5
38
100
AcDbEntity
  8
Ebene 1
100
AcDbSpline
210
0.0
220
0.0
230
1.0
 70
     1
 71
     3
 72
    44
 73
    40
 74
     0
 42
0.0000000001
 43
0.0000000001
 40
0.0
 40
0.0
 40
0.0
 40
0.0
 40
0.1
 40
0.1
 40
0.1
 40
0.1
 40
0.2
 40
0.2
 40
0.2
 40
0.2
 40
0.3
 40
0.3
 40
0.3
 40
0.3
 40
0.4
 40
0.4
 40
0.4
 40
0.4
 40
0.5
 40
0.5
 40
0.5
 40
0.5
 40
0.6
 40
0.6
 40
0.6
 40
0.6
 40
0.7
 40
0.7
 40
0.7
 40
0.7
 40
0.7999999999999999
 40
0.7999999999999999
 40
0.7999999999999999
 40
0.7999999999999999
 40
0.8999999999999999
 40
0.8999999999999999
 40
0.8999999999999999
 40
0.8999999999999999
 40
1.0
 40
1.0
 40
1.0
 40
1.0
 10
-1.3079500000000002
 20
-0.4349
 30
0.0
 10
-1.3079500000000002
 20
-0.4349
 30
0.0
 10
-1.2368300000000001
 20
-0.45268
 30
0.0
 10
-1.2368300000000001
 20
-0.45268
 30
0.0
 10
-1.2368300000000001
 20
-0.45268
 30
0.0
 10
-1.3638300000000001
 20
-0.8311400000000001
 30
0.0
 10
-1.2342900000000001
 20
-1.3137400000000001
 30
0.0
 10
-0.84567
 20
-1.4763000000000002
 30
0.0
 10
-0.84567
 20
-1.4763000000000002
 30
0.0
 10
-0.84567
 20
-1.4763000000000002
 30
0.0
 10
-1.03363
 20
-1.4407400000000001
 30
0.0
 10
-1.03363
 20
-1.4407400000000001
 30
0.0
 10
-1.03363
 20
-1.4407400000000001
 30
0.0
 10
-1.08443
 20
-1.5296400000000001
 30
0.0
 10
-1.1098300000000001
 20
-1.67188
 30
0.0
 10
-1.2317500000000001
 20
-1.67188
 30
0.0
 10
-1.2317500000000001
 20
-1.67188
 30
0.0
 10
-1.0996700000000001
 20
-1.4026400000000001
 30
0.0
 10
-1.3231900000000001
 20
-1.1537200000000001
 30
0.0
 10
-1.4146300000000001
 20
-0.9200400000000001
 30
0.0
 10
-1.4146300000000001
 20
-0.9200400000000001
 30
0.0
 10
-1.4146300000000001
 20
-0.9200400000000001
 30
0.0
 10
-1.50607
 20
-1.2426200000000001
 30
0.0
 10
-1.50607
 20
-1.2426200000000001
 30
0.0
 10
-1.50607
 20
-1.2426200000000001
 30
0.0
 10
-1.5619500000000002
 20
-1.42042
 30
0.0
 10
-1.5187700000000002
 20
-1.6185400000000001
 30
0.0
 10
-1.3435100000000002
 20
-1.67188
 30
0.0
 10
-1.3435100000000002
 20
-1.67188
 30
0.0
 10
-1.3536700000000002
 20
-1.7074400000000001
 30
0.0
 10
-1.3968500000000001
 20
-1.6896600000000002
 30
0.0
 10
-1.4146300000000001
 20
-1.67188
 30
0.0
 10
-1.4146300000000001
 20
-1.67188
 30
0.0
 10
-1.5340100000000001
 20
-1.6007600000000002
 30
0.0
 10
-1.4908300000000001
 20
-1.7988800000000003
 30
0.0
 10
-1.58989
 20
-1.7633200000000002
 30
0.0
 10
-1.58989
 20
-1.7633200000000002
 30
0.0
 10
-1.5162300000000002
 20
-1.3670800000000001
 30
0.0
 10
-1.6991100000000001
 20
-0.75748
 30
0.0
 10
-1.3079500000000002
 20
-0.4349
 30
0.0
  0
SPLINE
  5
39
100
AcDbEntity
  8
Ebene 1
100
AcDbSpline
210
0.0
220
0.0
230
1.0
 70
     1
 71
     3
 72
    36
 73
    32
 74
     0
 42
0.0000000001
 43
0.0000000001
 40
0.0
 40
0.0
 40
0.0
 40
0.0
 40
0.125
 40
0.125
 40
0.125
 40
0.125
 40
0.25
 40
0.25
 40
0.25
 40
0.25
 40
0.375
 40
0.375
 40
0.375
 40
0.375
 40
0.5
 40
0.5
 40
0.5
 40
0.5
 40
0.625
 40
0.625
 40
0.625
 40
0.625
 40
0.75
 40
0.75
 40
0.75
 40
0.75
 40
0.875
 40
0.875
 40
0.875
 40
0.875
 40
1.0
 40
1.0
 40
1.0
 40
1.0
 10
1.5216000000000001
 20
-0.52634
 30
0.0
 10
1.8619600000000001
 20
-0.7397
 30
0.0
 10
1.8619600000000001
 20
-1.33152
 30
0.0
 10
1.7171800000000002
 20
-1.67188
 30
0.0
 10
1.7171800000000002
 20
-1.67188
 30
0.0
 10
1.6994000000000002
 20
-1.7430000000000001
 30
0.0
 10
1.8086200000000001
 20
-1.7633200000000002
 30
0.0
 10
1.7730600000000001
 20
-1.8344400000000001
 30
0.0
 10
1.7730600000000001
 20
-1.8344400000000001
 30
0.0
 10
1.6816200000000001
 20
-1.8522200000000002
 30
0.0
 10
1.6282800000000002
 20
-1.7074400000000001
 30
0.0
 10
1.6638400000000002
 20
-1.6363200000000002
 30
0.0
 10
1.6638400000000002
 20
-1.6363200000000002
 30
0.0
 10
1.7171800000000002
 20
-1.4763000000000002
 30
0.0
 10
1.7349600000000001
 20
-1.2781800000000001
 30
0.0
 10
1.6816200000000001
 20
-1.11816
 30
0.0
 10
1.6816200000000001
 20
-1.11816
 30
0.0
 10
1.6105
 20
-0.9378200000000001
 30
0.0
 10
1.5927200000000001
 20
-1.2604000000000002
 30
0.0
 10
1.5216000000000001
 20
-1.3137400000000001
 30
0.0
 10
1.5216000000000001
 20
-1.3137400000000001
 30
0.0
 10
1.4327000000000001
 20
-1.42042
 30
0.0
 10
1.35904
 20
-1.54742
 30
0.0
 10
1.3234800000000002
 20
-1.6896600000000002
 30
0.0
 10
1.3234800000000002
 20
-1.6896600000000002
 30
0.0
 10
1.1812400000000001
 20
-1.6896600000000002
 30
0.0
 10
1.3412600000000001
 20
-1.4763000000000002
 30
0.0
 10
1.1990200000000002
 20
-1.4763000000000002
 30
0.0
 10
1.1990200000000002
 20
-1.4763000000000002
 30
0.0
 10
1.4682600000000001
 20
-1.2426200000000001
 30
0.0
 10
1.6282800000000002
 20
-0.88448
 30
0.0
 10
1.5216000000000001
 20
-0.52634
 30
0.0
  0
SPLINE
  5
3A
100
AcDbEntity
  8
Ebene 1
 62
     7
100
AcDbSpline
210
0.0
220
0.0
230
1.0
 70
     1
 71
     3
 72
    28
 73
    24
 74
     0
 42
0.0000000001
 43
0.0000000001
 40
0.0
 40
0.0
 40
0.0
 40
0.0
 40
0.1666666666666667
 40
0.1666666666666667
 40
0.1666666666666667
 40
0.1666666666666667
 40
0.3333333333333333
 40
0.3333333333333333
 40
0.3333333333333333
 40
0.3333333333333333
 40
0.5
 40
0.5
 40
0.5
 40
0.5
 40
0.6666666666666666
 40
0.6666666666666666
 40
0.6666666666666666
 40
0.6666666666666666
 40
0.8333333333333333
 40
0.8333333333333333
 40
0.8333333333333333
 40
0.8333333333333333
 40
1.0
 40
1.0
 40
1.0
 40
1.0
 10
-3.7641300000000002
 20
-0.8667
 30
0.0
 10
-3.6726900000000002
 20
-0.88448
 30
0.0
 10
-3.5863300000000002
 20
-0.9200400000000001
 30
0.0
 10
-3.5126700000000004
 20
-0.9556000000000001
 30
0.0
 10
-3.5126700000000004
 20
-0.9556000000000001
 30
0.0
 10
-3.5761700000000003
 20
-1.08006
 30
0.0
 10
-3.7590500000000002
 20
-1.08006
 30
0.0
 10
-3.8835100000000002
 20
-1.0622800000000001
 30
0.0
 10
-3.8835100000000002
 20
-1.0622800000000001
 30
0.0
 10
-3.9317700000000002
 20
-1.1537200000000001
 30
0.0
 10
-3.7869900000000003
 20
-1.1715
 30
0.0
 10
-3.7844500000000001
 20
-1.2248400000000002
 30
0.0
 10
-3.7844500000000001
 20
-1.2248400000000002
 30
0.0
 10
-3.9419300000000002
 20
-1.2426200000000001
 30
0.0
 10
-4.1019500000000004
 20
-1.2604000000000002
 30
0.0
 10
-4.25943
 20
-1.2604000000000002
 30
0.0
 10
-4.25943
 20
-1.2604000000000002
 30
0.0
 10
-4.3737300000000001
 20
-1.1715
 30
0.0
 10
-4.4677100000000003
 20
-1.0445
 30
0.0
 10
-4.5464500000000001
 20
-0.9200400000000001
 30
0.0
 10
-4.5464500000000001
 20
-0.9200400000000001
 30
0.0
 10
-4.2848300000000004
 20
-0.9200400000000001
 30
0.0
 10
-4.0028900000000007
 20
-0.9378200000000001
 30
0.0
 10
-3.7641300000000002
 20
-0.8667
 30
0.0
  0
SPLINE
  5
3B
100
AcDbEntity
  8
Ebene 1
 62
     7
100
AcDbSpline
210
0.0
220
0.0
230
1.0
 70
     1
 71
     3
 72
    28
 73
    24
 74
     0
 42
0.0000000001
 43
0.0000000001
 40
0.0
 40
0.0
 40
0.0
 40
0.0
 40
0.1666666666666667
 40
0.1666666666666667
 40
0.1666666666666667
 40
0.1666666666666667
 40
0.3333333333333333
 40
0.3333333333333333
 40
0.3333333333333333
 40
0.3333333333333333
 40
0.5
 40
0.5
 40
0.5
 40
0.5
 40
0.6666666666666666
 40
0.6666666666666666
 40
0.6666666666666666
 40
0.6666666666666666
 40
0.8333333333333333
 40
0.8333333333333333
 40
0.8333333333333333
 40
0.8333333333333333
 40
1.0
 40
1.0
 40
1.0
 40
1.0
 10
4.0489000000000006
 20
-0.9556000000000001
 30
0.0
 10
4.0489000000000006
 20
-0.9556000000000001
 30
0.0
 10
4.5848400000000007
 20
-0.9733800000000001
 30
0.0
 10
4.5848400000000007
 20
-0.9733800000000001
 30
0.0
 10
4.5848400000000007
 20
-0.9733800000000001
 30
0.0
 10
4.5848400000000007
 20
-0.9733800000000001
 30
0.0
 10
4.7829600000000001
 20
-0.9733800000000001
 30
0.0
 10
4.7829600000000001
 20
-0.9733800000000001
 30
0.0
 10
4.7829600000000001
 20
-0.9733800000000001
 30
0.0
 10
4.64072
 20
-1.3848600000000002
 30
0.0
 10
4.1022400000000001
 20
-1.6541000000000001
 30
0.0
 10
3.7263200000000003
 20
-1.45852
 30
0.0
 10
3.7263200000000003
 20
-1.45852
 30
0.0
 10
3.7263200000000003
 20
-1.45852
 30
0.0
 10
3.9219000000000004
 20
-1.33152
 30
0.0
 10
3.9219000000000004
 20
-1.33152
 30
0.0
 10
3.9219000000000004
 20
-1.33152
 30
0.0
 10
3.9396800000000005
 20
-1.20706
 30
0.0
 10
3.6348800000000003
 20
-1.29596
 30
0.0
 10
3.5637600000000003
 20
-1.1892800000000001
 30
0.0
 10
3.5637600000000003
 20
-1.1892800000000001
 30
0.0
 10
3.7618800000000001
 20
-1.1359400000000002
 30
0.0
 10
3.9396800000000005
 20
-1.11816
 30
0.0
 10
4.0489000000000006
 20
-0.9556000000000001
 30
0.0
  0
SPLINE
  5
3C
100
AcDbEntity
  8
Ebene 1
 62
     7
100
AcDbSpline
210
0.0
220
0.0
230
1.0
 70
     1
 71
     3
 72
    12
 73
     8
 74
     0
 42
0.0000000001
 43
0.0000000001
 40
0.0
 40
0.0
 40
0.0
 40
0.0
 40
0.5
 40
0.5
 40
0.5
 40
0.5
 40
1.0
 40
1.0
 40
1.0
 40
1.0
 10
-4.4270700000000005
 20
-1.3670800000000001
 30
0.0
 10
-4.1248100000000001
 20
-1.4407400000000001
 30
0.0
 10
-3.7920700000000003
 20
-1.3493000000000002
 30
0.0
 10
-3.5126700000000004
 20
-1.4026400000000001
 30
0.0
 10
-3.5126700000000004
 20
-1.4026400000000001
 30
0.0
 10
-3.7692100000000002
 20
-1.54742
 30
0.0
 10
-4.2441900000000006
 20
-1.7252200000000002
 30
0.0
 10
-4.4270700000000005
 20
-1.3670800000000001
 30
0.0
  0
SPLINE
  5
3D
100
AcDbEntity
  8
Ebene 1
 62
     7
100
AcDbSpline
210
0.0
220
0.0
230
1.0
 70
     1
 71
     3
 72
    20
 73
    16
 74
     0
 42
0.0000000001
 43
0.0000000001
 40
0.0
 40
0.0
 40
0.0
 40
0.0
 40
0.25
 40
0.25
 40
0.25
 40
0.25
 40
0.5
 40
0.5
 40
0.5
 40
0.5
 40
0.75
 40
0.75
 40
0.75
 40
0.75
 40
1.0
 40
1.0
 40
1.0
 40
1.0
 10
3.3859600000000003
 20
-1.5118600000000002
 30
0.0
 10
3.7618800000000001
 20
-1.6896600000000002
 30
0.0
 10
4.1733600000000006
 20
-1.7252200000000002
 30
0.0
 10
4.6026199999999999
 20
-1.67188
 30
0.0
 10
4.6026199999999999
 20
-1.67188
 30
0.0
 10
4.6026199999999999
 20
-2.3526000000000002
 30
0.0
 10
3.6729800000000004
 20
-2.3348200000000001
 30
0.0
 10
3.3859600000000003
 20
-1.8522200000000002
 30
0.0
 10
3.3859600000000003
 20
-1.8522200000000002
 30
0.0
 10
3.4748600000000005
 20
-1.7988800000000003
 30
0.0
 10
3.7085400000000002
 20
-1.9055600000000001
 30
0.0
 10
3.6907600000000005
 20
-1.7252200000000002
 30
0.0
 10
3.6907600000000005
 20
-1.7252200000000002
 30
0.0
 10
3.6907600000000005
 20
-1.7252200000000002
 30
0.0
 10
3.3859600000000003
 20
-1.5118600000000002
 30
0.0
 10
3.3859600000000003
 20
-1.5118600000000002
 30
0.0
  0
SPLINE
  5
3E
100
AcDbEntity
  8
Ebene 1
 62
     7
100
AcDbSpline
210
0.0
220
0.0
230
1.0
 70
     1
 71
     3
 72
    24
 73
    20
 74
     0
 42
0.0000000001
 43
0.0000000001
 40
0.0
 40
0.0
 40
0.0
 40
0.0
 40
0.2
 40
0.2
 40
0.2
 40
0.2
 40
0.4
 40
0.4
 40
0.4
 40
0.4
 40
0.6000000000000001
 40
0.6000000000000001
 40
0.6000000000000001
 40
0.6000000000000001
 40
0.8
 40
0.8
 40
0.8
 40
0.8
 40
1.0
 40
1.0
 40
1.0
 40
1.0
 10
-3.4593300000000005
 20
-1.5829800000000001
 30
0.0
 10
-3.3805900000000002
 20
-1.5829800000000001
 30
0.0
 10
-3.5202900000000001
 20
-1.67188
 30
0.0
 10
-3.4694900000000004
 20
-1.7252200000000002
 30
0.0
 10
-3.4694900000000004
 20
-1.7252200000000002
 30
0.0
 10
-3.4694900000000004
 20
-1.7252200000000002
 30
0.0
 10
-3.2840700000000003
 20
-1.7074400000000001
 30
0.0
 10
-3.2840700000000003
 20
-1.7074400000000001
 30
0.0
 10
-3.2840700000000003
 20
-1.7074400000000001
 30
0.0
 10
-3.5761700000000003
 20
-2.0122400000000003
 30
0.0
 10
-4.31785
 20
-2.3703800000000004
 30
0.0
 10
-4.4575500000000003
 20
-1.7430000000000001
 30
0.0
 10
-4.4575500000000003
 20
-1.7430000000000001
 30
0.0
 10
-4.4575500000000003
 20
-1.7430000000000001
 30
0.0
 10
-4.0257500000000004
 20
-1.7252200000000002
 30
0.0
 10
-4.0257500000000004
 20
-1.7252200000000002
 30
0.0
 10
-4.0257500000000004
 20
-1.7252200000000002
 30
0.0
 10
-3.8301700000000003
 20
-1.7074400000000001
 30
0.0
 10
-3.6269700000000005
 20
-1.67188
 30
0.0
 10
-3.4593300000000005
 20
-1.5829800000000001
 30
0.0
  0
SPLINE
  5
3F
100
AcDbEntity
  8
Ebene 1
 62
     7
100
AcDbSpline
210
0.0
220
0.0
230
1.0
 70
     1
 71
     3
 72
    20
 73
    16
 74
     0
 42
0.0000000001
 43
0.0000000001
 40
0.0
 40
0.0
 40
0.0
 40
0.0
 40
0.25
 40
0.25
 40
0.25
 40
0.25
 40
0.5
 40
0.5
 40
0.5
 40
0.5
 40
0.75
 40
0.75
 40
0.75
 40
0.75
 40
1.0
 40
1.0
 40
1.0
 40
1.0
 10
3.1700600000000003
 20
-1.8344400000000001
 30
0.0
 10
3.4570800000000004
 20
-2.19258
 30
0.0
 10
3.9041200000000003
 20
-2.4618200000000003
 30
0.0
 10
4.3537000000000008
 20
-2.3703800000000004
 30
0.0
 10
4.3537000000000008
 20
-2.3703800000000004
 30
0.0
 10
4.08446
 20
-2.6574000000000004
 30
0.0
 10
3.5815400000000004
 20
-2.6929600000000002
 30
0.0
 10
3.3681800000000002
 20
-2.3526000000000002
 30
0.0
 10
3.3681800000000002
 20
-2.3526000000000002
 30
0.0
 10
3.4037400000000004
 20
-2.2992600000000003
 30
0.0
 10
3.5637600000000003
 20
-2.3526000000000002
 30
0.0
 10
3.5282000000000004
 20
-2.2459200000000004
 30
0.0
 10
3.5282000000000004
 20
-2.2459200000000004
 30
0.0
 10
3.3504000000000005
 20
-2.1748000000000003
 30
0.0
 10
3.2589600000000001
 20
-1.9766800000000002
 30
0.0
 10
3.1700600000000003
 20
-1.8344400000000001
 30
0.0
  0
SPLINE
  5
40
100
AcDbEntity
  8
Ebene 1
 62
     7
100
AcDbSpline
210
0.0
220
0.0
230
1.0
 70
     1
 71
     3
 72
    20
 73
    16
 74
     0
 42
0.0000000001
 43
0.0000000001
 40
0.0
 40
0.0
 40
0.0
 40
0.0
 40
0.25
 40
0.25
 40
0.25
 40
0.25
 40
0.5
 40
0.5
 40
0.5
 40
0.5
 40
0.75
 40
0.75
 40
0.75
 40
0.75
 40
1.0
 40
1.0
 40
1.0
 40
1.0
 10
-3.3348700000000004
 20
-1.9766800000000002
 30
0.0
 10
-3.3272500000000003
 20
-1.9766800000000002
 30
0.0
 10
-3.2942300000000002
 20
-1.9766800000000002
 30
0.0
 10
-3.3018500000000004
 20
-1.9970000000000001
 30
0.0
 10
-3.3018500000000004
 20
-1.9970000000000001
 30
0.0
 10
-3.4288500000000002
 20
-2.2637
 30
0.0
 10
-3.6472900000000004
 20
-2.5507200000000001
 30
0.0
 10
-3.9292300000000004
 20
-2.6929600000000002
 30
0.0
 10
-3.9292300000000004
 20
-2.6929600000000002
 30
0.0
 10
-4.0257500000000004
 20
-2.6751800000000001
 30
0.0
 10
-4.1273500000000007
 20
-2.6218400000000002
 30
0.0
 10
-4.19339
 20
-2.5507200000000001
 30
0.0
 10
-4.19339
 20
-2.5507200000000001
 30
0.0
 10
-3.9114500000000003
 20
-2.3526000000000002
 30
0.0
 10
-3.5685500000000001
 20
-2.2459200000000004
 30
0.0
 10
-3.3348700000000004
 20
-1.9766800000000002
 30
0.0
  0
SPLINE
  5
41
100
AcDbEntity
  8
Ebene 1
 62
     7
100
AcDbSpline
210
0.0
220
0.0
230
1.0
 70
     1
 71
     3
 72
    12
 73
     8
 74
     0
 42
0.0000000001
 43
0.0000000001
 40
0.0
 40
0.0
 40
0.0
 40
0.0
 40
0.5
 40
0.5
 40
0.5
 40
0.5
 40
1.0
 40
1.0
 40
1.0
 40
1.0
 10
-2.9208500000000002
 20
-2.0478000000000001
 30
0.0
 10
-2.9716500000000003
 20
-2.4440400000000002
 30
0.0
 10
-3.2916900000000004
 20
-3.2492200000000002
 30
0.0
 10
-3.8479500000000004
 20
-3.0536400000000001
 30
0.0
 10
-3.8479500000000004
 20
-3.0536400000000001
 30
0.0
 10
-3.8479500000000004
 20
-3.0536400000000001
 30
0.0
 10
-2.9208500000000002
 20
-2.0478000000000001
 30
0.0
 10
-2.9208500000000002
 20
-2.0478000000000001
 30
0.0
  0
SPLINE
  5
42
100
AcDbEntity
  8
Ebene 1
100
AcDbSpline
210
0.0
220
0.0
230
1.0
 70
     1
 71
     3
 72
    24
 73
    20
 74
     0
 42
0.0000000001
 43
0.0000000001
 40
0.0
 40
0.0
 40
0.0
 40
0.0
 40
0.2
 40
0.2
 40
0.2
 40
0.2
 40
0.4
 40
0.4
 40
0.4
 40
0.4
 40
0.6000000000000001
 40
0.6000000000000001
 40
0.6000000000000001
 40
0.6000000000000001
 40
0.8
 40
0.8
 40
0.8
 40
0.8
 40
1.0
 40
1.0
 40
1.0
 40
1.0
 10
-1.1834900000000002
 20
-2.13924
 30
0.0
 10
-1.0260100000000001
 20
-2.13924
 30
0.0
 10
-0.92949
 20
-2.2814800000000002
 30
0.0
 10
-0.8177300000000001
 20
-2.3881600000000001
 30
0.0
 10
-0.8177300000000001
 20
-2.3881600000000001
 30
0.0
 10
-0.8177300000000001
 20
-2.3881600000000001
 30
0.0
 10
-0.6627900000000001
 20
-2.5685000000000002
 30
0.0
 10
-0.6627900000000001
 20
-2.5685000000000002
 30
0.0
 10
-0.6627900000000001
 20
-2.5685000000000002
 30
0.0
 10
-0.59167
 20
-2.60406
 30
0.0
 10
-0.55611
 20
-2.7107400000000004
 30
0.0
 10
-0.6627900000000001
 20
-2.6421600000000001
 30
0.0
 10
-0.6627900000000001
 20
-2.6421600000000001
 30
0.0
 10
-0.86599
 20
-2.4084800000000004
 30
0.0
 10
-1.1326900000000002
 20
-2.19258
 30
0.0
 10
-1.4273300000000002
 20
-2.3881600000000001
 30
0.0
 10
-1.4273300000000002
 20
-2.3881600000000001
 30
0.0
 10
-1.4146300000000001
 20
-2.2637
 30
0.0
 10
-1.2342900000000001
 20
-2.2459200000000004
 30
0.0
 10
-1.1834900000000002
 20
-2.13924
 30
0.0
  0
SPLINE
  5
43
100
AcDbEntity
  8
Ebene 1
 62
     7
100
AcDbSpline
210
0.0
220
0.0
230
1.0
 70
     1
 71
     3
 72
    20
 73
    16
 74
     0
 42
0.0000000001
 43
0.0000000001
 40
0.0
 40
0.0
 40
0.0
 40
0.0
 40
0.25
 40
0.25
 40
0.25
 40
0.25
 40
0.5
 40
0.5
 40
0.5
 40
0.5
 40
0.75
 40
0.75
 40
0.75
 40
0.75
 40
1.0
 40
1.0
 40
1.0
 40
1.0
 10
2.8830400000000003
 20
-2.1570200000000002
 30
0.0
 10
3.1878400000000005
 20
-2.3881600000000001
 30
0.0
 10
3.3504000000000005
 20
-2.8910800000000001
 30
0.0
 10
3.7618800000000001
 20
-2.9647400000000004
 30
0.0
 10
3.7618800000000001
 20
-2.9647400000000004
 30
0.0
 10
3.4926400000000002
 20
-3.3025600000000002
 30
0.0
 10
2.84748
 20
-3.0333200000000002
 30
0.0
 10
2.8652600000000001
 20
-2.60406
 30
0.0
 10
2.8652600000000001
 20
-2.60406
 30
0.0
 10
2.9186000000000001
 20
-2.5862800000000004
 30
0.0
 10
3.0456000000000003
 20
-2.6751800000000001
 30
0.0
 10
3.0278200000000002
 20
-2.5685000000000002
 30
0.0
 10
3.0278200000000002
 20
-2.5685000000000002
 30
0.0
 10
2.9363800000000002
 20
-2.4618200000000003
 30
0.0
 10
2.8830400000000003
 20
-2.2992600000000003
 30
0.0
 10
2.8830400000000003
 20
-2.1570200000000002
 30
0.0
  0
SPLINE
  5
44
100
AcDbEntity
  8
Ebene 1
 62
     7
100
AcDbSpline
210
0.0
220
0.0
230
1.0
 70
     1
 71
     3
 72
     8
 73
     4
 74
     0
 42
0.0000000001
 43
0.0000000001
 40
0.0
 40
0.0
 40
0.0
 40
0.0
 40
1.0
 40
1.0
 40
1.0
 40
1.0
 10
3.2411800000000004
 20
-2.1570200000000002
 30
0.0
 10
3.2767400000000002
 20
-2.1570200000000002
 30
0.0
 10
3.2411800000000004
 20
-2.19258
 30
0.0
 10
3.2411800000000004
 20
-2.1570200000000002
 30
0.0
  0
SPLINE
  5
45
100
AcDbEntity
  8
Ebene 1
100
AcDbSpline
210
0.0
220
0.0
230
1.0
 70
     1
 71
     3
 72
    24
 73
    20
 74
     0
 42
0.0000000001
 43
0.0000000001
 40
0.0
 40
0.0
 40
0.0
 40
0.0
 40
0.2
 40
0.2
 40
0.2
 40
0.2
 40
0.4
 40
0.4
 40
0.4
 40
0.4
 40
0.6000000000000001
 40
0.6000000000000001
 40
0.6000000000000001
 40
0.6000000000000001
 40
0.8
 40
0.8
 40
0.8
 40
0.8
 40
1.0
 40
1.0
 40
1.0
 40
1.0
 10
1.5038200000000002
 20
-2.2459200000000004
 30
0.0
 10
1.6460600000000001
 20
-2.2103600000000001
 30
0.0
 10
1.6460600000000001
 20
-2.3195800000000002
 30
0.0
 10
1.6816200000000001
 20
-2.4084800000000004
 30
0.0
 10
1.6816200000000001
 20
-2.4084800000000004
 30
0.0
 10
1.6816200000000001
 20
-2.4084800000000004
 30
0.0
 10
1.7349600000000001
 20
-2.5329400000000004
 30
0.0
 10
1.7349600000000001
 20
-2.5329400000000004
 30
0.0
 10
1.7349600000000001
 20
-2.5329400000000004
 30
0.0
 10
1.5216000000000001
 20
-2.3881600000000001
 30
0.0
 10
1.27014
 20
-2.4440400000000002
 30
0.0
 10
1.0898000000000001
 20
-2.60406
 30
0.0
 10
1.0898000000000001
 20
-2.60406
 30
0.0
 10
1.0364600000000002
 20
-2.5151600000000003
 30
0.0
 10
1.1812400000000001
 20
-2.4440400000000002
 30
0.0
 10
1.2523600000000001
 20
-2.4262600000000001
 30
0.0
 10
1.2523600000000001
 20
-2.4262600000000001
 30
0.0
 10
1.3234800000000002
 20
-2.3526000000000002
 30
0.0
 10
1.4123800000000002
 20
-2.2814800000000002
 30
0.0
 10
1.5038200000000002
 20
-2.2459200000000004
 30
0.0
  0
SPLINE
  5
46
100
AcDbEntity
  8
Ebene 1
 62
     7
100
AcDbSpline
210
0.0
220
0.0
230
1.0
 70
     1
 71
     3
 72
    24
 73
    20
 74
     0
 42
0.0000000001
 43
0.0000000001
 40
0.0
 40
0.0
 40
0.0
 40
0.0
 40
0.2
 40
0.2
 40
0.2
 40
0.2
 40
0.4
 40
0.4
 40
0.4
 40
0.4
 40
0.6000000000000001
 40
0.6000000000000001
 40
0.6000000000000001
 40
0.6000000000000001
 40
0.8
 40
0.8
 40
0.8
 40
0.8
 40
1.0
 40
1.0
 40
1.0
 40
1.0
 10
2.5604600000000004
 20
-2.4084800000000004
 30
0.0
 10
2.5960200000000002
 20
-2.4084800000000004
 30
0.0
 10
2.6138000000000003
 20
-2.4262600000000001
 30
0.0
 10
2.63158
 20
-2.4440400000000002
 30
0.0
 10
2.63158
 20
-2.4440400000000002
 30
0.0
 10
2.6849200000000004
 20
-2.8021800000000003
 30
0.0
 10
2.84748
 20
-3.1247600000000002
 30
0.0
 10
3.0811600000000001
 20
-3.4117800000000003
 30
0.0
 10
3.0811600000000001
 20
-3.4117800000000003
 30
0.0
 10
2.5960200000000002
 20
-3.6251400000000005
 30
0.0
 10
2.2378800000000001
 20
-3.0714200000000003
 30
0.0
 10
2.29122
 20
-2.6218400000000002
 30
0.0
 10
2.29122
 20
-2.6218400000000002
 30
0.0
 10
2.3623400000000001
 20
-2.6421600000000001
 30
0.0
 10
2.4360000000000004
 20
-2.8377400000000002
 30
0.0
 10
2.5426800000000003
 20
-2.7666200000000001
 30
0.0
 10
2.5426800000000003
 20
-2.7666200000000001
 30
0.0
 10
2.50712
 20
-2.6421600000000001
 30
0.0
 10
2.5249000000000001
 20
-2.5151600000000003
 30
0.0
 10
2.5604600000000004
 20
-2.4084800000000004
 30
0.0
  0
SPLINE
  5
47
100
AcDbEntity
  8
Ebene 1
 62
     7
100
AcDbSpline
210
0.0
220
0.0
230
1.0
 70
     1
 71
     3
 72
     8
 73
     4
 74
     0
 42
0.0000000001
 43
0.0000000001
 40
0.0
 40
0.0
 40
0.0
 40
0.0
 40
1.0
 40
1.0
 40
1.0
 40
1.0
 10
-2.8141700000000003
 20
-2.4440400000000002
 30
0.0
 10
-2.8116300000000001
 20
-2.4796
 30
0.0
 10
-2.8471900000000003
 20
-2.4440400000000002
 30
0.0
 10
-2.8141700000000003
 20
-2.4440400000000002
 30
0.0
  0
SPLINE
  5
48
100
AcDbEntity
  8
Ebene 1
 62
     7
100
AcDbSpline
210
0.0
220
0.0
230
1.0
 70
     1
 71
     3
 72
    12
 73
     8
 74
     0
 42
0.0000000001
 43
0.0000000001
 40
0.0
 40
0.0
 40
0.0
 40
0.0
 40
0.5
 40
0.5
 40
0.5
 40
0.5
 40
1.0
 40
1.0
 40
1.0
 40
1.0
 10
-2.5804900000000002
 20
-2.4440400000000002
 30
0.0
 10
-2.6185900000000002
 20
-2.8021800000000003
 30
0.0
 10
-2.8471900000000003
 20
-3.2136600000000004
 30
0.0
 10
-3.2383500000000001
 20
-3.3203400000000003
 30
0.0
 10
-3.2383500000000001
 20
-3.3203400000000003
 30
0.0
 10
-3.0249900000000003
 20
-3.0333200000000002
 30
0.0
 10
-2.8344900000000002
 20
-2.6929600000000002
 30
0.0
 10
-2.5804900000000002
 20
-2.4440400000000002
 30
0.0
  0
SPLINE
  5
49
100
AcDbEntity
  8
Ebene 1
 62
     7
100
AcDbSpline
210
0.0
220
0.0
230
1.0
 70
     1
 71
     3
 72
    16
 73
    12
 74
     0
 42
0.0000000001
 43
0.0000000001
 40
0.0
 40
0.0
 40
0.0
 40
0.0
 40
0.3333333333333333
 40
0.3333333333333333
 40
0.3333333333333333
 40
0.3333333333333333
 40
0.6666666666666666
 40
0.6666666666666666
 40
0.6666666666666666
 40
0.6666666666666666
 40
1.0
 40
1.0
 40
1.0
 40
1.0
 10
-2.22235
 20
-2.6751800000000001
 30
0.0
 10
-2.0343900000000001
 20
-2.9266400000000004
 30
0.0
 10
-2.2909300000000004
 20
-3.3559000000000001
 30
0.0
 10
-2.5931900000000003
 20
-3.4295600000000004
 30
0.0
 10
-2.5931900000000003
 20
-3.4295600000000004
 30
0.0
 10
-2.4661900000000001
 20
-3.2136600000000004
 30
0.0
 10
-2.48651
 20
-2.9088600000000002
 30
0.0
 10
-2.2604500000000001
 20
-2.7666200000000001
 30
0.0
 10
-2.2604500000000001
 20
-2.7666200000000001
 30
0.0
 10
-2.2604500000000001
 20
-2.7666200000000001
 30
0.0
 10
-2.22235
 20
-2.6751800000000001
 30
0.0
 10
-2.22235
 20
-2.6751800000000001
 30
0.0
  0
SPLINE
  5
4A
100
AcDbEntity
  8
Ebene 1
100
AcDbSpline
210
0.0
220
0.0
230
1.0
 70
     1
 71
     3
 72
    16
 73
    12
 74
     0
 42
0.0000000001
 43
0.0000000001
 40
0.0
 40
0.0
 40
0.0
 40
0.0
 40
0.3333333333333333
 40
0.3333333333333333
 40
0.3333333333333333
 40
0.3333333333333333
 40
0.6666666666666666
 40
0.6666666666666666
 40
0.6666666666666666
 40
0.6666666666666666
 40
1.0
 40
1.0
 40
1.0
 40
1.0
 10
-0.35799
 20
-2.7488400000000004
 30
0.0
 10
-0.23353
 20
-2.6929600000000002
 30
0.0
 10
-0.07097
 20
-2.8377400000000002
 30
0.0
 10
-0.17765
 20
-2.94442
 30
0.0
 10
-0.17765
 20
-2.94442
 30
0.0
 10
-0.17765
 20
-2.94442
 30
0.0
 10
-0.19797
 20
-2.9266400000000004
 30
0.0
 10
-0.19797
 20
-2.9266400000000004
 30
0.0
 10
-0.19797
 20
-2.9266400000000004
 30
0.0
 10
-0.14209
 20
-2.7844000000000002
 30
0.0
 10
-0.39355
 20
-2.8377400000000002
 30
0.0
 10
-0.35799
 20
-2.7488400000000004
 30
0.0
  0
SPLINE
  5
4B
100
AcDbEntity
  8
Ebene 1
100
AcDbSpline
210
0.0
220
0.0
230
1.0
 70
     1
 71
     3
 72
    20
 73
    16
 74
     0
 42
0.0000000001
 43
0.0000000001
 40
0.0
 40
0.0
 40
0.0
 40
0.0
 40
0.25
 40
0.25
 40
0.25
 40
0.25
 40
0.5
 40
0.5
 40
0.5
 40
0.5
 40
0.75
 40
0.75
 40
0.75
 40
0.75
 40
1.0
 40
1.0
 40
1.0
 40
1.0
 10
0.3913
 20
-2.7666200000000001
 30
0.0
 10
0.3913
 20
-2.7666200000000001
 30
0.0
 10
0.5005200000000001
 20
-2.7844000000000002
 30
0.0
 10
0.5005200000000001
 20
-2.7844000000000002
 30
0.0
 10
0.5005200000000001
 20
-2.7844000000000002
 30
0.0
 10
0.53354
 20
-2.7844000000000002
 30
0.0
 10
0.5894200000000001
 20
-2.7666200000000001
 30
0.0
 10
0.5894200000000001
 20
-2.81996
 30
0.0
 10
0.5894200000000001
 20
-2.81996
 30
0.0
 10
0.5005200000000001
 20
-2.81996
 30
0.0
 10
0.4090800000000001
 20
-2.8021800000000003
 30
0.0
 10
0.37352
 20
-2.8910800000000001
 30
0.0
 10
0.37352
 20
-2.8910800000000001
 30
0.0
 10
0.26684
 20
-2.9088600000000002
 30
0.0
 10
0.33796
 20
-2.7844000000000002
 30
0.0
 10
0.3913
 20
-2.7666200000000001
 30
0.0
  0
SPLINE
  5
4C
100
AcDbEntity
  8
Ebene 1
100
AcDbSpline
210
0.0
220
0.0
230
1.0
 70
     1
 71
     3
 72
    36
 73
    32
 74
     0
 42
0.0000000001
 43
0.0000000001
 40
0.0
 40
0.0
 40
0.0
 40
0.0
 40
0.125
 40
0.125
 40
0.125
 40
0.125
 40
0.25
 40
0.25
 40
0.25
 40
0.25
 40
0.375
 40
0.375
 40
0.375
 40
0.375
 40
0.5
 40
0.5
 40
0.5
 40
0.5
 40
0.625
 40
0.625
 40
0.625
 40
0.625
 40
0.75
 40
0.75
 40
0.75
 40
0.75
 40
0.875
 40
0.875
 40
0.875
 40
0.875
 40
1.0
 40
1.0
 40
1.0
 40
1.0
 10
1.3946000000000001
 20
-2.81996
 30
0.0
 10
1.3946000000000001
 20
-2.81996
 30
0.0
 10
1.6816200000000001
 20
-2.8910800000000001
 30
0.0
 10
1.6816200000000001
 20
-2.8910800000000001
 30
0.0
 10
1.6816200000000001
 20
-2.8910800000000001
 30
0.0
 10
1.6994000000000002
 20
-2.9647400000000004
 30
0.0
 10
1.5749400000000002
 20
-2.8910800000000001
 30
0.0
 10
1.5571600000000001
 20
-2.94442
 30
0.0
 10
1.5571600000000001
 20
-2.94442
 30
0.0
 10
1.5393800000000002
 20
-3.0536400000000001
 30
0.0
 10
1.5393800000000002
 20
-3.1603200000000005
 30
0.0
 10
1.48604
 20
-3.2492200000000002
 30
0.0
 10
1.48604
 20
-3.2492200000000002
 30
0.0
 10
1.48604
 20
-3.2492200000000002
 30
0.0
 10
1.5038200000000002
 20
-3.4651200000000002
 30
0.0
 10
1.5038200000000002
 20
-3.4651200000000002
 30
0.0
 10
1.5038200000000002
 20
-3.4651200000000002
 30
0.0
 10
1.3768200000000002
 20
-3.6251400000000005
 30
0.0
 10
1.14568
 20
-3.6099000000000001
 30
0.0
 10
0.9653400000000001
 20
-3.6429200000000002
 30
0.0
 10
0.9653400000000001
 20
-3.6429200000000002
 30
0.0
 10
0.9653400000000001
 20
-3.6429200000000002
 30
0.0
 10
0.37352
 20
-3.3025600000000002
 30
0.0
 10
0.37352
 20
-3.3025600000000002
 30
0.0
 10
0.37352
 20
-3.3025600000000002
 30
0.0
 10
0.37352
 20
-3.3025600000000002
 30
0.0
 10
0.33796
 20
-3.1958800000000003
 30
0.0
 10
0.33796
 20
-3.1958800000000003
 30
0.0
 10
0.33796
 20
-3.1958800000000003
 30
0.0
 10
0.7138800000000001
 20
-3.2873200000000002
 30
0.0
 10
1.01868
 20
-2.8733000000000004
 30
0.0
 10
1.3946000000000001
 20
-2.81996
 30
0.0
  0
SPLINE
  5
4D
100
AcDbEntity
  8
Ebene 1
100
AcDbSpline
210
0.0
220
0.0
230
1.0
 70
     1
 71
     3
 72
    24
 73
    20
 74
     0
 42
0.0000000001
 43
0.0000000001
 40
0.0
 40
0.0
 40
0.0
 40
0.0
 40
0.2
 40
0.2
 40
0.2
 40
0.2
 40
0.4
 40
0.4
 40
0.4
 40
0.4
 40
0.6000000000000001
 40
0.6000000000000001
 40
0.6000000000000001
 40
0.6000000000000001
 40
0.8
 40
0.8
 40
0.8
 40
0.8
 40
1.0
 40
1.0
 40
1.0
 40
1.0
 10
-0.05319
 20
-2.8377400000000002
 30
0.0
 10
0.21096
 20
-2.8021800000000003
 30
0.0
 10
0.00014
 20
-3.1247600000000002
 30
0.0
 10
0.16016
 20
-3.2314400000000001
 30
0.0
 10
0.16016
 20
-3.2314400000000001
 30
0.0
 10
0.16016
 20
-3.2314400000000001
 30
0.0
 10
0.16016
 20
-3.2873200000000002
 30
0.0
 10
0.16016
 20
-3.2873200000000002
 30
0.0
 10
0.16016
 20
-3.2873200000000002
 30
0.0
 10
0.16016
 20
-3.2873200000000002
 30
0.0
 10
-0.10907
 20
-3.3381200000000004
 30
0.0
 10
-0.10907
 20
-3.3381200000000004
 30
0.0
 10
-0.10907
 20
-3.3381200000000004
 30
0.0
 10
-0.12431
 20
-3.3203400000000003
 30
0.0
 10
-0.12431
 20
-3.3025600000000002
 30
0.0
 10
-0.12431
 20
-3.2873200000000002
 30
0.0
 10
-0.12431
 20
-3.2873200000000002
 30
0.0
 10
0.00014
 20
-3.1603200000000005
 30
0.0
 10
0.01538
 20
-2.9799800000000003
 30
0.0
 10
-0.05319
 20
-2.8377400000000002
 30
0.0
  0
SPLINE
  5
4E
100
AcDbEntity
  8
Ebene 1
100
AcDbSpline
210
0.0
220
0.0
230
1.0
 70
     1
 71
     3
 72
    40
 73
    36
 74
     0
 42
0.0000000001
 43
0.0000000001
 40
0.0
 40
0.0
 40
0.0
 40
0.0
 40
0.1111111111111111
 40
0.1111111111111111
 40
0.1111111111111111
 40
0.1111111111111111
 40
0.2222222222222222
 40
0.2222222222222222
 40
0.2222222222222222
 40
0.2222222222222222
 40
0.3333333333333333
 40
0.3333333333333333
 40
0.3333333333333333
 40
0.3333333333333333
 40
0.4444444444444444
 40
0.4444444444444444
 40
0.4444444444444444
 40
0.4444444444444444
 40
0.5555555555555556
 40
0.5555555555555556
 40
0.5555555555555556
 40
0.5555555555555556
 40
0.6666666666666667
 40
0.6666666666666667
 40
0.6666666666666667
 40
0.6666666666666667
 40
0.7777777777777779
 40
0.7777777777777779
 40
0.7777777777777779
 40
0.7777777777777779
 40
0.8888888888888891
 40
0.8888888888888891
 40
0.8888888888888891
 40
0.8888888888888891
 40
1.0
 40
1.0
 40
1.0
 40
1.0
 10
-1.3257300000000001
 20
-2.8555200000000003
 30
0.0
 10
-0.9167900000000001
 20
-2.7666200000000001
 30
0.0
 10
-0.68057
 20
-3.1425400000000003
 30
0.0
 10
-0.3224300000000001
 20
-3.2314400000000001
 30
0.0
 10
-0.3224300000000001
 20
-3.2314400000000001
 30
0.0
 10
-0.3224300000000001
 20
-3.2314400000000001
 30
0.0
 10
-0.21575
 20
-3.1603200000000005
 30
0.0
 10
-0.21575
 20
-3.1603200000000005
 30
0.0
 10
-0.21575
 20
-3.1603200000000005
 30
0.0
 10
-0.19797
 20
-3.1603200000000005
 30
0.0
 10
-0.17765
 20
-3.1781000000000001
 30
0.0
 10
-0.17765
 20
-3.1958800000000003
 30
0.0
 10
-0.17765
 20
-3.1958800000000003
 30
0.0
 10
-0.17765
 20
-3.1958800000000003
 30
0.0
 10
-0.8786900000000001
 20
-3.6784800000000004
 30
0.0
 10
-0.8786900000000001
 20
-3.6784800000000004
 30
0.0
 10
-0.8786900000000001
 20
-3.6784800000000004
 30
0.0
 10
-1.1580900000000001
 20
-3.7343600000000001
 30
0.0
 10
-1.6178300000000001
 20
-3.4651200000000002
 30
0.0
 10
-1.3435100000000002
 20
-3.1781000000000001
 30
0.0
 10
-1.3435100000000002
 20
-3.1781000000000001
 30
0.0
 10
-1.3435100000000002
 20
-3.1781000000000001
 30
0.0
 10
-1.3435100000000002
 20
-2.9977600000000004
 30
0.0
 10
-1.3435100000000002
 20
-2.9977600000000004
 30
0.0
 10
-1.3435100000000002
 20
-2.9977600000000004
 30
0.0
 10
-1.20635
 20
-2.8021800000000003
 30
0.0
 10
-1.5187700000000002
 20
-3.1069800000000001
 30
0.0
 10
-1.50099
 20
-2.9647400000000004
 30
0.0
 10
-1.50099
 20
-2.9647400000000004
 30
0.0
 10
-1.50099
 20
-2.9647400000000004
 30
0.0
 10
-1.4324100000000002
 20
-2.9088600000000002
 30
0.0
 10
-1.4324100000000002
 20
-2.9088600000000002
 30
0.0
 10
-1.4324100000000002
 20
-2.9088600000000002
 30
0.0
 10
-1.4324100000000002
 20
-2.9088600000000002
 30
0.0
 10
-1.3257300000000001
 20
-2.8555200000000003
 30
0.0
 10
-1.3257300000000001
 20
-2.8555200000000003
 30
0.0
  0
SPLINE
  5
4F
100
AcDbEntity
  8
Ebene 1
 62
     7
100
AcDbSpline
210
0.0
220
0.0
230
1.0
 70
     1
 71
     3
 72
     8
 73
     4
 74
     0
 42
0.0000000001
 43
0.0000000001
 40
0.0
 40
0.0
 40
0.0
 40
0.0
 40
1.0
 40
1.0
 40
1.0
 40
1.0
 10
-3.1900900000000001
 20
-2.9647400000000004
 30
0.0
 10
-3.1926300000000003
 20
-2.9266400000000004
 30
0.0
 10
-3.15707
 20
-2.9647400000000004
 30
0.0
 10
-3.1900900000000001
 20
-2.9647400000000004
 30
0.0
  0
SPLINE
  5
50
100
AcDbEntity
  8
Ebene 1
 62
     7
100
AcDbSpline
210
0.0
220
0.0
230
1.0
 70
     1
 71
     3
 72
    12
 73
     8
 74
     0
 42
0.0000000001
 43
0.0000000001
 40
0.0
 40
0.0
 40
0.0
 40
0.0
 40
0.5
 40
0.5
 40
0.5
 40
0.5
 40
1.0
 40
1.0
 40
1.0
 40
1.0
 10
-3.1900900000000001
 20
-2.9647400000000004
 30
0.0
 10
-3.1900900000000001
 20
-2.9647400000000004
 30
0.0
 10
-3.2078700000000002
 20
-2.9799800000000003
 30
0.0
 10
-3.2078700000000002
 20
-2.9799800000000003
 30
0.0
 10
-3.2078700000000002
 20
-2.9799800000000003
 30
0.0
 10
-3.2078700000000002
 20
-2.9799800000000003
 30
0.0
 10
-3.1900900000000001
 20
-2.9647400000000004
 30
0.0
 10
-3.1900900000000001
 20
-2.9647400000000004
 30
0.0
  0
SPLINE
  5
51
100
AcDbEntity
  8
Ebene 1
 62
     7
100
AcDbSpline
210
0.0
220
0.0
230
1.0
 70
     1
 71
     3
 72
    12
 73
     8
 74
     0
 42
0.0000000001
 43
0.0000000001
 40
0.0
 40
0.0
 40
0.0
 40
0.0
 40
0.5
 40
0.5
 40
0.5
 40
0.5
 40
1.0
 40
1.0
 40
1.0
 40
1.0
 10
-3.2078700000000002
 20
-2.9799800000000003
 30
0.0
 10
-3.2027900000000002
 20
-2.9977600000000004
 30
0.0
 10
-3.2205700000000004
 20
-3.0333200000000002
 30
0.0
 10
-3.2434300000000005
 20
-3.0333200000000002
 30
0.0
 10
-3.2434300000000005
 20
-3.0333200000000002
 30
0.0
 10
-3.2485100000000005
 20
-3.0155400000000001
 30
0.0
 10
-3.2307300000000003
 20
-2.9799800000000003
 30
0.0
 10
-3.2078700000000002
 20
-2.9799800000000003
 30
0.0
  0
SPLINE
  5
52
100
AcDbEntity
  8
Ebene 1
 62
     7
100
AcDbSpline
210
0.0
220
0.0
230
1.0
 70
     1
 71
     3
 72
    12
 73
     8
 74
     0
 42
0.0000000001
 43
0.0000000001
 40
0.0
 40
0.0
 40
0.0
 40
0.0
 40
0.5
 40
0.5
 40
0.5
 40
0.5
 40
1.0
 40
1.0
 40
1.0
 40
1.0
 10
-3.2434300000000005
 20
-3.0333200000000002
 30
0.0
 10
-3.2434300000000005
 20
-3.0333200000000002
 30
0.0
 10
-3.2612100000000002
 20
-3.0536400000000001
 30
0.0
 10
-3.2612100000000002
 20
-3.0536400000000001
 30
0.0
 10
-3.2612100000000002
 20
-3.0536400000000001
 30
0.0
 10
-3.2612100000000002
 20
-3.0536400000000001
 30
0.0
 10
-3.2434300000000005
 20
-3.0333200000000002
 30
0.0
 10
-3.2434300000000005
 20
-3.0333200000000002
 30
0.0
  0
SPLINE
  5
53
100
AcDbEntity
  8
Ebene 1
 62
     7
100
AcDbSpline
210
0.0
220
0.0
230
1.0
 70
     1
 71
     3
 72
    12
 73
     8
 74
     0
 42
0.0000000001
 43
0.0000000001
 40
0.0
 40
0.0
 40
0.0
 40
0.0
 40
0.5
 40
0.5
 40
0.5
 40
0.5
 40
1.0
 40
1.0
 40
1.0
 40
1.0
 10
-3.2612100000000002
 20
-3.0536400000000001
 30
0.0
 10
-3.2612100000000002
 20
-3.0536400000000001
 30
0.0
 10
-3.2789900000000003
 20
-3.0714200000000003
 30
0.0
 10
-3.2789900000000003
 20
-3.0714200000000003
 30
0.0
 10
-3.2789900000000003
 20
-3.0714200000000003
 30
0.0
 10
-3.2789900000000003
 20
-3.0714200000000003
 30
0.0
 10
-3.2612100000000002
 20
-3.0536400000000001
 30
0.0
 10
-3.2612100000000002
 20
-3.0536400000000001
 30
0.0
  0
SPLINE
  5
54
100
AcDbEntity
  8
Ebene 1
 62
     7
100
AcDbSpline
210
0.0
220
0.0
230
1.0
 70
     1
 71
     3
 72
    12
 73
     8
 74
     0
 42
0.0000000001
 43
0.0000000001
 40
0.0
 40
0.0
 40
0.0
 40
0.0
 40
0.5
 40
0.5
 40
0.5
 40
0.5
 40
1.0
 40
1.0
 40
1.0
 40
1.0
 10
-0.93203
 20
-3.2492200000000002
 30
0.0
 10
-0.8964700000000001
 20
-3.2492200000000002
 30
0.0
 10
-0.8304300000000001
 20
-3.2492200000000002
 30
0.0
 10
-0.84567
 20
-3.3025600000000002
 30
0.0
 10
-0.84567
 20
-3.3025600000000002
 30
0.0
 10
-0.8786900000000001
 20
-3.3025600000000002
 30
0.0
 10
-0.9396500000000001
 20
-3.2873200000000002
 30
0.0
 10
-0.93203
 20
-3.2492200000000002
 30
0.0
  0
SPLINE
  5
55
100
AcDbEntity
  8
Ebene 1
 62
     7
100
AcDbSpline
210
0.0
220
0.0
230
1.0
 70
     1
 71
     3
 72
     8
 73
     4
 74
     0
 42
0.0000000001
 43
0.0000000001
 40
0.0
 40
0.0
 40
0.0
 40
0.0
 40
1.0
 40
1.0
 40
1.0
 40
1.0
 10
0.8942200000000001
 20
-3.2670000000000003
 30
0.0
 10
1.0009000000000001
 20
-3.2492200000000002
 30
0.0
 10
0.8942200000000001
 20
-3.3559000000000001
 30
0.0
 10
0.8942200000000001
 20
-3.2670000000000003
 30
0.0
  0
SPLINE
  5
56
100
AcDbEntity
  8
Ebene 1
100
AcDbSpline
210
0.0
220
0.0
230
1.0
 70
     1
 71
     3
 72
    24
 73
    20
 74
     0
 42
0.0000000001
 43
0.0000000001
 40
0.0
 40
0.0
 40
0.0
 40
0.0
 40
0.2
 40
0.2
 40
0.2
 40
0.2
 40
0.4
 40
0.4
 40
0.4
 40
0.4
 40
0.6000000000000001
 40
0.6000000000000001
 40
0.6000000000000001
 40
0.6000000000000001
 40
0.8
 40
0.8
 40
0.8
 40
0.8
 40
1.0
 40
1.0
 40
1.0
 40
1.0
 10
0.0865
 20
-3.4295600000000004
 30
0.0
 10
0.0865
 20
-3.4295600000000004
 30
0.0
 10
0.19572
 20
-3.4295600000000004
 30
0.0
 10
0.19572
 20
-3.4295600000000004
 30
0.0
 10
0.19572
 20
-3.4295600000000004
 30
0.0
 10
0.3557400000000001
 20
-3.6607000000000003
 30
0.0
 10
0.5005200000000001
 20
-3.9655000000000005
 30
0.0
 10
0.3913
 20
-4.2550600000000003
 30
0.0
 10
0.3913
 20
-4.2550600000000003
 30
0.0
 10
0.26684
 20
-4.2880800000000008
 30
0.0
 10
0.19572
 20
-4.1458400000000006
 30
0.0
 10
0.12206
 20
-4.0925000000000002
 30
0.0
 10
0.12206
 20
-4.0925000000000002
 30
0.0
 10
0.01538
 20
-4.1458400000000006
 30
0.0
 10
-0.05319
 20
-4.30586
 30
0.0
 10
-0.19797
 20
-4.2550600000000003
 30
0.0
 10
-0.19797
 20
-4.2550600000000003
 30
0.0
 10
-0.26909
 20
-3.9477200000000003
 30
0.0
 10
-0.15987
 20
-3.5895800000000002
 30
0.0
 10
0.0865
 20
-3.4295600000000004
 30
0.0
  0
SPLINE
  5
57
100
AcDbEntity
  8
Ebene 1
 62
     7
100
AcDbSpline
210
0.0
220
0.0
230
1.0
 70
     1
 71
     3
 72
    12
 73
     8
 74
     0
 42
0.0000000001
 43
0.0000000001
 40
0.0
 40
0.0
 40
0.0
 40
0.0
 40
0.5
 40
0.5
 40
0.5
 40
0.5
 40
1.0
 40
1.0
 40
1.0
 40
1.0
 10
-0.7542300000000001
 20
-4.90022
 30
0.0
 10
-0.7059700000000001
 20
-4.9332400000000005
 30
0.0
 10
-0.72121
 20
-5.0424600000000002
 30
0.0
 10
-0.72121
 20
-5.1313600000000008
 30
0.0
 10
-0.72121
 20
-5.1313600000000008
 30
0.0
 10
-0.8202700000000001
 20
-5.1135800000000007
 30
0.0
 10
-0.7923300000000001
 20
-4.9510200000000006
 30
0.0
 10
-0.7542300000000001
 20
-4.90022
 30
0.0
  0
SPLINE
  5
58
100
AcDbEntity
  8
Ebene 1
 62
     7
100
AcDbSpline
210
0.0
220
0.0
230
1.0
 70
     1
 71
     3
 72
    12
 73
     8
 74
     0
 42
0.0000000001
 43
0.0000000001
 40
0.0
 40
0.0
 40
0.0
 40
0.0
 40
0.5
 40
0.5
 40
0.5
 40
0.5
 40
1.0
 40
1.0
 40
1.0
 40
1.0
 10
0.67832
 20
-5.0602400000000003
 30
0.0
 10
0.8231000000000001
 20
-5.0602400000000003
 30
0.0
 10
0.78754
 20
-5.2939200000000008
 30
0.0
 10
0.7316600000000001
 20
-5.3650400000000005
 30
0.0
 10
0.7316600000000001
 20
-5.3650400000000005
 30
0.0
 10
0.66054
 20
-5.2939200000000008
 30
0.0
 10
0.6961000000000001
 20
-5.1669200000000002
 30
0.0
 10
0.67832
 20
-5.0602400000000003
 30
0.0
  0
SPLINE
  5
59
100
AcDbEntity
  8
Ebene 1
 62
     7
100
AcDbSpline
210
0.0
220
0.0
230
1.0
 70
     1
 71
     3
 72
    12
 73
     8
 74
     0
 42
0.0000000001
 43
0.0000000001
 40
0.0
 40
0.0
 40
0.0
 40
0.0
 40
0.5
 40
0.5
 40
0.5
 40
0.5
 40
1.0
 40
1.0
 40
1.0
 40
1.0
 10
0.26684
 20
-5.1135800000000007
 30
0.0
 10
0.32018
 20
-5.1847000000000003
 30
0.0
 10
0.3913
 20
-5.3294800000000002
 30
0.0
 10
0.3557400000000001
 20
-5.4183800000000009
 30
0.0
 10
0.3557400000000001
 20
-5.4183800000000009
 30
0.0
 10
0.21096
 20
-5.4183800000000009
 30
0.0
 10
0.28462
 20
-5.2024800000000004
 30
0.0
 10
0.26684
 20
-5.1135800000000007
 30
0.0
  0
SPLINE
  5
5A
100
AcDbEntity
  8
Ebene 1
 62
     7
100
AcDbSpline
210
0.0
220
0.0
230
1.0
 70
     1
 71
     3
 72
    12
 73
     8
 74
     0
 42
0.0000000001
 43
0.0000000001
 40
0.0
 40
0.0
 40
0.0
 40
0.0
 40
0.5
 40
0.5
 40
0.5
 40
0.5
 40
1.0
 40
1.0
 40
1.0
 40
1.0
 10
-0.41133
 20
-5.1491400000000001
 30
0.0
 10
-0.3224300000000001
 20
-5.2228000000000003
 30
0.0
 10
-0.28687
 20
-5.4361600000000001
 30
0.0
 10
-0.35799
 20
-5.5250600000000007
 30
0.0
 10
-0.35799
 20
-5.5250600000000007
 30
0.0
 10
-0.41133
 20
-5.4183800000000009
 30
0.0
 10
-0.43165
 20
-5.2558200000000008
 30
0.0
 10
-0.41133
 20
-5.1491400000000001
 30
0.0
  0
SPLINE
  5
5B
100
AcDbEntity
  8
Ebene 1
 62
     7
100
AcDbSpline
210
0.0
220
0.0
230
1.0
 70
     1
 71
     3
 72
    12
 73
     8
 74
     0
 42
0.0000000001
 43
0.0000000001
 40
0.0
 40
0.0
 40
0.0
 40
0.0
 40
0.5
 40
0.5
 40
0.5
 40
0.5
 40
1.0
 40
1.0
 40
1.0
 40
1.0
 10
0.06872
 20
-5.1491400000000001
 30
0.0
 10
0.14238
 20
-5.1847000000000003
 30
0.0
 10
0.16016
 20
-5.3650400000000005
 30
0.0
 10
0.12206
 20
-5.4361600000000001
 30
0.0
 10
0.12206
 20
-5.4361600000000001
 30
0.0
 10
0.06872
 20
-5.3650400000000005
 30
0.0
 10
0.03316
 20
-5.2380400000000007
 30
0.0
 10
0.06872
 20
-5.1491400000000001
 30
0.0
  0
ENDSEC
  0
SECTION
  2
OBJECTS
  0
DICTIONARY
  5
19
100
AcDbDictionary
280
     0
281
     1
  3
ACAD_GROUP
350
1A
  3
ACAD_MLINESTYLE
350
1B
  3
ACAD_LAYOUT
350
1E
  3
ACAD_PLOTSETTINGS
350
22
  3
ACAD_PLOTSTYLENAME
350
1F
  3
ACAD_WIPEOUT_VARS
350
23
  0
DICTIONARY
  5
1A
102
{ACAD_REACTORS
330
19
102
}
100
AcDbDictionary
280
     0
281
     1
  0
DICTIONARY
  5
1B
102
{ACAD_REACTORS
330
19
102
}
100
AcDbDictionary
280
     0
281
     1
  3
Standard
350
1C
  0
MLINESTYLE
  5
1C
102
{ACAD_REACTORS
330
1B
102
}
100
AcDbMlineStyle
  2
Standard
 70
     0
  3

 62
     0
 51
90.0
 52
90.0
 71
     2
 49
0.5
 62
   256
  6
BYLAYER
 49
-0.5
 62
   256
  6
BYLAYER
  0
ACDBDICTIONARYWDFLT
  5
1F
102
{ACAD_REACTORS
330
19
102
}
100
AcDbDictionary
281
     1
  3
Normal
350
1D
100
AcDbDictionaryWithDefault
340
1D
  0
ACDBPLACEHOLDER
  5
1D
102
{ACAD_REACTORS
330
1F
102
}
  0
LAYOUT
  5
20
102
{ACAD_REACTORS
330
1E
102
}
100
AcDbPlotSettings
  1

  2

  4

  6

 40
0.0
 41
0.0
 42
0.0
 43
0.0
 44
0.0
 45
0.0
 46
0.0
 47
0.0
 48
0.0
 49
0.0
140
0.0
141
0.0
142
1.0
143
1.0
 70
  1024
 72
     0
 73
     0
 74
     0
  7

 75
     0
147
1.0
148
0.0
149
0.0
100
AcDbLayout
  1
Model
 70
     0
 71
     0
 10
0.0
 20
0.0
 11
0.0
 21
0.0
 12
0.0
 22
0.0
 32
0.0
 14
0.0
 24
0.0
 34
0.0
 15
0.0
 25
0.0
 35
0.0
146
0.0
 13
0.0
 23
0.0
 33
0.0
 16
0.0
 26
0.0
 36
0.0
 17
0.0
 27
0.0
 37
0.0
 76
     0
330
A
331
0
345
0
346
0
  0
LAYOUT
  5
21
102
{ACAD_REACTORS
330
1E
102
}
100
AcDbPlotSettings
  1

  2

  4

  6

 40
0.0
 41
0.0
 42
0.0
 43
0.0
 44
0.0
 45
0.0
 46
0.0
 47
0.0
 48
0.0
 49
0.0
140
0.0
141
0.0
142
1.0
143
1.0
 70
     0
 72
     0
 73
     0
 74
     0
  7

 75
     0
147
1.0
148
0.0
149
0.0
100
AcDbLayout
  1
Layout1
 70
     0
 71
     0
 10
0.0
 20
0.0
 11
0.0
 21
0.0
 12
0.0
 22
0.0
 32
0.0
 14
0.0
 24
0.0
 34
0.0
 15
0.0
 25
0.0
 35
0.0
146
0.0
 13
0.0
 23
0.0
 33
0.0
 16
0.0
 26
0.0
 36
0.0
 17
0.0
 27
0.0
 37
0.0
 76
     0
330
B
331
0
345
0
346
0
  0
DICTIONARY
  5
1E
102
{ACAD_REACTORS
330
19
102
}
100
AcDbDictionary
280
     0
281
     1
  3
Layout1
350
21
  3
Model
350
20
  0
DICTIONARY
  5
22
102
{ACAD_REACTORS
330
19
102
}
100
AcDbDictionary
280
     0
281
     1
  0
WIPEOUTVARIABLES
  5
23
100
AcDbWipeoutVariables
 70
     1
  0
ENDSEC
  0
EOF
