  0
SECTION
  2
HEADER
  9
$ACADVER
  1
AC1015
  9
$ACADMAINTVER
 70
     6
  9
$DWGCODEPAGE
  3
DOS850
  9
$INSBASE
 10
0.0
 20
0.0
 30
0.0
  9
$EXTMIN
 10
-4.06632
 20
-5.2511
 30
1.000000E+20
  9
$EXTMAX
 10
4.07176
 20
5.24453
 30
-1.000000E+20
  9
$LIMMIN
 10
0.0
 20
0.0
  9
$LIMMAX
 10
0.0
 20
0.0
  9
$ORTHOMODE
 70
     0
  9
$REGENMODE
 70
     1
  9
$FILLMODE
 70
     1
  9
$QTEXTMODE
 70
     0
  9
$MIRRTEXT
 70
     1
  9
$LTSCALE
 40
1.0
  9
$ATTMODE
 70
     1
  9
$TEXTSIZE
 40
0.2
  9
$TRACEWID
 40
0.05
  9
$TEXTSTYLE
  7
Standard
  9
$CLAYER
  8
0
  9
$CELTYPE
  6
Continuous
  9
$CECOLOR
 62
   256
  9
$CELTSCALE
 40
1.0
  9
$DISPSILH
 70
     0
  9
$DIMSCALE
 40
1.0
  9
$DIMASZ
 40
0.18
  9
$DIMEXO
 40
0.0625
  9
$DIMDLI
 40
0.38
  9
$DIMRND
 40
0.0
  9
$DIMDLE
 40
0.0
  9
$DIMEXE
 40
0.18
  9
$DIMTP
 40
0.0
  9
$DIMTM
 40
0.0
  9
$DIMTXT
 40
0.18
  9
$DIMCEN
 40
0.09
  9
$DIMTSZ
 40
0.0
  9
$DIMTOL
 70
     0
  9
$DIMLIM
 70
     0
  9
$DIMTIH
 70
     1
  9
$DIMTOH
 70
     1
  9
$DIMSE1
 70
     0
  9
$DIMSE2
 70
     0
  9
$DIMTAD
 70
     0
  9
$DIMZIN
 70
     0
  9
$DIMBLK
  1

  9
$DIMASO
 70
     1
  9
$DIMSHO
 70
     1
  9
$DIMPOST
  1

  9
$DIMAPOST
  1

  9
$DIMALT
 70
     0
  9
$DIMALTD
 70
     2
  9
$DIMALTF
 40
25.4
  9
$DIMLFAC
 40
1.0
  9
$DIMTOFL
 70
     0
  9
$DIMTVP
 40
0.0
  9
$DIMTIX
 70
     0
  9
$DIMSOXD
 70
     0
  9
$DIMSAH
 70
     0
  9
$DIMBLK1
  1

  9
$DIMBLK2
  1

  9
$DIMSTYLE
  2
Standard
  9
$DIMCLRD
 70
     0
  9
$DIMCLRE
 70
     0
  9
$DIMCLRT
 70
     0
  9
$DIMTFAC
 40
1.0
  9
$DIMGAP
 40
0.09
  9
$DIMJUST
 70
     0
  9
$DIMSD1
 70
     0
  9
$DIMSD2
 70
     0
  9
$DIMTOLJ
 70
     1
  9
$DIMTZIN
 70
     0
  9
$DIMALTZ
 70
     0
  9
$DIMALTTZ
 70
     0
  9
$DIMUPT
 70
     0
  9
$DIMDEC
 70
     4
  9
$DIMTDEC
 70
     4
  9
$DIMALTU
 70
     2
  9
$DIMALTTD
 70
     2
  9
$DIMTXSTY
  7
Standard
  9
$DIMAUNIT
 70
     0
  9
$DIMADEC
 70
     0
  9
$DIMALTRND
 40
0.0
  9
$DIMAZIN
 70
     0
  9
$DIMDSEP
 70
     0
  9
$DIMATFIT
 70
     3
  9
$DIMFRAC
 70
     0
  9
$DIMLDRBLK
  1

  9
$DIMLUNIT
 70
     2
  9
$DIMLWD
 70
     0
  9
$DIMLWE
 70
     0
  9
$DIMTMOVE
 70
     0
  9
$LUNITS
 70
     2
  9
$LUPREC
 70
     4
  9
$SKETCHINC
 40
0.1
  9
$FILLETRAD
 40
0.0
  9
$AUNITS
 70
     0
  9
$AUPREC
 70
     0
  9
$MENU
  1
acad
  9
$ELEVATION
 40
0.0
  9
$PELEVATION
 40
0.0
  9
$THICKNESS
 40
0.0
  9
$LIMCHECK
 70
     0
  9
$CHAMFERA
 40
0.0
  9
$CHAMFERB
 40
0.0
  9
$CHAMFERC
 40
0.0
  9
$CHAMFERD
 40
0.0
  9
$SKPOLY
 70
     0
  9
$TDCREATE
 40
0.000000000
  9
$TDUCREATE
 40
0.000000000
  9
$TDUPDATE
 40
0.000000000
  9
$TDUUPDATE
 40
0.000000000
  9
$TDINDWG
 40
0.0000000000
  9
$TDUSRTIMER
 40
0.0000000000
  9
$USRTIMER
 70
     1
  9
$ANGBASE
 50
0.0
  9
$ANGDIR
 70
     0
  9
$PDMODE
 70
     0
  9
$PDSIZE
 40
0.0
  9
$PLINEWID
 40
0.0
  9
$SPLFRAME
 70
     0
  9
$SPLINETYPE
 70
     6
  9
$SPLINESEGS
 70
     8
  9
$HANDSEED
  5
81
  9
$SURFTAB1
 70
     6
  9
$SURFTAB2
 70
     6
  9
$SURFTYPE
 70
     6
  9
$SURFU
 70
     6
  9
$SURFV
 70
     6
  9
$UCSBASE
  2

  9
$UCSNAME
  2

  9
$UCSORG
 10
0.0
 20
0.0
 30
0.0
  9
$UCSXDIR
 10
1.0
 20
0.0
 30
0.0
  9
$UCSYDIR
 10
0.0
 20
1.0
 30
0.0
  9
$UCSORTHOREF
  2

  9
$UCSORTHOVIEW
 70
     0
  9
$UCSORGTOP
 10
0.0
 20
0.0
 30
0.0
  9
$UCSORGBOTTOM
 10
0.0
 20
0.0
 30
0.0
  9
$UCSORGLEFT
 10
0.0
 20
0.0
 30
0.0
  9
$UCSORGRIGHT
 10
0.0
 20
0.0
 30
0.0
  9
$UCSORGFRONT
 10
0.0
 20
0.0
 30
0.0
  9
$UCSORGBACK
 10
0.0
 20
0.0
 30
0.0
  9
$PUCSBASE
  2

  9
$PUCSNAME
  2

  9
$PUCSORG
 10
0.0
 20
0.0
 30
0.0
  9
$PUCSXDIR
 10
1.0
 20
0.0
 30
0.0
  9
$PUCSYDIR
 10
0.0
 20
1.0
 30
0.0
  9
$PUCSORTHOREF
  2

  9
$PUCSORTHOVIEW
 70
     0
  9
$PUCSORGTOP
 10
0.0
 20
0.0
 30
0.0
  9
$PUCSORGBOTTOM
 10
0.0
 20
0.0
 30
0.0
  9
$PUCSORGLEFT
 10
0.0
 20
0.0
 30
0.0
  9
$PUCSORGRIGHT
 10
0.0
 20
0.0
 30
0.0
  9
$PUCSORGFRONT
 10
0.0
 20
0.0
 30
0.0
  9
$PUCSORGBACK
 10
0.0
 20
0.0
 30
0.0
  9
$USERI1
 70
     0
  9
$USERI2
 70
     0
  9
$USERI3
 70
     0
  9
$USERI4
 70
     0
  9
$USERI5
 70
     0
  9
$USERR1
 40
0.0
  9
$USERR2
 40
0.0
  9
$USERR3
 40
0.0
  9
$USERR4
 40
0.0
  9
$USERR5
 40
0.0
  9
$WORLDVIEW
 70
     1
  9
$SHADEDGE
 70
     3
  9
$SHADEDIF
 70
    70
  9
$TILEMODE
 70
     1
  9
$MAXACTVP
 70
    16
  9
$PINSBASE
 10
0.0
 20
0.0
 30
0.0
  9
$PLIMCHECK
 70
     0
  9
$PEXTMIN
 10
1.000000E+20
 20
1.000000E+20
 30
1.000000E+20
  9
$PEXTMAX
 10
-1.000000E+20
 20
-1.000000E+20
 30
-1.000000E+20
  9
$PLIMMIN
 10
0.0
 20
0.0
  9
$PLIMMAX
 10
12.0
 20
9.0
  9
$UNITMODE
 70
     0
  9
$VISRETAIN
 70
     0
  9
$PLINEGEN
 70
     1
  9
$PSLTSCALE
 70
     0
  9
$TREEDEPTH
 70
  3020
  9
$CMLSTYLE
  2
Standard
  9
$CMLJUST
 70
     0
  9
$CMLSCALE
 40
1.0
  9
$PROXYGRAPHICS
 70
     0
  9
$MEASUREMENT
 70
     0
  9
$CELWEIGHT
370
     0
  9
$ENDCAPS
280
     0
  9
$JOINSTYLE
280
     0
  9
$LWDISPLAY
290
     0
  9
$INSUNITS
 70
     5
  9
$HYPERLINKBASE
  1

  9
$XEDIT
290
     1
  9
$CEPSNTYPE
380
     0
  9
$PSTYLEMODE
290
     1
  9
$FINGERPRINTGUID
  2

  9
$VERSIONGUID
  2

  9
$EXTNAMES
290
     1
  9
$PSVPSCALE
 40
0.0
  0
ENDSEC
  0
SECTION
  2
CLASSES
  0
CLASS
  1
LWPOLYLINE
  2
AcDbPolyline
  3
AutoCAD 2000
 90
    32768
280
     0
281
     1
  0
CLASS
  1
IMAGE
  2
AcDbRasterImage
  3
ISM
 90
    32895
280
     0
281
     1
  0
CLASS
  1
OLE2FRAME
  2
AcDbOle2Frame
  3
AutoCAD 2000
 90
    32768
280
     0
281
     1
  0
CLASS
  1
HATCH
  2
AcDbHatch
  3
AutoCAD 2000
 90
    32768
280
     0
281
     1
  0
CLASS
  1
DICTIONARYVAR
  2
AcDbDictionaryVar
  3
AutoCAD 2000
 90
    32768
280
     0
281
     0
  0
CLASS
  1
RASTERVARIABLES
  2
AcDbRasterVariables
  3
ISM
 90
    32768
280
     0
281
     0
  0
CLASS
  1
IMAGEDEF
  2
AcDbRasterImageDef
  3
ISM
 90
    32768
280
     0
281
     0
  0
CLASS
  1
IMAGEDEF_REACTOR
  2
AcDbRasterImageDefReactor
  3
ISM
 90
    32769
280
     0
281
     0
  0
CLASS
  1
IDBUFFER
  2
AcDbIdBuffer
  3
AutoCAD 2000
 90
    32768
280
     0
281
     0
  0
CLASS
  1
SPATIAL_FILTER
  2
AcDbSpatialFilter
  3
AutoCAD 2000
 90
    32768
280
     0
281
     0
  0
CLASS
  1
XRECORD
  2
AcDbXrecord
  3
AutoCAD 2000
 90
    32768
280
     0
281
     0
  0
CLASS
  1
SORTENTSTABLE
  2
AcDbSortentsTable
  3
AutoCAD 2000
 90
    32768
280
     0
281
     0
  0
CLASS
  1
LAYER_INDEX
  2
AcDbLayerIndex
  3
AutoCAD 2000
 90
    32768
280
     0
281
     0
  0
CLASS
  1
SPATIAL_INDEX
  2
AcDbSpatialIndex
  3
AutoCAD 2000
 90
    32768
280
     0
281
     0
  0
CLASS
  1
OBJECT_PTR
  2
CAseDLPNTableRecord
  3
"ASE-LPNTableRecord"
 90
    32769
280
     0
281
     0
  0
CLASS
  1
LAYOUT
  2
AcDbLayout
  3
AutoCAD 2000
 90
        0
280
     0
281
     0
  0
CLASS
  1
PLOTSETTINGS
  2
AcDbPlotSettings
  3
AutoCAD 2000
 90
    32768
280
     0
281
     0
  0
CLASS
  1
ACDBDICTIONARYWDFLT
  2
AcDbDictionaryWithDefault
  3
AutoCAD 2000
 90
        0
280
     0
281
     0
  0
CLASS
  1
ACDBPLACEHOLDER
  2
AcDbPlaceHolder
  3
AutoCAD 2000
 90
        0
280
     0
281
     0
  0
CLASS
  1
VBA_PROJECT
  2
AcDbVbaProject
  3
acadvba
 90
    32768
280
     0
281
     0
  0
CLASS
  1
WIPEOUT
  2
AcDbWipeout
  3
WipeOut|AutoCAD Express Tool|expresstools@autodesk.com
 90
    32895
280
     0
281
     1
  0
CLASS
  1
WIPEOUTVARIABLES
  2
AcDbWipeoutVariables
  3
WipeOut|AutoCAD Express Tool|expresstools@autodesk.com
 90
        0
280
     0
281
     0
  0
CLASS
  1
RTEXT
  2
RText
  3
RText|AutoCAD Express Tool|expresstools@autodesk.com
 90
    32768
280
     0
281
     1
  0
CLASS
  1
ARCALIGNEDTEXT
  2
AcDbArcAlignedText
  3
ATEXT|AutoCAD Express Tool|expresstools@autodesk.com
 90
    32768
280
     0
281
     1
  0
ENDSEC
  0
SECTION
  2
TABLES
  0
TABLE
  2
VPORT
  5
7
100
AcDbSymbolTable
 70
     1
  0
VPORT
  5
15
100
AcDbSymbolTableRecord
100
AcDbViewportTableRecord
  2
*ACTIVE
 70
     0
 10
0.0
 20
0.0
 11
1.0
 21
1.0
 12
6.591288
 22
4.579184
 13
0.0
 23
0.0
 14
1.0
 24
1.0
 15
0.0
 25
0.0
 16
0.0
 26
0.0
 36
1.0
 17
0.0
 27
0.0
 37
0.0
 40
9.158369
 41
0.688564
 42
50.0
 43
0.0
 44
0.0
 50
0.0
 51
0.0
 71
     0
 72
   100
 73
     1
 74
     1
 75
     0
 76
     0
 77
     0
 78
     0
281
     0
 65
     0
110
0.0
120
0.0
130
0.0
111
1.0
121
0.0
131
0.0
112
0.0
122
1.0
132
0.0
345
0
346
0
 79
     0
146
0.0
  0
ENDTAB
  0
TABLE
  2
LTYPE
  5
4
100
AcDbSymbolTable
 70
     3
  0
LTYPE
  5
11
100
AcDbSymbolTableRecord
100
AcDbLinetypeTableRecord
  2
ByBlock
 70
    64
  3

 72
    65
 73
     0
 40
0.0
  0
LTYPE
  5
12
100
AcDbSymbolTableRecord
100
AcDbLinetypeTableRecord
  2
ByLayer
 70
    64
  3

 72
    65
 73
     0
 40
0.0
  0
LTYPE
  5
13
100
AcDbSymbolTableRecord
100
AcDbLinetypeTableRecord
  2
Continuous
 70
    64
  3
Solid line
 72
    65
 73
     0
 40
0.0
  0
ENDTAB
  0
TABLE
  2
LAYER
  5
2
100
AcDbSymbolTable
 70
     2
  0
LAYER
  5
14
100
AcDbSymbolTableRecord
100
AcDbLayerTableRecord
  2
0
 70
     0
 62
     7
  6
Continuous
290
     1
370
    -3
390
1D
  0
LAYER
  5
24
100
AcDbSymbolTableRecord
100
AcDbLayerTableRecord
  2
Ebene 1
 70
     0
 62
     7
  6
Continuous
290
     1
370
    -3
390
1F
  0
ENDTAB
  0
TABLE
  2
STYLE
  5
3
100
AcDbSymbolTable
 70
     1
  0
STYLE
  5
17
100
AcDbSymbolTableRecord
100
AcDbTextStyleTableRecord
  2
Standard
 70
     0
 40
0.0
 41
1.0
 50
0.0
 71
     0
 42
0.0
  3
txt
  4

  0
ENDTAB
  0
TABLE
  2
VIEW
  5
5
100
AcDbSymbolTable
 70
     0
  0
ENDTAB
  0
TABLE
  2
UCS
  5
6
100
AcDbSymbolTable
 70
     0
  0
ENDTAB
  0
TABLE
  2
APPID
  5
8
100
AcDbSymbolTable
 70
     1
  0
APPID
  5
16
100
AcDbSymbolTableRecord
100
AcDbRegAppTableRecord
  2
ACAD
 70
     0
  0
ENDTAB
  0
TABLE
  2
DIMSTYLE
  5
9
100
AcDbSymbolTable
 70
     1
100
AcDbDimStyleTable
 71
     0
  0
DIMSTYLE
105
18
100
AcDbSymbolTableRecord
100
AcDbDimStyleTableRecord
  2
Standard
 70
     0
  3

  4

 40
1.0
 41
0.18
 42
0.0625
 43
0.38
 44
0.18
 45
0.0
 46
0.0
 47
0.0
 48
0.0
 71
     0
 72
     0
 73
     1
 74
     1
 75
     0
 76
     0
 77
     0
 78
     0
 79
     0
140
0.18
141
0.09
142
0.0
143
25.4
144
1.0
145
0.0
146
1.0
147
0.09
148
0.0
170
     0
171
     2
172
     0
173
     0
174
     0
175
     0
176
     0
177
     0
178
     0
179
     0
271
     4
272
     4
273
     2
274
     2
275
     0
276
     0
277
     2
278
    46
279
     0
280
     0
281
     0
282
     0
283
     1
284
     0
285
     0
286
     0
288
     0
340
17
341
0
342
0
343
0
344
0
371
    -2
372
    -2
  0
ENDTAB
  0
TABLE
  2
BLOCK_RECORD
  5
1
100
AcDbSymbolTable
 70
     0
  0
BLOCK_RECORD
  5
A
100
AcDbSymbolTableRecord
100
AcDbBlockTableRecord
  2
*MODEL_SPACE
340
20
  0
BLOCK_RECORD
  5
B
100
AcDbSymbolTableRecord
100
AcDbBlockTableRecord
  2
*PAPER_SPACE
340
21
  0
ENDTAB
  0
ENDSEC
  0
SECTION
  2
BLOCKS
  0
BLOCK
  5
D
100
AcDbEntity
  8
0
100
AcDbBlockBegin
  2
*MODEL_SPACE
 70
     0
 10
0.0
 20
0.0
 30
0.0
  3
*MODEL_SPACE
  1

  0
ENDBLK
  5
E
100
AcDbEntity
  8
0
100
AcDbBlockEnd
  0
BLOCK
  5
F
100
AcDbEntity
 67
     1
  8
0
100
AcDbBlockBegin
  2
*PAPER_SPACE
 70
     0
 10
0.0
 20
0.0
 30
0.0
  3
*PAPER_SPACE
  1

  0
ENDBLK
  5
10
100
AcDbEntity
 67
     1
  8
0
100
AcDbBlockEnd
  0
ENDSEC
  0
SECTION
  2
ENTITIES
  0
SPLINE
  5
25
100
AcDbEntity
  8
Ebene 1
100
AcDbSpline
210
0.0
220
0.0
230
1.0
 70
     1
 71
     3
 72
    84
 73
    80
 74
     0
 42
0.0000000001
 43
0.0000000001
 40
0.0
 40
0.0
 40
0.0
 40
0.0
 40
0.05
 40
0.05
 40
0.05
 40
0.05
 40
0.1
 40
0.1
 40
0.1
 40
0.1
 40
0.15
 40
0.15
 40
0.15
 40
0.15
 40
0.2
 40
0.2
 40
0.2
 40
0.2
 40
0.25
 40
0.25
 40
0.25
 40
0.25
 40
0.3
 40
0.3
 40
0.3
 40
0.3
 40
0.35
 40
0.35
 40
0.35
 40
0.35
 40
0.4
 40
0.4
 40
0.4
 40
0.4
 40
0.45
 40
0.45
 40
0.45
 40
0.45
 40
0.4999999999999999
 40
0.4999999999999999
 40
0.4999999999999999
 40
0.4999999999999999
 40
0.5499999999999999
 40
0.5499999999999999
 40
0.5499999999999999
 40
0.5499999999999999
 40
0.6
 40
0.6
 40
0.6
 40
0.6
 40
0.65
 40
0.65
 40
0.65
 40
0.65
 40
0.7000000000000001
 40
0.7000000000000001
 40
0.7000000000000001
 40
0.7000000000000001
 40
0.7500000000000001
 40
0.7500000000000001
 40
0.7500000000000001
 40
0.7500000000000001
 40
0.8000000000000002
 40
0.8000000000000002
 40
0.8000000000000002
 40
0.8000000000000002
 40
0.8500000000000002
 40
0.8500000000000002
 40
0.8500000000000002
 40
0.8500000000000002
 40
0.9000000000000002
 40
0.9000000000000002
 40
0.9000000000000002
 40
0.9000000000000002
 40
0.9500000000000003
 40
0.9500000000000003
 40
0.9500000000000003
 40
0.9500000000000003
 40
1.0
 40
1.0
 40
1.0
 40
1.0
 10
-0.32497
 20
5.2445300000000001
 30
0.0
 10
0.2262
 20
5.1505500000000008
 30
0.0
 10
0.5894200000000001
 20
4.7898700000000005
 30
0.0
 10
1.1837800000000001
 20
4.8101900000000004
 30
0.0
 10
1.1837800000000001
 20
4.8101900000000004
 30
0.0
 10
1.6816200000000001
 20
4.8101900000000004
 30
0.0
 10
2.1921600000000003
 20
4.9981500000000008
 30
0.0
 10
2.6519000000000004
 20
4.7720900000000004
 30
0.0
 10
2.6519000000000004
 20
4.7720900000000004
 30
0.0
 10
3.6323400000000001
 20
3.8653100000000005
 30
0.0
 10
3.9193600000000002
 20
2.4302100000000002
 30
0.0
 10
4.0717600000000003
 20
1.14751
 30
0.0
 10
4.0717600000000003
 20
1.14751
 30
0.0
 10
4.0235000000000003
 20
0.97733
 30
0.0
 10
3.9447600000000005
 20
0.8249300000000001
 30
0.0
 10
3.8457000000000003
 20
0.6928500000000001
 30
0.0
 10
3.8457000000000003
 20
0.6928500000000001
 30
0.0
 10
3.8634800000000005
 20
0.31439
 30
0.0
 10
3.7187000000000001
 20
-0.0031
 30
0.0
 10
3.6755200000000001
 20
-0.36124
 30
0.0
 10
3.6755200000000001
 20
-0.36124
 30
0.0
 10
3.7110800000000004
 20
-0.8514600000000001
 30
0.0
 10
4.08446
 20
-1.2680200000000001
 30
0.0
 10
3.7288600000000005
 20
-1.7226800000000002
 30
0.0
 10
3.7288600000000005
 20
-1.7226800000000002
 30
0.0
 10
3.5205800000000003
 20
-1.9284200000000002
 30
0.0
 10
3.4469200000000004
 20
-1.6668000000000001
 30
0.0
 10
3.2411800000000004
 20
-1.6668000000000001
 30
0.0
 10
3.2411800000000004
 20
-1.6668000000000001
 30
0.0
 10
3.4012000000000002
 20
-2.3830800000000001
 30
0.0
 10
3.1751400000000003
 20
-3.0434800000000002
 30
0.0
 10
3.05322
 20
-3.7242000000000002
 30
0.0
 10
3.05322
 20
-3.7242000000000002
 30
0.0
 10
3.2157800000000001
 20
-4.1763200000000005
 30
0.0
 10
3.3427800000000003
 20
-4.8011600000000003
 30
0.0
 10
2.9363800000000002
 20
-5.1770800000000001
 30
0.0
 10
2.9363800000000002
 20
-5.1770800000000001
 30
0.0
 10
2.7204800000000002
 20
-5.2532800000000002
 30
0.0
 10
2.5299800000000001
 20
-5.1212000000000009
 30
0.0
 10
2.3166200000000003
 20
-5.1593
 30
0.0
 10
2.3166200000000003
 20
-5.1593
 30
0.0
 10
1.6714600000000002
 20
-5.2913800000000002
 30
0.0
 10
0.78754
 20
-5.3853600000000004
 30
0.0
 10
0.4802
 20
-4.6690800000000001
 30
0.0
 10
0.4802
 20
-4.6690800000000001
 30
0.0
 10
-0.15733
 20
-4.2525200000000005
 30
0.0
 10
-0.8202700000000001
 20
-3.8359600000000005
 30
0.0
 10
-1.33843
 20
-3.2695400000000001
 30
0.0
 10
-1.33843
 20
-3.2695400000000001
 30
0.0
 10
-1.3943100000000002
 20
-2.9114000000000004
 30
0.0
 10
-1.13015
 20
-2.4186400000000003
 30
0.0
 10
-1.21397
 20
-2.0782800000000003
 30
0.0
 10
-1.21397
 20
-2.0782800000000003
 30
0.0
 10
-1.4324100000000002
 20
-2.01986
 30
0.0
 10
-1.6254500000000001
 20
-2.1951200000000002
 30
0.0
 10
-1.8311900000000001
 20
-2.0986000000000002
 30
0.0
 10
-1.8311900000000001
 20
-2.0986000000000002
 30
0.0
 10
-1.9454900000000002
 20
-2.2510000000000003
 30
0.0
 10
-2.0623300000000002
 20
-2.4389600000000002
 30
0.0
 10
-2.2528300000000003
 20
-2.4770600000000003
 30
0.0
 10
-2.2528300000000003
 20
-2.4770600000000003
 30
0.0
 10
-3.9774900000000004
 20
-2.1367000000000003
 30
0.0
 10
-4.4575500000000003
 20
0.23819
 30
0.0
 10
-3.7565100000000005
 20
1.6377300000000001
 30
0.0
 10
-3.7565100000000005
 20
1.6377300000000001
 30
0.0
 10
-3.6701500000000005
 20
1.7875900000000002
 30
0.0
 10
-3.5075900000000004
 20
1.7875900000000002
 30
0.0
 10
-3.3856700000000002
 20
1.8460100000000002
 30
0.0
 10
-3.3856700000000002
 20
1.8460100000000002
 30
0.0
 10
-3.3856700000000002
 20
1.8460100000000002
 30
0.0
 10
-3.3323300000000002
 20
2.0898500000000002
 30
0.0
 10
-3.3323300000000002
 20
2.0898500000000002
 30
0.0
 10
-3.3323300000000002
 20
2.0898500000000002
 30
0.0
 10
-3.4110700000000005
 20
2.1863700000000001
 30
0.0
 10
-3.4872700000000001
 20
2.2778100000000001
 30
0.0
 10
-3.5355300000000005
 20
2.3921100000000002
 30
0.0
 10
-3.5355300000000005
 20
2.3921100000000002
 30
0.0
 10
-3.2789900000000003
 20
3.8856300000000004
 30
0.0
 10
-1.7245100000000002
 20
5.0184700000000007
 30
0.0
 10
-0.32497
 20
5.2445300000000001
 30
0.0
  0
SPLINE
  5
26
100
AcDbEntity
  8
Ebene 1
100
AcDbSpline
210
0.0
220
0.0
230
1.0
 70
     1
 71
     3
 72
    28
 73
    24
 74
     0
 42
0.0000000001
 43
0.0000000001
 40
0.0
 40
0.0
 40
0.0
 40
0.0
 40
0.1666666666666667
 40
0.1666666666666667
 40
0.1666666666666667
 40
0.1666666666666667
 40
0.3333333333333333
 40
0.3333333333333333
 40
0.3333333333333333
 40
0.3333333333333333
 40
0.5
 40
0.5
 40
0.5
 40
0.5
 40
0.6666666666666666
 40
0.6666666666666666
 40
0.6666666666666666
 40
0.6666666666666666
 40
0.8333333333333333
 40
0.8333333333333333
 40
0.8333333333333333
 40
0.8333333333333333
 40
1.0
 40
1.0
 40
1.0
 40
1.0
 10
0.5233800000000001
 20
-2.1951200000000002
 30
0.0
 10
0.19318
 20
-2.1570200000000002
 30
0.0
 10
-0.03795
 20
-2.4008600000000002
 30
0.0
 10
-0.08367
 20
-2.7234400000000001
 30
0.0
 10
-0.08367
 20
-2.7234400000000001
 30
0.0
 10
-0.06081
 20
-2.9495000000000005
 30
0.0
 10
0.12714
 20
-3.1196800000000002
 30
0.0
 10
0.33796
 20
-3.2695400000000001
 30
0.0
 10
0.33796
 20
-3.2695400000000001
 30
0.0
 10
0.6326000000000001
 20
-3.2136600000000004
 30
0.0
 10
0.44718
 20
-2.8555200000000003
 30
0.0
 10
0.5564
 20
-2.7056600000000004
 30
0.0
 10
0.5564
 20
-2.7056600000000004
 30
0.0
 10
0.4395600000000001
 20
-2.6294600000000004
 30
0.0
 10
0.5665600000000001
 20
-2.4770600000000003
 30
0.0
 10
0.59958
 20
-2.3830800000000001
 30
0.0
 10
0.59958
 20
-2.3830800000000001
 30
0.0
 10
0.59958
 20
-2.3830800000000001
 30
0.0
 10
0.61482
 20
-2.2510000000000003
 30
0.0
 10
0.61482
 20
-2.2510000000000003
 30
0.0
 10
0.61482
 20
-2.2510000000000003
 30
0.0
 10
0.61482
 20
-2.2510000000000003
 30
0.0
 10
0.5233800000000001
 20
-2.1951200000000002
 30
0.0
 10
0.5233800000000001
 20
-2.1951200000000002
 30
0.0
  0
SPLINE
  5
27
100
AcDbEntity
  8
Ebene 1
 62
     7
100
AcDbSpline
210
0.0
220
0.0
230
1.0
 70
     1
 71
     3
 72
    84
 73
    80
 74
     0
 42
0.0000000001
 43
0.0000000001
 40
0.0
 40
0.0
 40
0.0
 40
0.0
 40
0.05
 40
0.05
 40
0.05
 40
0.05
 40
0.1
 40
0.1
 40
0.1
 40
0.1
 40
0.15
 40
0.15
 40
0.15
 40
0.15
 40
0.2
 40
0.2
 40
0.2
 40
0.2
 40
0.25
 40
0.25
 40
0.25
 40
0.25
 40
0.3
 40
0.3
 40
0.3
 40
0.3
 40
0.35
 40
0.35
 40
0.35
 40
0.35
 40
0.4
 40
0.4
 40
0.4
 40
0.4
 40
0.45
 40
0.45
 40
0.45
 40
0.45
 40
0.4999999999999999
 40
0.4999999999999999
 40
0.4999999999999999
 40
0.4999999999999999
 40
0.5499999999999999
 40
0.5499999999999999
 40
0.5499999999999999
 40
0.5499999999999999
 40
0.6
 40
0.6
 40
0.6
 40
0.6
 40
0.65
 40
0.65
 40
0.65
 40
0.65
 40
0.7000000000000001
 40
0.7000000000000001
 40
0.7000000000000001
 40
0.7000000000000001
 40
0.7500000000000001
 40
0.7500000000000001
 40
0.7500000000000001
 40
0.7500000000000001
 40
0.8000000000000002
 40
0.8000000000000002
 40
0.8000000000000002
 40
0.8000000000000002
 40
0.8500000000000002
 40
0.8500000000000002
 40
0.8500000000000002
 40
0.8500000000000002
 40
0.9000000000000002
 40
0.9000000000000002
 40
0.9000000000000002
 40
0.9000000000000002
 40
0.9500000000000003
 40
0.9500000000000003
 40
0.9500000000000003
 40
0.9500000000000003
 40
1.0
 40
1.0
 40
1.0
 40
1.0
 10
-2.2528300000000003
 20
1.9196700000000002
 30
0.0
 10
-2.2528300000000003
 20
1.9196700000000002
 30
0.0
 10
-2.61097
 20
2.1279500000000002
 30
0.0
 10
-2.61097
 20
2.1279500000000002
 30
0.0
 10
-2.61097
 20
2.1279500000000002
 30
0.0
 10
-2.5322300000000002
 20
2.1660500000000003
 30
0.0
 10
-2.4153900000000004
 20
2.26003
 30
0.0
 10
-2.51953
 20
2.3540100000000002
 30
0.0
 10
-2.51953
 20
2.3540100000000002
 30
0.0
 10
-2.51953
 20
2.3540100000000002
 30
0.0
 10
-2.5855700000000001
 20
2.3540100000000002
 30
0.0
 10
-2.5855700000000001
 20
2.3540100000000002
 30
0.0
 10
-2.5855700000000001
 20
2.3540100000000002
 30
0.0
 10
-2.48651
 20
2.1660500000000003
 30
0.0
 10
-2.7938500000000004
 20
2.1863700000000001
 30
0.0
 10
-2.7430500000000002
 20
2.3743300000000001
 30
0.0
 10
-2.7430500000000002
 20
2.3743300000000001
 30
0.0
 10
-2.7430500000000002
 20
2.3743300000000001
 30
0.0
 10
-2.7989300000000004
 20
2.2778100000000001
 30
0.0
 10
-2.7989300000000004
 20
2.2778100000000001
 30
0.0
 10
-2.7989300000000004
 20
2.2778100000000001
 30
0.0
 10
-2.9132300000000004
 20
2.33623
 30
0.0
 10
-3.0910300000000004
 20
2.3743300000000001
 30
0.0
 10
-3.0478500000000004
 20
2.5445100000000003
 30
0.0
 10
-3.0478500000000004
 20
2.5445100000000003
 30
0.0
 10
-3.0478500000000004
 20
2.5445100000000003
 30
0.0
 10
-3.1900900000000001
 20
2.6003900000000004
 30
0.0
 10
-3.1900900000000001
 20
2.6003900000000004
 30
0.0
 10
-3.1900900000000001
 20
2.6003900000000004
 30
0.0
 10
-3.0681700000000003
 20
3.8907100000000003
 30
0.0
 10
-1.4146300000000001
 20
5.1810300000000007
 30
0.0
 10
-0.00747
 20
5.0946700000000007
 30
0.0
 10
-0.00747
 20
5.0946700000000007
 30
0.0
 10
1.2803000000000002
 20
4.0913700000000004
 30
0.0
 10
2.0296000000000003
 20
2.4860900000000004
 30
0.0
 10
1.8594200000000001
 20
0.8630300000000001
 30
0.0
 10
1.8594200000000001
 20
0.8630300000000001
 30
0.0
 10
1.8594200000000001
 20
0.8630300000000001
 30
0.0
 10
1.6740000000000002
 20
0.6750700000000001
 30
0.0
 10
1.6740000000000002
 20
0.6750700000000001
 30
0.0
 10
1.6740000000000002
 20
0.6750700000000001
 30
0.0
 10
1.5546200000000001
 20
0.56077
 30
0.0
 10
1.6181200000000002
 20
0.6547500000000001
 30
0.0
 10
1.65368
 20
0.74873
 30
0.0
 10
1.65368
 20
0.74873
 30
0.0
 10
1.6587600000000002
 20
0.78683
 30
0.0
 10
1.6587600000000002
 20
0.8249300000000001
 30
0.0
 10
1.6232000000000002
 20
0.8452500000000001
 30
0.0
 10
1.6232000000000002
 20
0.8452500000000001
 30
0.0
 10
1.6054200000000001
 20
0.8808100000000001
 30
0.0
 10
1.5749400000000002
 20
0.8808100000000001
 30
0.0
 10
1.5419200000000002
 20
0.8808100000000001
 30
0.0
 10
1.5419200000000002
 20
0.8808100000000001
 30
0.0
 10
1.5216000000000001
 20
0.8808100000000001
 30
0.0
 10
1.4911200000000002
 20
0.8630300000000001
 30
0.0
 10
1.5089000000000001
 20
0.8452500000000001
 30
0.0
 10
1.5089000000000001
 20
0.8452500000000001
 30
0.0
 10
1.7451200000000002
 20
0.78683
 30
0.0
 10
1.39714
 20
0.57855
 30
0.0
 10
1.4631800000000001
 20
0.78683
 30
0.0
 10
1.4631800000000001
 20
0.78683
 30
0.0
 10
1.3361800000000001
 20
0.8808100000000001
 30
0.0
 10
1.3742800000000002
 20
0.61665
 30
0.0
 10
1.4835
 20
0.59887
 30
0.0
 10
1.4835
 20
0.59887
 30
0.0
 10
0.8180200000000001
 20
0.57855
 30
0.0
 10
0.12968
 20
1.1271900000000001
 30
0.0
 10
-0.53325
 20
0.6547500000000001
 30
0.0
 10
-0.53325
 20
0.6547500000000001
 30
0.0
 10
-0.53325
 20
0.6547500000000001
 30
0.0
 10
-2.1385300000000003
 20
1.8460100000000002
 30
0.0
 10
-2.1385300000000003
 20
1.8460100000000002
 30
0.0
 10
-2.1385300000000003
 20
1.8460100000000002
 30
0.0
 10
-2.0445500000000001
 20
1.8460100000000002
 30
0.0
 10
-1.9226300000000001
 20
1.9399900000000001
 30
0.0
 10
-2.0089900000000003
 20
2.0517500000000002
 30
0.0
 10
-2.0089900000000003
 20
2.0517500000000002
 30
0.0
 10
-2.06487
 20
1.7698100000000001
 30
0.0
 10
-2.2477500000000004
 20
2.1863700000000001
 30
0.0
 10
-2.2528300000000003
 20
1.9196700000000002
 30
0.0
  0
SPLINE
  5
28
100
AcDbEntity
  8
Ebene 1
100
AcDbSpline
210
0.0
220
0.0
230
1.0
 70
     1
 71
     3
 72
    12
 73
     8
 74
     0
 42
0.0000000001
 43
0.0000000001
 40
0.0
 40
0.0
 40
0.0
 40
0.0
 40
0.5
 40
0.5
 40
0.5
 40
0.5
 40
1.0
 40
1.0
 40
1.0
 40
1.0
 10
-0.26909
 20
5.0743500000000008
 30
0.0
 10
-0.18527
 20
5.1124500000000008
 30
0.0
 10
-0.07859
 20
4.9981500000000008
 30
0.0
 10
-0.17765
 20
4.9422700000000006
 30
0.0
 10
-0.17765
 20
4.9422700000000006
 30
0.0
 10
-0.27417
 20
4.9041700000000006
 30
0.0
 10
-0.36307
 20
5.0184700000000007
 30
0.0
 10
-0.26909
 20
5.0743500000000008
 30
0.0
  0
SPLINE
  5
29
100
AcDbEntity
  8
Ebene 1
 62
     7
100
AcDbSpline
210
0.0
220
0.0
230
1.0
 70
     1
 71
     3
 72
   164
 73
   160
 74
     0
 42
0.0000000001
 43
0.0000000001
 40
0.0
 40
0.0
 40
0.0
 40
0.0
 40
0.025
 40
0.025
 40
0.025
 40
0.025
 40
0.05
 40
0.05
 40
0.05
 40
0.05
 40
0.075
 40
0.075
 40
0.075
 40
0.075
 40
0.1
 40
0.1
 40
0.1
 40
0.1
 40
0.125
 40
0.125
 40
0.125
 40
0.125
 40
0.15
 40
0.15
 40
0.15
 40
0.15
 40
0.175
 40
0.175
 40
0.175
 40
0.175
 40
0.2
 40
0.2
 40
0.2
 40
0.2
 40
0.225
 40
0.225
 40
0.225
 40
0.225
 40
0.25
 40
0.25
 40
0.25
 40
0.25
 40
0.275
 40
0.275
 40
0.275
 40
0.275
 40
0.3
 40
0.3
 40
0.3
 40
0.3
 40
0.325
 40
0.325
 40
0.325
 40
0.325
 40
0.35
 40
0.35
 40
0.35
 40
0.35
 40
0.3750000000000001
 40
0.3750000000000001
 40
0.3750000000000001
 40
0.3750000000000001
 40
0.4000000000000001
 40
0.4000000000000001
 40
0.4000000000000001
 40
0.4000000000000001
 40
0.4250000000000001
 40
0.4250000000000001
 40
0.4250000000000001
 40
0.4250000000000001
 40
0.4500000000000001
 40
0.4500000000000001
 40
0.4500000000000001
 40
0.4500000000000001
 40
0.4750000000000001
 40
0.4750000000000001
 40
0.4750000000000001
 40
0.4750000000000001
 40
0.5000000000000001
 40
0.5000000000000001
 40
0.5000000000000001
 40
0.5000000000000001
 40
0.5250000000000001
 40
0.5250000000000001
 40
0.5250000000000001
 40
0.5250000000000001
 40
0.5500000000000002
 40
0.5500000000000002
 40
0.5500000000000002
 40
0.5500000000000002
 40
0.5750000000000002
 40
0.5750000000000002
 40
0.5750000000000002
 40
0.5750000000000002
 40
0.6000000000000002
 40
0.6000000000000002
 40
0.6000000000000002
 40
0.6000000000000002
 40
0.6250000000000002
 40
0.6250000000000002
 40
0.6250000000000002
 40
0.6250000000000002
 40
0.6500000000000002
 40
0.6500000000000002
 40
0.6500000000000002
 40
0.6500000000000002
 40
0.6750000000000003
 40
0.6750000000000003
 40
0.6750000000000003
 40
0.6750000000000003
 40
0.7000000000000003
 40
0.7000000000000003
 40
0.7000000000000003
 40
0.7000000000000003
 40
0.7250000000000003
 40
0.7250000000000003
 40
0.7250000000000003
 40
0.7250000000000003
 40
0.7500000000000003
 40
0.7500000000000003
 40
0.7500000000000003
 40
0.7500000000000003
 40
0.7750000000000004
 40
0.7750000000000004
 40
0.7750000000000004
 40
0.7750000000000004
 40
0.8000000000000004
 40
0.8000000000000004
 40
0.8000000000000004
 40
0.8000000000000004
 40
0.8250000000000004
 40
0.8250000000000004
 40
0.8250000000000004
 40
0.8250000000000004
 40
0.8500000000000004
 40
0.8500000000000004
 40
0.8500000000000004
 40
0.8500000000000004
 40
0.8750000000000004
 40
0.8750000000000004
 40
0.8750000000000004
 40
0.8750000000000004
 40
0.9000000000000005
 40
0.9000000000000005
 40
0.9000000000000005
 40
0.9000000000000005
 40
0.9250000000000005
 40
0.9250000000000005
 40
0.9250000000000005
 40
0.9250000000000005
 40
0.9500000000000005
 40
0.9500000000000005
 40
0.9500000000000005
 40
0.9500000000000005
 40
0.9750000000000005
 40
0.9750000000000005
 40
0.9750000000000005
 40
0.9750000000000005
 40
1.0
 40
1.0
 40
1.0
 40
1.0
 10
0.7113400000000001
 20
4.7898700000000005
 30
0.0
 10
0.9983600000000001
 20
4.7543100000000003
 30
0.0
 10
1.2853800000000002
 20
4.6958900000000003
 30
0.0
 10
1.5241400000000001
 20
4.5257100000000001
 30
0.0
 10
1.5241400000000001
 20
4.5257100000000001
 30
0.0
 10
1.6486000000000001
 20
4.58413
 30
0.0
 10
1.40476
 20
4.6400100000000002
 30
0.0
 10
1.4149200000000002
 20
4.7162100000000002
 30
0.0
 10
1.4149200000000002
 20
4.7162100000000002
 30
0.0
 10
1.6105
 20
4.7898700000000005
 30
0.0
 10
1.8492600000000001
 20
4.7720900000000004
 30
0.0
 10
2.04738
 20
4.7162100000000002
 30
0.0
 10
2.04738
 20
4.7162100000000002
 30
0.0
 10
2.8805000000000001
 20
3.5808300000000002
 30
0.0
 10
2.3191600000000001
 20
1.9399900000000001
 30
0.0
 10
2.5477600000000002
 20
0.63697
 30
0.0
 10
2.5477600000000002
 20
0.63697
 30
0.0
 10
2.8144600000000004
 20
0.42869
 30
0.0
 10
3.1649800000000003
 20
0.59887
 30
0.0
 10
3.4494600000000002
 20
0.6547500000000001
 30
0.0
 10
3.4494600000000002
 20
0.6547500000000001
 30
0.0
 10
4.0336600000000002
 20
0.7106300000000001
 30
0.0
 10
3.5561400000000001
 20
-0.0031
 30
0.0
 10
3.2386400000000002
 20
0.40837
 30
0.0
 10
3.2386400000000002
 20
0.40837
 30
0.0
 10
2.8246200000000004
 20
0.20263
 30
0.0
 10
2.4893400000000003
 20
0.18231
 30
0.0
 10
2.42584
 20
0.7106300000000001
 30
0.0
 10
2.42584
 20
0.7106300000000001
 30
0.0
 10
2.37758
 20
0.5912500000000001
 30
0.0
 10
2.4055200000000001
 20
0.44647
 30
0.0
 10
2.4233000000000002
 20
0.3270900000000001
 30
0.0
 10
2.4233000000000002
 20
0.3270900000000001
 30
0.0
 10
2.5096600000000002
 20
-0.22916
 30
0.0
 10
2.75604
 20
-0.54666
 30
0.0
 10
3.3351600000000001
 20
-1.11816
 30
0.0
 10
3.3351600000000001
 20
-1.11816
 30
0.0
 10
3.3808800000000003
 20
-1.04196
 30
0.0
 10
3.1751400000000003
 20
-0.92766
 30
0.0
 10
3.1903800000000002
 20
-0.7955800000000001
 30
0.0
 10
3.1903800000000002
 20
-0.7955800000000001
 30
0.0
 10
3.7669600000000001
 20
-1.1562600000000001
 30
0.0
 10
3.1268800000000003
 20
-0.05898
 30
0.0
 10
3.7009200000000004
 20
0.23819
 30
0.0
 10
3.7009200000000004
 20
0.23819
 30
0.0
 10
3.6196400000000004
 20
0.07563
 30
0.0
 10
3.5078800000000001
 20
-0.18344
 30
0.0
 10
3.5815400000000004
 20
-0.43998
 30
0.0
 10
3.5815400000000004
 20
-0.43998
 30
0.0
 10
3.7745800000000003
 20
-1.1003800000000001
 30
0.0
 10
3.9676200000000001
 20
-1.8623800000000001
 30
0.0
 10
3.1091000000000002
 20
-1.4001000000000001
 30
0.0
 10
3.1091000000000002
 20
-1.4001000000000001
 30
0.0
 10
3.0227400000000002
 20
-1.4001000000000001
 30
0.0
 10
2.9795600000000002
 20
-1.4966200000000001
 30
0.0
 10
2.9465400000000002
 20
-1.5525000000000002
 30
0.0
 10
2.9465400000000002
 20
-1.5525000000000002
 30
0.0
 10
2.9389200000000004
 20
-1.5906000000000002
 30
0.0
 10
2.9236800000000001
 20
-1.6464800000000002
 30
0.0
 10
2.9643200000000003
 20
-1.6845800000000002
 30
0.0
 10
2.9643200000000003
 20
-1.6845800000000002
 30
0.0
 10
3.2792800000000004
 20
-1.4966200000000001
 30
0.0
 10
3.3631000000000002
 20
-2.7793200000000002
 30
0.0
 10
2.9465400000000002
 20
-2.5354800000000002
 30
0.0
 10
2.9465400000000002
 20
-2.5354800000000002
 30
0.0
 10
2.9465400000000002
 20
-2.5354800000000002
 30
0.0
 10
2.8144600000000004
 20
-2.6853400000000001
 30
0.0
 10
2.8144600000000004
 20
-2.6853400000000001
 30
0.0
 10
2.8144600000000004
 20
-2.6853400000000001
 30
0.0
 10
2.8195400000000004
 20
-2.6294600000000004
 30
0.0
 10
2.84748
 20
-2.5354800000000002
 30
0.0
 10
2.8144600000000004
 20
-2.4770600000000003
 30
0.0
 10
2.8144600000000004
 20
-2.4770600000000003
 30
0.0
 10
2.7433400000000003
 20
-2.7793200000000002
 30
0.0
 10
2.79922
 20
-2.6294600000000004
 30
0.0
 10
2.6442800000000002
 20
-2.5354800000000002
 30
0.0
 10
2.6442800000000002
 20
-2.5354800000000002
 30
0.0
 10
2.5274400000000004
 20
-2.5913600000000003
 30
0.0
 10
2.5528400000000002
 20
-2.7615400000000001
 30
0.0
 10
2.4741000000000004
 20
-2.7996400000000001
 30
0.0
 10
2.4741000000000004
 20
-2.7996400000000001
 30
0.0
 10
2.6061800000000002
 20
-2.4008600000000002
 30
0.0
 10
2.4918800000000001
 20
-1.9665200000000003
 30
0.0
 10
2.4918800000000001
 20
-1.6083800000000001
 30
0.0
 10
2.4918800000000001
 20
-1.6083800000000001
 30
0.0
 10
2.4004400000000001
 20
-2.02494
 30
0.0
 10
2.5579200000000002
 20
-2.4389600000000002
 30
0.0
 10
2.38774
 20
-2.8555200000000003
 30
0.0
 10
2.38774
 20
-2.8555200000000003
 30
0.0
 10
2.3902800000000002
 20
-2.57104
 30
0.0
 10
2.1515200000000001
 20
-2.5151600000000003
 30
0.0
 10
2.0194400000000003
 20
-2.7793200000000002
 30
0.0
 10
2.0194400000000003
 20
-2.7793200000000002
 30
0.0
 10
2.0194400000000003
 20
-2.7793200000000002
 30
0.0
 10
2.00928
 20
-2.1367000000000003
 30
0.0
 10
2.00928
 20
-2.1367000000000003
 30
0.0
 10
2.00928
 20
-2.1367000000000003
 30
0.0
 10
1.9305400000000001
 20
-2.1748000000000003
 30
0.0
 10
1.9178400000000002
 20
-2.2433800000000002
 30
0.0
 10
1.8924400000000001
 20
-2.2992600000000003
 30
0.0
 10
1.8924400000000001
 20
-2.2992600000000003
 30
0.0
 10
2.0042
 20
-2.7894800000000002
 30
0.0
 10
1.6435200000000001
 20
-2.64724
 30
0.0
 10
1.6689200000000002
 20
-2.30688
 30
0.0
 10
1.6689200000000002
 20
-2.30688
 30
0.0
 10
1.5774800000000002
 20
-2.4770600000000003
 30
0.0
 10
1.7908400000000002
 20
-2.7412200000000002
 30
0.0
 10
1.5089000000000001
 20
-2.57104
 30
0.0
 10
1.5089000000000001
 20
-2.57104
 30
0.0
 10
1.5089000000000001
 20
-2.57104
 30
0.0
 10
1.39714
 20
-2.6853400000000001
 30
0.0
 10
1.39714
 20
-2.6853400000000001
 30
0.0
 10
1.39714
 20
-2.6853400000000001
 30
0.0
 10
1.5470000000000002
 20
-2.3449800000000001
 30
0.0
 10
1.1329800000000001
 20
-1.7226800000000002
 30
0.0
 10
1.5622400000000001
 20
-1.6083800000000001
 30
0.0
 10
1.5622400000000001
 20
-1.6083800000000001
 30
0.0
 10
1.8340200000000002
 20
-1.8903200000000002
 30
0.0
 10
1.4911200000000002
 20
-1.1562600000000001
 30
0.0
 10
1.5571600000000001
 20
-1.4966200000000001
 30
0.0
 10
1.5571600000000001
 20
-1.4966200000000001
 30
0.0
 10
1.5622400000000001
 20
-1.5144000000000002
 30
0.0
 10
1.5241400000000001
 20
-1.5144000000000002
 30
0.0
 10
1.5190600000000001
 20
-1.4966200000000001
 30
0.0
 10
1.5190600000000001
 20
-1.4966200000000001
 30
0.0
 10
1.0771000000000002
 20
-1.6083800000000001
 30
0.0
 10
0.7392800000000001
 20
-2.0605000000000002
 30
0.0
 10
0.2389
 20
-2.0986000000000002
 30
0.0
 10
0.2389
 20
-2.0986000000000002
 30
0.0
 10
-0.22083
 20
-1.6083800000000001
 30
0.0
 10
-0.8202700000000001
 20
-1.3823200000000002
 30
0.0
 10
-1.4146300000000001
 20
-1.6668000000000001
 30
0.0
 10
-1.4146300000000001
 20
-1.6668000000000001
 30
0.0
 10
-1.2444500000000001
 20
-1.3264400000000001
 30
0.0
 10
-0.9269500000000001
 20
-1.0597400000000001
 30
0.0
 10
-0.74153
 20
-0.7397
 30
0.0
 10
-0.74153
 20
-0.7397
 30
0.0
 10
-0.9066300000000001
 20
-0.19106
 30
0.0
 10
-0.8837700000000001
 20
0.29661
 30
0.0
 10
-0.9244100000000001
 20
0.80715
 30
0.0
 10
-0.9244100000000001
 20
0.80715
 30
0.0
 10
-0.78471
 20
0.78683
 30
0.0
 10
-0.6881900000000001
 20
0.57855
 30
0.0
 10
-0.58913
 20
0.4845700000000001
 30
0.0
 10
-0.58913
 20
0.4845700000000001
 30
0.0
 10
-0.4926100000000001
 20
0.46679
 30
0.0
 10
-0.41387
 20
0.5226700000000001
 30
0.0
 10
-0.33005
 20
0.5404500000000001
 30
0.0
 10
-0.33005
 20
0.5404500000000001
 30
0.0
 10
0.43702
 20
1.27705
 30
0.0
 10
1.7679800000000001
 20
-0.4577600000000001
 30
0.0
 10
2.1083400000000001
 20
0.9392300000000001
 30
0.0
 10
2.1083400000000001
 20
0.9392300000000001
 30
0.0
 10
2.0677000000000003
 20
2.3540100000000002
 30
0.0
 10
1.4835
 20
3.6189300000000002
 30
0.0
 10
0.6046600000000001
 20
4.7162100000000002
 30
0.0
 10
0.6046600000000001
 20
4.7162100000000002
 30
0.0
 10
0.5665600000000001
 20
4.8101900000000004
 30
0.0
 10
0.6935600000000001
 20
4.7339900000000004
 30
0.0
 10
0.7113400000000001
 20
4.7898700000000005
 30
0.0
  0
SPLINE
  5
2A
100
AcDbEntity
  8
Ebene 1
100
AcDbSpline
210
0.0
220
0.0
230
1.0
 70
     1
 71
     3
 72
    24
 73
    20
 74
     0
 42
0.0000000001
 43
0.0000000001
 40
0.0
 40
0.0
 40
0.0
 40
0.0
 40
0.2
 40
0.2
 40
0.2
 40
0.2
 40
0.4
 40
0.4
 40
0.4
 40
0.4
 40
0.6000000000000001
 40
0.6000000000000001
 40
0.6000000000000001
 40
0.6000000000000001
 40
0.8
 40
0.8
 40
0.8
 40
0.8
 40
1.0
 40
1.0
 40
1.0
 40
1.0
 10
-1.3638300000000001
 20
4.7339900000000004
 30
0.0
 10
-1.3257300000000001
 20
4.7543100000000003
 30
0.0
 10
-1.29271
 20
4.6958900000000003
 30
0.0
 10
-1.3104900000000002
 20
4.6577900000000003
 30
0.0
 10
-1.3104900000000002
 20
4.6577900000000003
 30
0.0
 10
-1.8794500000000001
 20
4.3174300000000008
 30
0.0
 10
-2.1969500000000002
 20
3.6570300000000002
 30
0.0
 10
-2.27061
 20
3.0347300000000001
 30
0.0
 10
-2.27061
 20
3.0347300000000001
 30
0.0
 10
-1.9683500000000003
 20
2.4479900000000003
 30
0.0
 10
-1.3663700000000001
 20
2.0720700000000001
 30
0.0
 10
-1.08443
 20
1.5056500000000002
 30
0.0
 10
-1.08443
 20
1.5056500000000002
 30
0.0
 10
-1.6610100000000001
 20
1.9780900000000001
 30
0.0
 10
-2.3239500000000004
 20
2.3921100000000002
 30
0.0
 10
-2.9513300000000005
 20
2.7705700000000002
 30
0.0
 10
-2.9513300000000005
 20
2.7705700000000002
 30
0.0
 10
-2.8497300000000001
 20
3.6392500000000001
 30
0.0
 10
-2.0470900000000003
 20
4.2793300000000007
 30
0.0
 10
-1.3638300000000001
 20
4.7339900000000004
 30
0.0
  0
SPLINE
  5
2B
100
AcDbEntity
  8
Ebene 1
100
AcDbSpline
210
0.0
220
0.0
230
1.0
 70
     1
 71
     3
 72
    12
 73
     8
 74
     0
 42
0.0000000001
 43
0.0000000001
 40
0.0
 40
0.0
 40
0.0
 40
0.0
 40
0.5
 40
0.5
 40
0.5
 40
0.5
 40
1.0
 40
1.0
 40
1.0
 40
1.0
 10
0.1246
 20
4.7339900000000004
 30
0.0
 10
0.31764
 20
4.8101900000000004
 30
0.0
 10
0.37606
 20
4.5257100000000001
 30
0.0
 10
0.18302
 20
4.50793
 30
0.0
 10
0.18302
 20
4.50793
 30
0.0
 10
0.0484
 20
4.4876100000000001
 30
0.0
 10
0.02554
 20
4.6958900000000003
 30
0.0
 10
0.1246
 20
4.7339900000000004
 30
0.0
  0
SPLINE
  5
2C
100
AcDbEntity
  8
Ebene 1
 62
     7
100
AcDbSpline
210
0.0
220
0.0
230
1.0
 70
     1
 71
     3
 72
    12
 73
     8
 74
     0
 42
0.0000000001
 43
0.0000000001
 40
0.0
 40
0.0
 40
0.0
 40
0.0
 40
0.5
 40
0.5
 40
0.5
 40
0.5
 40
1.0
 40
1.0
 40
1.0
 40
1.0
 10
0.18302
 20
4.6958900000000003
 30
0.0
 10
0.2617600000000001
 20
4.6781100000000002
 30
0.0
 10
0.2389
 20
4.58413
 30
0.0
 10
0.1627
 20
4.58413
 30
0.0
 10
0.1627
 20
4.58413
 30
0.0
 10
0.09158
 20
4.6019100000000002
 30
0.0
 10
0.13222
 20
4.6958900000000003
 30
0.0
 10
0.18302
 20
4.6958900000000003
 30
0.0
  0
SPLINE
  5
2D
100
AcDbEntity
  8
Ebene 1
 62
     7
100
AcDbSpline
210
0.0
220
0.0
230
1.0
 70
     1
 71
     3
 72
    32
 73
    28
 74
     0
 42
0.0000000001
 43
0.0000000001
 40
0.0
 40
0.0
 40
0.0
 40
0.0
 40
0.1428571428571429
 40
0.1428571428571429
 40
0.1428571428571429
 40
0.1428571428571429
 40
0.2857142857142857
 40
0.2857142857142857
 40
0.2857142857142857
 40
0.2857142857142857
 40
0.4285714285714286
 40
0.4285714285714286
 40
0.4285714285714286
 40
0.4285714285714286
 40
0.5714285714285714
 40
0.5714285714285714
 40
0.5714285714285714
 40
0.5714285714285714
 40
0.7142857142857142
 40
0.7142857142857142
 40
0.7142857142857142
 40
0.7142857142857142
 40
0.857142857142857
 40
0.857142857142857
 40
0.857142857142857
 40
0.857142857142857
 40
1.0
 40
1.0
 40
1.0
 40
1.0
 10
2.3725000000000001
 20
4.6577900000000003
 30
0.0
 10
2.5122
 20
4.6781100000000002
 30
0.0
 10
2.6239600000000003
 20
4.6019100000000002
 30
0.0
 10
2.7458800000000001
 20
4.54603
 30
0.0
 10
2.7458800000000001
 20
4.54603
 30
0.0
 10
3.5434400000000004
 20
3.6392500000000001
 30
0.0
 10
3.8660200000000002
 20
2.4683100000000002
 30
0.0
 10
3.9600000000000004
 20
1.2973700000000001
 30
0.0
 10
3.9600000000000004
 20
1.2973700000000001
 30
0.0
 10
3.9219000000000004
 20
1.1652900000000002
 30
0.0
 10
3.8888800000000003
 20
1.0154300000000001
 30
0.0
 10
3.7669600000000001
 20
0.9011300000000001
 30
0.0
 10
3.7669600000000001
 20
0.9011300000000001
 30
0.0
 10
3.5536000000000003
 20
0.8249300000000001
 30
0.0
 10
2.9338400000000004
 20
0.56077
 30
0.0
 10
2.9744800000000002
 20
0.97733
 30
0.0
 10
2.9744800000000002
 20
0.97733
 30
0.0
 10
2.6722200000000003
 20
1.07131
 30
0.0
 10
3.0176600000000002
 20
0.9189100000000001
 30
0.0
 10
2.8627200000000004
 20
0.8249300000000001
 30
0.0
 10
2.8627200000000004
 20
0.8249300000000001
 30
0.0
 10
2.8627200000000004
 20
0.8249300000000001
 30
0.0
 10
2.6823800000000002
 20
1.0154300000000001
 30
0.0
 10
2.6823800000000002
 20
1.0154300000000001
 30
0.0
 10
2.6823800000000002
 20
1.0154300000000001
 30
0.0
 10
2.42584
 20
2.2041500000000003
 30
0.0
 10
2.71794
 20
3.5071700000000003
 30
0.0
 10
2.3725000000000001
 20
4.6577900000000003
 30
0.0
  0
SPLINE
  5
2E
100
AcDbEntity
  8
Ebene 1
100
AcDbSpline
210
0.0
220
0.0
230
1.0
 70
     1
 71
     3
 72
    12
 73
     8
 74
     0
 42
0.0000000001
 43
0.0000000001
 40
0.0
 40
0.0
 40
0.0
 40
0.0
 40
0.5
 40
0.5
 40
0.5
 40
0.5
 40
1.0
 40
1.0
 40
1.0
 40
1.0
 10
2.5249000000000001
 20
4.4495100000000001
 30
0.0
 10
2.6646000000000001
 20
4.50793
 30
0.0
 10
2.75604
 20
4.3377500000000007
 30
0.0
 10
2.6519000000000004
 20
4.2437700000000005
 30
0.0
 10
2.6519000000000004
 20
4.2437700000000005
 30
0.0
 10
2.5274400000000004
 20
4.1675700000000004
 30
0.0
 10
2.4410800000000004
 20
4.3555300000000008
 30
0.0
 10
2.5249000000000001
 20
4.4495100000000001
 30
0.0
  0
SPLINE
  5
2F
100
AcDbEntity
  8
Ebene 1
 62
     7
100
AcDbSpline
210
0.0
220
0.0
230
1.0
 70
     1
 71
     3
 72
    12
 73
     8
 74
     0
 42
0.0000000001
 43
0.0000000001
 40
0.0
 40
0.0
 40
0.0
 40
0.0
 40
0.5
 40
0.5
 40
0.5
 40
0.5
 40
1.0
 40
1.0
 40
1.0
 40
1.0
 10
2.5807800000000003
 20
4.3936299999999999
 30
0.0
 10
2.6468200000000004
 20
4.3936299999999999
 30
0.0
 10
2.6442800000000002
 20
4.3174300000000008
 30
0.0
 10
2.5960200000000002
 20
4.2996500000000006
 30
0.0
 10
2.5960200000000002
 20
4.2996500000000006
 30
0.0
 10
2.5426800000000003
 20
4.3174300000000008
 30
0.0
 10
2.54522
 20
4.3555300000000008
 30
0.0
 10
2.5807800000000003
 20
4.3936299999999999
 30
0.0
  0
SPLINE
  5
30
100
AcDbEntity
  8
Ebene 1
100
AcDbSpline
210
0.0
220
0.0
230
1.0
 70
     1
 71
     3
 72
    20
 73
    16
 74
     0
 42
0.0000000001
 43
0.0000000001
 40
0.0
 40
0.0
 40
0.0
 40
0.0
 40
0.25
 40
0.25
 40
0.25
 40
0.25
 40
0.5
 40
0.5
 40
0.5
 40
0.5
 40
0.75
 40
0.75
 40
0.75
 40
0.75
 40
1.0
 40
1.0
 40
1.0
 40
1.0
 10
0.5233800000000001
 20
4.3555300000000008
 30
0.0
 10
0.59958
 20
4.3377500000000007
 30
0.0
 10
0.70118
 20
4.2437700000000005
 30
0.0
 10
0.6326000000000001
 20
4.1497900000000003
 30
0.0
 10
0.6326000000000001
 20
4.1497900000000003
 30
0.0
 10
0.5233800000000001
 20
4.0558100000000001
 30
0.0
 10
0.33288
 20
4.2056700000000005
 30
0.0
 10
0.4802
 20
4.2793300000000007
 30
0.0
 10
0.4802
 20
4.2793300000000007
 30
0.0
 10
0.46496
 20
4.2056700000000005
 30
0.0
 10
0.5818000000000001
 20
4.1497900000000003
 30
0.0
 10
0.57926
 20
4.2437700000000005
 30
0.0
 10
0.57926
 20
4.2437700000000005
 30
0.0
 10
0.57926
 20
4.2437700000000005
 30
0.0
 10
0.5233800000000001
 20
4.3555300000000008
 30
0.0
 10
0.5233800000000001
 20
4.3555300000000008
 30
0.0
  0
SPLINE
  5
31
100
AcDbEntity
  8
Ebene 1
100
AcDbSpline
210
0.0
220
0.0
230
1.0
 70
     1
 71
     3
 72
    32
 73
    28
 74
     0
 42
0.0000000001
 43
0.0000000001
 40
0.0
 40
0.0
 40
0.0
 40
0.0
 40
0.1428571428571429
 40
0.1428571428571429
 40
0.1428571428571429
 40
0.1428571428571429
 40
0.2857142857142857
 40
0.2857142857142857
 40
0.2857142857142857
 40
0.2857142857142857
 40
0.4285714285714286
 40
0.4285714285714286
 40
0.4285714285714286
 40
0.4285714285714286
 40
0.5714285714285714
 40
0.5714285714285714
 40
0.5714285714285714
 40
0.5714285714285714
 40
0.7142857142857142
 40
0.7142857142857142
 40
0.7142857142857142
 40
0.7142857142857142
 40
0.857142857142857
 40
0.857142857142857
 40
0.857142857142857
 40
0.857142857142857
 40
1.0
 40
1.0
 40
1.0
 40
1.0
 10
2.9592400000000003
 20
3.9796100000000005
 30
0.0
 10
2.9592400000000003
 20
3.9796100000000005
 30
0.0
 10
3.0481400000000001
 20
3.9796100000000005
 30
0.0
 10
3.0481400000000001
 20
3.9796100000000005
 30
0.0
 10
3.0481400000000001
 20
3.9796100000000005
 30
0.0
 10
3.5332800000000004
 20
3.2988900000000001
 30
0.0
 10
3.5205800000000003
 20
2.4479900000000003
 30
0.0
 10
3.8838000000000004
 20
1.7113900000000002
 30
0.0
 10
3.8838000000000004
 20
1.7113900000000002
 30
0.0
 10
3.8888800000000003
 20
1.5412100000000002
 30
0.0
 10
3.8965000000000005
 20
1.3913500000000001
 30
0.0
 10
3.8228400000000002
 20
1.23895
 30
0.0
 10
3.8228400000000002
 20
1.23895
 30
0.0
 10
3.7187000000000001
 20
1.14751
 30
0.0
 10
3.5510600000000001
 20
1.1271900000000001
 30
0.0
 10
3.4164400000000001
 20
1.1652900000000002
 30
0.0
 10
3.4164400000000001
 20
1.1652900000000002
 30
0.0
 10
3.3783400000000001
 20
1.2033900000000002
 30
0.0
 10
3.3961200000000002
 20
1.23895
 30
0.0
 10
3.3935800000000005
 20
1.27705
 30
0.0
 10
3.3935800000000005
 20
1.27705
 30
0.0
 10
3.5663000000000005
 20
1.44723
 30
0.0
 10
3.5282000000000004
 20
1.6936100000000001
 30
0.0
 10
3.5967800000000003
 20
1.9018900000000001
 30
0.0
 10
3.5967800000000003
 20
1.9018900000000001
 30
0.0
 10
3.4215200000000001
 20
2.6181700000000001
 30
0.0
 10
3.3808800000000003
 20
3.3547700000000003
 30
0.0
 10
2.9592400000000003
 20
3.9796100000000005
 30
0.0
  0
SPLINE
  5
32
100
AcDbEntity
  8
Ebene 1
100
AcDbSpline
210
0.0
220
0.0
230
1.0
 70
     1
 71
     3
 72
    12
 73
     8
 74
     0
 42
0.0000000001
 43
0.0000000001
 40
0.0
 40
0.0
 40
0.0
 40
0.0
 40
0.5
 40
0.5
 40
0.5
 40
0.5
 40
1.0
 40
1.0
 40
1.0
 40
1.0
 10
2.71286
 20
3.9211900000000002
 30
0.0
 10
2.8703400000000001
 20
3.9592900000000002
 30
0.0
 10
2.9516200000000001
 20
3.7510100000000004
 30
0.0
 10
2.8043
 20
3.6773500000000001
 30
0.0
 10
2.8043
 20
3.6773500000000001
 30
0.0
 10
2.6341200000000002
 20
3.6011500000000001
 30
0.0
 10
2.6087200000000004
 20
3.8653100000000005
 30
0.0
 10
2.71286
 20
3.9211900000000002
 30
0.0
  0
SPLINE
  5
33
100
AcDbEntity
  8
Ebene 1
100
AcDbSpline
210
0.0
220
0.0
230
1.0
 70
     1
 71
     3
 72
    20
 73
    16
 74
     0
 42
0.0000000001
 43
0.0000000001
 40
0.0
 40
0.0
 40
0.0
 40
0.0
 40
0.25
 40
0.25
 40
0.25
 40
0.25
 40
0.5
 40
0.5
 40
0.5
 40
0.5
 40
0.75
 40
0.75
 40
0.75
 40
0.75
 40
1.0
 40
1.0
 40
1.0
 40
1.0
 10
0.8205600000000001
 20
3.8449900000000001
 30
0.0
 10
0.8205600000000001
 20
3.8068900000000001
 30
0.0
 10
0.8662800000000001
 20
3.7713300000000003
 30
0.0
 10
0.9196200000000001
 20
3.7510100000000004
 30
0.0
 10
0.9196200000000001
 20
3.7510100000000004
 30
0.0
 10
1.0085200000000001
 20
3.7713300000000003
 30
0.0
 10
0.9602600000000001
 20
3.8856300000000004
 30
0.0
 10
0.8815200000000001
 20
3.8653100000000005
 30
0.0
 10
0.8815200000000001
 20
3.8653100000000005
 30
0.0
 10
0.93486
 20
3.9973900000000002
 30
0.0
 10
1.14314
 20
3.8094300000000003
 30
0.0
 10
1.0085200000000001
 20
3.7154500000000001
 30
0.0
 10
1.0085200000000001
 20
3.7154500000000001
 30
0.0
 10
0.89168
 20
3.6011500000000001
 30
0.0
 10
0.66308
 20
3.8272100000000004
 30
0.0
 10
0.8205600000000001
 20
3.8449900000000001
 30
0.0
  0
SPLINE
  5
34
100
AcDbEntity
  8
Ebene 1
 62
     7
100
AcDbSpline
210
0.0
220
0.0
230
1.0
 70
     1
 71
     3
 72
    12
 73
     8
 74
     0
 42
0.0000000001
 43
0.0000000001
 40
0.0
 40
0.0
 40
0.0
 40
0.0
 40
0.5
 40
0.5
 40
0.5
 40
0.5
 40
1.0
 40
1.0
 40
1.0
 40
1.0
 10
2.7306400000000002
 20
3.8653100000000005
 30
0.0
 10
2.8144600000000004
 20
3.8856300000000004
 30
0.0
 10
2.8297000000000003
 20
3.7713300000000003
 30
0.0
 10
2.7509600000000001
 20
3.7510100000000004
 30
0.0
 10
2.7509600000000001
 20
3.7510100000000004
 30
0.0
 10
2.6874600000000002
 20
3.7510100000000004
 30
0.0
 10
2.7077800000000001
 20
3.8272100000000004
 30
0.0
 10
2.7306400000000002
 20
3.8653100000000005
 30
0.0
  0
SPLINE
  5
35
100
AcDbEntity
  8
Ebene 1
100
AcDbSpline
210
0.0
220
0.0
230
1.0
 70
     1
 71
     3
 72
    24
 73
    20
 74
     0
 42
0.0000000001
 43
0.0000000001
 40
0.0
 40
0.0
 40
0.0
 40
0.0
 40
0.2
 40
0.2
 40
0.2
 40
0.2
 40
0.4
 40
0.4
 40
0.4
 40
0.4
 40
0.6000000000000001
 40
0.6000000000000001
 40
0.6000000000000001
 40
0.6000000000000001
 40
0.8
 40
0.8
 40
0.8
 40
0.8
 40
1.0
 40
1.0
 40
1.0
 40
1.0
 10
0.37098
 20
3.8272100000000004
 30
0.0
 10
1.02884
 20
3.1668100000000003
 30
0.0
 10
1.44032
 20
2.1660500000000003
 30
0.0
 10
1.48604
 20
1.2033900000000002
 30
0.0
 10
1.48604
 20
1.2033900000000002
 30
0.0
 10
1.48604
 20
1.2033900000000002
 30
0.0
 10
1.3869800000000001
 20
1.0890900000000001
 30
0.0
 10
1.3869800000000001
 20
1.0890900000000001
 30
0.0
 10
1.3869800000000001
 20
1.0890900000000001
 30
0.0
 10
1.1685400000000001
 20
1.07131
 30
0.0
 10
0.9983600000000001
 20
1.23895
 30
0.0
 10
0.7926200000000001
 20
1.2592700000000001
 30
0.0
 10
0.7926200000000001
 20
1.2592700000000001
 30
0.0
 10
0.7723000000000001
 20
1.4675500000000001
 30
0.0
 10
0.9983600000000001
 20
1.5234300000000001
 30
0.0
 10
1.14314
 20
1.5996300000000001
 30
0.0
 10
1.14314
 20
1.5996300000000001
 30
0.0
 10
1.1634600000000002
 20
2.4302100000000002
 30
0.0
 10
0.7900800000000001
 20
3.1668100000000003
 30
0.0
 10
0.37098
 20
3.8272100000000004
 30
0.0
  0
SPLINE
  5
36
100
AcDbEntity
  8
Ebene 1
100
AcDbSpline
210
0.0
220
0.0
230
1.0
 70
     1
 71
     3
 72
    20
 73
    16
 74
     0
 42
0.0000000001
 43
0.0000000001
 40
0.0
 40
0.0
 40
0.0
 40
0.0
 40
0.25
 40
0.25
 40
0.25
 40
0.25
 40
0.5
 40
0.5
 40
0.5
 40
0.5
 40
0.75
 40
0.75
 40
0.75
 40
0.75
 40
1.0
 40
1.0
 40
1.0
 40
1.0
 10
1.2015600000000002
 20
3.2988900000000001
 30
0.0
 10
1.3234800000000002
 20
3.3166700000000002
 30
0.0
 10
1.3184
 20
3.1490300000000002
 30
0.0
 10
1.23712
 20
3.0906100000000003
 30
0.0
 10
1.23712
 20
3.0906100000000003
 30
0.0
 10
1.1304400000000001
 20
3.0347300000000001
 30
0.0
 10
1.06694
 20
3.1668100000000003
 30
0.0
 10
1.1228200000000002
 20
3.2430100000000004
 30
0.0
 10
1.1228200000000002
 20
3.2430100000000004
 30
0.0
 10
1.14568
 20
3.1871300000000002
 30
0.0
 10
1.19394
 20
3.1287100000000003
 30
0.0
 10
1.23712
 20
3.2049100000000004
 30
0.0
 10
1.23712
 20
3.2049100000000004
 30
0.0
 10
1.2218800000000001
 20
3.2430100000000004
 30
0.0
 10
1.18632
 20
3.2607900000000001
 30
0.0
 10
1.2015600000000002
 20
3.2988900000000001
 30
0.0
  0
SPLINE
  5
37
100
AcDbEntity
  8
Ebene 1
100
AcDbSpline
210
0.0
220
0.0
230
1.0
 70
     1
 71
     3
 72
    24
 73
    20
 74
     0
 42
0.0000000001
 43
0.0000000001
 40
0.0
 40
0.0
 40
0.0
 40
0.0
 40
0.2
 40
0.2
 40
0.2
 40
0.2
 40
0.4
 40
0.4
 40
0.4
 40
0.4
 40
0.6000000000000001
 40
0.6000000000000001
 40
0.6000000000000001
 40
0.6000000000000001
 40
0.8
 40
0.8
 40
0.8
 40
0.8
 40
1.0
 40
1.0
 40
1.0
 40
1.0
 10
2.8246200000000004
 20
3.2988900000000001
 30
0.0
 10
2.9440000000000004
 20
3.3166700000000002
 30
0.0
 10
2.9541600000000003
 20
3.1287100000000003
 30
0.0
 10
2.8779600000000003
 20
3.0728300000000002
 30
0.0
 10
2.8779600000000003
 20
3.0728300000000002
 30
0.0
 10
2.7763600000000004
 20
3.0169500000000005
 30
0.0
 10
2.6392000000000002
 20
3.1668100000000003
 30
0.0
 10
2.7458800000000001
 20
3.2252300000000003
 30
0.0
 10
2.7458800000000001
 20
3.2252300000000003
 30
0.0
 10
2.7484200000000003
 20
3.2430100000000004
 30
0.0
 10
2.7763600000000004
 20
3.2430100000000004
 30
0.0
 10
2.7687400000000002
 20
3.2252300000000003
 30
0.0
 10
2.7687400000000002
 20
3.2252300000000003
 30
0.0
 10
2.7255600000000002
 20
3.05505
 30
0.0
 10
2.9694000000000003
 20
3.1668100000000003
 30
0.0
 10
2.8322400000000001
 20
3.2430100000000004
 30
0.0
 10
2.8322400000000001
 20
3.2430100000000004
 30
0.0
 10
2.8322400000000001
 20
3.2430100000000004
 30
0.0
 10
2.8246200000000004
 20
3.2988900000000001
 30
0.0
 10
2.8246200000000004
 20
3.2988900000000001
 30
0.0
  0
SPLINE
  5
38
100
AcDbEntity
  8
Ebene 1
100
AcDbSpline
210
0.0
220
0.0
230
1.0
 70
     1
 71
     3
 72
    20
 73
    16
 74
     0
 42
0.0000000001
 43
0.0000000001
 40
0.0
 40
0.0
 40
0.0
 40
0.0
 40
0.25
 40
0.25
 40
0.25
 40
0.25
 40
0.5
 40
0.5
 40
0.5
 40
0.5
 40
0.75
 40
0.75
 40
0.75
 40
0.75
 40
1.0
 40
1.0
 40
1.0
 40
1.0
 10
1.4098400000000002
 20
2.71469
 30
0.0
 10
1.5419200000000002
 20
2.7502500000000003
 30
0.0
 10
1.5851000000000002
 20
2.5445100000000003
 30
0.0
 10
1.4987400000000002
 20
2.4683100000000002
 30
0.0
 10
1.4987400000000002
 20
2.4683100000000002
 30
0.0
 10
1.3717400000000002
 20
2.3921100000000002
 30
0.0
 10
1.2574400000000001
 20
2.6003900000000004
 30
0.0
 10
1.4073000000000002
 20
2.6181700000000001
 30
0.0
 10
1.4073000000000002
 20
2.6181700000000001
 30
0.0
 10
1.3666600000000002
 20
2.4302100000000002
 30
0.0
 10
1.56732
 20
2.6181700000000001
 30
0.0
 10
1.4149200000000002
 20
2.67659
 30
0.0
 10
1.4149200000000002
 20
2.67659
 30
0.0
 10
1.4149200000000002
 20
2.67659
 30
0.0
 10
1.4098400000000002
 20
2.71469
 30
0.0
 10
1.4098400000000002
 20
2.71469
 30
0.0
  0
SPLINE
  5
39
100
AcDbEntity
  8
Ebene 1
100
AcDbSpline
210
0.0
220
0.0
230
1.0
 70
     1
 71
     3
 72
    12
 73
     8
 74
     0
 42
0.0000000001
 43
0.0000000001
 40
0.0
 40
0.0
 40
0.0
 40
0.0
 40
0.5
 40
0.5
 40
0.5
 40
0.5
 40
1.0
 40
1.0
 40
1.0
 40
1.0
 10
2.7687400000000002
 20
2.6943700000000002
 30
0.0
 10
2.9846400000000002
 20
2.7705700000000002
 30
0.0
 10
2.9846400000000002
 20
2.4860900000000004
 30
0.0
 10
2.8068400000000002
 20
2.4479900000000003
 30
0.0
 10
2.8068400000000002
 20
2.4479900000000003
 30
0.0
 10
2.6823800000000002
 20
2.4479900000000003
 30
0.0
 10
2.6874600000000002
 20
2.63849
 30
0.0
 10
2.7687400000000002
 20
2.6943700000000002
 30
0.0
  0
SPLINE
  5
3A
100
AcDbEntity
  8
Ebene 1
 62
     7
100
AcDbSpline
210
0.0
220
0.0
230
1.0
 70
     1
 71
     3
 72
     8
 73
     4
 74
     0
 42
0.0000000001
 43
0.0000000001
 40
0.0
 40
0.0
 40
0.0
 40
0.0
 40
1.0
 40
1.0
 40
1.0
 40
1.0
 10
2.7890600000000001
 20
2.63849
 30
0.0
 10
2.9871800000000004
 20
2.63849
 30
0.0
 10
2.6976200000000001
 20
2.4479900000000003
 30
0.0
 10
2.7890600000000001
 20
2.63849
 30
0.0
  0
SPLINE
  5
3B
100
AcDbEntity
  8
Ebene 1
 62
     7
100
AcDbSpline
210
0.0
220
0.0
230
1.0
 70
     1
 71
     3
 72
    12
 73
     8
 74
     0
 42
0.0000000001
 43
0.0000000001
 40
0.0
 40
0.0
 40
0.0
 40
0.0
 40
0.5
 40
0.5
 40
0.5
 40
0.5
 40
1.0
 40
1.0
 40
1.0
 40
1.0
 10
-3.1951700000000001
 20
2.5622900000000004
 30
0.0
 10
-3.15707
 20
2.5445100000000003
 30
0.0
 10
-3.0808700000000004
 20
2.4683100000000002
 30
0.0
 10
-3.15707
 20
2.4479900000000003
 30
0.0
 10
-3.15707
 20
2.4479900000000003
 30
0.0
 10
-3.2256500000000004
 20
2.4479900000000003
 30
0.0
 10
-3.2510500000000002
 20
2.5241900000000004
 30
0.0
 10
-3.1951700000000001
 20
2.5622900000000004
 30
0.0
  0
SPLINE
  5
3C
100
AcDbEntity
  8
Ebene 1
100
AcDbSpline
210
0.0
220
0.0
230
1.0
 70
     1
 71
     3
 72
    20
 73
    16
 74
     0
 42
0.0000000001
 43
0.0000000001
 40
0.0
 40
0.0
 40
0.0
 40
0.0
 40
0.25
 40
0.25
 40
0.25
 40
0.25
 40
0.5
 40
0.5
 40
0.5
 40
0.5
 40
0.75
 40
0.75
 40
0.75
 40
0.75
 40
1.0
 40
1.0
 40
1.0
 40
1.0
 10
1.5622400000000001
 20
1.9958700000000003
 30
0.0
 10
1.5546200000000001
 20
1.9577700000000002
 30
0.0
 10
1.5952600000000001
 20
1.9196700000000002
 30
0.0
 10
1.6333600000000001
 20
1.9196700000000002
 30
0.0
 10
1.6333600000000001
 20
1.9196700000000002
 30
0.0
 10
1.6917800000000001
 20
1.9577700000000002
 30
0.0
 10
1.6689200000000002
 20
2.0161900000000004
 30
0.0
 10
1.6613000000000002
 20
2.0720700000000001
 30
0.0
 10
1.6613000000000002
 20
2.0720700000000001
 30
0.0
 10
1.7603600000000001
 20
2.1279500000000002
 30
0.0
 10
1.7883000000000002
 20
1.9018900000000001
 30
0.0
 10
1.6892400000000001
 20
1.8637900000000001
 30
0.0
 10
1.6892400000000001
 20
1.8637900000000001
 30
0.0
 10
1.5927200000000001
 20
1.8079100000000001
 30
0.0
 10
1.4454
 20
1.9196700000000002
 30
0.0
 10
1.5622400000000001
 20
1.9958700000000003
 30
0.0
  0
SPLINE
  5
3D
100
AcDbEntity
  8
Ebene 1
 62
     7
100
AcDbSpline
210
0.0
220
0.0
230
1.0
 70
     1
 71
     3
 72
    24
 73
    20
 74
     0
 42
0.0000000001
 43
0.0000000001
 40
0.0
 40
0.0
 40
0.0
 40
0.0
 40
0.2
 40
0.2
 40
0.2
 40
0.2
 40
0.4
 40
0.4
 40
0.4
 40
0.4
 40
0.6000000000000001
 40
0.6000000000000001
 40
0.6000000000000001
 40
0.6000000000000001
 40
0.8
 40
0.8
 40
0.8
 40
0.8
 40
1.0
 40
1.0
 40
1.0
 40
1.0
 10
-3.15707
 20
2.0339700000000001
 30
0.0
 10
-2.36205
 20
1.9018900000000001
 30
0.0
 10
-1.7397500000000001
 20
1.31515
 30
0.0
 10
-1.04633
 20
0.9392300000000001
 30
0.0
 10
-1.04633
 20
0.9392300000000001
 30
0.0
 10
-1.04633
 20
0.9392300000000001
 30
0.0
 10
-1.08443
 20
0.56077
 30
0.0
 10
-1.08443
 20
0.56077
 30
0.0
 10
-1.08443
 20
0.56077
 30
0.0
 10
-1.7270500000000002
 20
0.9951100000000001
 30
0.0
 10
-2.4230100000000001
 20
1.4294500000000001
 30
0.0
 10
-3.1519900000000001
 20
1.6936100000000001
 30
0.0
 10
-3.1519900000000001
 20
1.6936100000000001
 30
0.0
 10
-3.1519900000000001
 20
1.6936100000000001
 30
0.0
 10
-3.2281900000000001
 20
1.7875900000000002
 30
0.0
 10
-3.2281900000000001
 20
1.7875900000000002
 30
0.0
 10
-3.2281900000000001
 20
1.7875900000000002
 30
0.0
 10
-3.2281900000000001
 20
1.7875900000000002
 30
0.0
 10
-3.15707
 20
2.0339700000000001
 30
0.0
 10
-3.15707
 20
2.0339700000000001
 30
0.0
  0
SPLINE
  5
3E
100
AcDbEntity
  8
Ebene 1
100
AcDbSpline
210
0.0
220
0.0
230
1.0
 70
     1
 71
     3
 72
    12
 73
     8
 74
     0
 42
0.0000000001
 43
0.0000000001
 40
0.0
 40
0.0
 40
0.0
 40
0.0
 40
0.5
 40
0.5
 40
0.5
 40
0.5
 40
1.0
 40
1.0
 40
1.0
 40
1.0
 10
2.7306400000000002
 20
2.0339700000000001
 30
0.0
 10
2.8525600000000004
 20
2.0517500000000002
 30
0.0
 10
2.9897200000000002
 20
1.9399900000000001
 30
0.0
 10
2.8779600000000003
 20
1.8256900000000003
 30
0.0
 10
2.8779600000000003
 20
1.8256900000000003
 30
0.0
 10
2.7230200000000004
 20
1.7113900000000002
 30
0.0
 10
2.6239600000000003
 20
1.9196700000000002
 30
0.0
 10
2.7306400000000002
 20
2.0339700000000001
 30
0.0
  0
SPLINE
  5
3F
100
AcDbEntity
  8
Ebene 1
 62
     7
100
AcDbSpline
210
0.0
220
0.0
230
1.0
 70
     1
 71
     3
 72
    12
 73
     8
 74
     0
 42
0.0000000001
 43
0.0000000001
 40
0.0
 40
0.0
 40
0.0
 40
0.0
 40
0.5
 40
0.5
 40
0.5
 40
0.5
 40
1.0
 40
1.0
 40
1.0
 40
1.0
 10
2.7687400000000002
 20
1.9780900000000001
 30
0.0
 10
2.8170000000000002
 20
1.9577700000000002
 30
0.0
 10
2.8805000000000001
 20
1.9196700000000002
 30
0.0
 10
2.8220800000000001
 20
1.8637900000000001
 30
0.0
 10
2.8220800000000001
 20
1.8637900000000001
 30
0.0
 10
2.7535000000000003
 20
1.8460100000000002
 30
0.0
 10
2.7306400000000002
 20
1.9399900000000001
 30
0.0
 10
2.7687400000000002
 20
1.9780900000000001
 30
0.0
  0
SPLINE
  5
40
100
AcDbEntity
  8
Ebene 1
100
AcDbSpline
210
0.0
220
0.0
230
1.0
 70
     1
 71
     3
 72
    20
 73
    16
 74
     0
 42
0.0000000001
 43
0.0000000001
 40
0.0
 40
0.0
 40
0.0
 40
0.0
 40
0.25
 40
0.25
 40
0.25
 40
0.25
 40
0.5
 40
0.5
 40
0.5
 40
0.5
 40
0.75
 40
0.75
 40
0.75
 40
0.75
 40
1.0
 40
1.0
 40
1.0
 40
1.0
 10
-1.6660900000000001
 20
1.7317100000000001
 30
0.0
 10
-1.6432300000000002
 20
1.7317100000000001
 30
0.0
 10
-1.6457700000000002
 20
1.7113900000000002
 30
0.0
 10
-1.6457700000000002
 20
1.6936100000000001
 30
0.0
 10
-1.6457700000000002
 20
1.6936100000000001
 30
0.0
 10
-1.6991100000000001
 20
1.5056500000000002
 30
0.0
 10
-1.3612900000000001
 20
1.6174100000000002
 30
0.0
 10
-1.54671
 20
1.6936100000000001
 30
0.0
 10
-1.54671
 20
1.6936100000000001
 30
0.0
 10
-1.54671
 20
1.7317100000000001
 30
0.0
 10
-1.50353
 20
1.7317100000000001
 30
0.0
 10
-1.4755900000000002
 20
1.7317100000000001
 30
0.0
 10
-1.4755900000000002
 20
1.7317100000000001
 30
0.0
 10
-1.2190500000000002
 20
1.48533
 30
0.0
 10
-1.8743700000000001
 20
1.44723
 30
0.0
 10
-1.6660900000000001
 20
1.7317100000000001
 30
0.0
  0
SPLINE
  5
41
100
AcDbEntity
  8
Ebene 1
 62
     7
100
AcDbSpline
210
0.0
220
0.0
230
1.0
 70
     1
 71
     3
 72
    20
 73
    16
 74
     0
 42
0.0000000001
 43
0.0000000001
 40
0.0
 40
0.0
 40
0.0
 40
0.0
 40
0.25
 40
0.25
 40
0.25
 40
0.25
 40
0.5
 40
0.5
 40
0.5
 40
0.5
 40
0.75
 40
0.75
 40
0.75
 40
0.75
 40
1.0
 40
1.0
 40
1.0
 40
1.0
 10
-3.4847300000000003
 20
1.6682100000000002
 30
0.0
 10
-2.5144500000000001
 20
1.5539100000000001
 30
0.0
 10
-1.7651500000000002
 20
0.8579500000000001
 30
0.0
 10
-0.9752100000000001
 20
0.3474100000000001
 30
0.0
 10
-0.9752100000000001
 20
0.3474100000000001
 30
0.0
 10
-0.9574300000000001
 20
-0.092
 30
0.0
 10
-0.9167900000000001
 20
-0.41966
 30
0.0
 10
-0.8380500000000001
 20
-0.76002
 30
0.0
 10
-0.8380500000000001
 20
-0.76002
 30
0.0
 10
-1.33081
 20
-1.2299200000000001
 30
0.0
 10
-1.6965700000000001
 20
-1.8344400000000001
 30
0.0
 10
-2.23251
 20
-2.2891000000000004
 30
0.0
 10
-2.23251
 20
-2.2891000000000004
 30
0.0
 10
-3.8708100000000005
 20
-1.9665200000000003
 30
0.0
 10
-4.2949900000000003
 20
0.47695
 30
0.0
 10
-3.4847300000000003
 20
1.6682100000000002
 30
0.0
  0
SPLINE
  5
42
100
AcDbEntity
  8
Ebene 1
100
AcDbSpline
210
0.0
220
0.0
230
1.0
 70
     1
 71
     3
 72
    12
 73
     8
 74
     0
 42
0.0000000001
 43
0.0000000001
 40
0.0
 40
0.0
 40
0.0
 40
0.0
 40
0.5
 40
0.5
 40
0.5
 40
0.5
 40
1.0
 40
1.0
 40
1.0
 40
1.0
 10
-3.4593300000000005
 20
1.48533
 30
0.0
 10
-3.3196300000000001
 20
1.5412100000000002
 30
0.0
 10
-3.1977100000000003
 20
1.4091300000000002
 30
0.0
 10
-3.3145500000000001
 20
1.2973700000000001
 30
0.0
 10
-3.3145500000000001
 20
1.2973700000000001
 30
0.0
 10
-3.4390100000000001
 20
1.23895
 30
0.0
 10
-3.5583900000000002
 20
1.3710300000000002
 30
0.0
 10
-3.4593300000000005
 20
1.48533
 30
0.0
  0
SPLINE
  5
43
100
AcDbEntity
  8
Ebene 1
100
AcDbSpline
210
0.0
220
0.0
230
1.0
 70
     1
 71
     3
 72
    24
 73
    20
 74
     0
 42
0.0000000001
 43
0.0000000001
 40
0.0
 40
0.0
 40
0.0
 40
0.0
 40
0.2
 40
0.2
 40
0.2
 40
0.2
 40
0.4
 40
0.4
 40
0.4
 40
0.4
 40
0.6000000000000001
 40
0.6000000000000001
 40
0.6000000000000001
 40
0.6000000000000001
 40
0.8
 40
0.8
 40
0.8
 40
0.8
 40
1.0
 40
1.0
 40
1.0
 40
1.0
 10
-1.0234700000000001
 20
1.4675500000000001
 30
0.0
 10
-0.9625100000000001
 20
1.44723
 30
0.0
 10
-0.8736100000000001
 20
1.3710300000000002
 30
0.0
 10
-0.8939300000000001
 20
1.2973700000000001
 30
0.0
 10
-0.8939300000000001
 20
1.2973700000000001
 30
0.0
 10
-0.9675900000000001
 20
1.2033900000000002
 30
0.0
 10
-1.1987300000000001
 20
1.2033900000000002
 30
0.0
 10
-1.1555500000000001
 20
1.3710300000000002
 30
0.0
 10
-1.1555500000000001
 20
1.3710300000000002
 30
0.0
 10
-1.1784100000000002
 20
1.48533
 30
0.0
 10
-1.0539500000000002
 20
1.4294500000000001
 30
0.0
 10
-1.1123700000000001
 20
1.3532500000000001
 30
0.0
 10
-1.1123700000000001
 20
1.3532500000000001
 30
0.0
 10
-1.0971300000000002
 20
1.2973700000000001
 30
0.0
 10
-1.03871
 20
1.27705
 30
0.0
 10
-0.9904500000000001
 20
1.31515
 30
0.0
 10
-0.9904500000000001
 20
1.31515
 30
0.0
 10
-0.9193300000000001
 20
1.3710300000000002
 30
0.0
 10
-1.0666500000000001
 20
1.3913500000000001
 30
0.0
 10
-1.0234700000000001
 20
1.4675500000000001
 30
0.0
  0
SPLINE
  5
44
100
AcDbEntity
  8
Ebene 1
100
AcDbSpline
210
0.0
220
0.0
230
1.0
 70
     1
 71
     3
 72
    20
 73
    16
 74
     0
 42
0.0000000001
 43
0.0000000001
 40
0.0
 40
0.0
 40
0.0
 40
0.0
 40
0.25
 40
0.25
 40
0.25
 40
0.25
 40
0.5
 40
0.5
 40
0.5
 40
0.5
 40
0.75
 40
0.75
 40
0.75
 40
0.75
 40
1.0
 40
1.0
 40
1.0
 40
1.0
 10
1.7502000000000002
 20
1.4675500000000001
 30
0.0
 10
1.8543400000000001
 20
1.4675500000000001
 30
0.0
 10
1.8772000000000002
 20
1.2973700000000001
 30
0.0
 10
1.8035400000000001
 20
1.2211700000000001
 30
0.0
 10
1.8035400000000001
 20
1.2211700000000001
 30
0.0
 10
1.7044800000000002
 20
1.1652900000000002
 30
0.0
 10
1.56986
 20
1.2211700000000001
 30
0.0
 10
1.6232000000000002
 20
1.3532500000000001
 30
0.0
 10
1.6232000000000002
 20
1.3532500000000001
 30
0.0
 10
1.6435200000000001
 20
1.3532500000000001
 30
0.0
 10
1.6587600000000002
 20
1.4091300000000002
 30
0.0
 10
1.6892400000000001
 20
1.3913500000000001
 30
0.0
 10
1.6892400000000001
 20
1.3913500000000001
 30
0.0
 10
1.6435200000000001
 20
1.1652900000000002
 30
0.0
 10
1.8543400000000001
 20
1.3354700000000002
 30
0.0
 10
1.7502000000000002
 20
1.4675500000000001
 30
0.0
  0
SPLINE
  5
45
100
AcDbEntity
  8
Ebene 1
100
AcDbSpline
210
0.0
220
0.0
230
1.0
 70
     1
 71
     3
 72
    16
 73
    12
 74
     0
 42
0.0000000001
 43
0.0000000001
 40
0.0
 40
0.0
 40
0.0
 40
0.0
 40
0.3333333333333333
 40
0.3333333333333333
 40
0.3333333333333333
 40
0.3333333333333333
 40
0.6666666666666666
 40
0.6666666666666666
 40
0.6666666666666666
 40
0.6666666666666666
 40
1.0
 40
1.0
 40
1.0
 40
1.0
 10
2.7687400000000002
 20
1.4675500000000001
 30
0.0
 10
2.7687400000000002
 20
1.4675500000000001
 30
0.0
 10
2.7941400000000001
 20
1.4294500000000001
 30
0.0
 10
2.7941400000000001
 20
1.4294500000000001
 30
0.0
 10
2.7941400000000001
 20
1.4294500000000001
 30
0.0
 10
2.9084400000000001
 20
1.4675500000000001
 30
0.0
 10
3.0481400000000001
 20
1.3710300000000002
 30
0.0
 10
2.9363800000000002
 20
1.2592700000000001
 30
0.0
 10
2.9363800000000002
 20
1.2592700000000001
 30
0.0
 10
2.7890600000000001
 20
1.1856100000000001
 30
0.0
 10
2.63158
 20
1.3913500000000001
 30
0.0
 10
2.7687400000000002
 20
1.4675500000000001
 30
0.0
  0
SPLINE
  5
46
100
AcDbEntity
  8
Ebene 1
 62
     7
100
AcDbSpline
210
0.0
220
0.0
230
1.0
 70
     1
 71
     3
 72
    12
 73
     8
 74
     0
 42
0.0000000001
 43
0.0000000001
 40
0.0
 40
0.0
 40
0.0
 40
0.0
 40
0.5
 40
0.5
 40
0.5
 40
0.5
 40
1.0
 40
1.0
 40
1.0
 40
1.0
 10
-3.4034500000000003
 20
1.4294500000000001
 30
0.0
 10
-3.3501100000000004
 20
1.44723
 30
0.0
 10
-3.3247100000000001
 20
1.3913500000000001
 30
0.0
 10
-3.3704300000000003
 20
1.3532500000000001
 30
0.0
 10
-3.3704300000000003
 20
1.3532500000000001
 30
0.0
 10
-3.4136100000000003
 20
1.3354700000000002
 30
0.0
 10
-3.4364700000000004
 20
1.4091300000000002
 30
0.0
 10
-3.4034500000000003
 20
1.4294500000000001
 30
0.0
  0
SPLINE
  5
47
100
AcDbEntity
  8
Ebene 1
 62
     7
100
AcDbSpline
210
0.0
220
0.0
230
1.0
 70
     1
 71
     3
 72
    12
 73
     8
 74
     0
 42
0.0000000001
 43
0.0000000001
 40
0.0
 40
0.0
 40
0.0
 40
0.0
 40
0.5
 40
0.5
 40
0.5
 40
0.5
 40
1.0
 40
1.0
 40
1.0
 40
1.0
 10
2.8246200000000004
 20
1.3913500000000001
 30
0.0
 10
2.9109800000000003
 20
1.4091300000000002
 30
0.0
 10
2.9186000000000001
 20
1.31515
 30
0.0
 10
2.8449400000000002
 20
1.2973700000000001
 30
0.0
 10
2.8449400000000002
 20
1.2973700000000001
 30
0.0
 10
2.7916000000000003
 20
1.31515
 30
0.0
 10
2.7738200000000002
 20
1.3710300000000002
 30
0.0
 10
2.8246200000000004
 20
1.3913500000000001
 30
0.0
  0
SPLINE
  5
48
100
AcDbEntity
  8
Ebene 1
100
AcDbSpline
210
0.0
220
0.0
230
1.0
 70
     1
 71
     3
 72
    12
 73
     8
 74
     0
 42
0.0000000001
 43
0.0000000001
 40
0.0
 40
0.0
 40
0.0
 40
0.0
 40
0.5
 40
0.5
 40
0.5
 40
0.5
 40
1.0
 40
1.0
 40
1.0
 40
1.0
 10
-2.8929100000000001
 20
1.2592700000000001
 30
0.0
 10
-2.7836900000000004
 20
1.2973700000000001
 30
0.0
 10
-2.6363700000000003
 20
1.1856100000000001
 30
0.0
 10
-2.7074900000000004
 20
1.07131
 30
0.0
 10
-2.7074900000000004
 20
1.07131
 30
0.0
 10
-2.8471900000000003
 20
0.9392300000000001
 30
0.0
 10
-2.9818100000000003
 20
1.1271900000000001
 30
0.0
 10
-2.8929100000000001
 20
1.2592700000000001
 30
0.0
  0
SPLINE
  5
49
100
AcDbEntity
  8
Ebene 1
 62
     7
100
AcDbSpline
210
0.0
220
0.0
230
1.0
 70
     1
 71
     3
 72
    12
 73
     8
 74
     0
 42
0.0000000001
 43
0.0000000001
 40
0.0
 40
0.0
 40
0.0
 40
0.0
 40
0.5
 40
0.5
 40
0.5
 40
0.5
 40
1.0
 40
1.0
 40
1.0
 40
1.0
 10
-2.8370300000000004
 20
1.2033900000000002
 30
0.0
 10
-2.7608300000000003
 20
1.2033900000000002
 30
0.0
 10
-2.7379700000000002
 20
1.10941
 30
0.0
 10
-2.81671
 20
1.0890900000000001
 30
0.0
 10
-2.81671
 20
1.0890900000000001
 30
0.0
 10
-2.8929100000000001
 20
1.10941
 30
0.0
 10
-2.8522700000000003
 20
1.14751
 30
0.0
 10
-2.8370300000000004
 20
1.2033900000000002
 30
0.0
  0
SPLINE
  5
4A
100
AcDbEntity
  8
Ebene 1
100
AcDbSpline
210
0.0
220
0.0
230
1.0
 70
     1
 71
     3
 72
    20
 73
    16
 74
     0
 42
0.0000000001
 43
0.0000000001
 40
0.0
 40
0.0
 40
0.0
 40
0.0
 40
0.25
 40
0.25
 40
0.25
 40
0.25
 40
0.5
 40
0.5
 40
0.5
 40
0.5
 40
0.75
 40
0.75
 40
0.75
 40
0.75
 40
1.0
 40
1.0
 40
1.0
 40
1.0
 10
0.05094
 20
1.1652900000000002
 30
0.0
 10
0.17794
 20
1.1856100000000001
 30
0.0
 10
0.01792
 20
1.0154300000000001
 30
0.0
 10
0.13984
 20
1.0154300000000001
 30
0.0
 10
0.13984
 20
1.0154300000000001
 30
0.0
 10
0.22874
 20
1.0154300000000001
 30
0.0
 10
0.23636
 20
1.1271900000000001
 30
0.0
 10
0.14492
 20
1.10941
 30
0.0
 10
0.14492
 20
1.10941
 30
0.0
 10
0.25668
 20
1.23895
 30
0.0
 10
0.35828
 20
1.07131
 30
0.0
 10
0.25414
 20
0.95701
 30
0.0
 10
0.25414
 20
0.95701
 30
0.0
 10
0.10174
 20
0.8630300000000001
 30
0.0
 10
-0.03795
 20
1.0154300000000001
 30
0.0
 10
0.05094
 20
1.1652900000000002
 30
0.0
  0
SPLINE
  5
4B
100
AcDbEntity
  8
Ebene 1
100
AcDbSpline
210
0.0
220
0.0
230
1.0
 70
     1
 71
     3
 72
    24
 73
    20
 74
     0
 42
0.0000000001
 43
0.0000000001
 40
0.0
 40
0.0
 40
0.0
 40
0.0
 40
0.2
 40
0.2
 40
0.2
 40
0.2
 40
0.4
 40
0.4
 40
0.4
 40
0.4
 40
0.6000000000000001
 40
0.6000000000000001
 40
0.6000000000000001
 40
0.6000000000000001
 40
0.8
 40
0.8
 40
0.8
 40
0.8
 40
1.0
 40
1.0
 40
1.0
 40
1.0
 10
-0.51293
 20
1.10941
 30
0.0
 10
-0.38339
 20
1.14751
 30
0.0
 10
-0.37323
 20
0.9392300000000001
 30
0.0
 10
-0.42403
 20
0.8630300000000001
 30
0.0
 10
-0.42403
 20
0.8630300000000001
 30
0.0
 10
-0.55357
 20
0.76905
 30
0.0
 10
-0.76185
 20
0.9189100000000001
 30
0.0
 10
-0.6450100000000001
 20
1.0509900000000001
 30
0.0
 10
-0.6450100000000001
 20
1.0509900000000001
 30
0.0
 10
-0.63231
 20
1.0509900000000001
 30
0.0
 10
-0.6043700000000001
 20
1.0509900000000001
 30
0.0
 10
-0.6069100000000001
 20
1.0332100000000002
 30
0.0
 10
-0.6069100000000001
 20
1.0332100000000002
 30
0.0
 10
-0.6704100000000001
 20
0.80715
 30
0.0
 10
-0.33005
 20
0.95701
 30
0.0
 10
-0.50785
 20
1.0509900000000001
 30
0.0
 10
-0.50785
 20
1.0509900000000001
 30
0.0
 10
-0.50785
 20
1.0509900000000001
 30
0.0
 10
-0.51293
 20
1.10941
 30
0.0
 10
-0.51293
 20
1.10941
 30
0.0
  0
SPLINE
  5
4C
100
AcDbEntity
  8
Ebene 1
100
AcDbSpline
210
0.0
220
0.0
230
1.0
 70
     1
 71
     3
 72
    16
 73
    12
 74
     0
 42
0.0000000001
 43
0.0000000001
 40
0.0
 40
0.0
 40
0.0
 40
0.0
 40
0.3333333333333333
 40
0.3333333333333333
 40
0.3333333333333333
 40
0.3333333333333333
 40
0.6666666666666666
 40
0.6666666666666666
 40
0.6666666666666666
 40
0.6666666666666666
 40
1.0
 40
1.0
 40
1.0
 40
1.0
 10
0.9196200000000001
 20
1.10941
 30
0.0
 10
1.06948
 20
1.14751
 30
0.0
 10
1.09996
 20
0.9189100000000001
 30
0.0
 10
0.9907400000000001
 20
0.8452500000000001
 30
0.0
 10
0.9907400000000001
 20
0.8452500000000001
 30
0.0
 10
0.8129400000000001
 20
0.7309500000000001
 30
0.0
 10
0.6732400000000001
 20
1.0332100000000002
 30
0.0
 10
0.8231000000000001
 20
1.0509900000000001
 30
0.0
 10
0.8231000000000001
 20
1.0509900000000001
 30
0.0
 10
0.7723000000000001
 20
0.78683
 30
0.0
 10
1.1355200000000001
 20
0.97733
 30
0.0
 10
0.9196200000000001
 20
1.10941
 30
0.0
  0
SPLINE
  5
4D
100
AcDbEntity
  8
Ebene 1
100
AcDbSpline
210
0.0
220
0.0
230
1.0
 70
     1
 71
     3
 72
    12
 73
     8
 74
     0
 42
0.0000000001
 43
0.0000000001
 40
0.0
 40
0.0
 40
0.0
 40
0.0
 40
0.5
 40
0.5
 40
0.5
 40
0.5
 40
1.0
 40
1.0
 40
1.0
 40
1.0
 10
3.4113600000000002
 20
1.10941
 30
0.0
 10
3.5383600000000004
 20
1.14751
 30
0.0
 10
3.6247200000000004
 20
0.95701
 30
0.0
 10
3.5028000000000001
 20
0.8808100000000001
 30
0.0
 10
3.5028000000000001
 20
0.8808100000000001
 30
0.0
 10
3.3021400000000001
 20
0.80715
 30
0.0
 10
3.2716600000000002
 20
1.0154300000000001
 30
0.0
 10
3.4113600000000002
 20
1.10941
 30
0.0
  0
SPLINE
  5
4E
100
AcDbEntity
  8
Ebene 1
 62
     7
100
AcDbSpline
210
0.0
220
0.0
230
1.0
 70
     1
 71
     3
 72
    12
 73
     8
 74
     0
 42
0.0000000001
 43
0.0000000001
 40
0.0
 40
0.0
 40
0.0
 40
0.0
 40
0.5
 40
0.5
 40
0.5
 40
0.5
 40
1.0
 40
1.0
 40
1.0
 40
1.0
 10
3.4316800000000001
 20
1.0332100000000002
 30
0.0
 10
3.5282000000000004
 20
1.0332100000000002
 30
0.0
 10
3.4748600000000005
 20
0.9392300000000001
 30
0.0
 10
3.4113600000000002
 20
0.9189100000000001
 30
0.0
 10
3.4113600000000002
 20
0.9189100000000001
 30
0.0
 10
3.4113600000000002
 20
0.9189100000000001
 30
0.0
 10
3.4316800000000001
 20
1.0332100000000002
 30
0.0
 10
3.4316800000000001
 20
1.0332100000000002
 30
0.0
  0
SPLINE
  5
4F
100
AcDbEntity
  8
Ebene 1
100
AcDbSpline
210
0.0
220
0.0
230
1.0
 70
     1
 71
     3
 72
    12
 73
     8
 74
     0
 42
0.0000000001
 43
0.0000000001
 40
0.0
 40
0.0
 40
0.0
 40
0.0
 40
0.5
 40
0.5
 40
0.5
 40
0.5
 40
1.0
 40
1.0
 40
1.0
 40
1.0
 10
-2.3468100000000001
 20
0.95701
 30
0.0
 10
-2.2248900000000003
 20
1.0154300000000001
 30
0.0
 10
-2.10805
 20
0.8630300000000001
 30
0.0
 10
-2.2172700000000001
 20
0.76905
 30
0.0
 10
-2.2172700000000001
 20
0.76905
 30
0.0
 10
-2.3417300000000001
 20
0.7106300000000001
 30
0.0
 10
-2.4484100000000004
 20
0.8630300000000001
 30
0.0
 10
-2.3468100000000001
 20
0.95701
 30
0.0
  0
SPLINE
  5
50
100
AcDbEntity
  8
Ebene 1
 62
     7
100
AcDbSpline
210
0.0
220
0.0
230
1.0
 70
     1
 71
     3
 72
    12
 73
     8
 74
     0
 42
0.0000000001
 43
0.0000000001
 40
0.0
 40
0.0
 40
0.0
 40
0.0
 40
0.5
 40
0.5
 40
0.5
 40
0.5
 40
1.0
 40
1.0
 40
1.0
 40
1.0
 10
-2.30871
 20
0.9189100000000001
 30
0.0
 10
-2.26553
 20
0.9189100000000001
 30
0.0
 10
-2.2020300000000002
 20
0.8630300000000001
 30
0.0
 10
-2.2553700000000001
 20
0.8249300000000001
 30
0.0
 10
-2.2553700000000001
 20
0.8249300000000001
 30
0.0
 10
-2.3163300000000002
 20
0.80715
 30
0.0
 10
-2.3493500000000003
 20
0.8808100000000001
 30
0.0
 10
-2.30871
 20
0.9189100000000001
 30
0.0
  0
SPLINE
  5
51
100
AcDbEntity
  8
Ebene 1
100
AcDbSpline
210
0.0
220
0.0
230
1.0
 70
     1
 71
     3
 72
    24
 73
    20
 74
     0
 42
0.0000000001
 43
0.0000000001
 40
0.0
 40
0.0
 40
0.0
 40
0.0
 40
0.2
 40
0.2
 40
0.2
 40
0.2
 40
0.4
 40
0.4
 40
0.4
 40
0.4
 40
0.6000000000000001
 40
0.6000000000000001
 40
0.6000000000000001
 40
0.6000000000000001
 40
0.8
 40
0.8
 40
0.8
 40
0.8
 40
1.0
 40
1.0
 40
1.0
 40
1.0
 10
-3.6676100000000003
 20
0.8808100000000001
 30
0.0
 10
-3.5431500000000002
 20
0.03245
 30
0.0
 10
-3.2815300000000001
 20
-1.0597400000000001
 30
0.0
 10
-2.4153900000000004
 20
-1.4966200000000001
 30
0.0
 10
-2.4153900000000004
 20
-1.4966200000000001
 30
0.0
 10
-2.0775700000000001
 20
-1.3823200000000002
 30
0.0
 10
-1.7778500000000002
 20
-1.0597400000000001
 30
0.0
 10
-1.5187700000000002
 20
-0.8514600000000001
 30
0.0
 10
-1.5187700000000002
 20
-0.8514600000000001
 30
0.0
 10
-1.4832100000000001
 20
-0.9657600000000001
 30
0.0
 10
-1.6457700000000002
 20
-1.0597400000000001
 30
0.0
 10
-1.6889500000000002
 20
-1.1562600000000001
 30
0.0
 10
-1.6889500000000002
 20
-1.1562600000000001
 30
0.0
 10
-1.9708900000000003
 20
-1.42042
 30
0.0
 10
-2.1486900000000002
 20
-1.8725400000000001
 30
0.0
 10
-2.5347700000000004
 20
-1.9868400000000002
 30
0.0
 10
-2.5347700000000004
 20
-1.9868400000000002
 30
0.0
 10
-3.4263100000000004
 20
-1.3620000000000001
 30
0.0
 10
-3.8987500000000002
 20
-0.19106
 30
0.0
 10
-3.6676100000000003
 20
0.8808100000000001
 30
0.0
  0
SPLINE
  5
52
100
AcDbEntity
  8
Ebene 1
100
AcDbSpline
210
0.0
220
0.0
230
1.0
 70
     1
 71
     3
 72
    12
 73
     8
 74
     0
 42
0.0000000001
 43
0.0000000001
 40
0.0
 40
0.0
 40
0.0
 40
0.0
 40
0.5
 40
0.5
 40
0.5
 40
0.5
 40
1.0
 40
1.0
 40
1.0
 40
1.0
 10
-1.7422900000000001
 20
0.6750700000000001
 30
0.0
 10
-1.5822700000000001
 20
0.7309500000000001
 30
0.0
 10
-1.58989
 20
0.46679
 30
0.0
 10
-1.7219700000000002
 20
0.44647
 30
0.0
 10
-1.7219700000000002
 20
0.44647
 30
0.0
 10
-1.8794500000000001
 20
0.42869
 30
0.0
 10
-1.8540500000000002
 20
0.6547500000000001
 30
0.0
 10
-1.7422900000000001
 20
0.6750700000000001
 30
0.0
  0
SPLINE
  5
53
100
AcDbEntity
  8
Ebene 1
100
AcDbSpline
210
0.0
220
0.0
230
1.0
 70
     1
 71
     3
 72
    76
 73
    72
 74
     0
 42
0.0000000001
 43
0.0000000001
 40
0.0
 40
0.0
 40
0.0
 40
0.0
 40
0.0555555555555556
 40
0.0555555555555556
 40
0.0555555555555556
 40
0.0555555555555556
 40
0.1111111111111111
 40
0.1111111111111111
 40
0.1111111111111111
 40
0.1111111111111111
 40
0.1666666666666667
 40
0.1666666666666667
 40
0.1666666666666667
 40
0.1666666666666667
 40
0.2222222222222222
 40
0.2222222222222222
 40
0.2222222222222222
 40
0.2222222222222222
 40
0.2777777777777778
 40
0.2777777777777778
 40
0.2777777777777778
 40
0.2777777777777778
 40
0.3333333333333334
 40
0.3333333333333334
 40
0.3333333333333334
 40
0.3333333333333334
 40
0.388888888888889
 40
0.388888888888889
 40
0.388888888888889
 40
0.388888888888889
 40
0.4444444444444445
 40
0.4444444444444445
 40
0.4444444444444445
 40
0.4444444444444445
 40
0.5000000000000001
 40
0.5000000000000001
 40
0.5000000000000001
 40
0.5000000000000001
 40
0.5555555555555557
 40
0.5555555555555557
 40
0.5555555555555557
 40
0.5555555555555557
 40
0.6111111111111113
 40
0.6111111111111113
 40
0.6111111111111113
 40
0.6111111111111113
 40
0.6666666666666669
 40
0.6666666666666669
 40
0.6666666666666669
 40
0.6666666666666669
 40
0.7222222222222224
 40
0.7222222222222224
 40
0.7222222222222224
 40
0.7222222222222224
 40
0.777777777777778
 40
0.777777777777778
 40
0.777777777777778
 40
0.777777777777778
 40
0.8333333333333336
 40
0.8333333333333336
 40
0.8333333333333336
 40
0.8333333333333336
 40
0.8888888888888892
 40
0.8888888888888892
 40
0.8888888888888892
 40
0.8888888888888892
 40
0.9444444444444448
 40
0.9444444444444448
 40
0.9444444444444448
 40
0.9444444444444448
 40
1.0
 40
1.0
 40
1.0
 40
1.0
 10
1.7121000000000002
 20
-0.8514600000000001
 30
0.0
 10
1.7756000000000001
 20
-0.56952
 30
0.0
 10
2.1820000000000004
 20
-0.17328
 30
0.0
 10
1.7298800000000001
 20
-0.02088
 30
0.0
 10
1.7298800000000001
 20
-0.02088
 30
0.0
 10
1.4301600000000001
 20
-0.17328
 30
0.0
 10
1.3666600000000002
 20
-0.56952
 30
0.0
 10
1.27776
 20
-0.8514600000000001
 30
0.0
 10
1.27776
 20
-0.8514600000000001
 30
0.0
 10
1.1837800000000001
 20
-0.88956
 30
0.0
 10
1.2498200000000002
 20
-0.76002
 30
0.0
 10
1.2015600000000002
 20
-0.7397
 30
0.0
 10
1.2015600000000002
 20
-0.7397
 30
0.0
 10
0.9170800000000001
 20
-0.7955800000000001
 30
0.0
 10
0.7469
 20
-1.11816
 30
0.0
 10
0.5411600000000001
 20
-1.28834
 30
0.0
 10
0.5411600000000001
 20
-1.28834
 30
0.0
 10
0.47512
 20
-1.21214
 30
0.0
 10
0.6249800000000001
 20
-1.11816
 30
0.0
 10
0.6122800000000001
 20
-1.0216400000000001
 30
0.0
 10
0.6122800000000001
 20
-1.0216400000000001
 30
0.0
 10
0.24906
 20
-1.04196
 30
0.0
 10
-0.12939
 20
-0.7778000000000001
 30
0.0
 10
-0.47483
 20
-0.8514600000000001
 30
0.0
 10
-0.47483
 20
-0.8514600000000001
 30
0.0
 10
-0.43419
 20
-0.7397
 30
0.0
 10
-0.25893
 20
-0.7955800000000001
 30
0.0
 10
-0.15479
 20
-0.7778000000000001
 30
0.0
 10
-0.15479
 20
-0.7778000000000001
 30
0.0
 10
-0.15479
 20
-0.7778000000000001
 30
0.0
 10
-0.02271
 20
-0.76002
 30
0.0
 10
-0.02271
 20
-0.76002
 30
0.0
 10
-0.02271
 20
-0.76002
 30
0.0
 10
-0.15733
 20
-0.49586
 30
0.0
 10
-0.48499
 20
-0.26726
 30
0.0
 10
-0.46213
 20
0.05023
 30
0.0
 10
-0.46213
 20
0.05023
 30
0.0
 10
-0.58913
 20
-0.0031
 30
0.0
 10
-0.7034300000000001
 20
-0.19106
 30
0.0
 10
-0.8151900000000001
 20
-0.17328
 30
0.0
 10
-0.8151900000000001
 20
-0.17328
 30
0.0
 10
-0.6704100000000001
 20
0.12643
 30
0.0
 10
-0.34783
 20
0.27629
 30
0.0
 10
-0.04557
 20
0.40837
 30
0.0
 10
-0.04557
 20
0.40837
 30
0.0
 10
-0.04557
 20
0.40837
 30
0.0
 10
0.03062
 20
0.4845700000000001
 30
0.0
 10
0.03062
 20
0.4845700000000001
 30
0.0
 10
0.03062
 20
0.4845700000000001
 30
0.0
 10
-0.11669
 20
0.44647
 30
0.0
 10
-0.28687
 20
0.35249
 30
0.0
 10
-0.43165
 20
0.40837
 30
0.0
 10
-0.43165
 20
0.40837
 30
0.0
 10
0.24906
 20
0.95701
 30
0.0
 10
0.9399400000000001
 20
0.35249
 30
0.0
 10
1.5622400000000001
 20
0.05023
 30
0.0
 10
1.5622400000000001
 20
0.05023
 30
0.0
 10
1.9305400000000001
 20
0.08833
 30
0.0
 10
2.12358
 20
0.42869
 30
0.0
 10
2.2556600000000002
 20
0.6750700000000001
 30
0.0
 10
2.2556600000000002
 20
0.6750700000000001
 30
0.0
 10
2.2988400000000002
 20
0.42869
 30
0.0
 10
2.1591400000000003
 20
0.20263
 30
0.0
 10
1.9457800000000001
 20
0.08833
 30
0.0
 10
1.9457800000000001
 20
0.08833
 30
0.0
 10
2.0245200000000003
 20
-0.05898
 30
0.0
 10
2.04738
 20
-0.26726
 30
0.0
 10
2.2023200000000003
 20
-0.34346
 30
0.0
 10
2.2023200000000003
 20
-0.34346
 30
0.0
 10
1.9635600000000002
 20
-0.41966
 30
0.0
 10
1.9000600000000001
 20
-0.72192
 30
0.0
 10
1.7121000000000002
 20
-0.8514600000000001
 30
0.0
  0
SPLINE
  5
54
100
AcDbEntity
  8
Ebene 1
 62
     7
100
AcDbSpline
210
0.0
220
0.0
230
1.0
 70
     1
 71
     3
 72
    12
 73
     8
 74
     0
 42
0.0000000001
 43
0.0000000001
 40
0.0
 40
0.0
 40
0.0
 40
0.0
 40
0.5
 40
0.5
 40
0.5
 40
0.5
 40
1.0
 40
1.0
 40
1.0
 40
1.0
 10
-1.7422900000000001
 20
0.61665
 30
0.0
 10
-1.6889500000000002
 20
0.63697
 30
0.0
 10
-1.6610100000000001
 20
0.56077
 30
0.0
 10
-1.7067300000000001
 20
0.5226700000000001
 30
0.0
 10
-1.7067300000000001
 20
0.5226700000000001
 30
0.0
 10
-1.7930900000000001
 20
0.4845700000000001
 30
0.0
 10
-1.7905500000000001
 20
0.57855
 30
0.0
 10
-1.7422900000000001
 20
0.61665
 30
0.0
  0
SPLINE
  5
55
100
AcDbEntity
  8
Ebene 1
100
AcDbSpline
210
0.0
220
0.0
230
1.0
 70
     1
 71
     3
 72
    20
 73
    16
 74
     0
 42
0.0000000001
 43
0.0000000001
 40
0.0
 40
0.0
 40
0.0
 40
0.0
 40
0.25
 40
0.25
 40
0.25
 40
0.25
 40
0.5
 40
0.5
 40
0.5
 40
0.5
 40
0.75
 40
0.75
 40
0.75
 40
0.75
 40
1.0
 40
1.0
 40
1.0
 40
1.0
 10
-1.1936500000000001
 20
0.27629
 30
0.0
 10
-1.08189
 20
0.31439
 30
0.0
 10
-1.0183900000000001
 20
0.16453
 30
0.0
 10
-1.08443
 20
0.08833
 30
0.0
 10
-1.08443
 20
0.08833
 30
0.0
 10
-1.1911100000000001
 20
0.03245
 30
0.0
 10
-1.3689100000000001
 20
0.10865
 30
0.0
 10
-1.2622300000000002
 20
0.23819
 30
0.0
 10
-1.2622300000000002
 20
0.23819
 30
0.0
 10
-1.2215900000000002
 20
0.23819
 30
0.0
 10
-1.20889
 20
0.07055
 30
0.0
 10
-1.1377700000000002
 20
0.16453
 30
0.0
 10
-1.1377700000000002
 20
0.16453
 30
0.0
 10
-1.12507
 20
0.22041
 30
0.0
 10
-1.2215900000000002
 20
0.22041
 30
0.0
 10
-1.1936500000000001
 20
0.27629
 30
0.0
  0
SPLINE
  5
56
100
AcDbEntity
  8
Ebene 1
 62
     7
100
AcDbSpline
210
0.0
220
0.0
230
1.0
 70
     1
 71
     3
 72
    12
 73
     8
 74
     0
 42
0.0000000001
 43
0.0000000001
 40
0.0
 40
0.0
 40
0.0
 40
0.0
 40
0.5
 40
0.5
 40
0.5
 40
0.5
 40
1.0
 40
1.0
 40
1.0
 40
1.0
 10
2.6392000000000002
 20
0.05023
 30
0.0
 10
2.6900000000000004
 20
0.05023
 30
0.0
 10
2.6976200000000001
 20
-0.0412
 30
0.0
 10
2.6900000000000004
 20
-0.0793
 30
0.0
 10
2.6900000000000004
 20
-0.0793
 30
0.0
 10
2.6061800000000002
 20
-0.09708
 30
0.0
 10
2.6442800000000002
 20
0.01213
 30
0.0
 10
2.6392000000000002
 20
0.05023
 30
0.0
  0
SPLINE
  5
57
100
AcDbEntity
  8
Ebene 1
100
AcDbSpline
210
0.0
220
0.0
230
1.0
 70
     1
 71
     3
 72
    12
 73
     8
 74
     0
 42
0.0000000001
 43
0.0000000001
 40
0.0
 40
0.0
 40
0.0
 40
0.0
 40
0.5
 40
0.5
 40
0.5
 40
0.5
 40
1.0
 40
1.0
 40
1.0
 40
1.0
 10
-1.3079500000000002
 20
-0.26726
 30
0.0
 10
-1.1733300000000002
 20
-0.21138
 30
0.0
 10
-1.0133100000000002
 20
-0.32568
 30
0.0
 10
-1.1403100000000002
 20
-0.4577600000000001
 30
0.0
 10
-1.1403100000000002
 20
-0.4577600000000001
 30
0.0
 10
-1.2749300000000001
 20
-0.55174
 30
0.0
 10
-1.4273300000000002
 20
-0.38156
 30
0.0
 10
-1.3079500000000002
 20
-0.26726
 30
0.0
  0
SPLINE
  5
58
100
AcDbEntity
  8
Ebene 1
 62
     7
100
AcDbSpline
210
0.0
220
0.0
230
1.0
 70
     1
 71
     3
 72
    12
 73
     8
 74
     0
 42
0.0000000001
 43
0.0000000001
 40
0.0
 40
0.0
 40
0.0
 40
0.0
 40
0.5
 40
0.5
 40
0.5
 40
0.5
 40
1.0
 40
1.0
 40
1.0
 40
1.0
 10
-1.2317500000000001
 20
-0.30536
 30
0.0
 10
-1.1403100000000002
 20
-0.30536
 30
0.0
 10
-1.1606300000000001
 20
-0.39934
 30
0.0
 10
-1.2317500000000001
 20
-0.41966
 30
0.0
 10
-1.2317500000000001
 20
-0.41966
 30
0.0
 10
-1.3104900000000002
 20
-0.39934
 30
0.0
 10
-1.2673100000000002
 20
-0.34346
 30
0.0
 10
-1.2317500000000001
 20
-0.30536
 30
0.0
  0
SPLINE
  5
59
100
AcDbEntity
  8
Ebene 1
100
AcDbSpline
210
0.0
220
0.0
230
1.0
 70
     1
 71
     3
 72
    20
 73
    16
 74
     0
 42
0.0000000001
 43
0.0000000001
 40
0.0
 40
0.0
 40
0.0
 40
0.0
 40
0.25
 40
0.25
 40
0.25
 40
0.25
 40
0.5
 40
0.5
 40
0.5
 40
0.5
 40
0.75
 40
0.75
 40
0.75
 40
0.75
 40
1.0
 40
1.0
 40
1.0
 40
1.0
 10
2.2988400000000002
 20
-0.47554
 30
0.0
 10
2.2988400000000002
 20
-0.47554
 30
0.0
 10
2.38774
 20
-0.49586
 30
0.0
 10
2.38774
 20
-0.49586
 30
0.0
 10
2.38774
 20
-0.49586
 30
0.0
 10
2.3242400000000001
 20
-0.8159000000000001
 30
0.0
 10
2.3953600000000002
 20
-1.1359400000000002
 30
0.0
 10
2.2556600000000002
 20
-1.4382000000000001
 30
0.0
 10
2.2556600000000002
 20
-1.4382000000000001
 30
0.0
 10
2.0931000000000002
 20
-1.42042
 30
0.0
 10
1.8619600000000001
 20
-1.4382000000000001
 30
0.0
 10
1.7883000000000002
 20
-1.2680200000000001
 30
0.0
 10
1.7883000000000002
 20
-1.2680200000000001
 30
0.0
 10
1.8060800000000001
 20
-0.94798
 30
0.0
 10
2.1007200000000004
 20
-0.7016000000000001
 30
0.0
 10
2.2988400000000002
 20
-0.47554
 30
0.0
  0
SPLINE
  5
5A
100
AcDbEntity
  8
Ebene 1
100
AcDbSpline
210
0.0
220
0.0
230
1.0
 70
     1
 71
     3
 72
    40
 73
    36
 74
     0
 42
0.0000000001
 43
0.0000000001
 40
0.0
 40
0.0
 40
0.0
 40
0.0
 40
0.1111111111111111
 40
0.1111111111111111
 40
0.1111111111111111
 40
0.1111111111111111
 40
0.2222222222222222
 40
0.2222222222222222
 40
0.2222222222222222
 40
0.2222222222222222
 40
0.3333333333333333
 40
0.3333333333333333
 40
0.3333333333333333
 40
0.3333333333333333
 40
0.4444444444444444
 40
0.4444444444444444
 40
0.4444444444444444
 40
0.4444444444444444
 40
0.5555555555555556
 40
0.5555555555555556
 40
0.5555555555555556
 40
0.5555555555555556
 40
0.6666666666666667
 40
0.6666666666666667
 40
0.6666666666666667
 40
0.6666666666666667
 40
0.7777777777777779
 40
0.7777777777777779
 40
0.7777777777777779
 40
0.7777777777777779
 40
0.8888888888888891
 40
0.8888888888888891
 40
0.8888888888888891
 40
0.8888888888888891
 40
1.0
 40
1.0
 40
1.0
 40
1.0
 10
2.46902
 20
-0.47554
 30
0.0
 10
2.46902
 20
-0.47554
 30
0.0
 10
2.5579200000000002
 20
-0.47554
 30
0.0
 10
2.5579200000000002
 20
-0.47554
 30
0.0
 10
2.5579200000000002
 20
-0.47554
 30
0.0
 10
2.7027000000000001
 20
-0.7397
 30
0.0
 10
2.9033600000000002
 20
-1.0978400000000001
 30
0.0
 10
2.7281000000000004
 20
-1.4001000000000001
 30
0.0
 10
2.7281000000000004
 20
-1.4001000000000001
 30
0.0
 10
2.7281000000000004
 20
-1.4001000000000001
 30
0.0
 10
2.4537800000000001
 20
-1.4001000000000001
 30
0.0
 10
2.4537800000000001
 20
-1.4001000000000001
 30
0.0
 10
2.4537800000000001
 20
-1.4001000000000001
 30
0.0
 10
2.4537800000000001
 20
-1.4001000000000001
 30
0.0
 10
2.3979000000000004
 20
-1.28834
 30
0.0
 10
2.3979000000000004
 20
-1.28834
 30
0.0
 10
2.3979000000000004
 20
-1.28834
 30
0.0
 10
2.3979000000000004
 20
-1.28834
 30
0.0
 10
2.3979000000000004
 20
-1.5321800000000001
 30
0.0
 10
2.3979000000000004
 20
-1.5321800000000001
 30
0.0
 10
2.3979000000000004
 20
-1.5321800000000001
 30
0.0
 10
2.3979000000000004
 20
-1.5321800000000001
 30
0.0
 10
2.3547200000000004
 20
-1.42042
 30
0.0
 10
2.3547200000000004
 20
-1.42042
 30
0.0
 10
2.3547200000000004
 20
-1.42042
 30
0.0
 10
2.3547200000000004
 20
-1.42042
 30
0.0
 10
2.3547200000000004
 20
-1.25024
 30
0.0
 10
2.3547200000000004
 20
-1.25024
 30
0.0
 10
2.3547200000000004
 20
-1.25024
 30
0.0
 10
2.3547200000000004
 20
-1.25024
 30
0.0
 10
2.4080600000000003
 20
-1.2299200000000001
 30
0.0
 10
2.4080600000000003
 20
-1.2299200000000001
 30
0.0
 10
2.4080600000000003
 20
-1.2299200000000001
 30
0.0
 10
2.4080600000000003
 20
-1.2299200000000001
 30
0.0
 10
2.46902
 20
-0.47554
 30
0.0
 10
2.46902
 20
-0.47554
 30
0.0
  0
SPLINE
  5
5B
100
AcDbEntity
  8
Ebene 1
100
AcDbSpline
210
0.0
220
0.0
230
1.0
 70
     1
 71
     3
 72
    24
 73
    20
 74
     0
 42
0.0000000001
 43
0.0000000001
 40
0.0
 40
0.0
 40
0.0
 40
0.0
 40
0.2
 40
0.2
 40
0.2
 40
0.2
 40
0.4
 40
0.4
 40
0.4
 40
0.4
 40
0.6000000000000001
 40
0.6000000000000001
 40
0.6000000000000001
 40
0.6000000000000001
 40
0.8
 40
0.8
 40
0.8
 40
0.8
 40
1.0
 40
1.0
 40
1.0
 40
1.0
 10
-1.1174500000000001
 20
-0.6076200000000001
 30
0.0
 10
-1.03363
 20
-0.6076200000000001
 30
0.0
 10
-0.9625100000000001
 20
-0.72192
 30
0.0
 10
-0.9701300000000001
 20
-0.7955800000000001
 30
0.0
 10
-0.9701300000000001
 20
-0.7955800000000001
 30
0.0
 10
-1.0514100000000002
 20
-0.88956
 30
0.0
 10
-1.2596900000000002
 20
-0.8717800000000001
 30
0.0
 10
-1.20635
 20
-0.7016000000000001
 30
0.0
 10
-1.20635
 20
-0.7016000000000001
 30
0.0
 10
-1.1834900000000002
 20
-0.6838200000000001
 30
0.0
 10
-1.1428500000000001
 20
-0.7016000000000001
 30
0.0
 10
-1.1555500000000001
 20
-0.7397
 30
0.0
 10
-1.1555500000000001
 20
-0.7397
 30
0.0
 10
-1.1453900000000001
 20
-0.7955800000000001
 30
0.0
 10
-1.07935
 20
-0.7778000000000001
 30
0.0
 10
-1.0539500000000002
 20
-0.7397
 30
0.0
 10
-1.0539500000000002
 20
-0.7397
 30
0.0
 10
-1.0310900000000001
 20
-0.7016000000000001
 30
0.0
 10
-1.1504700000000001
 20
-0.6660400000000001
 30
0.0
 10
-1.1174500000000001
 20
-0.6076200000000001
 30
0.0
  0
SPLINE
  5
5C
100
AcDbEntity
  8
Ebene 1
100
AcDbSpline
210
0.0
220
0.0
230
1.0
 70
     1
 71
     3
 72
    12
 73
     8
 74
     0
 42
0.0000000001
 43
0.0000000001
 40
0.0
 40
0.0
 40
0.0
 40
0.0
 40
0.5
 40
0.5
 40
0.5
 40
0.5
 40
1.0
 40
1.0
 40
1.0
 40
1.0
 10
-1.5340100000000001
 20
-1.0597400000000001
 30
0.0
 10
-1.4019300000000001
 20
-1.00386
 30
0.0
 10
-1.25207
 20
-1.1562600000000001
 30
0.0
 10
-1.3689100000000001
 20
-1.2680200000000001
 30
0.0
 10
-1.3689100000000001
 20
-1.2680200000000001
 30
0.0
 10
-1.5263900000000001
 20
-1.3620000000000001
 30
0.0
 10
-1.6076700000000002
 20
-1.1918200000000001
 30
0.0
 10
-1.5340100000000001
 20
-1.0597400000000001
 30
0.0
  0
SPLINE
  5
5D
100
AcDbEntity
  8
Ebene 1
 62
     7
100
AcDbSpline
210
0.0
220
0.0
230
1.0
 70
     1
 71
     3
 72
    12
 73
     8
 74
     0
 42
0.0000000001
 43
0.0000000001
 40
0.0
 40
0.0
 40
0.0
 40
0.0
 40
0.5
 40
0.5
 40
0.5
 40
0.5
 40
1.0
 40
1.0
 40
1.0
 40
1.0
 10
-1.4755900000000002
 20
-1.11816
 30
0.0
 10
-1.42225
 20
-1.0978400000000001
 30
0.0
 10
-1.3689100000000001
 20
-1.1740400000000002
 30
0.0
 10
-1.4247900000000002
 20
-1.21214
 30
0.0
 10
-1.4247900000000002
 20
-1.21214
 30
0.0
 10
-1.4933700000000001
 20
-1.25024
 30
0.0
 10
-1.5340100000000001
 20
-1.1562600000000001
 30
0.0
 10
-1.4755900000000002
 20
-1.11816
 30
0.0
  0
SPLINE
  5
5E
100
AcDbEntity
  8
Ebene 1
100
AcDbSpline
210
0.0
220
0.0
230
1.0
 70
     1
 71
     3
 72
    12
 73
     8
 74
     0
 42
0.0000000001
 43
0.0000000001
 40
0.0
 40
0.0
 40
0.0
 40
0.0
 40
0.5
 40
0.5
 40
0.5
 40
0.5
 40
1.0
 40
1.0
 40
1.0
 40
1.0
 10
-1.8540500000000002
 20
-1.4763000000000002
 30
0.0
 10
-1.7321300000000002
 20
-1.4382000000000001
 30
0.0
 10
-1.5975100000000002
 20
-1.6083800000000001
 30
0.0
 10
-1.7067300000000001
 20
-1.7023600000000001
 30
0.0
 10
-1.7067300000000001
 20
-1.7023600000000001
 30
0.0
 10
-1.8845300000000003
 20
-1.8166600000000002
 30
0.0
 10
-1.9861300000000002
 20
-1.5906000000000002
 30
0.0
 10
-1.8540500000000002
 20
-1.4763000000000002
 30
0.0
  0
SPLINE
  5
5F
100
AcDbEntity
  8
Ebene 1
 62
     7
100
AcDbSpline
210
0.0
220
0.0
230
1.0
 70
     1
 71
     3
 72
    12
 73
     8
 74
     0
 42
0.0000000001
 43
0.0000000001
 40
0.0
 40
0.0
 40
0.0
 40
0.0
 40
0.5
 40
0.5
 40
0.5
 40
0.5
 40
1.0
 40
1.0
 40
1.0
 40
1.0
 10
-1.8159500000000002
 20
-1.5321800000000001
 30
0.0
 10
-1.7372100000000001
 20
-1.5321800000000001
 30
0.0
 10
-1.7168900000000002
 20
-1.6464800000000002
 30
0.0
 10
-1.79817
 20
-1.6668000000000001
 30
0.0
 10
-1.79817
 20
-1.6668000000000001
 30
0.0
 10
-1.8794500000000001
 20
-1.6668000000000001
 30
0.0
 10
-1.8591300000000002
 20
-1.5702800000000001
 30
0.0
 10
-1.8159500000000002
 20
-1.5321800000000001
 30
0.0
  0
SPLINE
  5
60
100
AcDbEntity
  8
Ebene 1
 62
     7
100
AcDbSpline
210
0.0
220
0.0
230
1.0
 70
     1
 71
     3
 72
    76
 73
    72
 74
     0
 42
0.0000000001
 43
0.0000000001
 40
0.0
 40
0.0
 40
0.0
 40
0.0
 40
0.0555555555555556
 40
0.0555555555555556
 40
0.0555555555555556
 40
0.0555555555555556
 40
0.1111111111111111
 40
0.1111111111111111
 40
0.1111111111111111
 40
0.1111111111111111
 40
0.1666666666666667
 40
0.1666666666666667
 40
0.1666666666666667
 40
0.1666666666666667
 40
0.2222222222222222
 40
0.2222222222222222
 40
0.2222222222222222
 40
0.2222222222222222
 40
0.2777777777777778
 40
0.2777777777777778
 40
0.2777777777777778
 40
0.2777777777777778
 40
0.3333333333333334
 40
0.3333333333333334
 40
0.3333333333333334
 40
0.3333333333333334
 40
0.388888888888889
 40
0.388888888888889
 40
0.388888888888889
 40
0.388888888888889
 40
0.4444444444444445
 40
0.4444444444444445
 40
0.4444444444444445
 40
0.4444444444444445
 40
0.5000000000000001
 40
0.5000000000000001
 40
0.5000000000000001
 40
0.5000000000000001
 40
0.5555555555555557
 40
0.5555555555555557
 40
0.5555555555555557
 40
0.5555555555555557
 40
0.6111111111111113
 40
0.6111111111111113
 40
0.6111111111111113
 40
0.6111111111111113
 40
0.6666666666666669
 40
0.6666666666666669
 40
0.6666666666666669
 40
0.6666666666666669
 40
0.7222222222222224
 40
0.7222222222222224
 40
0.7222222222222224
 40
0.7222222222222224
 40
0.777777777777778
 40
0.777777777777778
 40
0.777777777777778
 40
0.777777777777778
 40
0.8333333333333336
 40
0.8333333333333336
 40
0.8333333333333336
 40
0.8333333333333336
 40
0.8888888888888892
 40
0.8888888888888892
 40
0.8888888888888892
 40
0.8888888888888892
 40
0.9444444444444448
 40
0.9444444444444448
 40
0.9444444444444448
 40
0.9444444444444448
 40
1.0
 40
1.0
 40
1.0
 40
1.0
 10
-0.92949
 20
-1.6668000000000001
 30
0.0
 10
-0.7135900000000001
 20
-1.7785600000000001
 30
0.0
 10
-0.9421900000000001
 20
-2.1748000000000003
 30
0.0
 10
-0.7923300000000001
 20
-2.4008600000000002
 30
0.0
 10
-0.7923300000000001
 20
-2.4008600000000002
 30
0.0
 10
-0.4926100000000001
 20
-2.4008600000000002
 30
0.0
 10
-0.38339
 20
-2.0427200000000001
 30
0.0
 10
-0.28179
 20
-1.8166600000000002
 30
0.0
 10
-0.28179
 20
-1.8166600000000002
 30
0.0
 10
-0.17257
 20
-1.8725400000000001
 30
0.0
 10
-0.06335
 20
-2.0046200000000001
 30
0.0
 10
0.03062
 20
-2.0808200000000001
 30
0.0
 10
0.03062
 20
-2.0808200000000001
 30
0.0
 10
-0.32497
 20
-2.5532600000000003
 30
0.0
 10
-0.10145
 20
-3.2136600000000004
 30
0.0
 10
0.4090800000000001
 20
-3.4600400000000002
 30
0.0
 10
0.4090800000000001
 20
-3.4600400000000002
 30
0.0
 10
0.4090800000000001
 20
-3.4600400000000002
 30
0.0
 10
0.5843400000000001
 20
-3.1958800000000003
 30
0.0
 10
0.5843400000000001
 20
-3.1958800000000003
 30
0.0
 10
0.5843400000000001
 20
-3.1958800000000003
 30
0.0
 10
0.9297800000000001
 20
-3.2898600000000005
 30
0.0
 10
0.31764
 20
-3.7623000000000002
 30
0.0
 10
0.5665600000000001
 20
-3.6480000000000001
 30
0.0
 10
0.5665600000000001
 20
-3.6480000000000001
 30
0.0
 10
0.6122800000000001
 20
-3.5718000000000001
 30
0.0
 10
0.7469
 20
-3.5540200000000004
 30
0.0
 10
0.7291200000000001
 20
-3.4397200000000003
 30
0.0
 10
0.7291200000000001
 20
-3.4397200000000003
 30
0.0
 10
0.7469
 20
-3.3076400000000001
 30
0.0
 10
0.7926200000000001
 20
-3.3660600000000005
 30
0.0
 10
0.80532
 20
-3.4600400000000002
 30
0.0
 10
0.80532
 20
-3.4600400000000002
 30
0.0
 10
1.1634600000000002
 20
-3.5159200000000004
 30
0.0
 10
0.59196
 20
-4.0645600000000002
 30
0.0
 10
0.8205600000000001
 20
-3.9502600000000001
 30
0.0
 10
0.8205600000000001
 20
-3.9502600000000001
 30
0.0
 10
0.9018400000000001
 20
-3.8943800000000004
 30
0.0
 10
0.9069200000000001
 20
-3.7800800000000003
 30
0.0
 10
0.9450200000000001
 20
-3.7064200000000005
 30
0.0
 10
0.9450200000000001
 20
-3.7064200000000005
 30
0.0
 10
1.0466200000000001
 20
-3.3838400000000002
 30
0.0
 10
0.9831200000000001
 20
-3.6480000000000001
 30
0.0
 10
1.1990200000000002
 20
-3.6683200000000005
 30
0.0
 10
1.1990200000000002
 20
-3.6683200000000005
 30
0.0
 10
1.1583800000000002
 20
-3.8740600000000005
 30
0.0
 10
1.1914
 20
-3.9883600000000001
 30
0.0
 10
1.2599800000000001
 20
-3.7242000000000002
 30
0.0
 10
1.2599800000000001
 20
-3.7242000000000002
 30
0.0
 10
1.23712
 20
-3.6683200000000005
 30
0.0
 10
1.2879200000000002
 20
-3.5921200000000004
 30
0.0
 10
1.3387200000000001
 20
-3.6480000000000001
 30
0.0
 10
1.3387200000000001
 20
-3.6480000000000001
 30
0.0
 10
1.4200000000000002
 20
-4.1204400000000003
 30
0.0
 10
1.7476600000000002
 20
-3.4600400000000002
 30
0.0
 10
1.8238600000000003
 20
-3.8943800000000004
 30
0.0
 10
1.8238600000000003
 20
-3.8943800000000004
 30
0.0
 10
1.6409800000000001
 20
-3.9299400000000002
 30
0.0
 10
1.4073000000000002
 20
-3.9680400000000002
 30
0.0
 10
1.2066400000000002
 20
-4.0442400000000003
 30
0.0
 10
1.2066400000000002
 20
-4.0442400000000003
 30
0.0
 10
0.9729600000000001
 20
-4.1382200000000005
 30
0.0
 10
0.7977000000000001
 20
-4.3287200000000006
 30
0.0
 10
0.5945
 20
-4.4608000000000008
 30
0.0
 10
0.5945
 20
-4.4608000000000008
 30
0.0
 10
-0.27163
 20
-4.1966400000000004
 30
0.0
 10
-1.5619500000000002
 20
-3.4778200000000004
 30
0.0
 10
-1.08189
 20
-2.3653000000000004
 30
0.0
 10
-1.08189
 20
-2.3653000000000004
 30
0.0
 10
-0.9802900000000001
 20
-2.1367000000000003
 30
0.0
 10
-1.2419100000000001
 20
-1.7226800000000002
 30
0.0
 10
-0.92949
 20
-1.6668000000000001
 30
0.0
  0
SPLINE
  5
61
100
AcDbEntity
  8
Ebene 1
 62
     7
100
AcDbSpline
210
0.0
220
0.0
230
1.0
 70
     1
 71
     3
 72
    24
 73
    20
 74
     0
 42
0.0000000001
 43
0.0000000001
 40
0.0
 40
0.0
 40
0.0
 40
0.0
 40
0.2
 40
0.2
 40
0.2
 40
0.2
 40
0.4
 40
0.4
 40
0.4
 40
0.4
 40
0.6000000000000001
 40
0.6000000000000001
 40
0.6000000000000001
 40
0.6000000000000001
 40
0.8
 40
0.8
 40
0.8
 40
0.8
 40
1.0
 40
1.0
 40
1.0
 40
1.0
 10
1.14568
 20
-1.8725400000000001
 30
0.0
 10
1.14568
 20
-1.8725400000000001
 30
0.0
 10
1.2168000000000001
 20
-1.8725400000000001
 30
0.0
 10
1.2168000000000001
 20
-1.8725400000000001
 30
0.0
 10
1.2168000000000001
 20
-1.8725400000000001
 30
0.0
 10
1.3082400000000001
 20
-2.0986000000000002
 30
0.0
 10
1.3869800000000001
 20
-2.3449800000000001
 30
0.0
 10
1.3692000000000002
 20
-2.60914
 30
0.0
 10
1.3692000000000002
 20
-2.60914
 30
0.0
 10
1.3692000000000002
 20
-2.60914
 30
0.0
 10
1.2955400000000001
 20
-2.5151600000000003
 30
0.0
 10
1.2955400000000001
 20
-2.5151600000000003
 30
0.0
 10
1.2955400000000001
 20
-2.5151600000000003
 30
0.0
 10
1.2955400000000001
 20
-2.5151600000000003
 30
0.0
 10
1.11266
 20
-2.60914
 30
0.0
 10
1.11266
 20
-2.60914
 30
0.0
 10
1.11266
 20
-2.60914
 30
0.0
 10
1.11266
 20
-2.60914
 30
0.0
 10
1.14568
 20
-1.8725400000000001
 30
0.0
 10
1.14568
 20
-1.8725400000000001
 30
0.0
  0
SPLINE
  5
62
100
AcDbEntity
  8
Ebene 1
100
AcDbSpline
210
0.0
220
0.0
230
1.0
 70
     1
 71
     3
 72
    12
 73
     8
 74
     0
 42
0.0000000001
 43
0.0000000001
 40
0.0
 40
0.0
 40
0.0
 40
0.0
 40
0.5
 40
0.5
 40
0.5
 40
0.5
 40
1.0
 40
1.0
 40
1.0
 40
1.0
 10
-2.2147300000000003
 20
-1.9106400000000001
 30
0.0
 10
-2.0928100000000001
 20
-1.8903200000000002
 30
0.0
 10
-2.0445500000000001
 20
-2.0427200000000001
 30
0.0
 10
-2.1232900000000003
 20
-2.1189200000000001
 30
0.0
 10
-2.1232900000000003
 20
-2.1189200000000001
 30
0.0
 10
-2.2858500000000004
 20
-2.1951200000000002
 30
0.0
 10
-2.3544300000000002
 20
-1.9665200000000003
 30
0.0
 10
-2.2147300000000003
 20
-1.9106400000000001
 30
0.0
  0
SPLINE
  5
63
100
AcDbEntity
  8
Ebene 1
 62
     7
100
AcDbSpline
210
0.0
220
0.0
230
1.0
 70
     1
 71
     3
 72
    12
 73
     8
 74
     0
 42
0.0000000001
 43
0.0000000001
 40
0.0
 40
0.0
 40
0.0
 40
0.0
 40
0.5
 40
0.5
 40
0.5
 40
0.5
 40
1.0
 40
1.0
 40
1.0
 40
1.0
 10
-2.19441
 20
-1.9665200000000003
 30
0.0
 10
-2.1182100000000004
 20
-1.9665200000000003
 30
0.0
 10
-2.1359900000000001
 20
-2.0427200000000001
 30
0.0
 10
-2.19441
 20
-2.0605000000000002
 30
0.0
 10
-2.19441
 20
-2.0605000000000002
 30
0.0
 10
-2.23251
 20
-2.0427200000000001
 30
0.0
 10
-2.2096500000000003
 20
-1.9868400000000002
 30
0.0
 10
-2.19441
 20
-1.9665200000000003
 30
0.0
  0
SPLINE
  5
64
100
AcDbEntity
  8
Ebene 1
 62
     7
100
AcDbSpline
210
0.0
220
0.0
230
1.0
 70
     1
 71
     3
 72
    20
 73
    16
 74
     0
 42
0.0000000001
 43
0.0000000001
 40
0.0
 40
0.0
 40
0.0
 40
0.0
 40
0.25
 40
0.25
 40
0.25
 40
0.25
 40
0.5
 40
0.5
 40
0.5
 40
0.5
 40
0.75
 40
0.75
 40
0.75
 40
0.75
 40
1.0
 40
1.0
 40
1.0
 40
1.0
 10
0.8993000000000001
 20
-1.9868400000000002
 30
0.0
 10
1.0263
 20
-2.0046200000000001
 30
0.0
 10
1.0136000000000001
 20
-2.23068
 30
0.0
 10
1.02884
 20
-2.3449800000000001
 30
0.0
 10
1.02884
 20
-2.3449800000000001
 30
0.0
 10
1.02884
 20
-2.3449800000000001
 30
0.0
 10
0.8866000000000001
 20
-2.3653000000000004
 30
0.0
 10
0.8866000000000001
 20
-2.3653000000000004
 30
0.0
 10
0.8866000000000001
 20
-2.3653000000000004
 30
0.0
 10
0.86882
 20
-2.2891000000000004
 30
0.0
 10
0.88914
 20
-2.2129000000000003
 30
0.0
 10
0.8993000000000001
 20
-2.1367000000000003
 30
0.0
 10
0.8993000000000001
 20
-2.1367000000000003
 30
0.0
 10
0.8535800000000001
 20
-2.0986000000000002
 30
0.0
 10
0.8535800000000001
 20
-2.02494
 30
0.0
 10
0.8993000000000001
 20
-1.9868400000000002
 30
0.0
  0
SPLINE
  5
65
100
AcDbEntity
  8
Ebene 1
 62
     7
100
AcDbSpline
210
0.0
220
0.0
230
1.0
 70
     1
 71
     3
 72
    12
 73
     8
 74
     0
 42
0.0000000001
 43
0.0000000001
 40
0.0
 40
0.0
 40
0.0
 40
0.0
 40
0.5
 40
0.5
 40
0.5
 40
0.5
 40
1.0
 40
1.0
 40
1.0
 40
1.0
 10
0.7113400000000001
 20
-2.0427200000000001
 30
0.0
 10
0.76468
 20
-2.0427200000000001
 30
0.0
 10
0.8027800000000001
 20
-2.1570200000000002
 30
0.0
 10
0.76468
 20
-2.1951200000000002
 30
0.0
 10
0.76468
 20
-2.1951200000000002
 30
0.0
 10
0.6935600000000001
 20
-2.2129000000000003
 30
0.0
 10
0.6834
 20
-2.0808200000000001
 30
0.0
 10
0.7113400000000001
 20
-2.0427200000000001
 30
0.0
  0
SPLINE
  5
66
100
AcDbEntity
  8
Ebene 1
 62
     7
100
AcDbSpline
210
0.0
220
0.0
230
1.0
 70
     1
 71
     3
 72
    12
 73
     8
 74
     0
 42
0.0000000001
 43
0.0000000001
 40
0.0
 40
0.0
 40
0.0
 40
0.0
 40
0.5
 40
0.5
 40
0.5
 40
0.5
 40
1.0
 40
1.0
 40
1.0
 40
1.0
 10
0.7113400000000001
 20
-2.2891000000000004
 30
0.0
 10
0.8104000000000001
 20
-2.3449800000000001
 30
0.0
 10
0.8205600000000001
 20
-2.60914
 30
0.0
 10
0.7113400000000001
 20
-2.6853400000000001
 30
0.0
 10
0.7113400000000001
 20
-2.6853400000000001
 30
0.0
 10
0.55132
 20
-2.5913600000000003
 30
0.0
 10
0.6910200000000001
 20
-2.4211800000000001
 30
0.0
 10
0.7113400000000001
 20
-2.2891000000000004
 30
0.0
  0
SPLINE
  5
67
100
AcDbEntity
  8
Ebene 1
 62
     7
100
AcDbSpline
210
0.0
220
0.0
230
1.0
 70
     1
 71
     3
 72
    16
 73
    12
 74
     0
 42
0.0000000001
 43
0.0000000001
 40
0.0
 40
0.0
 40
0.0
 40
0.0
 40
0.3333333333333333
 40
0.3333333333333333
 40
0.3333333333333333
 40
0.3333333333333333
 40
0.6666666666666666
 40
0.6666666666666666
 40
0.6666666666666666
 40
0.6666666666666666
 40
1.0
 40
1.0
 40
1.0
 40
1.0
 10
0.9196200000000001
 20
-2.4389600000000002
 30
0.0
 10
1.09996
 20
-2.4389600000000002
 30
0.0
 10
1.0466200000000001
 20
-2.7056600000000004
 30
0.0
 10
1.0466200000000001
 20
-2.8352000000000004
 30
0.0
 10
1.0466200000000001
 20
-2.8352000000000004
 30
0.0
 10
1.0466200000000001
 20
-2.8352000000000004
 30
0.0
 10
0.95264
 20
-2.7793200000000002
 30
0.0
 10
0.95264
 20
-2.7793200000000002
 30
0.0
 10
0.95264
 20
-2.7793200000000002
 30
0.0
 10
0.7596000000000001
 20
-2.7996400000000001
 30
0.0
 10
0.8231000000000001
 20
-2.5354800000000002
 30
0.0
 10
0.9196200000000001
 20
-2.4389600000000002
 30
0.0
  0
SPLINE
  5
68
100
AcDbEntity
  8
Ebene 1
 62
     7
100
AcDbSpline
210
0.0
220
0.0
230
1.0
 70
     1
 71
     3
 72
    16
 73
    12
 74
     0
 42
0.0000000001
 43
0.0000000001
 40
0.0
 40
0.0
 40
0.0
 40
0.0
 40
0.3333333333333333
 40
0.3333333333333333
 40
0.3333333333333333
 40
0.3333333333333333
 40
0.6666666666666666
 40
0.6666666666666666
 40
0.6666666666666666
 40
0.6666666666666666
 40
1.0
 40
1.0
 40
1.0
 40
1.0
 10
2.9948000000000001
 20
-2.5913600000000003
 30
0.0
 10
3.1497400000000004
 20
-2.7056600000000004
 30
0.0
 10
3.0430600000000001
 20
-2.9291800000000001
 30
0.0
 10
3.0481400000000001
 20
-3.0993600000000003
 30
0.0
 10
3.0481400000000001
 20
-3.0993600000000003
 30
0.0
 10
3.0481400000000001
 20
-3.0993600000000003
 30
0.0
 10
2.75604
 20
-3.1958800000000003
 30
0.0
 10
2.75604
 20
-3.1958800000000003
 30
0.0
 10
2.75604
 20
-3.1958800000000003
 30
0.0
 10
2.8220800000000001
 20
-2.9876
 30
0.0
 10
2.8170000000000002
 20
-2.7234400000000001
 30
0.0
 10
2.9948000000000001
 20
-2.5913600000000003
 30
0.0
  0
SPLINE
  5
69
100
AcDbEntity
  8
Ebene 1
 62
     7
100
AcDbSpline
210
0.0
220
0.0
230
1.0
 70
     1
 71
     3
 72
    16
 73
    12
 74
     0
 42
0.0000000001
 43
0.0000000001
 40
0.0
 40
0.0
 40
0.0
 40
0.0
 40
0.3333333333333333
 40
0.3333333333333333
 40
0.3333333333333333
 40
0.3333333333333333
 40
0.6666666666666666
 40
0.6666666666666666
 40
0.6666666666666666
 40
0.6666666666666666
 40
1.0
 40
1.0
 40
1.0
 40
1.0
 10
1.2218800000000001
 20
-2.6294600000000004
 30
0.0
 10
1.3819000000000001
 20
-2.64724
 30
0.0
 10
1.31332
 20
-2.9291800000000001
 30
0.0
 10
1.2930000000000001
 20
-3.0434800000000002
 30
0.0
 10
1.2930000000000001
 20
-3.0434800000000002
 30
0.0
 10
1.2930000000000001
 20
-3.0434800000000002
 30
0.0
 10
1.2549000000000001
 20
-2.9876
 30
0.0
 10
1.2549000000000001
 20
-2.9876
 30
0.0
 10
1.2549000000000001
 20
-2.9876
 30
0.0
 10
1.0263
 20
-3.0053800000000002
 30
0.0
 10
1.09996
 20
-2.7234400000000001
 30
0.0
 10
1.2218800000000001
 20
-2.6294600000000004
 30
0.0
  0
SPLINE
  5
6A
100
AcDbEntity
  8
Ebene 1
 62
     7
100
AcDbSpline
210
0.0
220
0.0
230
1.0
 70
     1
 71
     3
 72
    16
 73
    12
 74
     0
 42
0.0000000001
 43
0.0000000001
 40
0.0
 40
0.0
 40
0.0
 40
0.0
 40
0.3333333333333333
 40
0.3333333333333333
 40
0.3333333333333333
 40
0.3333333333333333
 40
0.6666666666666666
 40
0.6666666666666666
 40
0.6666666666666666
 40
0.6666666666666666
 40
1.0
 40
1.0
 40
1.0
 40
1.0
 10
1.7883000000000002
 20
-2.64724
 30
0.0
 10
2.0143600000000004
 20
-2.7615400000000001
 30
0.0
 10
1.9407000000000001
 20
-3.0053800000000002
 30
0.0
 10
1.9534000000000002
 20
-3.2136600000000004
 30
0.0
 10
1.9534000000000002
 20
-3.2136600000000004
 30
0.0
 10
1.9534000000000002
 20
-3.2136600000000004
 30
0.0
 10
1.6994000000000002
 20
-3.2136600000000004
 30
0.0
 10
1.6994000000000002
 20
-3.2136600000000004
 30
0.0
 10
1.6994000000000002
 20
-3.2136600000000004
 30
0.0
 10
1.6587600000000002
 20
-3.0257000000000001
 30
0.0
 10
1.69686
 20
-2.8174200000000003
 30
0.0
 10
1.7883000000000002
 20
-2.64724
 30
0.0
  0
SPLINE
  5
6B
100
AcDbEntity
  8
Ebene 1
 62
     7
100
AcDbSpline
210
0.0
220
0.0
230
1.0
 70
     1
 71
     3
 72
    20
 73
    16
 74
     0
 42
0.0000000001
 43
0.0000000001
 40
0.0
 40
0.0
 40
0.0
 40
0.0
 40
0.25
 40
0.25
 40
0.25
 40
0.25
 40
0.5
 40
0.5
 40
0.5
 40
0.5
 40
0.75
 40
0.75
 40
0.75
 40
0.75
 40
1.0
 40
1.0
 40
1.0
 40
1.0
 10
2.6188800000000003
 20
-2.64724
 30
0.0
 10
2.6188800000000003
 20
-2.64724
 30
0.0
 10
2.6722200000000003
 20
-2.64724
 30
0.0
 10
2.6722200000000003
 20
-2.64724
 30
0.0
 10
2.6722200000000003
 20
-2.64724
 30
0.0
 10
2.6722200000000003
 20
-2.64724
 30
0.0
 10
2.6722200000000003
 20
-3.2517600000000004
 30
0.0
 10
2.6722200000000003
 20
-3.2517600000000004
 30
0.0
 10
2.6722200000000003
 20
-3.2517600000000004
 30
0.0
 10
2.6138000000000003
 20
-3.2136600000000004
 30
0.0
 10
2.54522
 20
-3.2136600000000004
 30
0.0
 10
2.4741000000000004
 20
-3.2136600000000004
 30
0.0
 10
2.4741000000000004
 20
-3.2136600000000004
 30
0.0
 10
2.4614000000000003
 20
-3.0053800000000002
 30
0.0
 10
2.5528400000000002
 20
-2.8174200000000003
 30
0.0
 10
2.6188800000000003
 20
-2.64724
 30
0.0
  0
SPLINE
  5
6C
100
AcDbEntity
  8
Ebene 1
 62
     7
100
AcDbSpline
210
0.0
220
0.0
230
1.0
 70
     1
 71
     3
 72
    12
 73
     8
 74
     0
 42
0.0000000001
 43
0.0000000001
 40
0.0
 40
0.0
 40
0.0
 40
0.0
 40
0.5
 40
0.5
 40
0.5
 40
0.5
 40
1.0
 40
1.0
 40
1.0
 40
1.0
 10
1.5241400000000001
 20
-2.6675600000000004
 30
0.0
 10
1.6790800000000001
 20
-2.7412200000000002
 30
0.0
 10
1.6181200000000002
 20
-3.0053800000000002
 30
0.0
 10
1.5952600000000001
 20
-3.1577800000000003
 30
0.0
 10
1.5952600000000001
 20
-3.1577800000000003
 30
0.0
 10
1.3057000000000001
 20
-3.1755600000000004
 30
0.0
 10
1.39968
 20
-2.8174200000000003
 30
0.0
 10
1.5241400000000001
 20
-2.6675600000000004
 30
0.0
  0
SPLINE
  5
6D
100
AcDbEntity
  8
Ebene 1
 62
     7
100
AcDbSpline
210
0.0
220
0.0
230
1.0
 70
     1
 71
     3
 72
    20
 73
    16
 74
     0
 42
0.0000000001
 43
0.0000000001
 40
0.0
 40
0.0
 40
0.0
 40
0.0
 40
0.25
 40
0.25
 40
0.25
 40
0.25
 40
0.5
 40
0.5
 40
0.5
 40
0.5
 40
0.75
 40
0.75
 40
0.75
 40
0.75
 40
1.0
 40
1.0
 40
1.0
 40
1.0
 10
2.2226400000000002
 20
-2.6675600000000004
 30
0.0
 10
2.3369400000000002
 20
-2.7996400000000001
 30
0.0
 10
2.3547200000000004
 20
-3.0612600000000003
 30
0.0
 10
2.38774
 20
-3.2517600000000004
 30
0.0
 10
2.38774
 20
-3.2517600000000004
 30
0.0
 10
2.38774
 20
-3.2517600000000004
 30
0.0
 10
2.2404200000000003
 20
-3.1958800000000003
 30
0.0
 10
2.2404200000000003
 20
-3.1958800000000003
 30
0.0
 10
2.2404200000000003
 20
-3.1958800000000003
 30
0.0
 10
2.2404200000000003
 20
-3.1958800000000003
 30
0.0
 10
2.0575400000000004
 20
-3.2695400000000001
 30
0.0
 10
2.0575400000000004
 20
-3.2695400000000001
 30
0.0
 10
2.0575400000000004
 20
-3.2695400000000001
 30
0.0
 10
1.9356200000000001
 20
-3.0612600000000003
 30
0.0
 10
2.04738
 20
-2.7996400000000001
 30
0.0
 10
2.2226400000000002
 20
-2.6675600000000004
 30
0.0
  0
SPLINE
  5
6E
100
AcDbEntity
  8
Ebene 1
 62
     7
100
AcDbSpline
210
0.0
220
0.0
230
1.0
 70
     1
 71
     3
 72
    16
 73
    12
 74
     0
 42
0.0000000001
 43
0.0000000001
 40
0.0
 40
0.0
 40
0.0
 40
0.0
 40
0.3333333333333333
 40
0.3333333333333333
 40
0.3333333333333333
 40
0.3333333333333333
 40
0.6666666666666666
 40
0.6666666666666666
 40
0.6666666666666666
 40
0.6666666666666666
 40
1.0
 40
1.0
 40
1.0
 40
1.0
 10
0.6732400000000001
 20
-2.7615400000000001
 30
0.0
 10
0.7291200000000001
 20
-2.7412200000000002
 30
0.0
 10
0.7316600000000001
 20
-2.8174200000000003
 30
0.0
 10
0.7367400000000001
 20
-2.8555200000000003
 30
0.0
 10
0.7367400000000001
 20
-2.8555200000000003
 30
0.0
 10
0.8383400000000001
 20
-2.9114000000000004
 30
0.0
 10
0.76214
 20
-3.1196800000000002
 30
0.0
 10
0.6910200000000001
 20
-3.1958800000000003
 30
0.0
 10
0.6910200000000001
 20
-3.1958800000000003
 30
0.0
 10
0.6249800000000001
 20
-3.0815800000000002
 30
0.0
 10
0.57418
 20
-2.8733000000000004
 30
0.0
 10
0.6732400000000001
 20
-2.7615400000000001
 30
0.0
  0
SPLINE
  5
6F
100
AcDbEntity
  8
Ebene 1
 62
     7
100
AcDbSpline
210
0.0
220
0.0
230
1.0
 70
     1
 71
     3
 72
    16
 73
    12
 74
     0
 42
0.0000000001
 43
0.0000000001
 40
0.0
 40
0.0
 40
0.0
 40
0.0
 40
0.3333333333333333
 40
0.3333333333333333
 40
0.3333333333333333
 40
0.3333333333333333
 40
0.6666666666666666
 40
0.6666666666666666
 40
0.6666666666666666
 40
0.6666666666666666
 40
1.0
 40
1.0
 40
1.0
 40
1.0
 10
0.8612000000000001
 20
-2.8555200000000003
 30
0.0
 10
1.14314
 20
-2.8910800000000001
 30
0.0
 10
0.9501000000000001
 20
-3.2136600000000004
 30
0.0
 10
0.95264
 20
-3.4016200000000003
 30
0.0
 10
0.95264
 20
-3.4016200000000003
 30
0.0
 10
0.9297800000000001
 20
-3.4219400000000002
 30
0.0
 10
0.91454
 20
-3.4397200000000003
 30
0.0
 10
0.8815200000000001
 20
-3.4397200000000003
 30
0.0
 10
0.8815200000000001
 20
-3.4397200000000003
 30
0.0
 10
0.8205600000000001
 20
-3.2695400000000001
 30
0.0
 10
0.8180200000000001
 20
-3.0257000000000001
 30
0.0
 10
0.8612000000000001
 20
-2.8555200000000003
 30
0.0
  0
SPLINE
  5
70
100
AcDbEntity
  8
Ebene 1
 62
     7
100
AcDbSpline
210
0.0
220
0.0
230
1.0
 70
     1
 71
     3
 72
    20
 73
    16
 74
     0
 42
0.0000000001
 43
0.0000000001
 40
0.0
 40
0.0
 40
0.0
 40
0.0
 40
0.25
 40
0.25
 40
0.25
 40
0.25
 40
0.5
 40
0.5
 40
0.5
 40
0.5
 40
0.75
 40
0.75
 40
0.75
 40
0.75
 40
1.0
 40
1.0
 40
1.0
 40
1.0
 10
1.10758
 20
-3.0434800000000002
 30
0.0
 10
1.3793600000000001
 20
-3.0434800000000002
 30
0.0
 10
1.2803000000000002
 20
-3.3660600000000005
 30
0.0
 10
1.27522
 20
-3.5540200000000004
 30
0.0
 10
1.27522
 20
-3.5540200000000004
 30
0.0
 10
1.27522
 20
-3.5540200000000004
 30
0.0
 10
1.1837800000000001
 20
-3.6099000000000001
 30
0.0
 10
1.1837800000000001
 20
-3.6099000000000001
 30
0.0
 10
1.1837800000000001
 20
-3.6099000000000001
 30
0.0
 10
1.14822
 20
-3.6099000000000001
 30
0.0
 10
1.1329800000000001
 20
-3.5921200000000004
 30
0.0
 10
1.11266
 20
-3.5718000000000001
 30
0.0
 10
1.11266
 20
-3.5718000000000001
 30
0.0
 10
1.1253600000000001
 20
-3.3838400000000002
 30
0.0
 10
0.9399400000000001
 20
-3.1958800000000003
 30
0.0
 10
1.10758
 20
-3.0434800000000002
 30
0.0
  0
SPLINE
  5
71
100
AcDbEntity
  8
Ebene 1
 62
     7
100
AcDbSpline
210
0.0
220
0.0
230
1.0
 70
     1
 71
     3
 72
    20
 73
    16
 74
     0
 42
0.0000000001
 43
0.0000000001
 40
0.0
 40
0.0
 40
0.0
 40
0.0
 40
0.25
 40
0.25
 40
0.25
 40
0.25
 40
0.5
 40
0.5
 40
0.5
 40
0.5
 40
0.75
 40
0.75
 40
0.75
 40
0.75
 40
1.0
 40
1.0
 40
1.0
 40
1.0
 10
1.3717400000000002
 20
-3.1755600000000004
 30
0.0
 10
1.4504800000000002
 20
-3.1755600000000004
 30
0.0
 10
1.5317600000000002
 20
-3.1958800000000003
 30
0.0
 10
1.5952600000000001
 20
-3.2314400000000001
 30
0.0
 10
1.5952600000000001
 20
-3.2314400000000001
 30
0.0
 10
1.5749400000000002
 20
-3.4219400000000002
 30
0.0
 10
1.6663800000000002
 20
-3.6480000000000001
 30
0.0
 10
1.5241400000000001
 20
-3.7800800000000003
 30
0.0
 10
1.5241400000000001
 20
-3.7800800000000003
 30
0.0
 10
1.5241400000000001
 20
-3.7800800000000003
 30
0.0
 10
1.4733400000000001
 20
-3.7800800000000003
 30
0.0
 10
1.4733400000000001
 20
-3.7800800000000003
 30
0.0
 10
1.4733400000000001
 20
-3.7800800000000003
 30
0.0
 10
1.3895200000000001
 20
-3.5921200000000004
 30
0.0
 10
1.2930000000000001
 20
-3.3838400000000002
 30
0.0
 10
1.3717400000000002
 20
-3.1755600000000004
 30
0.0
  0
SPLINE
  5
72
100
AcDbEntity
  8
Ebene 1
 62
     7
100
AcDbSpline
210
0.0
220
0.0
230
1.0
 70
     1
 71
     3
 72
    24
 73
    20
 74
     0
 42
0.0000000001
 43
0.0000000001
 40
0.0
 40
0.0
 40
0.0
 40
0.0
 40
0.2
 40
0.2
 40
0.2
 40
0.2
 40
0.4
 40
0.4
 40
0.4
 40
0.4
 40
0.6000000000000001
 40
0.6000000000000001
 40
0.6000000000000001
 40
0.6000000000000001
 40
0.8
 40
0.8
 40
0.8
 40
0.8
 40
1.0
 40
1.0
 40
1.0
 40
1.0
 10
2.9592400000000003
 20
-3.1958800000000003
 30
0.0
 10
2.9592400000000003
 20
-3.1958800000000003
 30
0.0
 10
3.0481400000000001
 20
-3.1958800000000003
 30
0.0
 10
3.0481400000000001
 20
-3.1958800000000003
 30
0.0
 10
3.0481400000000001
 20
-3.1958800000000003
 30
0.0
 10
3.1040200000000002
 20
-3.3660600000000005
 30
0.0
 10
3.0176600000000002
 20
-3.5718000000000001
 30
0.0
 10
2.9008200000000004
 20
-3.7064200000000005
 30
0.0
 10
2.9008200000000004
 20
-3.7064200000000005
 30
0.0
 10
2.8246200000000004
 20
-3.6683200000000005
 30
0.0
 10
2.8119200000000002
 20
-3.5921200000000004
 30
0.0
 10
2.7839800000000001
 20
-3.5159200000000004
 30
0.0
 10
2.7839800000000001
 20
-3.5159200000000004
 30
0.0
 10
2.7839800000000001
 20
-3.5159200000000004
 30
0.0
 10
2.71794
 20
-3.5159200000000004
 30
0.0
 10
2.71794
 20
-3.5159200000000004
 30
0.0
 10
2.71794
 20
-3.5159200000000004
 30
0.0
 10
2.6671400000000003
 20
-3.3457400000000002
 30
0.0
 10
2.8347800000000003
 20
-3.2314400000000001
 30
0.0
 10
2.9592400000000003
 20
-3.1958800000000003
 30
0.0
  0
SPLINE
  5
73
100
AcDbEntity
  8
Ebene 1
 62
     7
100
AcDbSpline
210
0.0
220
0.0
230
1.0
 70
     1
 71
     3
 72
    12
 73
     8
 74
     0
 42
0.0000000001
 43
0.0000000001
 40
0.0
 40
0.0
 40
0.0
 40
0.0
 40
0.5
 40
0.5
 40
0.5
 40
0.5
 40
1.0
 40
1.0
 40
1.0
 40
1.0
 10
1.7502000000000002
 20
-3.2695400000000001
 30
0.0
 10
2.1108800000000003
 20
-3.1958800000000003
 30
0.0
 10
2.0702400000000001
 20
-3.6683200000000005
 30
0.0
 10
1.8822800000000002
 20
-3.8181800000000004
 30
0.0
 10
1.8822800000000002
 20
-3.8181800000000004
 30
0.0
 10
1.7654400000000001
 20
-3.6861000000000002
 30
0.0
 10
1.65368
 20
-3.4600400000000002
 30
0.0
 10
1.7502000000000002
 20
-3.2695400000000001
 30
0.0
  0
SPLINE
  5
74
100
AcDbEntity
  8
Ebene 1
 62
     7
100
AcDbSpline
210
0.0
220
0.0
230
1.0
 70
     1
 71
     3
 72
    12
 73
     8
 74
     0
 42
0.0000000001
 43
0.0000000001
 40
0.0
 40
0.0
 40
0.0
 40
0.0
 40
0.5
 40
0.5
 40
0.5
 40
0.5
 40
1.0
 40
1.0
 40
1.0
 40
1.0
 10
2.2226400000000002
 20
-3.2695400000000001
 30
0.0
 10
2.4461600000000003
 20
-3.3279600000000005
 30
0.0
 10
2.3674200000000001
 20
-3.6861000000000002
 30
0.0
 10
2.2556600000000002
 20
-3.8181800000000004
 30
0.0
 10
2.2556600000000002
 20
-3.8181800000000004
 30
0.0
 10
2.0727800000000003
 20
-3.7064200000000005
 30
0.0
 10
1.9940400000000003
 20
-3.3660600000000005
 30
0.0
 10
2.2226400000000002
 20
-3.2695400000000001
 30
0.0
  0
SPLINE
  5
75
100
AcDbEntity
  8
Ebene 1
 62
     7
100
AcDbSpline
210
0.0
220
0.0
230
1.0
 70
     1
 71
     3
 72
    12
 73
     8
 74
     0
 42
0.0000000001
 43
0.0000000001
 40
0.0
 40
0.0
 40
0.0
 40
0.0
 40
0.5
 40
0.5
 40
0.5
 40
0.5
 40
1.0
 40
1.0
 40
1.0
 40
1.0
 10
2.4868000000000001
 20
-3.2695400000000001
 30
0.0
 10
2.7408000000000001
 20
-3.2695400000000001
 30
0.0
 10
2.7052400000000003
 20
-3.6861000000000002
 30
0.0
 10
2.5807800000000003
 20
-3.8004000000000002
 30
0.0
 10
2.5807800000000003
 20
-3.8004000000000002
 30
0.0
 10
2.38774
 20
-3.7242000000000002
 30
0.0
 10
2.3496400000000004
 20
-3.4219400000000002
 30
0.0
 10
2.4868000000000001
 20
-3.2695400000000001
 30
0.0
  0
SPLINE
  5
76
100
AcDbEntity
  8
Ebene 1
 62
     7
100
AcDbSpline
210
0.0
220
0.0
230
1.0
 70
     1
 71
     3
 72
    28
 73
    24
 74
     0
 42
0.0000000001
 43
0.0000000001
 40
0.0
 40
0.0
 40
0.0
 40
0.0
 40
0.1666666666666667
 40
0.1666666666666667
 40
0.1666666666666667
 40
0.1666666666666667
 40
0.3333333333333333
 40
0.3333333333333333
 40
0.3333333333333333
 40
0.3333333333333333
 40
0.5
 40
0.5
 40
0.5
 40
0.5
 40
0.6666666666666666
 40
0.6666666666666666
 40
0.6666666666666666
 40
0.6666666666666666
 40
0.8333333333333333
 40
0.8333333333333333
 40
0.8333333333333333
 40
0.8333333333333333
 40
1.0
 40
1.0
 40
1.0
 40
1.0
 10
2.9389200000000004
 20
-3.8004000000000002
 30
0.0
 10
2.9389200000000004
 20
-3.8004000000000002
 30
0.0
 10
2.9541600000000003
 20
-3.8740600000000005
 30
0.0
 10
2.9541600000000003
 20
-3.8740600000000005
 30
0.0
 10
2.9541600000000003
 20
-3.8740600000000005
 30
0.0
 10
2.76112
 20
-3.9883600000000001
 30
0.0
 10
2.4944200000000003
 20
-3.9121600000000005
 30
0.0
 10
2.2836000000000003
 20
-3.9121600000000005
 30
0.0
 10
2.2836000000000003
 20
-3.9121600000000005
 30
0.0
 10
2.2836000000000003
 20
-3.9121600000000005
 30
0.0
 10
2.4080600000000003
 20
-3.7419800000000003
 30
0.0
 10
2.4080600000000003
 20
-3.7419800000000003
 30
0.0
 10
2.4080600000000003
 20
-3.7419800000000003
 30
0.0
 10
2.4512400000000003
 20
-3.8359600000000005
 30
0.0
 10
2.5122
 20
-3.8943800000000004
 30
0.0
 10
2.6188800000000003
 20
-3.8740600000000005
 30
0.0
 10
2.6188800000000003
 20
-3.8740600000000005
 30
0.0
 10
2.7103200000000003
 20
-3.8359600000000005
 30
0.0
 10
2.6849200000000004
 20
-3.7064200000000005
 30
0.0
 10
2.7662000000000004
 20
-3.6480000000000001
 30
0.0
 10
2.7662000000000004
 20
-3.6480000000000001
 30
0.0
 10
2.79922
 20
-3.7242000000000002
 30
0.0
 10
2.8424
 20
-3.8181800000000004
 30
0.0
 10
2.9389200000000004
 20
-3.8004000000000002
 30
0.0
  0
SPLINE
  5
77
100
AcDbEntity
  8
Ebene 1
 62
     7
100
AcDbSpline
210
0.0
220
0.0
230
1.0
 70
     1
 71
     3
 72
    16
 73
    12
 74
     0
 42
0.0000000001
 43
0.0000000001
 40
0.0
 40
0.0
 40
0.0
 40
0.0
 40
0.3333333333333333
 40
0.3333333333333333
 40
0.3333333333333333
 40
0.3333333333333333
 40
0.6666666666666666
 40
0.6666666666666666
 40
0.6666666666666666
 40
0.6666666666666666
 40
1.0
 40
1.0
 40
1.0
 40
1.0
 10
2.05246
 20
-3.7064200000000005
 30
0.0
 10
2.05246
 20
-3.7064200000000005
 30
0.0
 10
2.1997800000000001
 20
-3.9121600000000005
 30
0.0
 10
2.1997800000000001
 20
-3.9121600000000005
 30
0.0
 10
2.1997800000000001
 20
-3.9121600000000005
 30
0.0
 10
2.1997800000000001
 20
-3.9121600000000005
 30
0.0
 10
1.9457800000000001
 20
-3.9121600000000005
 30
0.0
 10
1.9457800000000001
 20
-3.9121600000000005
 30
0.0
 10
1.9457800000000001
 20
-3.9121600000000005
 30
0.0
 10
1.9457800000000001
 20
-3.9121600000000005
 30
0.0
 10
2.05246
 20
-3.7064200000000005
 30
0.0
 10
2.05246
 20
-3.7064200000000005
 30
0.0
  0
SPLINE
  5
78
100
AcDbEntity
  8
Ebene 1
 62
     7
100
AcDbSpline
210
0.0
220
0.0
230
1.0
 70
     1
 71
     3
 72
    56
 73
    52
 74
     0
 42
0.0000000001
 43
0.0000000001
 40
0.0
 40
0.0
 40
0.0
 40
0.0
 40
0.0769230769230769
 40
0.0769230769230769
 40
0.0769230769230769
 40
0.0769230769230769
 40
0.1538461538461539
 40
0.1538461538461539
 40
0.1538461538461539
 40
0.1538461538461539
 40
0.2307692307692308
 40
0.2307692307692308
 40
0.2307692307692308
 40
0.2307692307692308
 40
0.3076923076923077
 40
0.3076923076923077
 40
0.3076923076923077
 40
0.3076923076923077
 40
0.3846153846153846
 40
0.3846153846153846
 40
0.3846153846153846
 40
0.3846153846153846
 40
0.4615384615384616
 40
0.4615384615384616
 40
0.4615384615384616
 40
0.4615384615384616
 40
0.5384615384615386
 40
0.5384615384615386
 40
0.5384615384615386
 40
0.5384615384615386
 40
0.6153846153846154
 40
0.6153846153846154
 40
0.6153846153846154
 40
0.6153846153846154
 40
0.6923076923076923
 40
0.6923076923076923
 40
0.6923076923076923
 40
0.6923076923076923
 40
0.7692307692307692
 40
0.7692307692307692
 40
0.7692307692307692
 40
0.7692307692307692
 40
0.846153846153846
 40
0.846153846153846
 40
0.846153846153846
 40
0.846153846153846
 40
0.9230769230769229
 40
0.9230769230769229
 40
0.9230769230769229
 40
0.9230769230769229
 40
1.0
 40
1.0
 40
1.0
 40
1.0
 10
1.1837800000000001
 20
-4.8951400000000005
 30
0.0
 10
0.93232
 20
-4.9688000000000008
 30
0.0
 10
1.0313800000000002
 20
-4.6690800000000001
 30
0.0
 10
0.9196200000000001
 20
-4.5547800000000001
 30
0.0
 10
0.9196200000000001
 20
-4.5547800000000001
 30
0.0
 10
0.9932800000000001
 20
-4.4227000000000007
 30
0.0
 10
1.0821800000000001
 20
-4.4227000000000007
 30
0.0
 10
1.2168000000000001
 20
-4.44048
 30
0.0
 10
1.2168000000000001
 20
-4.44048
 30
0.0
 10
1.4784200000000001
 20
-3.8359600000000005
 30
0.0
 10
2.2632800000000004
 20
-4.0264600000000002
 30
0.0
 10
2.8246200000000004
 20
-3.9883600000000001
 30
0.0
 10
2.8246200000000004
 20
-3.9883600000000001
 30
0.0
 10
2.8246200000000004
 20
-3.9883600000000001
 30
0.0
 10
3.1065600000000004
 20
-4.1382200000000005
 30
0.0
 10
3.1065600000000004
 20
-4.1382200000000005
 30
0.0
 10
3.1065600000000004
 20
-4.1382200000000005
 30
0.0
 10
3.1853000000000002
 20
-4.3846000000000007
 30
0.0
 10
3.1903800000000002
 20
-4.9129200000000006
 30
0.0
 10
2.9084400000000001
 20
-4.8748200000000006
 30
0.0
 10
2.9084400000000001
 20
-4.8748200000000006
 30
0.0
 10
2.8754200000000001
 20
-5.0450000000000008
 30
0.0
 10
2.8271600000000001
 20
-5.1008800000000001
 30
0.0
 10
2.6442800000000002
 20
-5.0272200000000007
 30
0.0
 10
2.6442800000000002
 20
-5.0272200000000007
 30
0.0
 10
2.6442800000000002
 20
-5.0272200000000007
 30
0.0
 10
2.6900000000000004
 20
-4.8951400000000005
 30
0.0
 10
2.6900000000000004
 20
-4.8951400000000005
 30
0.0
 10
2.6900000000000004
 20
-4.8951400000000005
 30
0.0
 10
2.6620600000000003
 20
-4.8570400000000005
 30
0.0
 10
2.6112600000000001
 20
-4.8570400000000005
 30
0.0
 10
2.5630000000000002
 20
-4.8570400000000005
 30
0.0
 10
2.5630000000000002
 20
-4.8570400000000005
 30
0.0
 10
2.5630000000000002
 20
-4.8570400000000005
 30
0.0
 10
2.50204
 20
-5.0272200000000007
 30
0.0
 10
2.50204
 20
-5.0272200000000007
 30
0.0
 10
2.50204
 20
-5.0272200000000007
 30
0.0
 10
2.2886800000000003
 20
-5.1008800000000001
 30
0.0
 10
2.2810600000000001
 20
-4.9307000000000007
 30
0.0
 10
2.12866
 20
-4.8951400000000005
 30
0.0
 10
2.12866
 20
-4.8951400000000005
 30
0.0
 10
2.0677000000000003
 20
-5.1770800000000001
 30
0.0
 10
1.8619600000000001
 20
-5.0069000000000008
 30
0.0
 10
1.7679800000000001
 20
-4.8748200000000006
 30
0.0
 10
1.7679800000000001
 20
-4.8748200000000006
 30
0.0
 10
1.7679800000000001
 20
-4.8748200000000006
 30
0.0
 10
1.6613000000000002
 20
-4.9307000000000007
 30
0.0
 10
1.6613000000000002
 20
-4.9307000000000007
 30
0.0
 10
1.6613000000000002
 20
-4.9307000000000007
 30
0.0
 10
1.5901800000000001
 20
-5.2710600000000003
 30
0.0
 10
1.3082400000000001
 20
-4.7630600000000003
 30
0.0
 10
1.1837800000000001
 20
-4.8951400000000005
 30
0.0
  0
SPLINE
  5
79
100
AcDbEntity
  8
Ebene 1
100
AcDbSpline
210
0.0
220
0.0
230
1.0
 70
     1
 71
     3
 72
    44
 73
    40
 74
     0
 42
0.0000000001
 43
0.0000000001
 40
0.0
 40
0.0
 40
0.0
 40
0.0
 40
0.1
 40
0.1
 40
0.1
 40
0.1
 40
0.2
 40
0.2
 40
0.2
 40
0.2
 40
0.3
 40
0.3
 40
0.3
 40
0.3
 40
0.4
 40
0.4
 40
0.4
 40
0.4
 40
0.5
 40
0.5
 40
0.5
 40
0.5
 40
0.6
 40
0.6
 40
0.6
 40
0.6
 40
0.7
 40
0.7
 40
0.7
 40
0.7
 40
0.7999999999999999
 40
0.7999999999999999
 40
0.7999999999999999
 40
0.7999999999999999
 40
0.8999999999999999
 40
0.8999999999999999
 40
0.8999999999999999
 40
0.8999999999999999
 40
1.0
 40
1.0
 40
1.0
 40
1.0
 10
2.46902
 20
-4.0442400000000003
 30
0.0
 10
2.54522
 20
-4.0264600000000002
 30
0.0
 10
2.5858600000000003
 20
-4.0823400000000003
 30
0.0
 10
2.6392000000000002
 20
-4.1204400000000003
 30
0.0
 10
2.6392000000000002
 20
-4.1204400000000003
 30
0.0
 10
2.6392000000000002
 20
-4.1204400000000003
 30
0.0
 10
2.8068400000000002
 20
-4.1204400000000003
 30
0.0
 10
2.8068400000000002
 20
-4.1204400000000003
 30
0.0
 10
2.8068400000000002
 20
-4.1204400000000003
 30
0.0
 10
3.13958
 20
-3.9680400000000002
 30
0.0
 10
3.1345000000000001
 20
-4.5547800000000001
 30
0.0
 10
2.9744800000000002
 20
-4.7452800000000002
 30
0.0
 10
2.9744800000000002
 20
-4.7452800000000002
 30
0.0
 10
2.9414600000000002
 20
-4.7249600000000003
 30
0.0
 10
2.9109800000000003
 20
-4.7071800000000001
 30
0.0
 10
2.8881200000000002
 20
-4.6868600000000002
 30
0.0
 10
2.8881200000000002
 20
-4.6868600000000002
 30
0.0
 10
2.8627200000000004
 20
-4.6106600000000002
 30
0.0
 10
2.8347800000000003
 20
-4.5370000000000008
 30
0.0
 10
2.7839800000000001
 20
-4.47858
 30
0.0
 10
2.7839800000000001
 20
-4.47858
 30
0.0
 10
2.33948
 20
-4.3465000000000007
 30
0.0
 10
1.8543400000000001
 20
-4.44048
 30
0.0
 10
1.4149200000000002
 20
-4.4989000000000008
 30
0.0
 10
1.4149200000000002
 20
-4.4989000000000008
 30
0.0
 10
1.4149200000000002
 20
-4.4989000000000008
 30
0.0
 10
1.69686
 20
-4.34396
 30
0.0
 10
1.69686
 20
-4.34396
 30
0.0
 10
1.69686
 20
-4.34396
 30
0.0
 10
1.7984600000000002
 20
-4.26776
 30
0.0
 10
2.0118200000000002
 20
-4.2906200000000005
 30
0.0
 10
1.9762600000000001
 20
-4.1204400000000003
 30
0.0
 10
1.9762600000000001
 20
-4.1204400000000003
 30
0.0
 10
2.0423
 20
-4.0264600000000002
 30
0.0
 10
2.1896200000000001
 20
-4.0645600000000002
 30
0.0
 10
2.2277200000000001
 20
-4.1763200000000005
 30
0.0
 10
2.2277200000000001
 20
-4.1763200000000005
 30
0.0
 10
2.3344
 20
-4.1966400000000004
 30
0.0
 10
2.4106000000000001
 20
-4.1204400000000003
 30
0.0
 10
2.46902
 20
-4.0442400000000003
 30
0.0
  0
SPLINE
  5
7A
100
AcDbEntity
  8
Ebene 1
 62
     7
100
AcDbSpline
210
0.0
220
0.0
230
1.0
 70
     1
 71
     3
 72
    12
 73
     8
 74
     0
 42
0.0000000001
 43
0.0000000001
 40
0.0
 40
0.0
 40
0.0
 40
0.0
 40
0.5
 40
0.5
 40
0.5
 40
0.5
 40
1.0
 40
1.0
 40
1.0
 40
1.0
 10
2.5045800000000003
 20
-4.0823400000000003
 30
0.0
 10
2.5655400000000004
 20
-4.1001200000000004
 30
0.0
 10
2.5655400000000004
 20
-4.1585400000000003
 30
0.0
 10
2.5045800000000003
 20
-4.1763200000000005
 30
0.0
 10
2.5045800000000003
 20
-4.1763200000000005
 30
0.0
 10
2.4436200000000001
 20
-4.1585400000000003
 30
0.0
 10
2.4791800000000004
 20
-4.1204400000000003
 30
0.0
 10
2.5045800000000003
 20
-4.0823400000000003
 30
0.0
  0
SPLINE
  5
7B
100
AcDbEntity
  8
Ebene 1
100
AcDbSpline
210
0.0
220
0.0
230
1.0
 70
     1
 71
     3
 72
    16
 73
    12
 74
     0
 42
0.0000000001
 43
0.0000000001
 40
0.0
 40
0.0
 40
0.0
 40
0.0
 40
0.3333333333333333
 40
0.3333333333333333
 40
0.3333333333333333
 40
0.3333333333333333
 40
0.6666666666666666
 40
0.6666666666666666
 40
0.6666666666666666
 40
0.6666666666666666
 40
1.0
 40
1.0
 40
1.0
 40
1.0
 10
1.61304
 20
-4.1204400000000003
 30
0.0
 10
1.7171800000000002
 20
-4.0848800000000001
 30
0.0
 10
1.7883000000000002
 20
-4.1763200000000005
 30
0.0
 10
1.7070200000000002
 20
-4.2703000000000007
 30
0.0
 10
1.7070200000000002
 20
-4.2703000000000007
 30
0.0
 10
1.7070200000000002
 20
-4.2703000000000007
 30
0.0
 10
1.65368
 20
-4.2703000000000007
 30
0.0
 10
1.65368
 20
-4.2703000000000007
 30
0.0
 10
1.65368
 20
-4.2703000000000007
 30
0.0
 10
1.5470000000000002
 20
-4.3465000000000007
 30
0.0
 10
1.52922
 20
-4.1585400000000003
 30
0.0
 10
1.61304
 20
-4.1204400000000003
 30
0.0
  0
SPLINE
  5
7C
100
AcDbEntity
  8
Ebene 1
 62
     7
100
AcDbSpline
210
0.0
220
0.0
230
1.0
 70
     1
 71
     3
 72
     8
 73
     4
 74
     0
 42
0.0000000001
 43
0.0000000001
 40
0.0
 40
0.0
 40
0.0
 40
0.0
 40
1.0
 40
1.0
 40
1.0
 40
1.0
 10
2.0702400000000001
 20
-4.1204400000000003
 30
0.0
 10
2.2074000000000003
 20
-4.1382200000000005
 30
0.0
 10
2.0016600000000002
 20
-4.2347400000000004
 30
0.0
 10
2.0702400000000001
 20
-4.1204400000000003
 30
0.0
  0
SPLINE
  5
7D
100
AcDbEntity
  8
Ebene 1
 62
     7
100
AcDbSpline
210
0.0
220
0.0
230
1.0
 70
     1
 71
     3
 72
     8
 73
     4
 74
     0
 42
0.0000000001
 43
0.0000000001
 40
0.0
 40
0.0
 40
0.0
 40
0.0
 40
1.0
 40
1.0
 40
1.0
 40
1.0
 10
1.6003400000000001
 20
-4.1585400000000003
 30
0.0
 10
1.7451200000000002
 20
-4.1382200000000005
 30
0.0
 10
1.5851000000000002
 20
-4.2906200000000005
 30
0.0
 10
1.6003400000000001
 20
-4.1585400000000003
 30
0.0
  0
SPLINE
  5
7E
100
AcDbEntity
  8
Ebene 1
 62
     7
100
AcDbSpline
210
0.0
220
0.0
230
1.0
 70
     1
 71
     3
 72
    12
 73
     8
 74
     0
 42
0.0000000001
 43
0.0000000001
 40
0.0
 40
0.0
 40
0.0
 40
0.0
 40
0.5
 40
0.5
 40
0.5
 40
0.5
 40
1.0
 40
1.0
 40
1.0
 40
1.0
 10
1.1837800000000001
 20
-4.2703000000000007
 30
0.0
 10
1.2599800000000001
 20
-4.2906200000000005
 30
0.0
 10
1.18886
 20
-4.3668200000000006
 30
0.0
 10
1.15076
 20
-4.3846000000000007
 30
0.0
 10
1.15076
 20
-4.3846000000000007
 30
0.0
 10
1.0872600000000001
 20
-4.3287200000000006
 30
0.0
 10
1.1634600000000002
 20
-4.3084000000000007
 30
0.0
 10
1.1837800000000001
 20
-4.2703000000000007
 30
0.0
  0
SPLINE
  5
7F
100
AcDbEntity
  8
Ebene 1
 62
     7
100
AcDbSpline
210
0.0
220
0.0
230
1.0
 70
     1
 71
     3
 72
    12
 73
     8
 74
     0
 42
0.0000000001
 43
0.0000000001
 40
0.0
 40
0.0
 40
0.0
 40
0.0
 40
0.5
 40
0.5
 40
0.5
 40
0.5
 40
1.0
 40
1.0
 40
1.0
 40
1.0
 10
0.8231000000000001
 20
-4.6487600000000002
 30
0.0
 10
0.9018400000000001
 20
-4.6487600000000002
 30
0.0
 10
0.8815200000000001
 20
-4.7249600000000003
 30
0.0
 10
0.8231000000000001
 20
-4.7452800000000002
 30
0.0
 10
0.8231000000000001
 20
-4.7452800000000002
 30
0.0
 10
0.76214
 20
-4.7249600000000003
 30
0.0
 10
0.8002400000000001
 20
-4.6868600000000002
 30
0.0
 10
0.8231000000000001
 20
-4.6487600000000002
 30
0.0
  0
SPLINE
  5
80
100
AcDbEntity
  8
Ebene 1
 62
     7
100
AcDbSpline
210
0.0
220
0.0
230
1.0
 70
     1
 71
     3
 72
    12
 73
     8
 74
     0
 42
0.0000000001
 43
0.0000000001
 40
0.0
 40
0.0
 40
0.0
 40
0.0
 40
0.5
 40
0.5
 40
0.5
 40
0.5
 40
1.0
 40
1.0
 40
1.0
 40
1.0
 10
1.14822
 20
-4.9561000000000002
 30
0.0
 10
1.2066400000000002
 20
-4.93832
 30
0.0
 10
1.2828400000000002
 20
-4.9510200000000006
 30
0.0
 10
1.31332
 20
-4.9891200000000007
 30
0.0
 10
1.31332
 20
-4.9891200000000007
 30
0.0
 10
1.2549000000000001
 20
-5.0450000000000008
 30
0.0
 10
1.1202800000000002
 20
-5.0323000000000002
 30
0.0
 10
1.14822
 20
-4.9561000000000002
 30
0.0
  0
ENDSEC
  0
SECTION
  2
OBJECTS
  0
DICTIONARY
  5
19
100
AcDbDictionary
280
     0
281
     1
  3
ACAD_GROUP
350
1A
  3
ACAD_MLINESTYLE
350
1B
  3
ACAD_LAYOUT
350
1E
  3
ACAD_PLOTSETTINGS
350
22
  3
ACAD_PLOTSTYLENAME
350
1F
  3
ACAD_WIPEOUT_VARS
350
23
  0
DICTIONARY
  5
1A
102
{ACAD_REACTORS
330
19
102
}
100
AcDbDictionary
280
     0
281
     1
  0
DICTIONARY
  5
1B
102
{ACAD_REACTORS
330
19
102
}
100
AcDbDictionary
280
     0
281
     1
  3
Standard
350
1C
  0
MLINESTYLE
  5
1C
102
{ACAD_REACTORS
330
1B
102
}
100
AcDbMlineStyle
  2
Standard
 70
     0
  3

 62
     0
 51
90.0
 52
90.0
 71
     2
 49
0.5
 62
   256
  6
BYLAYER
 49
-0.5
 62
   256
  6
BYLAYER
  0
ACDBDICTIONARYWDFLT
  5
1F
102
{ACAD_REACTORS
330
19
102
}
100
AcDbDictionary
281
     1
  3
Normal
350
1D
100
AcDbDictionaryWithDefault
340
1D
  0
ACDBPLACEHOLDER
  5
1D
102
{ACAD_REACTORS
330
1F
102
}
  0
LAYOUT
  5
20
102
{ACAD_REACTORS
330
1E
102
}
100
AcDbPlotSettings
  1

  2

  4

  6

 40
0.0
 41
0.0
 42
0.0
 43
0.0
 44
0.0
 45
0.0
 46
0.0
 47
0.0
 48
0.0
 49
0.0
140
0.0
141
0.0
142
1.0
143
1.0
 70
  1024
 72
     0
 73
     0
 74
     0
  7

 75
     0
147
1.0
148
0.0
149
0.0
100
AcDbLayout
  1
Model
 70
     0
 71
     0
 10
0.0
 20
0.0
 11
0.0
 21
0.0
 12
0.0
 22
0.0
 32
0.0
 14
0.0
 24
0.0
 34
0.0
 15
0.0
 25
0.0
 35
0.0
146
0.0
 13
0.0
 23
0.0
 33
0.0
 16
0.0
 26
0.0
 36
0.0
 17
0.0
 27
0.0
 37
0.0
 76
     0
330
A
331
0
345
0
346
0
  0
LAYOUT
  5
21
102
{ACAD_REACTORS
330
1E
102
}
100
AcDbPlotSettings
  1

  2

  4

  6

 40
0.0
 41
0.0
 42
0.0
 43
0.0
 44
0.0
 45
0.0
 46
0.0
 47
0.0
 48
0.0
 49
0.0
140
0.0
141
0.0
142
1.0
143
1.0
 70
     0
 72
     0
 73
     0
 74
     0
  7

 75
     0
147
1.0
148
0.0
149
0.0
100
AcDbLayout
  1
Layout1
 70
     0
 71
     0
 10
0.0
 20
0.0
 11
0.0
 21
0.0
 12
0.0
 22
0.0
 32
0.0
 14
0.0
 24
0.0
 34
0.0
 15
0.0
 25
0.0
 35
0.0
146
0.0
 13
0.0
 23
0.0
 33
0.0
 16
0.0
 26
0.0
 36
0.0
 17
0.0
 27
0.0
 37
0.0
 76
     0
330
B
331
0
345
0
346
0
  0
DICTIONARY
  5
1E
102
{ACAD_REACTORS
330
19
102
}
100
AcDbDictionary
280
     0
281
     1
  3
Layout1
350
21
  3
Model
350
20
  0
DICTIONARY
  5
22
102
{ACAD_REACTORS
330
19
102
}
100
AcDbDictionary
280
     0
281
     1
  0
WIPEOUTVARIABLES
  5
23
100
AcDbWipeoutVariables
 70
     1
  0
ENDSEC
  0
EOF
