  0
SECTION
  2
HEADER
  9
$ACADVER
  1
AC1015
  9
$ACADMAINTVER
 70
     6
  9
$DWGCODEPAGE
  3
DOS850
  9
$INSBASE
 10
0.0
 20
0.0
 30
0.0
  9
$EXTMIN
 10
-4.50351
 20
-5.71302
 30
1.000000E+20
  9
$EXTMAX
 10
4.5088
 20
5.70673
 30
-1.000000E+20
  9
$LIMMIN
 10
0.0
 20
0.0
  9
$LIMMAX
 10
0.0
 20
0.0
  9
$ORTHOMODE
 70
     0
  9
$REGENMODE
 70
     1
  9
$FILLMODE
 70
     1
  9
$QTEXTMODE
 70
     0
  9
$MIRRTEXT
 70
     1
  9
$LTSCALE
 40
1.0
  9
$ATTMODE
 70
     1
  9
$TEXTSIZE
 40
0.2
  9
$TRACEWID
 40
0.05
  9
$TEXTSTYLE
  7
Standard
  9
$CLAYER
  8
0
  9
$CELTYPE
  6
Continuous
  9
$CECOLOR
 62
   256
  9
$CELTSCALE
 40
1.0
  9
$DISPSILH
 70
     0
  9
$DIMSCALE
 40
1.0
  9
$DIMASZ
 40
0.18
  9
$DIMEXO
 40
0.0625
  9
$DIMDLI
 40
0.38
  9
$DIMRND
 40
0.0
  9
$DIMDLE
 40
0.0
  9
$DIMEXE
 40
0.18
  9
$DIMTP
 40
0.0
  9
$DIMTM
 40
0.0
  9
$DIMTXT
 40
0.18
  9
$DIMCEN
 40
0.09
  9
$DIMTSZ
 40
0.0
  9
$DIMTOL
 70
     0
  9
$DIMLIM
 70
     0
  9
$DIMTIH
 70
     1
  9
$DIMTOH
 70
     1
  9
$DIMSE1
 70
     0
  9
$DIMSE2
 70
     0
  9
$DIMTAD
 70
     0
  9
$DIMZIN
 70
     0
  9
$DIMBLK
  1

  9
$DIMASO
 70
     1
  9
$DIMSHO
 70
     1
  9
$DIMPOST
  1

  9
$DIMAPOST
  1

  9
$DIMALT
 70
     0
  9
$DIMALTD
 70
     2
  9
$DIMALTF
 40
25.4
  9
$DIMLFAC
 40
1.0
  9
$DIMTOFL
 70
     0
  9
$DIMTVP
 40
0.0
  9
$DIMTIX
 70
     0
  9
$DIMSOXD
 70
     0
  9
$DIMSAH
 70
     0
  9
$DIMBLK1
  1

  9
$DIMBLK2
  1

  9
$DIMSTYLE
  2
Standard
  9
$DIMCLRD
 70
     0
  9
$DIMCLRE
 70
     0
  9
$DIMCLRT
 70
     0
  9
$DIMTFAC
 40
1.0
  9
$DIMGAP
 40
0.09
  9
$DIMJUST
 70
     0
  9
$DIMSD1
 70
     0
  9
$DIMSD2
 70
     0
  9
$DIMTOLJ
 70
     1
  9
$DIMTZIN
 70
     0
  9
$DIMALTZ
 70
     0
  9
$DIMALTTZ
 70
     0
  9
$DIMUPT
 70
     0
  9
$DIMDEC
 70
     4
  9
$DIMTDEC
 70
     4
  9
$DIMALTU
 70
     2
  9
$DIMALTTD
 70
     2
  9
$DIMTXSTY
  7
Standard
  9
$DIMAUNIT
 70
     0
  9
$DIMADEC
 70
     0
  9
$DIMALTRND
 40
0.0
  9
$DIMAZIN
 70
     0
  9
$DIMDSEP
 70
     0
  9
$DIMATFIT
 70
     3
  9
$DIMFRAC
 70
     0
  9
$DIMLDRBLK
  1

  9
$DIMLUNIT
 70
     2
  9
$DIMLWD
 70
     0
  9
$DIMLWE
 70
     0
  9
$DIMTMOVE
 70
     0
  9
$LUNITS
 70
     2
  9
$LUPREC
 70
     4
  9
$SKETCHINC
 40
0.1
  9
$FILLETRAD
 40
0.0
  9
$AUNITS
 70
     0
  9
$AUPREC
 70
     0
  9
$MENU
  1
acad
  9
$ELEVATION
 40
0.0
  9
$PELEVATION
 40
0.0
  9
$THICKNESS
 40
0.0
  9
$LIMCHECK
 70
     0
  9
$CHAMFERA
 40
0.0
  9
$CHAMFERB
 40
0.0
  9
$CHAMFERC
 40
0.0
  9
$CHAMFERD
 40
0.0
  9
$SKPOLY
 70
     0
  9
$TDCREATE
 40
0.000000000
  9
$TDUCREATE
 40
0.000000000
  9
$TDUPDATE
 40
0.000000000
  9
$TDUUPDATE
 40
0.000000000
  9
$TDINDWG
 40
0.0000000000
  9
$TDUSRTIMER
 40
0.0000000000
  9
$USRTIMER
 70
     1
  9
$ANGBASE
 50
0.0
  9
$ANGDIR
 70
     0
  9
$PDMODE
 70
     0
  9
$PDSIZE
 40
0.0
  9
$PLINEWID
 40
0.0
  9
$SPLFRAME
 70
     0
  9
$SPLINETYPE
 70
     6
  9
$SPLINESEGS
 70
     8
  9
$HANDSEED
  5
69
  9
$SURFTAB1
 70
     6
  9
$SURFTAB2
 70
     6
  9
$SURFTYPE
 70
     6
  9
$SURFU
 70
     6
  9
$SURFV
 70
     6
  9
$UCSBASE
  2

  9
$UCSNAME
  2

  9
$UCSORG
 10
0.0
 20
0.0
 30
0.0
  9
$UCSXDIR
 10
1.0
 20
0.0
 30
0.0
  9
$UCSYDIR
 10
0.0
 20
1.0
 30
0.0
  9
$UCSORTHOREF
  2

  9
$UCSORTHOVIEW
 70
     0
  9
$UCSORGTOP
 10
0.0
 20
0.0
 30
0.0
  9
$UCSORGBOTTOM
 10
0.0
 20
0.0
 30
0.0
  9
$UCSORGLEFT
 10
0.0
 20
0.0
 30
0.0
  9
$UCSORGRIGHT
 10
0.0
 20
0.0
 30
0.0
  9
$UCSORGFRONT
 10
0.0
 20
0.0
 30
0.0
  9
$UCSORGBACK
 10
0.0
 20
0.0
 30
0.0
  9
$PUCSBASE
  2

  9
$PUCSNAME
  2

  9
$PUCSORG
 10
0.0
 20
0.0
 30
0.0
  9
$PUCSXDIR
 10
1.0
 20
0.0
 30
0.0
  9
$PUCSYDIR
 10
0.0
 20
1.0
 30
0.0
  9
$PUCSORTHOREF
  2

  9
$PUCSORTHOVIEW
 70
     0
  9
$PUCSORGTOP
 10
0.0
 20
0.0
 30
0.0
  9
$PUCSORGBOTTOM
 10
0.0
 20
0.0
 30
0.0
  9
$PUCSORGLEFT
 10
0.0
 20
0.0
 30
0.0
  9
$PUCSORGRIGHT
 10
0.0
 20
0.0
 30
0.0
  9
$PUCSORGFRONT
 10
0.0
 20
0.0
 30
0.0
  9
$PUCSORGBACK
 10
0.0
 20
0.0
 30
0.0
  9
$USERI1
 70
     0
  9
$USERI2
 70
     0
  9
$USERI3
 70
     0
  9
$USERI4
 70
     0
  9
$USERI5
 70
     0
  9
$USERR1
 40
0.0
  9
$USERR2
 40
0.0
  9
$USERR3
 40
0.0
  9
$USERR4
 40
0.0
  9
$USERR5
 40
0.0
  9
$WORLDVIEW
 70
     1
  9
$SHADEDGE
 70
     3
  9
$SHADEDIF
 70
    70
  9
$TILEMODE
 70
     1
  9
$MAXACTVP
 70
    16
  9
$PINSBASE
 10
0.0
 20
0.0
 30
0.0
  9
$PLIMCHECK
 70
     0
  9
$PEXTMIN
 10
1.000000E+20
 20
1.000000E+20
 30
1.000000E+20
  9
$PEXTMAX
 10
-1.000000E+20
 20
-1.000000E+20
 30
-1.000000E+20
  9
$PLIMMIN
 10
0.0
 20
0.0
  9
$PLIMMAX
 10
12.0
 20
9.0
  9
$UNITMODE
 70
     0
  9
$VISRETAIN
 70
     0
  9
$PLINEGEN
 70
     1
  9
$PSLTSCALE
 70
     0
  9
$TREEDEPTH
 70
  3020
  9
$CMLSTYLE
  2
Standard
  9
$CMLJUST
 70
     0
  9
$CMLSCALE
 40
1.0
  9
$PROXYGRAPHICS
 70
     0
  9
$MEASUREMENT
 70
     0
  9
$CELWEIGHT
370
     0
  9
$ENDCAPS
280
     0
  9
$JOINSTYLE
280
     0
  9
$LWDISPLAY
290
     0
  9
$INSUNITS
 70
     5
  9
$HYPERLINKBASE
  1

  9
$XEDIT
290
     1
  9
$CEPSNTYPE
380
     0
  9
$PSTYLEMODE
290
     1
  9
$FINGERPRINTGUID
  2

  9
$VERSIONGUID
  2

  9
$EXTNAMES
290
     1
  9
$PSVPSCALE
 40
0.0
  0
ENDSEC
  0
SECTION
  2
CLASSES
  0
CLASS
  1
LWPOLYLINE
  2
AcDbPolyline
  3
AutoCAD 2000
 90
    32768
280
     0
281
     1
  0
CLASS
  1
IMAGE
  2
AcDbRasterImage
  3
ISM
 90
    32895
280
     0
281
     1
  0
CLASS
  1
OLE2FRAME
  2
AcDbOle2Frame
  3
AutoCAD 2000
 90
    32768
280
     0
281
     1
  0
CLASS
  1
HATCH
  2
AcDbHatch
  3
AutoCAD 2000
 90
    32768
280
     0
281
     1
  0
CLASS
  1
DICTIONARYVAR
  2
AcDbDictionaryVar
  3
AutoCAD 2000
 90
    32768
280
     0
281
     0
  0
CLASS
  1
RASTERVARIABLES
  2
AcDbRasterVariables
  3
ISM
 90
    32768
280
     0
281
     0
  0
CLASS
  1
IMAGEDEF
  2
AcDbRasterImageDef
  3
ISM
 90
    32768
280
     0
281
     0
  0
CLASS
  1
IMAGEDEF_REACTOR
  2
AcDbRasterImageDefReactor
  3
ISM
 90
    32769
280
     0
281
     0
  0
CLASS
  1
IDBUFFER
  2
AcDbIdBuffer
  3
AutoCAD 2000
 90
    32768
280
     0
281
     0
  0
CLASS
  1
SPATIAL_FILTER
  2
AcDbSpatialFilter
  3
AutoCAD 2000
 90
    32768
280
     0
281
     0
  0
CLASS
  1
XRECORD
  2
AcDbXrecord
  3
AutoCAD 2000
 90
    32768
280
     0
281
     0
  0
CLASS
  1
SORTENTSTABLE
  2
AcDbSortentsTable
  3
AutoCAD 2000
 90
    32768
280
     0
281
     0
  0
CLASS
  1
LAYER_INDEX
  2
AcDbLayerIndex
  3
AutoCAD 2000
 90
    32768
280
     0
281
     0
  0
CLASS
  1
SPATIAL_INDEX
  2
AcDbSpatialIndex
  3
AutoCAD 2000
 90
    32768
280
     0
281
     0
  0
CLASS
  1
OBJECT_PTR
  2
CAseDLPNTableRecord
  3
"ASE-LPNTableRecord"
 90
    32769
280
     0
281
     0
  0
CLASS
  1
LAYOUT
  2
AcDbLayout
  3
AutoCAD 2000
 90
        0
280
     0
281
     0
  0
CLASS
  1
PLOTSETTINGS
  2
AcDbPlotSettings
  3
AutoCAD 2000
 90
    32768
280
     0
281
     0
  0
CLASS
  1
ACDBDICTIONARYWDFLT
  2
AcDbDictionaryWithDefault
  3
AutoCAD 2000
 90
        0
280
     0
281
     0
  0
CLASS
  1
ACDBPLACEHOLDER
  2
AcDbPlaceHolder
  3
AutoCAD 2000
 90
        0
280
     0
281
     0
  0
CLASS
  1
VBA_PROJECT
  2
AcDbVbaProject
  3
acadvba
 90
    32768
280
     0
281
     0
  0
CLASS
  1
WIPEOUT
  2
AcDbWipeout
  3
WipeOut|AutoCAD Express Tool|expresstools@autodesk.com
 90
    32895
280
     0
281
     1
  0
CLASS
  1
WIPEOUTVARIABLES
  2
AcDbWipeoutVariables
  3
WipeOut|AutoCAD Express Tool|expresstools@autodesk.com
 90
        0
280
     0
281
     0
  0
CLASS
  1
RTEXT
  2
RText
  3
RText|AutoCAD Express Tool|expresstools@autodesk.com
 90
    32768
280
     0
281
     1
  0
CLASS
  1
ARCALIGNEDTEXT
  2
AcDbArcAlignedText
  3
ATEXT|AutoCAD Express Tool|expresstools@autodesk.com
 90
    32768
280
     0
281
     1
  0
ENDSEC
  0
SECTION
  2
TABLES
  0
TABLE
  2
VPORT
  5
7
100
AcDbSymbolTable
 70
     1
  0
VPORT
  5
15
100
AcDbSymbolTableRecord
100
AcDbViewportTableRecord
  2
*ACTIVE
 70
     0
 10
0.0
 20
0.0
 11
1.0
 21
1.0
 12
6.591288
 22
4.579184
 13
0.0
 23
0.0
 14
1.0
 24
1.0
 15
0.0
 25
0.0
 16
0.0
 26
0.0
 36
1.0
 17
0.0
 27
0.0
 37
0.0
 40
9.158369
 41
0.688564
 42
50.0
 43
0.0
 44
0.0
 50
0.0
 51
0.0
 71
     0
 72
   100
 73
     1
 74
     1
 75
     0
 76
     0
 77
     0
 78
     0
281
     0
 65
     0
110
0.0
120
0.0
130
0.0
111
1.0
121
0.0
131
0.0
112
0.0
122
1.0
132
0.0
345
0
346
0
 79
     0
146
0.0
  0
ENDTAB
  0
TABLE
  2
LTYPE
  5
4
100
AcDbSymbolTable
 70
     3
  0
LTYPE
  5
11
100
AcDbSymbolTableRecord
100
AcDbLinetypeTableRecord
  2
ByBlock
 70
    64
  3

 72
    65
 73
     0
 40
0.0
  0
LTYPE
  5
12
100
AcDbSymbolTableRecord
100
AcDbLinetypeTableRecord
  2
ByLayer
 70
    64
  3

 72
    65
 73
     0
 40
0.0
  0
LTYPE
  5
13
100
AcDbSymbolTableRecord
100
AcDbLinetypeTableRecord
  2
Continuous
 70
    64
  3
Solid line
 72
    65
 73
     0
 40
0.0
  0
ENDTAB
  0
TABLE
  2
LAYER
  5
2
100
AcDbSymbolTable
 70
     2
  0
LAYER
  5
14
100
AcDbSymbolTableRecord
100
AcDbLayerTableRecord
  2
0
 70
     0
 62
     7
  6
Continuous
290
     1
370
    -3
390
1D
  0
LAYER
  5
24
100
AcDbSymbolTableRecord
100
AcDbLayerTableRecord
  2
Ebene 1
 70
     0
 62
     7
  6
Continuous
290
     1
370
    -3
390
1F
  0
ENDTAB
  0
TABLE
  2
STYLE
  5
3
100
AcDbSymbolTable
 70
     1
  0
STYLE
  5
17
100
AcDbSymbolTableRecord
100
AcDbTextStyleTableRecord
  2
Standard
 70
     0
 40
0.0
 41
1.0
 50
0.0
 71
     0
 42
0.0
  3
txt
  4

  0
ENDTAB
  0
TABLE
  2
VIEW
  5
5
100
AcDbSymbolTable
 70
     0
  0
ENDTAB
  0
TABLE
  2
UCS
  5
6
100
AcDbSymbolTable
 70
     0
  0
ENDTAB
  0
TABLE
  2
APPID
  5
8
100
AcDbSymbolTable
 70
     1
  0
APPID
  5
16
100
AcDbSymbolTableRecord
100
AcDbRegAppTableRecord
  2
ACAD
 70
     0
  0
ENDTAB
  0
TABLE
  2
DIMSTYLE
  5
9
100
AcDbSymbolTable
 70
     1
100
AcDbDimStyleTable
 71
     0
  0
DIMSTYLE
105
18
100
AcDbSymbolTableRecord
100
AcDbDimStyleTableRecord
  2
Standard
 70
     0
  3

  4

 40
1.0
 41
0.18
 42
0.0625
 43
0.38
 44
0.18
 45
0.0
 46
0.0
 47
0.0
 48
0.0
 71
     0
 72
     0
 73
     1
 74
     1
 75
     0
 76
     0
 77
     0
 78
     0
 79
     0
140
0.18
141
0.09
142
0.0
143
25.4
144
1.0
145
0.0
146
1.0
147
0.09
148
0.0
170
     0
171
     2
172
     0
173
     0
174
     0
175
     0
176
     0
177
     0
178
     0
179
     0
271
     4
272
     4
273
     2
274
     2
275
     0
276
     0
277
     2
278
    46
279
     0
280
     0
281
     0
282
     0
283
     1
284
     0
285
     0
286
     0
288
     0
340
17
341
0
342
0
343
0
344
0
371
    -2
372
    -2
  0
ENDTAB
  0
TABLE
  2
BLOCK_RECORD
  5
1
100
AcDbSymbolTable
 70
     0
  0
BLOCK_RECORD
  5
A
100
AcDbSymbolTableRecord
100
AcDbBlockTableRecord
  2
*MODEL_SPACE
340
20
  0
BLOCK_RECORD
  5
B
100
AcDbSymbolTableRecord
100
AcDbBlockTableRecord
  2
*PAPER_SPACE
340
21
  0
ENDTAB
  0
ENDSEC
  0
SECTION
  2
BLOCKS
  0
BLOCK
  5
D
100
AcDbEntity
  8
0
100
AcDbBlockBegin
  2
*MODEL_SPACE
 70
     0
 10
0.0
 20
0.0
 30
0.0
  3
*MODEL_SPACE
  1

  0
ENDBLK
  5
E
100
AcDbEntity
  8
0
100
AcDbBlockEnd
  0
BLOCK
  5
F
100
AcDbEntity
 67
     1
  8
0
100
AcDbBlockBegin
  2
*PAPER_SPACE
 70
     0
 10
0.0
 20
0.0
 30
0.0
  3
*PAPER_SPACE
  1

  0
ENDBLK
  5
10
100
AcDbEntity
 67
     1
  8
0
100
AcDbBlockEnd
  0
ENDSEC
  0
SECTION
  2
ENTITIES
  0
SPLINE
  5
25
100
AcDbEntity
  8
Ebene 1
100
AcDbSpline
210
0.0
220
0.0
230
1.0
 70
     1
 71
     3
 72
   180
 73
   176
 74
     0
 42
0.0000000001
 43
0.0000000001
 40
0.0
 40
0.0
 40
0.0
 40
0.0
 40
0.0227272727272727
 40
0.0227272727272727
 40
0.0227272727272727
 40
0.0227272727272727
 40
0.0454545454545455
 40
0.0454545454545455
 40
0.0454545454545455
 40
0.0454545454545455
 40
0.0681818181818182
 40
0.0681818181818182
 40
0.0681818181818182
 40
0.0681818181818182
 40
0.0909090909090909
 40
0.0909090909090909
 40
0.0909090909090909
 40
0.0909090909090909
 40
0.1136363636363637
 40
0.1136363636363637
 40
0.1136363636363637
 40
0.1136363636363637
 40
0.1363636363636364
 40
0.1363636363636364
 40
0.1363636363636364
 40
0.1363636363636364
 40
0.1590909090909091
 40
0.1590909090909091
 40
0.1590909090909091
 40
0.1590909090909091
 40
0.1818181818181819
 40
0.1818181818181819
 40
0.1818181818181819
 40
0.1818181818181819
 40
0.2045454545454546
 40
0.2045454545454546
 40
0.2045454545454546
 40
0.2045454545454546
 40
0.2272727272727273
 40
0.2272727272727273
 40
0.2272727272727273
 40
0.2272727272727273
 40
0.2500000000000001
 40
0.2500000000000001
 40
0.2500000000000001
 40
0.2500000000000001
 40
0.2727272727272728
 40
0.2727272727272728
 40
0.2727272727272728
 40
0.2727272727272728
 40
0.2954545454545455
 40
0.2954545454545455
 40
0.2954545454545455
 40
0.2954545454545455
 40
0.3181818181818182
 40
0.3181818181818182
 40
0.3181818181818182
 40
0.3181818181818182
 40
0.3409090909090909
 40
0.3409090909090909
 40
0.3409090909090909
 40
0.3409090909090909
 40
0.3636363636363636
 40
0.3636363636363636
 40
0.3636363636363636
 40
0.3636363636363636
 40
0.3863636363636363
 40
0.3863636363636363
 40
0.3863636363636363
 40
0.3863636363636363
 40
0.409090909090909
 40
0.409090909090909
 40
0.409090909090909
 40
0.409090909090909
 40
0.4318181818181817
 40
0.4318181818181817
 40
0.4318181818181817
 40
0.4318181818181817
 40
0.4545454545454544
 40
0.4545454545454544
 40
0.4545454545454544
 40
0.4545454545454544
 40
0.4772727272727271
 40
0.4772727272727271
 40
0.4772727272727271
 40
0.4772727272727271
 40
0.4999999999999998
 40
0.4999999999999998
 40
0.4999999999999998
 40
0.4999999999999998
 40
0.5227272727272726
 40
0.5227272727272726
 40
0.5227272727272726
 40
0.5227272727272726
 40
0.5454545454545453
 40
0.5454545454545453
 40
0.5454545454545453
 40
0.5454545454545453
 40
0.568181818181818
 40
0.568181818181818
 40
0.568181818181818
 40
0.568181818181818
 40
0.5909090909090907
 40
0.5909090909090907
 40
0.5909090909090907
 40
0.5909090909090907
 40
0.6136363636363634
 40
0.6136363636363634
 40
0.6136363636363634
 40
0.6136363636363634
 40
0.6363636363636361
 40
0.6363636363636361
 40
0.6363636363636361
 40
0.6363636363636361
 40
0.6590909090909088
 40
0.6590909090909088
 40
0.6590909090909088
 40
0.6590909090909088
 40
0.6818181818181816
 40
0.6818181818181816
 40
0.6818181818181816
 40
0.6818181818181816
 40
0.7045454545454543
 40
0.7045454545454543
 40
0.7045454545454543
 40
0.7045454545454543
 40
0.727272727272727
 40
0.727272727272727
 40
0.727272727272727
 40
0.727272727272727
 40
0.7499999999999997
 40
0.7499999999999997
 40
0.7499999999999997
 40
0.7499999999999997
 40
0.7727272727272724
 40
0.7727272727272724
 40
0.7727272727272724
 40
0.7727272727272724
 40
0.7954545454545451
 40
0.7954545454545451
 40
0.7954545454545451
 40
0.7954545454545451
 40
0.8181818181818178
 40
0.8181818181818178
 40
0.8181818181818178
 40
0.8181818181818178
 40
0.8409090909090905
 40
0.8409090909090905
 40
0.8409090909090905
 40
0.8409090909090905
 40
0.8636363636363632
 40
0.8636363636363632
 40
0.8636363636363632
 40
0.8636363636363632
 40
0.8863636363636359
 40
0.8863636363636359
 40
0.8863636363636359
 40
0.8863636363636359
 40
0.9090909090909086
 40
0.9090909090909086
 40
0.9090909090909086
 40
0.9090909090909086
 40
0.9318181818181813
 40
0.9318181818181813
 40
0.9318181818181813
 40
0.9318181818181813
 40
0.954545454545454
 40
0.954545454545454
 40
0.954545454545454
 40
0.954545454545454
 40
0.9772727272727267
 40
0.9772727272727267
 40
0.9772727272727267
 40
0.9772727272727267
 40
1.0
 40
1.0
 40
1.0
 40
1.0
 10
1.4327000000000001
 20
5.6915700000000005
 30
0.0
 10
4.0362
 20
5.9582700000000006
 30
0.0
 10
5.1055400000000004
 20
2.8188300000000002
 30
0.0
 10
4.1835200000000006
 20
0.8427100000000001
 30
0.0
 10
4.1835200000000006
 20
0.8427100000000001
 30
0.0
 10
4.0489000000000006
 20
0.64205
 30
0.0
 10
3.8355400000000004
 20
0.60141
 30
0.0
 10
3.6221800000000002
 20
0.57601
 30
0.0
 10
3.6221800000000002
 20
0.57601
 30
0.0
 10
3.6094800000000005
 20
0.40329
 30
0.0
 10
3.4494600000000002
 20
0.29407
 30
0.0
 10
3.3554800000000005
 20
0.16199
 30
0.0
 10
3.3554800000000005
 20
0.16199
 30
0.0
 10
3.1954600000000002
 20
-0.8768600000000001
 30
0.0
 10
2.7535000000000003
 20
-1.7328400000000002
 30
0.0
 10
1.6181200000000002
 20
-1.9055600000000001
 30
0.0
 10
1.6181200000000002
 20
-1.9055600000000001
 30
0.0
 10
0.9094600000000001
 20
-2.6142200000000004
 30
0.0
 10
0.0865
 20
-2.7336
 30
0.0
 10
-0.8583700000000001
 20
-2.5202400000000003
 30
0.0
 10
-0.8583700000000001
 20
-2.5202400000000003
 30
0.0
 10
-0.8583700000000001
 20
-2.5202400000000003
 30
0.0
 10
-1.04633
 20
-1.1994400000000001
 30
0.0
 10
-1.04633
 20
-1.1994400000000001
 30
0.0
 10
-1.04633
 20
-1.1994400000000001
 30
0.0
 10
-2.19441
 20
-2.2535400000000001
 30
0.0
 10
-2.18425
 20
-3.9096200000000003
 30
0.0
 10
-3.1900900000000001
 20
-5.0450000000000008
 30
0.0
 10
-3.1900900000000001
 20
-5.0450000000000008
 30
0.0
 10
-3.3983700000000003
 20
-5.1516800000000007
 30
0.0
 10
-3.6447500000000002
 20
-4.9535600000000004
 30
0.0
 10
-3.8377900000000005
 20
-5.0983400000000003
 30
0.0
 10
-3.8377900000000005
 20
-5.0983400000000003
 30
0.0
 10
-4.0003500000000001
 20
-5.4209200000000006
 30
0.0
 10
-4.1908500000000002
 20
-5.3523400000000008
 30
0.0
 10
-4.0917900000000005
 20
-5.7130200000000002
 30
0.0
 10
-4.0917900000000005
 20
-5.7130200000000002
 30
0.0
 10
-4.3965900000000007
 20
-5.4742600000000001
 30
0.0
 10
-4.5159700000000003
 20
-5.1593
 30
0.0
 10
-4.4245300000000007
 20
-4.8519600000000001
 30
0.0
 10
-4.4245300000000007
 20
-4.8519600000000001
 30
0.0
 10
-4.3889700000000005
 20
-4.7300400000000007
 30
0.0
 10
-4.2924500000000005
 20
-4.6106600000000002
 30
0.0
 10
-4.2035500000000008
 20
-4.4963600000000001
 30
0.0
 10
-4.2035500000000008
 20
-4.4963600000000001
 30
0.0
 10
-4.2416499999999999
 20
-4.2169600000000003
 30
0.0
 10
-4.3635700000000002
 20
-4.43032
 30
0.0
 10
-4.4524699999999999
 20
-4.4455600000000004
 30
0.0
 10
-4.4524699999999999
 20
-4.4455600000000004
 30
0.0
 10
-4.4397700000000002
 20
-4.4150800000000006
 30
0.0
 10
-4.4753300000000005
 20
-4.3769800000000005
 30
0.0
 10
-4.4677100000000003
 20
-4.3490400000000005
 30
0.0
 10
-4.4677100000000003
 20
-4.3490400000000005
 30
0.0
 10
-4.4524699999999999
 20
-4.3033200000000003
 30
0.0
 10
-4.49057
 20
-4.2245800000000004
 30
0.0
 10
-4.4829500000000007
 20
-4.1814
 30
0.0
 10
-4.4829500000000007
 20
-4.1814
 30
0.0
 10
-4.4727900000000007
 20
-4.1280600000000005
 30
0.0
 10
-4.3788100000000005
 20
-4.0594800000000006
 30
0.0
 10
-4.3762700000000008
 20
-4.00868
 30
0.0
 10
-4.3762700000000008
 20
-4.00868
 30
0.0
 10
-4.3584900000000006
 20
-3.6480000000000001
 30
0.0
 10
-4.4931100000000006
 20
-3.3863800000000004
 30
0.0
 10
-4.44231
 20
-2.9342600000000001
 30
0.0
 10
-4.44231
 20
-2.9342600000000001
 30
0.0
 10
-4.3051500000000003
 20
-2.9342600000000001
 30
0.0
 10
-4.3635700000000002
 20
-3.2695400000000001
 30
0.0
 10
-4.1883100000000004
 20
-3.3482800000000004
 30
0.0
 10
-4.1883100000000004
 20
-3.3482800000000004
 30
0.0
 10
-4.1476700000000006
 20
-2.7615400000000001
 30
0.0
 10
-3.3551900000000003
 20
-1.6896600000000002
 30
0.0
 10
-4.30769
 20
-1.5169400000000002
 30
0.0
 10
-4.30769
 20
-1.5169400000000002
 30
0.0
 10
-4.3661099999999999
 20
-1.4636
 30
0.0
 10
-4.4524699999999999
 20
-1.4483600000000001
 30
0.0
 10
-4.4854900000000004
 20
-1.3975600000000001
 30
0.0
 10
-4.4854900000000004
 20
-1.3975600000000001
 30
0.0
 10
-4.5362900000000002
 20
-1.29596
 30
0.0
 10
-4.4651700000000005
 20
-1.1410200000000001
 30
0.0
 10
-4.4499300000000002
 20
-1.0826
 30
0.0
 10
-4.4499300000000002
 20
-1.0826
 30
0.0
 10
-4.3356300000000001
 20
-0.6254000000000001
 30
0.0
 10
-4.6099500000000004
 20
-0.22154
 30
0.0
 10
-4.3711900000000004
 20
0.21533
 30
0.0
 10
-4.3711900000000004
 20
0.21533
 30
0.0
 10
-4.3026100000000005
 20
0.6293500000000001
 30
0.0
 10
-3.6041100000000004
 20
0.7360300000000001
 30
0.0
 10
-3.7082500000000005
 20
0.18739
 30
0.0
 10
-3.7082500000000005
 20
0.18739
 30
0.0
 10
-4.0003500000000001
 20
-0.1174
 30
0.0
 10
-4.0714700000000006
 20
-1.21214
 30
0.0
 10
-3.5558500000000004
 20
-0.50348
 30
0.0
 10
-3.5558500000000004
 20
-0.50348
 30
0.0
 10
-3.5533100000000002
 20
-0.1428
 30
0.0
 10
-3.5177500000000004
 20
0.14929
 30
0.0
 10
-3.3602700000000003
 20
0.48203
 30
0.0
 10
-3.3602700000000003
 20
0.48203
 30
0.0
 10
-3.9571700000000005
 20
1.06369
 30
0.0
 10
-4.1375100000000007
 20
1.6809100000000001
 30
0.0
 10
-3.8682700000000003
 20
2.42767
 30
0.0
 10
-3.8682700000000003
 20
2.42767
 30
0.0
 10
-3.8377900000000005
 20
2.5191100000000004
 30
0.0
 10
-3.7590500000000002
 20
2.63849
 30
0.0
 10
-3.7336500000000004
 20
2.80613
 30
0.0
 10
-3.7336500000000004
 20
2.80613
 30
0.0
 10
-3.6218900000000005
 20
3.5808300000000002
 30
0.0
 10
-4.1476700000000006
 20
4.24885
 30
0.0
 10
-4.1044900000000002
 20
5.0362500000000008
 30
0.0
 10
-4.1044900000000002
 20
5.0362500000000008
 30
0.0
 10
-3.8377900000000005
 20
4.0227900000000005
 30
0.0
 10
-3.0376900000000004
 20
2.9940900000000004
 30
0.0
 10
-3.6676100000000003
 20
1.8968100000000001
 30
0.0
 10
-3.6676100000000003
 20
1.8968100000000001
 30
0.0
 10
-3.3018500000000004
 20
1.4700900000000001
 30
0.0
 10
-3.2688300000000003
 20
1.0027300000000001
 30
0.0
 10
-3.0224500000000001
 20
0.5226700000000001
 30
0.0
 10
-3.0224500000000001
 20
0.5226700000000001
 30
0.0
 10
-2.8268700000000004
 20
0.7614300000000001
 30
0.0
 10
-2.8421100000000004
 20
0.74873
 30
0.0
 10
-2.57287
 20
0.6953900000000001
 30
0.0
 10
-2.57287
 20
0.6953900000000001
 30
0.0
 10
-2.4738100000000003
 20
0.6293500000000001
 30
0.0
 10
-2.5068300000000003
 20
0.50997
 30
0.0
 10
-2.4661900000000001
 20
0.41599
 30
0.0
 10
-2.4661900000000001
 20
0.41599
 30
0.0
 10
-2.4230100000000001
 20
0.16199
 30
0.0
 10
-2.5423900000000001
 20
0.04261
 30
0.0
 10
-2.69225
 20
-0.1174
 30
0.0
 10
-2.69225
 20
-0.1174
 30
0.0
 10
-2.2502900000000001
 20
-0.1555
 30
0.0
 10
-2.4103100000000004
 20
-0.9987800000000001
 30
0.0
 10
-2.7430500000000002
 20
-0.61016
 30
0.0
 10
-2.7430500000000002
 20
-0.61016
 30
0.0
 10
-2.8192500000000003
 20
-0.7320800000000001
 30
0.0
 10
-2.8446500000000001
 20
-0.8768600000000001
 30
0.0
 10
-3.0224500000000001
 20
-0.8768600000000001
 30
0.0
 10
-3.0224500000000001
 20
-0.8768600000000001
 30
0.0
 10
-3.2967700000000004
 20
-1.3061200000000002
 30
0.0
 10
-2.4103100000000004
 20
-1.3594600000000001
 30
0.0
 10
-2.57287
 20
-1.8141200000000002
 30
0.0
 10
-2.57287
 20
-1.8141200000000002
 30
0.0
 10
-2.7709900000000003
 20
-2.0401800000000003
 30
0.0
 10
-3.6599900000000005
 20
-2.3475200000000003
 30
0.0
 10
-2.9487900000000002
 20
-2.4796
 30
0.0
 10
-2.9487900000000002
 20
-2.4796
 30
0.0
 10
-2.9284700000000004
 20
-2.5481800000000003
 30
0.0
 10
-2.9106900000000002
 20
-2.6142200000000004
 30
0.0
 10
-2.9208500000000002
 20
-2.6929600000000002
 30
0.0
 10
-2.9208500000000002
 20
-2.6929600000000002
 30
0.0
 10
-3.3729700000000005
 20
-3.1882600000000001
 30
0.0
 10
-3.1316700000000002
 20
-3.4016200000000003
 30
0.0
 10
-2.9589500000000002
 20
-3.9502600000000001
 30
0.0
 10
-2.9589500000000002
 20
-3.9502600000000001
 30
0.0
 10
-2.48651
 20
-3.1755600000000004
 30
0.0
 10
-2.2426700000000004
 20
-2.2535400000000001
 30
0.0
 10
-1.6102100000000001
 20
-1.54488
 30
0.0
 10
-1.6102100000000001
 20
-1.54488
 30
0.0
 10
-0.86853
 20
-1.03688
 30
0.0
 10
-0.9244100000000001
 20
-0.22408
 30
0.0
 10
-1.2241300000000002
 20
0.53537
 30
0.0
 10
-1.2241300000000002
 20
0.53537
 30
0.0
 10
-1.37907
 20
0.4947300000000001
 30
0.0
 10
-1.41717
 20
0.29407
 30
0.0
 10
-1.5390900000000001
 20
0.20263
 30
0.0
 10
-1.5390900000000001
 20
0.20263
 30
0.0
 10
-1.6838700000000002
 20
0.06801
 30
0.0
 10
-1.8565900000000002
 20
0.17469
 30
0.0
 10
-1.9556500000000001
 20
0.30931
 30
0.0
 10
-1.9556500000000001
 20
0.30931
 30
0.0
 10
-2.0521700000000003
 20
1.2440300000000002
 30
0.0
 10
-2.27061
 20
2.2447900000000001
 30
0.0
 10
-1.7041900000000001
 20
3.1541100000000002
 30
0.0
 10
-1.7041900000000001
 20
3.1541100000000002
 30
0.0
 10
-1.7118100000000001
 20
4.7695500000000006
 30
0.0
 10
-0.02525
 20
5.7449100000000008
 30
0.0
 10
1.4327000000000001
 20
5.6915700000000005
 30
0.0
  0
SPLINE
  5
26
100
AcDbEntity
  8
Ebene 1
 62
     7
100
AcDbSpline
210
0.0
220
0.0
230
1.0
 70
     1
 71
     3
 72
   140
 73
   136
 74
     0
 42
0.0000000001
 43
0.0000000001
 40
0.0
 40
0.0
 40
0.0
 40
0.0
 40
0.0294117647058824
 40
0.0294117647058824
 40
0.0294117647058824
 40
0.0294117647058824
 40
0.0588235294117647
 40
0.0588235294117647
 40
0.0588235294117647
 40
0.0588235294117647
 40
0.0882352941176471
 40
0.0882352941176471
 40
0.0882352941176471
 40
0.0882352941176471
 40
0.1176470588235294
 40
0.1176470588235294
 40
0.1176470588235294
 40
0.1176470588235294
 40
0.1470588235294118
 40
0.1470588235294118
 40
0.1470588235294118
 40
0.1470588235294118
 40
0.1764705882352941
 40
0.1764705882352941
 40
0.1764705882352941
 40
0.1764705882352941
 40
0.2058823529411765
 40
0.2058823529411765
 40
0.2058823529411765
 40
0.2058823529411765
 40
0.2352941176470589
 40
0.2352941176470589
 40
0.2352941176470589
 40
0.2352941176470589
 40
0.2647058823529412
 40
0.2647058823529412
 40
0.2647058823529412
 40
0.2647058823529412
 40
0.2941176470588235
 40
0.2941176470588235
 40
0.2941176470588235
 40
0.2941176470588235
 40
0.3235294117647059
 40
0.3235294117647059
 40
0.3235294117647059
 40
0.3235294117647059
 40
0.3529411764705883
 40
0.3529411764705883
 40
0.3529411764705883
 40
0.3529411764705883
 40
0.3823529411764706
 40
0.3823529411764706
 40
0.3823529411764706
 40
0.3823529411764706
 40
0.411764705882353
 40
0.411764705882353
 40
0.411764705882353
 40
0.411764705882353
 40
0.4411764705882353
 40
0.4411764705882353
 40
0.4411764705882353
 40
0.4411764705882353
 40
0.4705882352941177
 40
0.4705882352941177
 40
0.4705882352941177
 40
0.4705882352941177
 40
0.5
 40
0.5
 40
0.5
 40
0.5
 40
0.5294117647058824
 40
0.5294117647058824
 40
0.5294117647058824
 40
0.5294117647058824
 40
0.5588235294117647
 40
0.5588235294117647
 40
0.5588235294117647
 40
0.5588235294117647
 40
0.5882352941176471
 40
0.5882352941176471
 40
0.5882352941176471
 40
0.5882352941176471
 40
0.6176470588235294
 40
0.6176470588235294
 40
0.6176470588235294
 40
0.6176470588235294
 40
0.6470588235294118
 40
0.6470588235294118
 40
0.6470588235294118
 40
0.6470588235294118
 40
0.6764705882352942
 40
0.6764705882352942
 40
0.6764705882352942
 40
0.6764705882352942
 40
0.7058823529411765
 40
0.7058823529411765
 40
0.7058823529411765
 40
0.7058823529411765
 40
0.7352941176470589
 40
0.7352941176470589
 40
0.7352941176470589
 40
0.7352941176470589
 40
0.7647058823529412
 40
0.7647058823529412
 40
0.7647058823529412
 40
0.7647058823529412
 40
0.7941176470588236
 40
0.7941176470588236
 40
0.7941176470588236
 40
0.7941176470588236
 40
0.823529411764706
 40
0.823529411764706
 40
0.823529411764706
 40
0.823529411764706
 40
0.8529411764705883
 40
0.8529411764705883
 40
0.8529411764705883
 40
0.8529411764705883
 40
0.8823529411764707
 40
0.8823529411764707
 40
0.8823529411764707
 40
0.8823529411764707
 40
0.911764705882353
 40
0.911764705882353
 40
0.911764705882353
 40
0.911764705882353
 40
0.9411764705882354
 40
0.9411764705882354
 40
0.9411764705882354
 40
0.9411764705882354
 40
0.9705882352941178
 40
0.9705882352941178
 40
0.9705882352941178
 40
0.9705882352941178
 40
1.0
 40
1.0
 40
1.0
 40
1.0
 10
1.40476
 20
5.5975900000000003
 30
0.0
 10
2.59348
 20
5.7322100000000002
 30
0.0
 10
3.6983800000000002
 20
5.0743500000000008
 30
0.0
 10
4.1251000000000007
 20
3.9237300000000004
 30
0.0
 10
4.1251000000000007
 20
3.9237300000000004
 30
0.0
 10
4.5010200000000005
 20
2.97377
 30
0.0
 10
4.45784
 20
1.9196700000000002
 30
0.0
 10
4.0768400000000007
 20
1.0560700000000001
 30
0.0
 10
4.0768400000000007
 20
1.0560700000000001
 30
0.0
 10
3.7822000000000005
 20
0.61665
 30
0.0
 10
2.9008200000000004
 20
0.83001
 30
0.0
 10
3.5155000000000003
 20
1.2440300000000002
 30
0.0
 10
3.5155000000000003
 20
1.2440300000000002
 30
0.0
 10
3.4977200000000002
 20
1.40659
 30
0.0
 10
3.3097600000000003
 20
1.14497
 30
0.0
 10
3.2259400000000005
 20
1.10687
 30
0.0
 10
3.2259400000000005
 20
1.10687
 30
0.0
 10
2.9795600000000002
 20
0.9925700000000001
 30
0.0
 10
2.7636600000000002
 20
0.9316100000000001
 30
0.0
 10
2.5147400000000002
 20
0.8427100000000001
 30
0.0
 10
2.5147400000000002
 20
0.8427100000000001
 30
0.0
 10
2.4741000000000004
 20
0.57601
 30
0.0
 10
2.5401400000000001
 20
0.14929
 30
0.0
 10
2.1794600000000002
 20
0.08071
 30
0.0
 10
2.1794600000000002
 20
0.08071
 30
0.0
 10
1.6714600000000002
 20
0.24073
 30
0.0
 10
1.1380600000000001
 20
0.42869
 30
0.0
 10
0.6453000000000001
 20
0.6699900000000001
 30
0.0
 10
0.6453000000000001
 20
0.6699900000000001
 30
0.0
 10
0.5640200000000001
 20
0.60141
 30
0.0
 10
0.45734
 20
0.4947300000000001
 30
0.0
 10
0.4421000000000001
 20
0.38805
 30
0.0
 10
0.4421000000000001
 20
0.38805
 30
0.0
 10
0.49798
 20
0.40329
 30
0.0
 10
0.6300600000000001
 20
0.6293500000000001
 30
0.0
 10
0.6300600000000001
 20
0.48203
 30
0.0
 10
0.6300600000000001
 20
0.48203
 30
0.0
 10
0.6300600000000001
 20
0.48203
 30
0.0
 10
0.5233800000000001
 20
0.22803
 30
0.0
 10
0.5233800000000001
 20
0.22803
 30
0.0
 10
0.5233800000000001
 20
0.22803
 30
0.0
 10
0.36336
 20
-0.26472
 30
0.0
 10
0.7900800000000001
 20
0.6547500000000001
 30
0.0
 10
0.8027800000000001
 20
0.40329
 30
0.0
 10
0.8027800000000001
 20
0.40329
 30
0.0
 10
0.6834
 20
0.25597
 30
0.0
 10
0.61736
 20
0.10865
 30
0.0
 10
0.6834
 20
-0.07676
 30
0.0
 10
0.6834
 20
-0.07676
 30
0.0
 10
0.5233800000000001
 20
0.08071
 30
0.0
 10
0.15
 20
-0.24948
 30
0.0
 10
0.1373
 20
0.01467
 30
0.0
 10
0.1373
 20
0.01467
 30
0.0
 10
0.1373
 20
0.01467
 30
0.0
 10
0.1627
 20
0.14929
 30
0.0
 10
0.1627
 20
0.14929
 30
0.0
 10
0.1627
 20
0.14929
 30
0.0
 10
0.14238
 20
0.33217
 30
0.0
 10
0.0738
 20
0.04515
 30
0.0
 10
0.04078
 20
0.00197
 30
0.0
 10
0.04078
 20
0.00197
 30
0.0
 10
-0.05319
 20
-0.1301
 30
0.0
 10
-0.14971
 20
-0.15296
 30
0.0
 10
-0.05827
 20
0.16707
 30
0.0
 10
-0.05827
 20
0.16707
 30
0.0
 10
-0.05827
 20
0.16707
 30
0.0
 10
-0.07859
 20
0.38805
 30
0.0
 10
-0.07859
 20
0.38805
 30
0.0
 10
-0.07859
 20
0.38805
 30
0.0
 10
-0.13193
 20
0.05531
 30
0.0
 10
-0.3656100000000001
 20
-0.3714
 30
0.0
 10
-0.47229
 20
0.06801
 30
0.0
 10
-0.47229
 20
0.06801
 30
0.0
 10
-0.7059700000000001
 20
-0.5441200000000001
 30
0.0
 10
-0.8202700000000001
 20
0.53537
 30
0.0
 10
-1.1987300000000001
 20
0.68269
 30
0.0
 10
-1.1987300000000001
 20
0.68269
 30
0.0
 10
-1.4552700000000001
 20
0.4413900000000001
 30
0.0
 10
-1.7422900000000001
 20
-0.06152
 30
0.0
 10
-1.8946900000000002
 20
0.6039500000000001
 30
0.0
 10
-1.8946900000000002
 20
0.6039500000000001
 30
0.0
 10
-1.8692900000000001
 20
0.87065
 30
0.0
 10
-1.8438900000000003
 20
1.06877
 30
0.0
 10
-1.71435
 20
1.2973700000000001
 30
0.0
 10
-1.71435
 20
1.2973700000000001
 30
0.0
 10
-1.67117
 20
0.8147700000000001
 30
0.0
 10
-0.6881900000000001
 20
1.4700900000000001
 30
0.0
 10
-0.9396500000000001
 20
1.4573900000000002
 30
0.0
 10
-0.9396500000000001
 20
1.4573900000000002
 30
0.0
 10
-0.7059700000000001
 20
1.5513700000000001
 30
0.0
 10
-0.7923300000000001
 20
1.4980300000000002
 30
0.0
 10
-0.9574300000000001
 20
1.6047100000000001
 30
0.0
 10
-0.9574300000000001
 20
1.6047100000000001
 30
0.0
 10
-0.8939300000000001
 20
1.6453500000000001
 30
0.0
 10
-0.80249
 20
1.6834500000000001
 30
0.0
 10
-0.78217
 20
1.7647300000000001
 30
0.0
 10
-0.78217
 20
1.7647300000000001
 30
0.0
 10
-0.7770900000000001
 20
1.8053700000000001
 30
0.0
 10
-0.78217
 20
1.8587100000000001
 30
0.0
 10
-0.8329700000000001
 20
1.8434700000000002
 30
0.0
 10
-0.8329700000000001
 20
1.8434700000000002
 30
0.0
 10
-1.0590300000000001
 20
1.4827900000000001
 30
0.0
 10
-1.7168900000000002
 20
1.8053700000000001
 30
0.0
 10
-1.8464300000000002
 20
1.2694300000000001
 30
0.0
 10
-1.8464300000000002
 20
1.2694300000000001
 30
0.0
 10
-2.05979
 20
1.5386700000000002
 30
0.0
 10
-1.9886700000000002
 20
1.7926700000000002
 30
0.0
 10
-1.9327900000000002
 20
2.0136500000000002
 30
0.0
 10
-1.9327900000000002
 20
2.0136500000000002
 30
0.0
 10
-1.8184900000000002
 20
2.4683100000000002
 30
0.0
 10
-1.3028700000000002
 20
2.6435700000000004
 30
0.0
 10
-0.7720100000000001
 20
2.55213
 30
0.0
 10
-0.7720100000000001
 20
2.55213
 30
0.0
 10
-1.0082300000000002
 20
2.6588100000000003
 30
0.0
 10
-1.3079500000000002
 20
3.0093300000000003
 30
0.0
 10
-1.4781300000000002
 20
2.9128100000000003
 30
0.0
 10
-1.4781300000000002
 20
2.9128100000000003
 30
0.0
 10
-1.29525
 20
2.7121500000000003
 30
0.0
 10
-1.4247900000000002
 20
2.6181700000000001
 30
0.0
 10
-1.7397500000000001
 20
2.6715100000000001
 30
0.0
 10
-1.7397500000000001
 20
2.6715100000000001
 30
0.0
 10
-1.7067300000000001
 20
2.7654900000000002
 30
0.0
 10
-1.67371
 20
2.8594700000000004
 30
0.0
 10
-1.5848100000000001
 20
2.8721700000000001
 30
0.0
 10
-1.5848100000000001
 20
2.8721700000000001
 30
0.0
 10
-1.8007100000000003
 20
4.07613
 30
0.0
 10
-0.9015500000000001
 20
5.1962700000000002
 30
0.0
 10
0.25668
 20
5.3435900000000007
 30
0.0
 10
0.25668
 20
5.3435900000000007
 30
0.0
 10
0.21604
 20
5.1962700000000002
 30
0.0
 10
-0.02525
 20
5.0108500000000005
 30
0.0
 10
0.09412
 20
4.8635300000000008
 30
0.0
 10
0.09412
 20
4.8635300000000008
 30
0.0
 10
0.31002
 20
5.3969300000000002
 30
0.0
 10
0.8967600000000001
 20
5.5442500000000008
 30
0.0
 10
1.40476
 20
5.5975900000000003
 30
0.0
  0
SPLINE
  5
27
100
AcDbEntity
  8
Ebene 1
100
AcDbSpline
210
0.0
220
0.0
230
1.0
 70
     1
 71
     3
 72
    20
 73
    16
 74
     0
 42
0.0000000001
 43
0.0000000001
 40
0.0
 40
0.0
 40
0.0
 40
0.0
 40
0.25
 40
0.25
 40
0.25
 40
0.25
 40
0.5
 40
0.5
 40
0.5
 40
0.5
 40
0.75
 40
0.75
 40
0.75
 40
0.75
 40
1.0
 40
1.0
 40
1.0
 40
1.0
 10
-0.36815
 20
3.9542100000000002
 30
0.0
 10
-0.36815
 20
3.9542100000000002
 30
0.0
 10
-0.41133
 20
3.0880700000000001
 30
0.0
 10
-0.41133
 20
3.0880700000000001
 30
0.0
 10
-0.41133
 20
3.0880700000000001
 30
0.0
 10
-0.41133
 20
3.0880700000000001
 30
0.0
 10
-0.47483
 20
3.0194900000000002
 30
0.0
 10
-0.47483
 20
3.0194900000000002
 30
0.0
 10
-0.47483
 20
3.0194900000000002
 30
0.0
 10
-0.50785
 20
3.0194900000000002
 30
0.0
 10
-0.5027700000000001
 20
3.0601300000000005
 30
0.0
 10
-0.5027700000000001
 20
3.0880700000000001
 30
0.0
 10
-0.5027700000000001
 20
3.0880700000000001
 30
0.0
 10
-0.42403
 20
3.3674700000000004
 30
0.0
 10
-0.5205500000000001
 20
3.6875100000000005
 30
0.0
 10
-0.36815
 20
3.9542100000000002
 30
0.0
  0
SPLINE
  5
28
100
AcDbEntity
  8
Ebene 1
100
AcDbSpline
210
0.0
220
0.0
230
1.0
 70
     1
 71
     3
 72
    28
 73
    24
 74
     0
 42
0.0000000001
 43
0.0000000001
 40
0.0
 40
0.0
 40
0.0
 40
0.0
 40
0.1666666666666667
 40
0.1666666666666667
 40
0.1666666666666667
 40
0.1666666666666667
 40
0.3333333333333333
 40
0.3333333333333333
 40
0.3333333333333333
 40
0.3333333333333333
 40
0.5
 40
0.5
 40
0.5
 40
0.5
 40
0.6666666666666666
 40
0.6666666666666666
 40
0.6666666666666666
 40
0.6666666666666666
 40
0.8333333333333333
 40
0.8333333333333333
 40
0.8333333333333333
 40
0.8333333333333333
 40
1.0
 40
1.0
 40
1.0
 40
1.0
 10
3.4088200000000004
 20
3.9161100000000002
 30
0.0
 10
3.6221800000000002
 20
3.9542100000000002
 30
0.0
 10
3.7695000000000003
 20
3.8221300000000005
 30
0.0
 10
3.9168200000000004
 20
3.6875100000000005
 30
0.0
 10
3.9168200000000004
 20
3.6875100000000005
 30
0.0
 10
4.0362
 20
3.5554300000000003
 30
0.0
 10
4.2775000000000007
 20
3.4081100000000002
 30
0.0
 10
4.2241600000000004
 20
3.2074500000000001
 30
0.0
 10
4.2241600000000004
 20
3.2074500000000001
 30
0.0
 10
4.1962200000000003
 20
3.2328500000000004
 30
0.0
 10
4.1962200000000003
 20
3.2861900000000004
 30
0.0
 10
4.1962200000000003
 20
3.3268300000000002
 30
0.0
 10
4.1962200000000003
 20
3.3268300000000002
 30
0.0
 10
3.8761800000000002
 20
3.5147900000000001
 30
0.0
 10
3.6374200000000001
 20
3.9948500000000005
 30
0.0
 10
3.2081600000000003
 20
3.7814900000000002
 30
0.0
 10
3.2081600000000003
 20
3.7814900000000002
 30
0.0
 10
3.0354400000000004
 20
3.7408500000000005
 30
0.0
 10
3.1141800000000002
 20
3.8602300000000005
 30
0.0
 10
3.2361000000000004
 20
3.8602300000000005
 30
0.0
 10
3.2361000000000004
 20
3.8602300000000005
 30
0.0
 10
3.2361000000000004
 20
3.8602300000000005
 30
0.0
 10
3.4088200000000004
 20
3.9161100000000002
 30
0.0
 10
3.4088200000000004
 20
3.9161100000000002
 30
0.0
  0
SPLINE
  5
29
100
AcDbEntity
  8
Ebene 1
100
AcDbSpline
210
0.0
220
0.0
230
1.0
 70
     1
 71
     3
 72
    36
 73
    32
 74
     0
 42
0.0000000001
 43
0.0000000001
 40
0.0
 40
0.0
 40
0.0
 40
0.0
 40
0.125
 40
0.125
 40
0.125
 40
0.125
 40
0.25
 40
0.25
 40
0.25
 40
0.25
 40
0.375
 40
0.375
 40
0.375
 40
0.375
 40
0.5
 40
0.5
 40
0.5
 40
0.5
 40
0.625
 40
0.625
 40
0.625
 40
0.625
 40
0.75
 40
0.75
 40
0.75
 40
0.75
 40
0.875
 40
0.875
 40
0.875
 40
0.875
 40
1.0
 40
1.0
 40
1.0
 40
1.0
 10
2.8881200000000002
 20
3.8094300000000003
 30
0.0
 10
2.9541600000000003
 20
3.7814900000000002
 30
0.0
 10
2.9008200000000004
 20
3.6875100000000005
 30
0.0
 10
2.8881200000000002
 20
3.6341700000000001
 30
0.0
 10
2.8881200000000002
 20
3.6341700000000001
 30
0.0
 10
2.4741000000000004
 20
3.2074500000000001
 30
0.0
 10
2.9160600000000003
 20
2.7400900000000004
 30
0.0
 10
2.9414600000000002
 20
2.2727300000000001
 30
0.0
 10
2.9414600000000002
 20
2.2727300000000001
 30
0.0
 10
2.9008200000000004
 20
2.2193900000000002
 30
0.0
 10
2.8347800000000003
 20
2.1914500000000001
 30
0.0
 10
2.8093800000000004
 20
2.12541
 30
0.0
 10
2.8093800000000004
 20
2.12541
 30
0.0
 10
2.8093800000000004
 20
2.12541
 30
0.0
 10
2.7535000000000003
 20
1.9653900000000002
 30
0.0
 10
2.7535000000000003
 20
1.9653900000000002
 30
0.0
 10
2.7535000000000003
 20
1.9653900000000002
 30
0.0
 10
2.7535000000000003
 20
1.9653900000000002
 30
0.0
 10
2.71286
 20
1.5767700000000002
 30
0.0
 10
2.71286
 20
1.5767700000000002
 30
0.0
 10
2.71286
 20
1.5767700000000002
 30
0.0
 10
2.6620600000000003
 20
1.8307700000000002
 30
0.0
 10
2.6341200000000002
 20
2.1381100000000002
 30
0.0
 10
2.7941400000000001
 20
2.3667100000000003
 30
0.0
 10
2.7941400000000001
 20
2.3667100000000003
 30
0.0
 10
2.7535000000000003
 20
2.6181700000000001
 30
0.0
 10
2.6214200000000001
 20
2.8188300000000002
 30
0.0
 10
2.4868000000000001
 20
3.0321900000000004
 30
0.0
 10
2.4868000000000001
 20
3.0321900000000004
 30
0.0
 10
2.5274400000000004
 20
3.3268300000000002
 30
0.0
 10
2.7408000000000001
 20
3.5554300000000003
 30
0.0
 10
2.8881200000000002
 20
3.8094300000000003
 30
0.0
  0
SPLINE
  5
2A
100
AcDbEntity
  8
Ebene 1
100
AcDbSpline
210
0.0
220
0.0
230
1.0
 70
     1
 71
     3
 72
    32
 73
    28
 74
     0
 42
0.0000000001
 43
0.0000000001
 40
0.0
 40
0.0
 40
0.0
 40
0.0
 40
0.1428571428571429
 40
0.1428571428571429
 40
0.1428571428571429
 40
0.1428571428571429
 40
0.2857142857142857
 40
0.2857142857142857
 40
0.2857142857142857
 40
0.2857142857142857
 40
0.4285714285714286
 40
0.4285714285714286
 40
0.4285714285714286
 40
0.4285714285714286
 40
0.5714285714285714
 40
0.5714285714285714
 40
0.5714285714285714
 40
0.5714285714285714
 40
0.7142857142857142
 40
0.7142857142857142
 40
0.7142857142857142
 40
0.7142857142857142
 40
0.857142857142857
 40
0.857142857142857
 40
0.857142857142857
 40
0.857142857142857
 40
1.0
 40
1.0
 40
1.0
 40
1.0
 10
1.11266
 20
3.7687900000000005
 30
0.0
 10
1.11266
 20
3.7687900000000005
 30
0.0
 10
1.4581000000000002
 20
3.7281500000000003
 30
0.0
 10
1.4581000000000002
 20
3.7281500000000003
 30
0.0
 10
1.4581000000000002
 20
3.7281500000000003
 30
0.0
 10
1.15076
 20
3.7002100000000002
 30
0.0
 10
0.7900800000000001
 20
3.5808300000000002
 30
0.0
 10
0.6046600000000001
 20
3.2861900000000004
 30
0.0
 10
0.6046600000000001
 20
3.2861900000000004
 30
0.0
 10
0.45734
 20
3.1668100000000003
 30
0.0
 10
0.6046600000000001
 20
3.1947500000000004
 30
0.0
 10
0.7113400000000001
 20
3.2328500000000004
 30
0.0
 10
0.7113400000000001
 20
3.2328500000000004
 30
0.0
 10
0.8180200000000001
 20
3.2201500000000003
 30
0.0
 10
0.9374000000000001
 20
3.4081100000000002
 30
0.0
 10
1.0313800000000002
 20
3.3141300000000005
 30
0.0
 10
1.0313800000000002
 20
3.3141300000000005
 30
0.0
 10
0.6757800000000001
 20
3.05505
 30
0.0
 10
0.30494
 20
2.8645500000000004
 30
0.0
 10
-0.25893
 20
2.6054700000000004
 30
0.0
 10
-0.25893
 20
2.6054700000000004
 30
0.0
 10
-0.14463
 20
2.7121500000000003
 30
0.0
 10
-0.03287
 20
2.8264500000000004
 30
0.0
 10
0.07888
 20
2.9432900000000002
 30
0.0
 10
0.07888
 20
2.9432900000000002
 30
0.0
 10
0.40654
 20
3.2709500000000005
 30
0.0
 10
0.6859400000000001
 20
3.6417900000000003
 30
0.0
 10
1.11266
 20
3.7687900000000005
 30
0.0
  0
SPLINE
  5
2B
100
AcDbEntity
  8
Ebene 1
 62
     7
100
AcDbSpline
210
0.0
220
0.0
230
1.0
 70
     1
 71
     3
 72
   196
 73
   192
 74
     0
 42
0.0000000001
 43
0.0000000001
 40
0.0
 40
0.0
 40
0.0
 40
0.0
 40
0.0208333333333333
 40
0.0208333333333333
 40
0.0208333333333333
 40
0.0208333333333333
 40
0.0416666666666667
 40
0.0416666666666667
 40
0.0416666666666667
 40
0.0416666666666667
 40
0.0625
 40
0.0625
 40
0.0625
 40
0.0625
 40
0.0833333333333333
 40
0.0833333333333333
 40
0.0833333333333333
 40
0.0833333333333333
 40
0.1041666666666667
 40
0.1041666666666667
 40
0.1041666666666667
 40
0.1041666666666667
 40
0.125
 40
0.125
 40
0.125
 40
0.125
 40
0.1458333333333333
 40
0.1458333333333333
 40
0.1458333333333333
 40
0.1458333333333333
 40
0.1666666666666667
 40
0.1666666666666667
 40
0.1666666666666667
 40
0.1666666666666667
 40
0.1875
 40
0.1875
 40
0.1875
 40
0.1875
 40
0.2083333333333333
 40
0.2083333333333333
 40
0.2083333333333333
 40
0.2083333333333333
 40
0.2291666666666667
 40
0.2291666666666667
 40
0.2291666666666667
 40
0.2291666666666667
 40
0.25
 40
0.25
 40
0.25
 40
0.25
 40
0.2708333333333333
 40
0.2708333333333333
 40
0.2708333333333333
 40
0.2708333333333333
 40
0.2916666666666666
 40
0.2916666666666666
 40
0.2916666666666666
 40
0.2916666666666666
 40
0.3124999999999999
 40
0.3124999999999999
 40
0.3124999999999999
 40
0.3124999999999999
 40
0.3333333333333333
 40
0.3333333333333333
 40
0.3333333333333333
 40
0.3333333333333333
 40
0.3541666666666666
 40
0.3541666666666666
 40
0.3541666666666666
 40
0.3541666666666666
 40
0.3749999999999999
 40
0.3749999999999999
 40
0.3749999999999999
 40
0.3749999999999999
 40
0.3958333333333332
 40
0.3958333333333332
 40
0.3958333333333332
 40
0.3958333333333332
 40
0.4166666666666665
 40
0.4166666666666665
 40
0.4166666666666665
 40
0.4166666666666665
 40
0.4374999999999998
 40
0.4374999999999998
 40
0.4374999999999998
 40
0.4374999999999998
 40
0.4583333333333332
 40
0.4583333333333332
 40
0.4583333333333332
 40
0.4583333333333332
 40
0.4791666666666665
 40
0.4791666666666665
 40
0.4791666666666665
 40
0.4791666666666665
 40
0.4999999999999998
 40
0.4999999999999998
 40
0.4999999999999998
 40
0.4999999999999998
 40
0.5208333333333332
 40
0.5208333333333332
 40
0.5208333333333332
 40
0.5208333333333332
 40
0.5416666666666665
 40
0.5416666666666665
 40
0.5416666666666665
 40
0.5416666666666665
 40
0.5624999999999999
 40
0.5624999999999999
 40
0.5624999999999999
 40
0.5624999999999999
 40
0.5833333333333333
 40
0.5833333333333333
 40
0.5833333333333333
 40
0.5833333333333333
 40
0.6041666666666666
 40
0.6041666666666666
 40
0.6041666666666666
 40
0.6041666666666666
 40
0.625
 40
0.625
 40
0.625
 40
0.625
 40
0.6458333333333334
 40
0.6458333333333334
 40
0.6458333333333334
 40
0.6458333333333334
 40
0.6666666666666667
 40
0.6666666666666667
 40
0.6666666666666667
 40
0.6666666666666667
 40
0.6875000000000001
 40
0.6875000000000001
 40
0.6875000000000001
 40
0.6875000000000001
 40
0.7083333333333335
 40
0.7083333333333335
 40
0.7083333333333335
 40
0.7083333333333335
 40
0.7291666666666669
 40
0.7291666666666669
 40
0.7291666666666669
 40
0.7291666666666669
 40
0.7500000000000002
 40
0.7500000000000002
 40
0.7500000000000002
 40
0.7500000000000002
 40
0.7708333333333336
 40
0.7708333333333336
 40
0.7708333333333336
 40
0.7708333333333336
 40
0.791666666666667
 40
0.791666666666667
 40
0.791666666666667
 40
0.791666666666667
 40
0.8125000000000003
 40
0.8125000000000003
 40
0.8125000000000003
 40
0.8125000000000003
 40
0.8333333333333337
 40
0.8333333333333337
 40
0.8333333333333337
 40
0.8333333333333337
 40
0.8541666666666671
 40
0.8541666666666671
 40
0.8541666666666671
 40
0.8541666666666671
 40
0.8750000000000004
 40
0.8750000000000004
 40
0.8750000000000004
 40
0.8750000000000004
 40
0.8958333333333338
 40
0.8958333333333338
 40
0.8958333333333338
 40
0.8958333333333338
 40
0.9166666666666672
 40
0.9166666666666672
 40
0.9166666666666672
 40
0.9166666666666672
 40
0.9375000000000006
 40
0.9375000000000006
 40
0.9375000000000006
 40
0.9375000000000006
 40
0.9583333333333339
 40
0.9583333333333339
 40
0.9583333333333339
 40
0.9583333333333339
 40
0.9791666666666673
 40
0.9791666666666673
 40
0.9791666666666673
 40
0.9791666666666673
 40
1.0
 40
1.0
 40
1.0
 40
1.0
 10
-3.7082500000000005
 20
3.5706700000000002
 30
0.0
 10
-3.2561300000000002
 20
2.8670900000000001
 30
0.0
 10
-3.7895300000000005
 20
2.2320900000000004
 30
0.0
 10
-3.8022300000000002
 20
1.6301100000000002
 30
0.0
 10
-3.8022300000000002
 20
1.6301100000000002
 30
0.0
 10
-3.7260300000000002
 20
1.5640700000000001
 30
0.0
 10
-3.7869900000000003
 20
1.7774300000000001
 30
0.0
 10
-3.7387300000000003
 20
1.8053700000000001
 30
0.0
 10
-3.7387300000000003
 20
1.8053700000000001
 30
0.0
 10
-3.4542500000000005
 20
1.4700900000000001
 30
0.0
 10
-3.2281900000000001
 20
1.2973700000000001
 30
0.0
 10
-3.3602700000000003
 20
0.8020700000000001
 30
0.0
 10
-3.3602700000000003
 20
0.8020700000000001
 30
0.0
 10
-3.3501100000000004
 20
0.78937
 30
0.0
 10
-3.3348700000000004
 20
0.7360300000000001
 30
0.0
 10
-3.3018500000000004
 20
0.7614300000000001
 30
0.0
 10
-3.3018500000000004
 20
0.7614300000000001
 30
0.0
 10
-3.2713700000000001
 20
0.8020700000000001
 30
0.0
 10
-3.3577300000000001
 20
0.87065
 30
0.0
 10
-3.3018500000000004
 20
0.9087500000000001
 30
0.0
 10
-3.3018500000000004
 20
0.9087500000000001
 30
0.0
 10
-3.0021300000000002
 20
0.7080900000000001
 30
0.0
 10
-3.1037300000000001
 20
0.24073
 30
0.0
 10
-3.0529300000000004
 20
-0.06406
 30
0.0
 10
-3.0529300000000004
 20
-0.06406
 30
0.0
 10
-3.0199100000000003
 20
-0.15804
 30
0.0
 10
-3.0224500000000001
 20
0.04007
 30
0.0
 10
-3.0097500000000004
 20
0.13405
 30
0.0
 10
-3.0097500000000004
 20
0.13405
 30
0.0
 10
-2.9614900000000004
 20
0.47695
 30
0.0
 10
-2.7811500000000002
 20
0.87065
 30
0.0
 10
-2.5423900000000001
 20
0.4744100000000001
 30
0.0
 10
-2.5423900000000001
 20
0.4744100000000001
 30
0.0
 10
-2.4890500000000002
 20
0.28645
 30
0.0
 10
-2.5474700000000001
 20
0.10357
 30
0.0
 10
-2.8675100000000002
 20
-0.11232
 30
0.0
 10
-2.8675100000000002
 20
-0.11232
 30
0.0
 10
-2.8929100000000001
 20
-0.1301
 30
0.0
 10
-2.9691100000000001
 20
-0.1809
 30
0.0
 10
-2.9335500000000003
 20
-0.22408
 30
0.0
 10
-2.9335500000000003
 20
-0.22408
 30
0.0
 10
-2.7506700000000004
 20
-0.1174
 30
0.0
 10
-2.4357100000000003
 20
-0.27742
 30
0.0
 10
-2.5093700000000001
 20
-0.53142
 30
0.0
 10
-2.5093700000000001
 20
-0.53142
 30
0.0
 10
-2.52969
 20
-0.5568200000000001
 30
0.0
 10
-2.5449300000000004
 20
-0.61016
 30
0.0
 10
-2.5855700000000001
 20
-0.6254000000000001
 30
0.0
 10
-2.5855700000000001
 20
-0.6254000000000001
 30
0.0
 10
-2.6693900000000004
 20
-0.24948
 30
0.0
 10
-3.1799300000000001
 20
-0.5822200000000001
 30
0.0
 10
-2.90307
 20
-0.56952
 30
0.0
 10
-2.90307
 20
-0.56952
 30
0.0
 10
-2.8827500000000001
 20
-0.5568200000000001
 30
0.0
 10
-2.8116300000000001
 20
-0.50348
 30
0.0
 10
-2.81671
 20
-0.5568200000000001
 30
0.0
 10
-2.81671
 20
-0.5568200000000001
 30
0.0
 10
-2.81671
 20
-0.5568200000000001
 30
0.0
 10
-2.8548100000000001
 20
-0.6914400000000001
 30
0.0
 10
-2.8548100000000001
 20
-0.6914400000000001
 30
0.0
 10
-2.8548100000000001
 20
-0.6914400000000001
 30
0.0
 10
-2.9335500000000003
 20
-0.7397
 30
0.0
 10
-3.0656300000000001
 20
-0.7651000000000001
 30
0.0
 10
-3.1265900000000002
 20
-0.8336800000000001
 30
0.0
 10
-3.1265900000000002
 20
-0.8336800000000001
 30
0.0
 10
-3.2510500000000002
 20
-0.9733800000000001
 30
0.0
 10
-3.2713700000000001
 20
-1.1842000000000001
 30
0.0
 10
-3.3069300000000004
 20
-1.37216
 30
0.0
 10
-3.3069300000000004
 20
-1.37216
 30
0.0
 10
-3.2586700000000004
 20
-1.5982200000000002
 30
0.0
 10
-3.2739100000000003
 20
-1.1842000000000001
 30
0.0
 10
-3.1469100000000001
 20
-1.1842000000000001
 30
0.0
 10
-3.1469100000000001
 20
-1.1842000000000001
 30
0.0
 10
-2.8878300000000001
 20
-1.29088
 30
0.0
 10
-2.3899900000000001
 20
-1.6668000000000001
 30
0.0
 10
-2.7684500000000001
 20
-1.9208000000000001
 30
0.0
 10
-2.7684500000000001
 20
-1.9208000000000001
 30
0.0
 10
-2.7328900000000003
 20
-1.8268200000000001
 30
0.0
 10
-2.6439900000000001
 20
-1.6668000000000001
 30
0.0
 10
-2.7608300000000003
 20
-1.58552
 30
0.0
 10
-2.7608300000000003
 20
-1.58552
 30
0.0
 10
-2.6693900000000004
 20
-1.8801600000000001
 30
0.0
 10
-3.1545300000000003
 20
-1.9868400000000002
 30
0.0
 10
-3.3170900000000003
 20
-2.2408400000000004
 30
0.0
 10
-3.3170900000000003
 20
-2.2408400000000004
 30
0.0
 10
-3.3501100000000004
 20
-2.3475200000000003
 30
0.0
 10
-3.4186900000000002
 20
-2.4669000000000003
 30
0.0
 10
-3.3831300000000004
 20
-2.5862800000000004
 30
0.0
 10
-3.3831300000000004
 20
-2.5862800000000004
 30
0.0
 10
-3.3653500000000003
 20
-2.6142200000000004
 30
0.0
 10
-3.3501100000000004
 20
-2.6548600000000002
 30
0.0
 10
-3.3170900000000003
 20
-2.6802600000000001
 30
0.0
 10
-3.3170900000000003
 20
-2.6802600000000001
 30
0.0
 10
-2.7913100000000002
 20
-2.5456400000000001
 30
0.0
 10
-3.1469100000000001
 20
-2.8783800000000004
 30
0.0
 10
-3.5050500000000002
 20
-3.15524
 30
0.0
 10
-3.5050500000000002
 20
-3.15524
 30
0.0
 10
-3.6320500000000004
 20
-3.2517600000000004
 30
0.0
 10
-3.6676100000000003
 20
-3.3863800000000004
 30
0.0
 10
-3.7184100000000004
 20
-3.4295600000000004
 30
0.0
 10
-3.7184100000000004
 20
-3.4295600000000004
 30
0.0
 10
-3.8174700000000001
 20
-3.3228800000000001
 30
0.0
 10
-3.7692100000000002
 20
-3.1095200000000003
 30
0.0
 10
-3.7742900000000001
 20
-2.9749000000000003
 30
0.0
 10
-3.7742900000000001
 20
-2.9749000000000003
 30
0.0
 10
-3.7768300000000004
 20
-2.7488400000000004
 30
0.0
 10
-3.9038300000000001
 20
-3.0409400000000004
 30
0.0
 10
-3.9851100000000002
 20
-3.0815800000000002
 30
0.0
 10
-3.9851100000000002
 20
-3.0815800000000002
 30
0.0
 10
-4.01051
 20
-2.8555200000000003
 30
0.0
 10
-3.9292300000000004
 20
-2.6548600000000002
 30
0.0
 10
-3.8454100000000002
 20
-2.4592800000000001
 30
0.0
 10
-3.8454100000000002
 20
-2.4592800000000001
 30
0.0
 10
-3.7615900000000004
 20
-2.2611600000000003
 30
0.0
 10
-3.6726900000000002
 20
-2.0655800000000002
 30
0.0
 10
-3.6041100000000004
 20
-1.8649200000000001
 30
0.0
 10
-3.6041100000000004
 20
-1.8649200000000001
 30
0.0
 10
-3.6650700000000005
 20
-1.8649200000000001
 30
0.0
 10
-3.6803100000000004
 20
-2.06812
 30
0.0
 10
-3.7488900000000003
 20
-1.9462000000000002
 30
0.0
 10
-3.7488900000000003
 20
-1.9462000000000002
 30
0.0
 10
-3.7488900000000003
 20
-1.9462000000000002
 30
0.0
 10
-3.7971500000000002
 20
-1.8268200000000001
 30
0.0
 10
-3.7971500000000002
 20
-1.8268200000000001
 30
0.0
 10
-3.7971500000000002
 20
-1.8268200000000001
 30
0.0
 10
-3.8301700000000003
 20
-1.7582400000000002
 30
0.0
 10
-3.8403300000000002
 20
-1.6795000000000002
 30
0.0
 10
-3.8555700000000002
 20
-1.6109200000000001
 30
0.0
 10
-3.8555700000000002
 20
-1.6109200000000001
 30
0.0
 10
-3.9292300000000004
 20
-1.3848600000000002
 30
0.0
 10
-4.2162500000000005
 20
-1.2375400000000001
 30
0.0
 10
-4.1298900000000005
 20
-0.97084
 30
0.0
 10
-4.1298900000000005
 20
-0.97084
 30
0.0
 10
-4.1806900000000002
 20
-1.0318000000000001
 30
0.0
 10
-4.2797499999999999
 20
-1.0521200000000002
 30
0.0
 10
-4.1908500000000002
 20
-1.25024
 30
0.0
 10
-4.1908500000000002
 20
-1.25024
 30
0.0
 10
-4.1476700000000006
 20
-1.3467600000000002
 30
0.0
 10
-4.0511500000000007
 20
-1.58806
 30
0.0
 10
-4.3584900000000006
 20
-1.4128000000000001
 30
0.0
 10
-4.3584900000000006
 20
-1.4128000000000001
 30
0.0
 10
-4.52867
 20
-1.0521200000000002
 30
0.0
 10
-4.1019500000000004
 20
-0.7320800000000001
 30
0.0
 10
-4.2035500000000008
 20
-0.34346
 30
0.0
 10
-4.2035500000000008
 20
-0.34346
 30
0.0
 10
-4.3102300000000007
 20
-0.29012
 30
0.0
 10
-4.2010100000000001
 20
-0.5568200000000001
 30
0.0
 10
-4.2949900000000003
 20
-0.61016
 30
0.0
 10
-4.2949900000000003
 20
-0.61016
 30
0.0
 10
-4.43215
 20
-0.3307600000000001
 30
0.0
 10
-4.4372300000000005
 20
0.16199
 30
0.0
 10
-4.0689299999999999
 20
0.28137
 30
0.0
 10
-4.0689299999999999
 20
0.28137
 30
0.0
 10
-3.7361900000000001
 20
-0.01072
 30
0.0
 10
-4.2289500000000002
 20
-0.4095
 30
0.0
 10
-4.0511500000000007
 20
-0.7701800000000001
 30
0.0
 10
-4.0511500000000007
 20
-0.7701800000000001
 30
0.0
 10
-3.8682700000000003
 20
-1.0521200000000002
 30
0.0
 10
-3.4237700000000002
 20
-0.75748
 30
0.0
 10
-3.4364700000000004
 20
-0.46284
 30
0.0
 10
-3.4364700000000004
 20
-0.46284
 30
0.0
 10
-3.3983700000000003
 20
-0.4780800000000001
 30
0.0
 10
-3.4186900000000002
 20
-0.53142
 30
0.0
 10
-3.4136100000000003
 20
-0.5568200000000001
 30
0.0
 10
-3.4136100000000003
 20
-0.5568200000000001
 30
0.0
 10
-3.3475700000000002
 20
-0.74224
 30
0.0
 10
-3.4669500000000002
 20
-1.1029200000000001
 30
0.0
 10
-3.5101300000000002
 20
-1.29088
 30
0.0
 10
-3.5101300000000002
 20
-1.29088
 30
0.0
 10
-3.1824700000000004
 20
-0.9175000000000001
 30
0.0
 10
-3.3145500000000001
 20
-0.48316
 30
0.0
 10
-3.4415500000000003
 20
-0.02596
 30
0.0
 10
-3.4415500000000003
 20
-0.02596
 30
0.0
 10
-2.9360900000000001
 20
0.42615
 30
0.0
 10
-3.6142700000000003
 20
1.0027300000000001
 30
0.0
 10
-3.7387300000000003
 20
1.4980300000000002
 30
0.0
 10
-3.7387300000000003
 20
1.4980300000000002
 30
0.0
 10
-3.7768300000000004
 20
1.3761100000000002
 30
0.0
 10
-3.6726900000000002
 20
1.2033900000000002
 30
0.0
 10
-3.6320500000000004
 20
1.06877
 30
0.0
 10
-3.6320500000000004
 20
1.06877
 30
0.0
 10
-3.7692100000000002
 20
1.19069
 30
0.0
 10
-3.8606500000000001
 20
1.3862700000000001
 30
0.0
 10
-3.9089100000000001
 20
1.57169
 30
0.0
 10
-3.9089100000000001
 20
1.57169
 30
0.0
 10
-3.9241500000000005
 20
1.7190100000000001
 30
0.0
 10
-3.9266900000000002
 20
1.9526900000000003
 30
0.0
 10
-3.8962100000000004
 20
2.0847700000000002
 30
0.0
 10
-3.8962100000000004
 20
2.0847700000000002
 30
0.0
 10
-3.7895300000000005
 20
2.5622900000000004
 30
0.0
 10
-3.5075900000000004
 20
2.7451700000000003
 30
0.0
 10
-3.7082500000000005
 20
3.5706700000000002
 30
0.0
  0
SPLINE
  5
2C
100
AcDbEntity
  8
Ebene 1
100
AcDbSpline
210
0.0
220
0.0
230
1.0
 70
     1
 71
     3
 72
    56
 73
    52
 74
     0
 42
0.0000000001
 43
0.0000000001
 40
0.0
 40
0.0
 40
0.0
 40
0.0
 40
0.0769230769230769
 40
0.0769230769230769
 40
0.0769230769230769
 40
0.0769230769230769
 40
0.1538461538461539
 40
0.1538461538461539
 40
0.1538461538461539
 40
0.1538461538461539
 40
0.2307692307692308
 40
0.2307692307692308
 40
0.2307692307692308
 40
0.2307692307692308
 40
0.3076923076923077
 40
0.3076923076923077
 40
0.3076923076923077
 40
0.3076923076923077
 40
0.3846153846153846
 40
0.3846153846153846
 40
0.3846153846153846
 40
0.3846153846153846
 40
0.4615384615384616
 40
0.4615384615384616
 40
0.4615384615384616
 40
0.4615384615384616
 40
0.5384615384615386
 40
0.5384615384615386
 40
0.5384615384615386
 40
0.5384615384615386
 40
0.6153846153846154
 40
0.6153846153846154
 40
0.6153846153846154
 40
0.6153846153846154
 40
0.6923076923076923
 40
0.6923076923076923
 40
0.6923076923076923
 40
0.6923076923076923
 40
0.7692307692307692
 40
0.7692307692307692
 40
0.7692307692307692
 40
0.7692307692307692
 40
0.846153846153846
 40
0.846153846153846
 40
0.846153846153846
 40
0.846153846153846
 40
0.9230769230769229
 40
0.9230769230769229
 40
0.9230769230769229
 40
0.9230769230769229
 40
1.0
 40
1.0
 40
1.0
 40
1.0
 10
1.2574400000000001
 20
2.88741
 30
0.0
 10
1.3387200000000001
 20
2.9001100000000002
 30
0.0
 10
1.2980800000000001
 20
2.80613
 30
0.0
 10
1.2574400000000001
 20
2.7781900000000004
 30
0.0
 10
1.2574400000000001
 20
2.7781900000000004
 30
0.0
 10
1.2574400000000001
 20
2.7781900000000004
 30
0.0
 10
1.15076
 20
2.63341
 30
0.0
 10
1.15076
 20
2.63341
 30
0.0
 10
1.15076
 20
2.63341
 30
0.0
 10
1.5393800000000002
 20
2.7400900000000004
 30
0.0
 10
1.9254600000000002
 20
3.0067900000000001
 30
0.0
 10
2.33948
 20
2.8594700000000004
 30
0.0
 10
2.33948
 20
2.8594700000000004
 30
0.0
 10
2.2734400000000003
 20
2.7934300000000003
 30
0.0
 10
2.1540600000000003
 20
2.80613
 30
0.0
 10
2.0600800000000001
 20
2.8188300000000002
 30
0.0
 10
2.0600800000000001
 20
2.8188300000000002
 30
0.0
 10
1.9000600000000001
 20
2.8340700000000001
 30
0.0
 10
1.7527400000000002
 20
2.7781900000000004
 30
0.0
 10
1.6308200000000002
 20
2.6715100000000001
 30
0.0
 10
1.6308200000000002
 20
2.6715100000000001
 30
0.0
 10
2.0600800000000001
 20
2.6588100000000003
 30
0.0
 10
2.1947000000000001
 20
2.1660500000000003
 30
0.0
 10
2.3521800000000002
 20
1.8587100000000001
 30
0.0
 10
2.3521800000000002
 20
1.8587100000000001
 30
0.0
 10
2.30138
 20
1.8053700000000001
 30
0.0
 10
2.2455000000000003
 20
2.0720700000000001
 30
0.0
 10
2.2328000000000001
 20
1.9247500000000002
 30
0.0
 10
2.2328000000000001
 20
1.9247500000000002
 30
0.0
 10
2.2201
 20
1.06877
 30
0.0
 10
1.0059800000000001
 20
0.9620900000000001
 30
0.0
 10
0.5640200000000001
 20
1.6174100000000002
 30
0.0
 10
0.5640200000000001
 20
1.6174100000000002
 30
0.0
 10
0.5640200000000001
 20
1.6174100000000002
 30
0.0
 10
0.26938
 20
1.7113900000000002
 30
0.0
 10
0.26938
 20
1.7113900000000002
 30
0.0
 10
0.26938
 20
1.7113900000000002
 30
0.0
 10
0.4167
 20
1.7520300000000002
 30
0.0
 10
0.5487800000000001
 20
1.6834500000000001
 30
0.0
 10
0.4421000000000001
 20
1.8841100000000002
 30
0.0
 10
0.4421000000000001
 20
1.8841100000000002
 30
0.0
 10
0.22874
 20
1.7367900000000001
 30
0.0
 10
-0.20305
 20
1.6047100000000001
 30
0.0
 10
-0.33767
 20
1.8307700000000002
 30
0.0
 10
-0.33767
 20
1.8307700000000002
 30
0.0
 10
-0.14463
 20
1.7774300000000001
 30
0.0
 10
0.11444
 20
1.7520300000000002
 30
0.0
 10
0.29732
 20
1.8968100000000001
 30
0.0
 10
0.29732
 20
1.8968100000000001
 30
0.0
 10
0.29732
 20
1.8968100000000001
 30
0.0
 10
1.2574400000000001
 20
2.88741
 30
0.0
 10
1.2574400000000001
 20
2.88741
 30
0.0
  0
SPLINE
  5
2D
100
AcDbEntity
  8
Ebene 1
100
AcDbSpline
210
0.0
220
0.0
230
1.0
 70
     1
 71
     3
 72
    20
 73
    16
 74
     0
 42
0.0000000001
 43
0.0000000001
 40
0.0
 40
0.0
 40
0.0
 40
0.0
 40
0.25
 40
0.25
 40
0.25
 40
0.25
 40
0.5
 40
0.5
 40
0.5
 40
0.5
 40
0.75
 40
0.75
 40
0.75
 40
0.75
 40
1.0
 40
1.0
 40
1.0
 40
1.0
 10
-0.5434100000000001
 20
2.8188300000000002
 30
0.0
 10
-0.51293
 20
2.8340700000000001
 30
0.0
 10
-0.51293
 20
2.7934300000000003
 30
0.0
 10
-0.5027700000000001
 20
2.7781900000000004
 30
0.0
 10
-0.5027700000000001
 20
2.7781900000000004
 30
0.0
 10
-0.5027700000000001
 20
2.7781900000000004
 30
0.0
 10
-0.52817
 20
2.5267300000000001
 30
0.0
 10
-0.52817
 20
2.5267300000000001
 30
0.0
 10
-0.52817
 20
2.5267300000000001
 30
0.0
 10
-0.51039
 20
2.4454500000000001
 30
0.0
 10
-0.4265700000000001
 20
2.3260700000000001
 30
0.0
 10
-0.5027700000000001
 20
2.2574900000000002
 30
0.0
 10
-0.5027700000000001
 20
2.2574900000000002
 30
0.0
 10
-0.63739
 20
2.4048100000000003
 30
0.0
 10
-0.63993
 20
2.6588100000000003
 30
0.0
 10
-0.5434100000000001
 20
2.8188300000000002
 30
0.0
  0
SPLINE
  5
2E
100
AcDbEntity
  8
Ebene 1
 62
     7
100
AcDbSpline
210
0.0
220
0.0
230
1.0
 70
     1
 71
     3
 72
    20
 73
    16
 74
     0
 42
0.0000000001
 43
0.0000000001
 40
0.0
 40
0.0
 40
0.0
 40
0.0
 40
0.25
 40
0.25
 40
0.25
 40
0.25
 40
0.5
 40
0.5
 40
0.5
 40
0.5
 40
0.75
 40
0.75
 40
0.75
 40
0.75
 40
1.0
 40
1.0
 40
1.0
 40
1.0
 10
1.1914
 20
2.0720700000000001
 30
0.0
 10
1.2574400000000001
 20
2.0720700000000001
 30
0.0
 10
1.3260200000000002
 20
2.0720700000000001
 30
0.0
 10
1.3920600000000001
 20
2.0593700000000004
 30
0.0
 10
1.3920600000000001
 20
2.0593700000000004
 30
0.0
 10
1.3107800000000001
 20
2.00603
 30
0.0
 10
1.23204
 20
1.9374500000000001
 30
0.0
 10
1.15076
 20
1.9120500000000002
 30
0.0
 10
1.15076
 20
1.9120500000000002
 30
0.0
 10
1.11266
 20
1.9374500000000001
 30
0.0
 10
1.0313800000000002
 20
1.9653900000000002
 30
0.0
 10
1.0313800000000002
 20
2.0314300000000003
 30
0.0
 10
1.0313800000000002
 20
2.0314300000000003
 30
0.0
 10
1.0313800000000002
 20
2.0314300000000003
 30
0.0
 10
1.1914
 20
2.0720700000000001
 30
0.0
 10
1.1914
 20
2.0720700000000001
 30
0.0
  0
SPLINE
  5
2F
100
AcDbEntity
  8
Ebene 1
100
AcDbSpline
210
0.0
220
0.0
230
1.0
 70
     1
 71
     3
 72
    28
 73
    24
 74
     0
 42
0.0000000001
 43
0.0000000001
 40
0.0
 40
0.0
 40
0.0
 40
0.0
 40
0.1666666666666667
 40
0.1666666666666667
 40
0.1666666666666667
 40
0.1666666666666667
 40
0.3333333333333333
 40
0.3333333333333333
 40
0.3333333333333333
 40
0.3333333333333333
 40
0.5
 40
0.5
 40
0.5
 40
0.5
 40
0.6666666666666666
 40
0.6666666666666666
 40
0.6666666666666666
 40
0.6666666666666666
 40
0.8333333333333333
 40
0.8333333333333333
 40
0.8333333333333333
 40
0.8333333333333333
 40
1.0
 40
1.0
 40
1.0
 40
1.0
 10
-0.31481
 20
1.6174100000000002
 30
0.0
 10
-0.29449
 20
1.6174100000000002
 30
0.0
 10
-0.25131
 20
1.6301100000000002
 30
0.0
 10
-0.26147
 20
1.5920100000000001
 30
0.0
 10
-0.26147
 20
1.5920100000000001
 30
0.0
 10
-0.45451
 20
1.5107300000000001
 30
0.0
 10
-0.41133
 20
1.2973700000000001
 30
0.0
 10
-0.45705
 20
1.1373500000000001
 30
0.0
 10
-0.45705
 20
1.1373500000000001
 30
0.0
 10
-0.5408700000000001
 20
1.2440300000000002
 30
0.0
 10
-0.4824500000000001
 20
1.5107300000000001
 30
0.0
 10
-0.6500900000000001
 20
1.5107300000000001
 30
0.0
 10
-0.6500900000000001
 20
1.5107300000000001
 30
0.0
 10
-0.6653300000000001
 20
1.5107300000000001
 30
0.0
 10
-0.6627900000000001
 20
1.5234300000000001
 30
0.0
 10
-0.6627900000000001
 20
1.5361300000000002
 30
0.0
 10
-0.6627900000000001
 20
1.5361300000000002
 30
0.0
 10
-0.61707
 20
1.6174100000000002
 30
0.0
 10
-0.5180100000000001
 20
1.5920100000000001
 30
0.0
 10
-0.48499
 20
1.5107300000000001
 30
0.0
 10
-0.48499
 20
1.5107300000000001
 30
0.0
 10
-0.4265700000000001
 20
1.5361300000000002
 30
0.0
 10
-0.36307
 20
1.5767700000000002
 30
0.0
 10
-0.31481
 20
1.6174100000000002
 30
0.0
  0
SPLINE
  5
30
100
AcDbEntity
  8
Ebene 1
 62
     7
100
AcDbSpline
210
0.0
220
0.0
230
1.0
 70
     1
 71
     3
 72
    16
 73
    12
 74
     0
 42
0.0000000001
 43
0.0000000001
 40
0.0
 40
0.0
 40
0.0
 40
0.0
 40
0.3333333333333333
 40
0.3333333333333333
 40
0.3333333333333333
 40
0.3333333333333333
 40
0.6666666666666666
 40
0.6666666666666666
 40
0.6666666666666666
 40
0.6666666666666666
 40
1.0
 40
1.0
 40
1.0
 40
1.0
 10
-1.3841500000000002
 20
1.4827900000000001
 30
0.0
 10
-1.3638300000000001
 20
1.4827900000000001
 30
0.0
 10
-1.3460500000000002
 20
1.4827900000000001
 30
0.0
 10
-1.33081
 20
1.4700900000000001
 30
0.0
 10
-1.33081
 20
1.4700900000000001
 30
0.0
 10
-1.33081
 20
1.4700900000000001
 30
0.0
 10
-1.29017
 20
1.4827900000000001
 30
0.0
 10
-1.29017
 20
1.4827900000000001
 30
0.0
 10
-1.29017
 20
1.4827900000000001
 30
0.0
 10
-1.24699
 20
1.4167500000000002
 30
0.0
 10
-1.4959100000000001
 20
1.4294500000000001
 30
0.0
 10
-1.3841500000000002
 20
1.4827900000000001
 30
0.0
  0
SPLINE
  5
31
100
AcDbEntity
  8
Ebene 1
100
AcDbSpline
210
0.0
220
0.0
230
1.0
 70
     1
 71
     3
 72
    20
 73
    16
 74
     0
 42
0.0000000001
 43
0.0000000001
 40
0.0
 40
0.0
 40
0.0
 40
0.0
 40
0.25
 40
0.25
 40
0.25
 40
0.25
 40
0.5
 40
0.5
 40
0.5
 40
0.5
 40
0.75
 40
0.75
 40
0.75
 40
0.75
 40
1.0
 40
1.0
 40
1.0
 40
1.0
 10
0.06872
 20
1.32277
 30
0.0
 10
0.24398
 20
1.3380100000000001
 30
0.0
 10
0.35066
 20
1.15005
 30
0.0
 10
0.45734
 20
1.03067
 30
0.0
 10
0.45734
 20
1.03067
 30
0.0
 10
0.45734
 20
1.03067
 30
0.0
 10
0.4167
 20
1.0027300000000001
 30
0.0
 10
0.4167
 20
1.0027300000000001
 30
0.0
 10
0.4167
 20
1.0027300000000001
 30
0.0
 10
0.20334
 20
1.0840100000000001
 30
0.0
 10
0.01284
 20
0.9239900000000001
 30
0.0
 10
-0.10145
 20
0.7766700000000001
 30
0.0
 10
-0.10145
 20
0.7766700000000001
 30
0.0
 10
-0.14463
 20
0.9493900000000001
 30
0.0
 10
-0.07097
 20
1.2033900000000002
 30
0.0
 10
0.06872
 20
1.32277
 30
0.0
  0
SPLINE
  5
32
100
AcDbEntity
  8
Ebene 1
100
AcDbSpline
210
0.0
220
0.0
230
1.0
 70
     1
 71
     3
 72
    32
 73
    28
 74
     0
 42
0.0000000001
 43
0.0000000001
 40
0.0
 40
0.0
 40
0.0
 40
0.0
 40
0.1428571428571429
 40
0.1428571428571429
 40
0.1428571428571429
 40
0.1428571428571429
 40
0.2857142857142857
 40
0.2857142857142857
 40
0.2857142857142857
 40
0.2857142857142857
 40
0.4285714285714286
 40
0.4285714285714286
 40
0.4285714285714286
 40
0.4285714285714286
 40
0.5714285714285714
 40
0.5714285714285714
 40
0.5714285714285714
 40
0.5714285714285714
 40
0.7142857142857142
 40
0.7142857142857142
 40
0.7142857142857142
 40
0.7142857142857142
 40
0.857142857142857
 40
0.857142857142857
 40
0.857142857142857
 40
0.857142857142857
 40
1.0
 40
1.0
 40
1.0
 40
1.0
 10
2.1947000000000001
 20
1.3100700000000001
 30
0.0
 10
2.4080600000000003
 20
1.3507100000000001
 30
0.0
 10
2.4868000000000001
 20
1.0560700000000001
 30
0.0
 10
2.71286
 20
1.0967100000000001
 30
0.0
 10
2.71286
 20
1.0967100000000001
 30
0.0
 10
2.71286
 20
1.0967100000000001
 30
0.0
 10
3.2361000000000004
 20
1.2440300000000002
 30
0.0
 10
3.2361000000000004
 20
1.2440300000000002
 30
0.0
 10
3.2361000000000004
 20
1.2440300000000002
 30
0.0
 10
3.1548200000000004
 20
1.10941
 30
0.0
 10
2.92876
 20
1.0433700000000001
 30
0.0
 10
2.7814400000000004
 20
0.97733
 30
0.0
 10
2.7814400000000004
 20
0.97733
 30
0.0
 10
2.59348
 20
1.0154300000000001
 30
0.0
 10
2.4080600000000003
 20
1.0560700000000001
 30
0.0
 10
2.2734400000000003
 20
1.2160900000000001
 30
0.0
 10
2.2734400000000003
 20
1.2160900000000001
 30
0.0
 10
2.2328000000000001
 20
1.23133
 30
0.0
 10
2.2074000000000003
 20
1.2567300000000001
 30
0.0
 10
2.16676
 20
1.23133
 30
0.0
 10
2.16676
 20
1.23133
 30
0.0
 10
2.0981800000000002
 20
1.23133
 30
0.0
 10
2.04738
 20
1.1373500000000001
 30
0.0
 10
1.9788000000000001
 20
1.1754500000000001
 30
0.0
 10
1.9788000000000001
 20
1.1754500000000001
 30
0.0
 10
2.0321400000000001
 20
1.2567300000000001
 30
0.0
 10
2.1261200000000002
 20
1.2846700000000002
 30
0.0
 10
2.1947000000000001
 20
1.3100700000000001
 30
0.0
  0
SPLINE
  5
33
100
AcDbEntity
  8
Ebene 1
100
AcDbSpline
210
0.0
220
0.0
230
1.0
 70
     1
 71
     3
 72
    16
 73
    12
 74
     0
 42
0.0000000001
 43
0.0000000001
 40
0.0
 40
0.0
 40
0.0
 40
0.0
 40
0.3333333333333333
 40
0.3333333333333333
 40
0.3333333333333333
 40
0.3333333333333333
 40
0.6666666666666666
 40
0.6666666666666666
 40
0.6666666666666666
 40
0.6666666666666666
 40
1.0
 40
1.0
 40
1.0
 40
1.0
 10
-0.8634500000000001
 20
1.2033900000000002
 30
0.0
 10
-0.68057
 20
1.1754500000000001
 30
0.0
 10
-0.63739
 20
0.93669
 30
0.0
 10
-0.6246900000000001
 20
0.78937
 30
0.0
 10
-0.6246900000000001
 20
0.78937
 30
0.0
 10
-0.7567700000000001
 20
0.8020700000000001
 30
0.0
 10
-0.8609100000000001
 20
0.8960500000000001
 30
0.0
 10
-0.99299
 20
0.9087500000000001
 30
0.0
 10
-0.99299
 20
0.9087500000000001
 30
0.0
 10
-0.99299
 20
0.9087500000000001
 30
0.0
 10
-0.8634500000000001
 20
1.2033900000000002
 30
0.0
 10
-0.8634500000000001
 20
1.2033900000000002
 30
0.0
  0
SPLINE
  5
34
100
AcDbEntity
  8
Ebene 1
 62
     7
100
AcDbSpline
210
0.0
220
0.0
230
1.0
 70
     1
 71
     3
 72
   180
 73
   176
 74
     0
 42
0.0000000001
 43
0.0000000001
 40
0.0
 40
0.0
 40
0.0
 40
0.0
 40
0.0227272727272727
 40
0.0227272727272727
 40
0.0227272727272727
 40
0.0227272727272727
 40
0.0454545454545455
 40
0.0454545454545455
 40
0.0454545454545455
 40
0.0454545454545455
 40
0.0681818181818182
 40
0.0681818181818182
 40
0.0681818181818182
 40
0.0681818181818182
 40
0.0909090909090909
 40
0.0909090909090909
 40
0.0909090909090909
 40
0.0909090909090909
 40
0.1136363636363637
 40
0.1136363636363637
 40
0.1136363636363637
 40
0.1136363636363637
 40
0.1363636363636364
 40
0.1363636363636364
 40
0.1363636363636364
 40
0.1363636363636364
 40
0.1590909090909091
 40
0.1590909090909091
 40
0.1590909090909091
 40
0.1590909090909091
 40
0.1818181818181819
 40
0.1818181818181819
 40
0.1818181818181819
 40
0.1818181818181819
 40
0.2045454545454546
 40
0.2045454545454546
 40
0.2045454545454546
 40
0.2045454545454546
 40
0.2272727272727273
 40
0.2272727272727273
 40
0.2272727272727273
 40
0.2272727272727273
 40
0.2500000000000001
 40
0.2500000000000001
 40
0.2500000000000001
 40
0.2500000000000001
 40
0.2727272727272728
 40
0.2727272727272728
 40
0.2727272727272728
 40
0.2727272727272728
 40
0.2954545454545455
 40
0.2954545454545455
 40
0.2954545454545455
 40
0.2954545454545455
 40
0.3181818181818182
 40
0.3181818181818182
 40
0.3181818181818182
 40
0.3181818181818182
 40
0.3409090909090909
 40
0.3409090909090909
 40
0.3409090909090909
 40
0.3409090909090909
 40
0.3636363636363636
 40
0.3636363636363636
 40
0.3636363636363636
 40
0.3636363636363636
 40
0.3863636363636363
 40
0.3863636363636363
 40
0.3863636363636363
 40
0.3863636363636363
 40
0.409090909090909
 40
0.409090909090909
 40
0.409090909090909
 40
0.409090909090909
 40
0.4318181818181817
 40
0.4318181818181817
 40
0.4318181818181817
 40
0.4318181818181817
 40
0.4545454545454544
 40
0.4545454545454544
 40
0.4545454545454544
 40
0.4545454545454544
 40
0.4772727272727271
 40
0.4772727272727271
 40
0.4772727272727271
 40
0.4772727272727271
 40
0.4999999999999998
 40
0.4999999999999998
 40
0.4999999999999998
 40
0.4999999999999998
 40
0.5227272727272726
 40
0.5227272727272726
 40
0.5227272727272726
 40
0.5227272727272726
 40
0.5454545454545453
 40
0.5454545454545453
 40
0.5454545454545453
 40
0.5454545454545453
 40
0.568181818181818
 40
0.568181818181818
 40
0.568181818181818
 40
0.568181818181818
 40
0.5909090909090907
 40
0.5909090909090907
 40
0.5909090909090907
 40
0.5909090909090907
 40
0.6136363636363634
 40
0.6136363636363634
 40
0.6136363636363634
 40
0.6136363636363634
 40
0.6363636363636361
 40
0.6363636363636361
 40
0.6363636363636361
 40
0.6363636363636361
 40
0.6590909090909088
 40
0.6590909090909088
 40
0.6590909090909088
 40
0.6590909090909088
 40
0.6818181818181816
 40
0.6818181818181816
 40
0.6818181818181816
 40
0.6818181818181816
 40
0.7045454545454543
 40
0.7045454545454543
 40
0.7045454545454543
 40
0.7045454545454543
 40
0.727272727272727
 40
0.727272727272727
 40
0.727272727272727
 40
0.727272727272727
 40
0.7499999999999997
 40
0.7499999999999997
 40
0.7499999999999997
 40
0.7499999999999997
 40
0.7727272727272724
 40
0.7727272727272724
 40
0.7727272727272724
 40
0.7727272727272724
 40
0.7954545454545451
 40
0.7954545454545451
 40
0.7954545454545451
 40
0.7954545454545451
 40
0.8181818181818178
 40
0.8181818181818178
 40
0.8181818181818178
 40
0.8181818181818178
 40
0.8409090909090905
 40
0.8409090909090905
 40
0.8409090909090905
 40
0.8409090909090905
 40
0.8636363636363632
 40
0.8636363636363632
 40
0.8636363636363632
 40
0.8636363636363632
 40
0.8863636363636359
 40
0.8863636363636359
 40
0.8863636363636359
 40
0.8863636363636359
 40
0.9090909090909086
 40
0.9090909090909086
 40
0.9090909090909086
 40
0.9090909090909086
 40
0.9318181818181813
 40
0.9318181818181813
 40
0.9318181818181813
 40
0.9318181818181813
 40
0.954545454545454
 40
0.954545454545454
 40
0.954545454545454
 40
0.954545454545454
 40
0.9772727272727267
 40
0.9772727272727267
 40
0.9772727272727267
 40
0.9772727272727267
 40
1.0
 40
1.0
 40
1.0
 40
1.0
 10
3.0608400000000002
 20
0.68269
 30
0.0
 10
3.2208600000000001
 20
0.5887100000000001
 30
0.0
 10
3.4494600000000002
 20
0.6547500000000001
 30
0.0
 10
3.5282000000000004
 20
0.5480700000000001
 30
0.0
 10
3.5282000000000004
 20
0.5480700000000001
 30
0.0
 10
3.3834200000000001
 20
0.26867
 30
0.0
 10
3.1421200000000002
 20
-0.08946
 30
0.0
 10
3.1802200000000003
 20
0.32201
 30
0.0
 10
3.1802200000000003
 20
0.32201
 30
0.0
 10
3.0227400000000002
 20
-0.1555
 30
0.0
 10
3.1954600000000002
 20
-0.8768600000000001
 30
0.0
 10
2.6468200000000004
 20
-1.1435600000000001
 30
0.0
 10
2.6468200000000004
 20
-1.1435600000000001
 30
0.0
 10
2.6468200000000004
 20
-1.1435600000000001
 30
0.0
 10
2.7814400000000004
 20
-0.9175000000000001
 30
0.0
 10
2.7814400000000004
 20
-0.9175000000000001
 30
0.0
 10
2.7814400000000004
 20
-0.9175000000000001
 30
0.0
 10
2.8347800000000003
 20
-0.86416
 30
0.0
 10
2.8195400000000004
 20
-0.7447800000000001
 30
0.0
 10
2.7408000000000001
 20
-0.8387600000000001
 30
0.0
 10
2.7408000000000001
 20
-0.8387600000000001
 30
0.0
 10
2.59348
 20
-1.2781800000000001
 30
0.0
 10
2.0981800000000002
 20
-1.29088
 30
0.0
 10
1.7933800000000002
 20
-1.54488
 30
0.0
 10
1.7933800000000002
 20
-1.54488
 30
0.0
 10
1.7933800000000002
 20
-1.54488
 30
0.0
 10
2.7408000000000001
 20
-1.2248400000000002
 30
0.0
 10
2.7408000000000001
 20
-1.2248400000000002
 30
0.0
 10
2.7408000000000001
 20
-1.2248400000000002
 30
0.0
 10
2.7408000000000001
 20
-1.2248400000000002
 30
0.0
 10
2.7001600000000003
 20
-1.33152
 30
0.0
 10
2.7001600000000003
 20
-1.33152
 30
0.0
 10
2.7001600000000003
 20
-1.33152
 30
0.0
 10
2.1388200000000004
 20
-1.6922000000000001
 30
0.0
 10
1.4581000000000002
 20
-1.8141200000000002
 30
0.0
 10
0.8967600000000001
 20
-2.1748000000000003
 30
0.0
 10
0.8967600000000001
 20
-2.1748000000000003
 30
0.0
 10
0.9501000000000001
 20
-2.2535400000000001
 30
0.0
 10
1.2574400000000001
 20
-2.0122400000000003
 30
0.0
 10
1.0974200000000001
 20
-2.1748000000000003
 30
0.0
 10
1.0974200000000001
 20
-2.1748000000000003
 30
0.0
 10
1.0974200000000001
 20
-2.1748000000000003
 30
0.0
 10
1.0567800000000001
 20
-2.2408400000000004
 30
0.0
 10
1.0567800000000001
 20
-2.2408400000000004
 30
0.0
 10
1.0567800000000001
 20
-2.2408400000000004
 30
0.0
 10
0.9501000000000001
 20
-2.2941800000000003
 30
0.0
 10
0.8408800000000001
 20
-2.2941800000000003
 30
0.0
 10
0.7748400000000001
 20
-2.3881600000000001
 30
0.0
 10
0.7748400000000001
 20
-2.3881600000000001
 30
0.0
 10
0.7062600000000001
 20
-2.4415
 30
0.0
 10
0.5487800000000001
 20
-2.4796
 30
0.0
 10
0.4675
 20
-2.5075400000000001
 30
0.0
 10
0.4675
 20
-2.5075400000000001
 30
0.0
 10
0.05348
 20
-2.6675600000000004
 30
0.0
 10
-0.51293
 20
-2.1341600000000001
 30
0.0
 10
-0.6221500000000001
 20
-2.4135600000000004
 30
0.0
 10
-0.6221500000000001
 20
-2.4135600000000004
 30
0.0
 10
-0.6221500000000001
 20
-2.4135600000000004
 30
0.0
 10
-0.73899
 20
-2.4008600000000002
 30
0.0
 10
-0.73899
 20
-2.4008600000000002
 30
0.0
 10
-0.73899
 20
-2.4008600000000002
 30
0.0
 10
-0.6475500000000001
 20
-2.0935200000000003
 30
0.0
 10
-1.1479300000000001
 20
-1.54488
 30
0.0
 10
-0.78471
 20
-1.3975600000000001
 30
0.0
 10
-0.78471
 20
-1.3975600000000001
 30
0.0
 10
-0.73899
 20
-1.4915400000000001
 30
0.0
 10
-0.76439
 20
-1.6515600000000001
 30
0.0
 10
-0.6881900000000001
 20
-1.7074400000000001
 30
0.0
 10
-0.6881900000000001
 20
-1.7074400000000001
 30
0.0
 10
-0.6881900000000001
 20
-1.7074400000000001
 30
0.0
 10
-0.7262900000000001
 20
-1.4915400000000001
 30
0.0
 10
-0.7262900000000001
 20
-1.4915400000000001
 30
0.0
 10
-0.7262900000000001
 20
-1.4915400000000001
 30
0.0
 10
-0.7059700000000001
 20
-0.9987800000000001
 30
0.0
 10
-0.39355
 20
-2.0935200000000003
 30
0.0
 10
-0.49769
 20
-1.5728200000000001
 30
0.0
 10
-0.49769
 20
-1.5728200000000001
 30
0.0
 10
-0.5027700000000001
 20
-1.50424
 30
0.0
 10
-0.50531
 20
-1.4382000000000001
 30
0.0
 10
-0.52817
 20
-1.3848600000000002
 30
0.0
 10
-0.52817
 20
-1.3848600000000002
 30
0.0
 10
-0.5611900000000001
 20
-1.1435600000000001
 30
0.0
 10
-0.4265700000000001
 20
-1.6388600000000002
 30
0.0
 10
-0.31735
 20
-1.4382000000000001
 30
0.0
 10
-0.31735
 20
-1.4382000000000001
 30
0.0
 10
-0.31735
 20
-1.4382000000000001
 30
0.0
 10
-0.3021100000000001
 20
-1.5194800000000002
 30
0.0
 10
-0.3021100000000001
 20
-1.5194800000000002
 30
0.0
 10
-0.3021100000000001
 20
-1.5194800000000002
 30
0.0
 10
-0.27925
 20
-1.5728200000000001
 30
0.0
 10
-0.29195
 20
-1.6388600000000002
 30
0.0
 10
-0.28941
 20
-1.7074400000000001
 30
0.0
 10
-0.28941
 20
-1.7074400000000001
 30
0.0
 10
-0.18527
 20
-1.9055600000000001
 30
0.0
 10
-0.36053
 20
-0.9581400000000001
 30
0.0
 10
-0.21829
 20
-1.2375400000000001
 30
0.0
 10
-0.21829
 20
-1.2375400000000001
 30
0.0
 10
-0.21829
 20
-1.2375400000000001
 30
0.0
 10
-0.18527
 20
-1.3848600000000002
 30
0.0
 10
-0.18527
 20
-1.3848600000000002
 30
0.0
 10
-0.18527
 20
-1.3848600000000002
 30
0.0
 10
-0.11669
 20
-1.5982200000000002
 30
0.0
 10
0.00776
 20
-1.3061200000000002
 30
0.0
 10
0.03316
 20
-1.3188200000000001
 30
0.0
 10
0.03316
 20
-1.3188200000000001
 30
0.0
 10
0.05856
 20
-1.4661400000000002
 30
0.0
 10
0.04078
 20
-1.62616
 30
0.0
 10
0.00268
 20
-1.7734800000000002
 30
0.0
 10
0.00268
 20
-1.7734800000000002
 30
0.0
 10
0.00014
 20
-1.8268200000000001
 30
0.0
 10
0.00268
 20
-1.9208000000000001
 30
0.0
 10
0.06618
 20
-1.9208000000000001
 30
0.0
 10
0.06618
 20
-1.9208000000000001
 30
0.0
 10
0.00268
 20
-1.5728200000000001
 30
0.0
 10
0.1373
 20
-1.25278
 30
0.0
 10
0.29732
 20
-1.1308600000000002
 30
0.0
 10
0.29732
 20
-1.1308600000000002
 30
0.0
 10
0.29732
 20
-1.1308600000000002
 30
0.0
 10
0.26938
 20
-1.33152
 30
0.0
 10
0.26938
 20
-1.33152
 30
0.0
 10
0.26938
 20
-1.33152
 30
0.0
 10
0.21604
 20
-1.5194800000000002
 30
0.0
 10
0.5233800000000001
 20
-0.9860800000000001
 30
0.0
 10
0.49798
 20
-1.29088
 30
0.0
 10
0.49798
 20
-1.29088
 30
0.0
 10
0.6046600000000001
 20
-1.6668000000000001
 30
0.0
 10
0.4421000000000001
 20
-0.9530600000000001
 30
0.0
 10
0.658
 20
-1.2477
 30
0.0
 10
0.658
 20
-1.2477
 30
0.0
 10
0.7113400000000001
 20
-1.1943600000000001
 30
0.0
 10
0.76468
 20
-0.9987800000000001
 30
0.0
 10
0.7519800000000001
 20
-1.1588000000000001
 30
0.0
 10
0.7519800000000001
 20
-1.1588000000000001
 30
0.0
 10
0.7519800000000001
 20
-1.1588000000000001
 30
0.0
 10
0.8434200000000001
 20
-1.25278
 30
0.0
 10
0.8434200000000001
 20
-1.25278
 30
0.0
 10
0.8434200000000001
 20
-1.25278
 30
0.0
 10
1.0313800000000002
 20
-1.3975600000000001
 30
0.0
 10
0.6300600000000001
 20
-1.0241800000000001
 30
0.0
 10
0.87136
 20
-1.0241800000000001
 30
0.0
 10
0.87136
 20
-1.0241800000000001
 30
0.0
 10
0.8967600000000001
 20
-0.9581400000000001
 30
0.0
 10
0.8967600000000001
 20
-1.0648200000000001
 30
0.0
 10
0.9374000000000001
 20
-1.07752
 30
0.0
 10
0.9374000000000001
 20
-1.07752
 30
0.0
 10
0.9907400000000001
 20
-1.07752
 30
0.0
 10
1.0313800000000002
 20
-1.2375400000000001
 30
0.0
 10
1.0313800000000002
 20
-1.1588000000000001
 30
0.0
 10
1.0313800000000002
 20
-1.1588000000000001
 30
0.0
 10
1.0440800000000001
 20
-1.1054600000000001
 30
0.0
 10
1.0059800000000001
 20
-1.0648200000000001
 30
0.0
 10
0.9653400000000001
 20
-1.0521200000000002
 30
0.0
 10
0.9653400000000001
 20
-1.0521200000000002
 30
0.0
 10
0.9247000000000001
 20
-1.03688
 30
0.0
 10
0.9094600000000001
 20
-0.8768600000000001
 30
0.0
 10
0.9501000000000001
 20
-0.97084
 30
0.0
 10
0.9501000000000001
 20
-0.97084
 30
0.0
 10
1.0720200000000002
 20
-0.8387600000000001
 30
0.0
 10
1.2193400000000001
 20
-0.9302
 30
0.0
 10
1.2980800000000001
 20
-0.6635000000000001
 30
0.0
 10
1.2980800000000001
 20
-0.6635000000000001
 30
0.0
 10
1.6308200000000002
 20
-1.0521200000000002
 30
0.0
 10
2.0321400000000001
 20
-0.4095
 30
0.0
 10
2.0321400000000001
 20
-0.04882
 30
0.0
 10
2.0321400000000001
 20
-0.04882
 30
0.0
 10
2.0981800000000002
 20
-0.04882
 30
0.0
 10
2.16676
 20
-0.03612
 30
0.0
 10
2.2328000000000001
 20
-0.01072
 30
0.0
 10
2.2328000000000001
 20
-0.01072
 30
0.0
 10
2.33948
 20
-0.26472
 30
0.0
 10
2.0981800000000002
 20
-0.61016
 30
0.0
 10
2.2734400000000003
 20
-0.8387600000000001
 30
0.0
 10
2.2734400000000003
 20
-0.8387600000000001
 30
0.0
 10
2.30138
 20
-0.23678
 30
0.0
 10
2.9948000000000001
 20
0.05531
 30
0.0
 10
3.0608400000000002
 20
0.68269
 30
0.0
  0
SPLINE
  5
35
100
AcDbEntity
  8
Ebene 1
 62
     7
100
AcDbSpline
210
0.0
220
0.0
230
1.0
 70
     1
 71
     3
 72
    16
 73
    12
 74
     0
 42
0.0000000001
 43
0.0000000001
 40
0.0
 40
0.0
 40
0.0
 40
0.0
 40
0.3333333333333333
 40
0.3333333333333333
 40
0.3333333333333333
 40
0.3333333333333333
 40
0.6666666666666666
 40
0.6666666666666666
 40
0.6666666666666666
 40
0.6666666666666666
 40
1.0
 40
1.0
 40
1.0
 40
1.0
 10
-4.0155900000000004
 20
0.53537
 30
0.0
 10
-3.7590500000000002
 20
0.53537
 30
0.0
 10
-3.7793700000000001
 20
0.17469
 30
0.0
 10
-3.8682700000000003
 20
0.01467
 30
0.0
 10
-3.8682700000000003
 20
0.01467
 30
0.0
 10
-3.8123900000000002
 20
0.17469
 30
0.0
 10
-3.9292300000000004
 20
0.42869
 30
0.0
 10
-4.1578300000000006
 20
0.37535
 30
0.0
 10
-4.1578300000000006
 20
0.37535
 30
0.0
 10
-4.1578300000000006
 20
0.37535
 30
0.0
 10
-4.0155900000000004
 20
0.53537
 30
0.0
 10
-4.0155900000000004
 20
0.53537
 30
0.0
  0
SPLINE
  5
36
100
AcDbEntity
  8
Ebene 1
 62
     7
100
AcDbSpline
210
0.0
220
0.0
230
1.0
 70
     1
 71
     3
 72
    20
 73
    16
 74
     0
 42
0.0000000001
 43
0.0000000001
 40
0.0
 40
0.0
 40
0.0
 40
0.0
 40
0.25
 40
0.25
 40
0.25
 40
0.25
 40
0.5
 40
0.5
 40
0.5
 40
0.5
 40
0.75
 40
0.75
 40
0.75
 40
0.75
 40
1.0
 40
1.0
 40
1.0
 40
1.0
 10
2.7535000000000003
 20
0.4540900000000001
 30
0.0
 10
2.7814400000000004
 20
0.4540900000000001
 30
0.0
 10
2.8195400000000004
 20
0.46933
 30
0.0
 10
2.84748
 20
0.4413900000000001
 30
0.0
 10
2.84748
 20
0.4413900000000001
 30
0.0
 10
2.7408000000000001
 20
0.22803
 30
0.0
 10
2.67476
 20
-0.04882
 30
0.0
 10
2.4487000000000001
 20
-0.1555
 30
0.0
 10
2.4487000000000001
 20
-0.1555
 30
0.0
 10
2.3267800000000003
 20
0.05531
 30
0.0
 10
2.59348
 20
0.20263
 30
0.0
 10
2.5553800000000004
 20
0.40329
 30
0.0
 10
2.5553800000000004
 20
0.40329
 30
0.0
 10
2.5553800000000004
 20
0.40329
 30
0.0
 10
2.7535000000000003
 20
0.4540900000000001
 30
0.0
 10
2.7535000000000003
 20
0.4540900000000001
 30
0.0
  0
SPLINE
  5
37
100
AcDbEntity
  8
Ebene 1
 62
     7
100
AcDbSpline
210
0.0
220
0.0
230
1.0
 70
     1
 71
     3
 72
    16
 73
    12
 74
     0
 42
0.0000000001
 43
0.0000000001
 40
0.0
 40
0.0
 40
0.0
 40
0.0
 40
0.3333333333333333
 40
0.3333333333333333
 40
0.3333333333333333
 40
0.3333333333333333
 40
0.6666666666666666
 40
0.6666666666666666
 40
0.6666666666666666
 40
0.6666666666666666
 40
1.0
 40
1.0
 40
1.0
 40
1.0
 10
-1.0488700000000002
 20
0.4413900000000001
 30
0.0
 10
-0.9142500000000001
 20
0.30931
 30
0.0
 10
-0.82535
 20
0.08071
 30
0.0
 10
-0.78471
 20
-0.10216
 30
0.0
 10
-0.78471
 20
-0.10216
 30
0.0
 10
-0.8380500000000001
 20
-0.06406
 30
0.0
 10
-0.8710700000000001
 20
-0.1174
 30
0.0
 10
-0.8990100000000001
 20
-0.1555
 30
0.0
 10
-0.8990100000000001
 20
-0.1555
 30
0.0
 10
-0.9066300000000001
 20
0.05531
 30
0.0
 10
-0.9650500000000001
 20
0.24073
 30
0.0
 10
-1.0488700000000002
 20
0.4413900000000001
 30
0.0
  0
SPLINE
  5
38
100
AcDbEntity
  8
Ebene 1
 62
     7
100
AcDbSpline
210
0.0
220
0.0
230
1.0
 70
     1
 71
     3
 72
    20
 73
    16
 74
     0
 42
0.0000000001
 43
0.0000000001
 40
0.0
 40
0.0
 40
0.0
 40
0.0
 40
0.25
 40
0.25
 40
0.25
 40
0.25
 40
0.5
 40
0.5
 40
0.5
 40
0.5
 40
0.75
 40
0.75
 40
0.75
 40
0.75
 40
1.0
 40
1.0
 40
1.0
 40
1.0
 10
0.9094600000000001
 20
0.36265
 30
0.0
 10
0.9094600000000001
 20
0.36265
 30
0.0
 10
0.9501000000000001
 20
0.36265
 30
0.0
 10
0.9501000000000001
 20
0.36265
 30
0.0
 10
0.9501000000000001
 20
0.36265
 30
0.0
 10
0.9094600000000001
 20
0.26867
 30
0.0
 10
0.8586600000000001
 20
0.17469
 30
0.0
 10
0.8586600000000001
 20
0.05531
 30
0.0
 10
0.8586600000000001
 20
0.05531
 30
0.0
 10
0.7773800000000001
 20
0.06801
 30
0.0
 10
0.76468
 20
-0.02342
 30
0.0
 10
0.72404
 20
-0.06406
 30
0.0
 10
0.72404
 20
-0.06406
 30
0.0
 10
0.6300600000000001
 20
0.09341
 30
0.0
 10
0.8027800000000001
 20
0.26867
 30
0.0
 10
0.9094600000000001
 20
0.36265
 30
0.0
  0
SPLINE
  5
39
100
AcDbEntity
  8
Ebene 1
 62
     7
100
AcDbSpline
210
0.0
220
0.0
230
1.0
 70
     1
 71
     3
 72
    20
 73
    16
 74
     0
 42
0.0000000001
 43
0.0000000001
 40
0.0
 40
0.0
 40
0.0
 40
0.0
 40
0.25
 40
0.25
 40
0.25
 40
0.25
 40
0.5
 40
0.5
 40
0.5
 40
0.5
 40
0.75
 40
0.75
 40
0.75
 40
0.75
 40
1.0
 40
1.0
 40
1.0
 40
1.0
 10
1.0847200000000001
 20
0.33471
 30
0.0
 10
1.0847200000000001
 20
0.33471
 30
0.0
 10
1.1253600000000001
 20
0.33471
 30
0.0
 10
1.1253600000000001
 20
0.33471
 30
0.0
 10
1.1253600000000001
 20
0.33471
 30
0.0
 10
1.1253600000000001
 20
0.33471
 30
0.0
 10
0.9094600000000001
 20
0.05531
 30
0.0
 10
0.9094600000000001
 20
0.05531
 30
0.0
 10
0.9094600000000001
 20
0.05531
 30
0.0
 10
0.9094600000000001
 20
0.05531
 30
0.0
 10
0.8967600000000001
 20
0.08071
 30
0.0
 10
0.8967600000000001
 20
0.08071
 30
0.0
 10
0.8967600000000001
 20
0.08071
 30
0.0
 10
0.9501000000000001
 20
0.16199
 30
0.0
 10
1.0059800000000001
 20
0.26867
 30
0.0
 10
1.0847200000000001
 20
0.33471
 30
0.0
  0
SPLINE
  5
3A
100
AcDbEntity
  8
Ebene 1
 62
     7
100
AcDbSpline
210
0.0
220
0.0
230
1.0
 70
     1
 71
     3
 72
    12
 73
     8
 74
     0
 42
0.0000000001
 43
0.0000000001
 40
0.0
 40
0.0
 40
0.0
 40
0.0
 40
0.5
 40
0.5
 40
0.5
 40
0.5
 40
1.0
 40
1.0
 40
1.0
 40
1.0
 10
1.0847200000000001
 20
0.16199
 30
0.0
 10
1.0974200000000001
 20
0.21533
 30
0.0
 10
1.1380600000000001
 20
0.28137
 30
0.0
 10
1.1914
 20
0.29407
 30
0.0
 10
1.1914
 20
0.29407
 30
0.0
 10
1.1787000000000001
 20
0.24073
 30
0.0
 10
1.1380600000000001
 20
0.18739
 30
0.0
 10
1.0847200000000001
 20
0.16199
 30
0.0
  0
SPLINE
  5
3B
100
AcDbEntity
  8
Ebene 1
 62
     7
100
AcDbSpline
210
0.0
220
0.0
230
1.0
 70
     1
 71
     3
 72
    16
 73
    12
 74
     0
 42
0.0000000001
 43
0.0000000001
 40
0.0
 40
0.0
 40
0.0
 40
0.0
 40
0.3333333333333333
 40
0.3333333333333333
 40
0.3333333333333333
 40
0.3333333333333333
 40
0.6666666666666666
 40
0.6666666666666666
 40
0.6666666666666666
 40
0.6666666666666666
 40
1.0
 40
1.0
 40
1.0
 40
1.0
 10
1.6181200000000002
 20
0.17469
 30
0.0
 10
2.0727800000000003
 20
0.06801
 30
0.0
 10
1.8594200000000001
 20
-0.75748
 30
0.0
 10
1.40476
 20
-0.6914400000000001
 30
0.0
 10
1.40476
 20
-0.6914400000000001
 30
0.0
 10
1.2574400000000001
 20
-0.45014
 30
0.0
 10
1.3387200000000001
 20
-0.1555
 30
0.0
 10
1.23204
 20
0.10865
 30
0.0
 10
1.23204
 20
0.10865
 30
0.0
 10
1.3514200000000001
 20
0.08071
 30
0.0
 10
1.5114400000000001
 20
0.08071
 30
0.0
 10
1.6181200000000002
 20
0.17469
 30
0.0
  0
SPLINE
  5
3C
100
AcDbEntity
  8
Ebene 1
 62
     7
100
AcDbSpline
210
0.0
220
0.0
230
1.0
 70
     1
 71
     3
 72
    24
 73
    20
 74
     0
 42
0.0000000001
 43
0.0000000001
 40
0.0
 40
0.0
 40
0.0
 40
0.0
 40
0.2
 40
0.2
 40
0.2
 40
0.2
 40
0.4
 40
0.4
 40
0.4
 40
0.4
 40
0.6000000000000001
 40
0.6000000000000001
 40
0.6000000000000001
 40
0.6000000000000001
 40
0.8
 40
0.8
 40
0.8
 40
0.8
 40
1.0
 40
1.0
 40
1.0
 40
1.0
 10
1.1253600000000001
 20
0.13405
 30
0.0
 10
1.1380600000000001
 20
0.13405
 30
0.0
 10
1.15076
 20
0.13405
 30
0.0
 10
1.1634600000000002
 20
0.12135
 30
0.0
 10
1.1634600000000002
 20
0.12135
 30
0.0
 10
1.1380600000000001
 20
-0.01072
 30
0.0
 10
1.2853800000000002
 20
-0.1428
 30
0.0
 10
1.2193400000000001
 20
-0.24948
 30
0.0
 10
1.2193400000000001
 20
-0.24948
 30
0.0
 10
1.2041000000000002
 20
-0.24948
 30
0.0
 10
1.1787000000000001
 20
-0.24948
 30
0.0
 10
1.1634600000000002
 20
-0.23678
 30
0.0
 10
1.1634600000000002
 20
-0.23678
 30
0.0
 10
1.1634600000000002
 20
-0.1174
 30
0.0
 10
1.15076
 20
-0.01072
 30
0.0
 10
1.0847200000000001
 20
0.08071
 30
0.0
 10
1.0847200000000001
 20
0.08071
 30
0.0
 10
1.0847200000000001
 20
0.08071
 30
0.0
 10
1.1253600000000001
 20
0.13405
 30
0.0
 10
1.1253600000000001
 20
0.13405
 30
0.0
  0
SPLINE
  5
3D
100
AcDbEntity
  8
Ebene 1
 62
     7
100
AcDbSpline
210
0.0
220
0.0
230
1.0
 70
     1
 71
     3
 72
    20
 73
    16
 74
     0
 42
0.0000000001
 43
0.0000000001
 40
0.0
 40
0.0
 40
0.0
 40
0.0
 40
0.25
 40
0.25
 40
0.25
 40
0.25
 40
0.5
 40
0.5
 40
0.5
 40
0.5
 40
0.75
 40
0.75
 40
0.75
 40
0.75
 40
1.0
 40
1.0
 40
1.0
 40
1.0
 10
0.9907400000000001
 20
0.09341
 30
0.0
 10
1.1380600000000001
 20
0.01467
 30
0.0
 10
1.11266
 20
-0.19614
 30
0.0
 10
1.1380600000000001
 20
-0.34346
 30
0.0
 10
1.1380600000000001
 20
-0.34346
 30
0.0
 10
1.1380600000000001
 20
-0.34346
 30
0.0
 10
1.0847200000000001
 20
-0.3714
 30
0.0
 10
1.0847200000000001
 20
-0.3714
 30
0.0
 10
1.0847200000000001
 20
-0.3714
 30
0.0
 10
1.0567800000000001
 20
-0.3841000000000001
 30
0.0
 10
1.0313800000000002
 20
-0.35616
 30
0.0
 10
1.01614
 20
-0.34346
 30
0.0
 10
1.01614
 20
-0.34346
 30
0.0
 10
0.9907400000000001
 20
-0.19614
 30
0.0
 10
0.8967600000000001
 20
-0.04882
 30
0.0
 10
0.9907400000000001
 20
0.09341
 30
0.0
  0
SPLINE
  5
3E
100
AcDbEntity
  8
Ebene 1
 62
     7
100
AcDbSpline
210
0.0
220
0.0
230
1.0
 70
     1
 71
     3
 72
    12
 73
     8
 74
     0
 42
0.0000000001
 43
0.0000000001
 40
0.0
 40
0.0
 40
0.0
 40
0.0
 40
0.5
 40
0.5
 40
0.5
 40
0.5
 40
1.0
 40
1.0
 40
1.0
 40
1.0
 10
-0.9828300000000001
 20
0.04261
 30
0.0
 10
-0.9828300000000001
 20
0.04261
 30
0.0
 10
-0.9447300000000001
 20
-0.1174
 30
0.0
 10
-0.9447300000000001
 20
-0.1174
 30
0.0
 10
-0.9447300000000001
 20
-0.1174
 30
0.0
 10
-1.0742700000000001
 20
-0.0031
 30
0.0
 10
-1.00315
 20
0.14929
 30
0.0
 10
-0.9828300000000001
 20
0.04261
 30
0.0
  0
SPLINE
  5
3F
100
AcDbEntity
  8
Ebene 1
 62
     7
100
AcDbSpline
210
0.0
220
0.0
230
1.0
 70
     1
 71
     3
 72
    20
 73
    16
 74
     0
 42
0.0000000001
 43
0.0000000001
 40
0.0
 40
0.0
 40
0.0
 40
0.0
 40
0.25
 40
0.25
 40
0.25
 40
0.25
 40
0.5
 40
0.5
 40
0.5
 40
0.5
 40
0.75
 40
0.75
 40
0.75
 40
0.75
 40
1.0
 40
1.0
 40
1.0
 40
1.0
 10
0.8180200000000001
 20
0.00197
 30
0.0
 10
0.9653400000000001
 20
-0.07676
 30
0.0
 10
0.9374000000000001
 20
-0.26472
 30
0.0
 10
0.9907400000000001
 20
-0.3968
 30
0.0
 10
0.9907400000000001
 20
-0.3968
 30
0.0
 10
0.9907400000000001
 20
-0.4247400000000001
 30
0.0
 10
0.9501000000000001
 20
-0.4247400000000001
 30
0.0
 10
0.9374000000000001
 20
-0.4374400000000001
 30
0.0
 10
0.9374000000000001
 20
-0.4374400000000001
 30
0.0
 10
0.9374000000000001
 20
-0.4374400000000001
 30
0.0
 10
0.8840600000000001
 20
-0.4374400000000001
 30
0.0
 10
0.8840600000000001
 20
-0.4374400000000001
 30
0.0
 10
0.8840600000000001
 20
-0.4374400000000001
 30
0.0
 10
0.8434200000000001
 20
-0.29012
 30
0.0
 10
0.6707000000000001
 20
-0.1428
 30
0.0
 10
0.8180200000000001
 20
0.00197
 30
0.0
  0
SPLINE
  5
40
100
AcDbEntity
  8
Ebene 1
 62
     7
100
AcDbSpline
210
0.0
220
0.0
230
1.0
 70
     1
 71
     3
 72
    20
 73
    16
 74
     0
 42
0.0000000001
 43
0.0000000001
 40
0.0
 40
0.0
 40
0.0
 40
0.0
 40
0.25
 40
0.25
 40
0.25
 40
0.25
 40
0.5
 40
0.5
 40
0.5
 40
0.5
 40
0.75
 40
0.75
 40
0.75
 40
0.75
 40
1.0
 40
1.0
 40
1.0
 40
1.0
 10
0.41162
 20
-0.09454
 30
0.0
 10
0.41162
 20
-0.09454
 30
0.0
 10
0.47766
 20
-0.13518
 30
0.0
 10
0.47766
 20
-0.13518
 30
0.0
 10
0.47766
 20
-0.13518
 30
0.0
 10
0.5056000000000001
 20
-0.2952
 30
0.0
 10
0.6046600000000001
 20
-0.3968
 30
0.0
 10
0.61736
 20
-0.5441200000000001
 30
0.0
 10
0.61736
 20
-0.5441200000000001
 30
0.0
 10
0.3913
 20
-0.5847600000000001
 30
0.0
 10
0.41162
 20
-0.32314
 30
0.0
 10
0.34304
 20
-0.17582
 30
0.0
 10
0.34304
 20
-0.17582
 30
0.0
 10
0.35828
 20
-0.13518
 30
0.0
 10
0.38368
 20
-0.11994
 30
0.0
 10
0.41162
 20
-0.09454
 30
0.0
  0
SPLINE
  5
41
100
AcDbEntity
  8
Ebene 1
 62
     7
100
AcDbSpline
210
0.0
220
0.0
230
1.0
 70
     1
 71
     3
 72
    16
 73
    12
 74
     0
 42
0.0000000001
 43
0.0000000001
 40
0.0
 40
0.0
 40
0.0
 40
0.0
 40
0.3333333333333333
 40
0.3333333333333333
 40
0.3333333333333333
 40
0.3333333333333333
 40
0.6666666666666666
 40
0.6666666666666666
 40
0.6666666666666666
 40
0.6666666666666666
 40
1.0
 40
1.0
 40
1.0
 40
1.0
 10
0.5894200000000001
 20
-0.07676
 30
0.0
 10
0.72404
 20
-0.1428
 30
0.0
 10
0.83072
 20
-0.34346
 30
0.0
 10
0.8180200000000001
 20
-0.4780800000000001
 30
0.0
 10
0.8180200000000001
 20
-0.4780800000000001
 30
0.0
 10
0.8180200000000001
 20
-0.4780800000000001
 30
0.0
 10
0.7367400000000001
 20
-0.50348
 30
0.0
 10
0.7367400000000001
 20
-0.50348
 30
0.0
 10
0.7367400000000001
 20
-0.50348
 30
0.0
 10
0.6300600000000001
 20
-0.3968
 30
0.0
 10
0.57672
 20
-0.22408
 30
0.0
 10
0.5894200000000001
 20
-0.07676
 30
0.0
  0
SPLINE
  5
42
100
AcDbEntity
  8
Ebene 1
 62
     7
100
AcDbSpline
210
0.0
220
0.0
230
1.0
 70
     1
 71
     3
 72
    20
 73
    16
 74
     0
 42
0.0000000001
 43
0.0000000001
 40
0.0
 40
0.0
 40
0.0
 40
0.0
 40
0.25
 40
0.25
 40
0.25
 40
0.25
 40
0.5
 40
0.5
 40
0.5
 40
0.5
 40
0.75
 40
0.75
 40
0.75
 40
0.75
 40
1.0
 40
1.0
 40
1.0
 40
1.0
 10
0.15
 20
-0.1301
 30
0.0
 10
0.29732
 20
-0.22408
 30
0.0
 10
0.29732
 20
-0.4374400000000001
 30
0.0
 10
0.36336
 20
-0.5974600000000001
 30
0.0
 10
0.36336
 20
-0.5974600000000001
 30
0.0
 10
0.36336
 20
-0.5974600000000001
 30
0.0
 10
0.22874
 20
-0.6508000000000001
 30
0.0
 10
0.22874
 20
-0.6508000000000001
 30
0.0
 10
0.22874
 20
-0.6508000000000001
 30
0.0
 10
0.1373
 20
-0.5161800000000001
 30
0.0
 10
0.1373
 20
-0.34346
 30
0.0
 10
0.10936
 20
-0.18344
 30
0.0
 10
0.10936
 20
-0.18344
 30
0.0
 10
0.10936
 20
-0.18344
 30
0.0
 10
0.15
 20
-0.1301
 30
0.0
 10
0.15
 20
-0.1301
 30
0.0
  0
SPLINE
  5
43
100
AcDbEntity
  8
Ebene 1
 62
     7
100
AcDbSpline
210
0.0
220
0.0
230
1.0
 70
     1
 71
     3
 72
    20
 73
    16
 74
     0
 42
0.0000000001
 43
0.0000000001
 40
0.0
 40
0.0
 40
0.0
 40
0.0
 40
0.25
 40
0.25
 40
0.25
 40
0.25
 40
0.5
 40
0.5
 40
0.5
 40
0.5
 40
0.75
 40
0.75
 40
0.75
 40
0.75
 40
1.0
 40
1.0
 40
1.0
 40
1.0
 10
-0.04811
 20
-0.1428
 30
0.0
 10
-0.04811
 20
-0.1428
 30
0.0
 10
-0.01001
 20
-0.1428
 30
0.0
 10
-0.01001
 20
-0.1428
 30
0.0
 10
-0.01001
 20
-0.1428
 30
0.0
 10
0.0611
 20
-0.29012
 30
0.0
 10
0.09158
 20
-0.45014
 30
0.0
 10
0.09412
 20
-0.6254000000000001
 30
0.0
 10
0.09412
 20
-0.6254000000000001
 30
0.0
 10
0.09412
 20
-0.6254000000000001
 30
0.0
 10
0.00268
 20
-0.6508000000000001
 30
0.0
 10
0.00268
 20
-0.6508000000000001
 30
0.0
 10
0.00268
 20
-0.6508000000000001
 30
0.0
 10
-0.03795
 20
-0.50348
 30
0.0
 10
-0.19035
 20
-0.27742
 30
0.0
 10
-0.04811
 20
-0.1428
 30
0.0
  0
SPLINE
  5
44
100
AcDbEntity
  8
Ebene 1
 62
     7
100
AcDbSpline
210
0.0
220
0.0
230
1.0
 70
     1
 71
     3
 72
    16
 73
    12
 74
     0
 42
0.0000000001
 43
0.0000000001
 40
0.0
 40
0.0
 40
0.0
 40
0.0
 40
0.3333333333333333
 40
0.3333333333333333
 40
0.3333333333333333
 40
0.3333333333333333
 40
0.6666666666666666
 40
0.6666666666666666
 40
0.6666666666666666
 40
0.6666666666666666
 40
1.0
 40
1.0
 40
1.0
 40
1.0
 10
-0.8507500000000001
 20
-0.1555
 30
0.0
 10
-0.8507500000000001
 20
-0.1555
 30
0.0
 10
-0.82535
 20
-0.1555
 30
0.0
 10
-0.82535
 20
-0.1555
 30
0.0
 10
-0.82535
 20
-0.1555
 30
0.0
 10
-0.78471
 20
-0.34346
 30
0.0
 10
-0.73899
 20
-0.5441200000000001
 30
0.0
 10
-0.75931
 20
-0.7320800000000001
 30
0.0
 10
-0.75931
 20
-0.7320800000000001
 30
0.0
 10
-0.9650500000000001
 20
-0.6635000000000001
 30
0.0
 10
-0.88885
 20
-0.31552
 30
0.0
 10
-0.8507500000000001
 20
-0.1555
 30
0.0
  0
SPLINE
  5
45
100
AcDbEntity
  8
Ebene 1
 62
     7
100
AcDbSpline
210
0.0
220
0.0
230
1.0
 70
     1
 71
     3
 72
    20
 73
    16
 74
     0
 42
0.0000000001
 43
0.0000000001
 40
0.0
 40
0.0
 40
0.0
 40
0.0
 40
0.25
 40
0.25
 40
0.25
 40
0.25
 40
0.5
 40
0.5
 40
0.5
 40
0.5
 40
0.75
 40
0.75
 40
0.75
 40
0.75
 40
1.0
 40
1.0
 40
1.0
 40
1.0
 10
-0.5434100000000001
 20
-0.1555
 30
0.0
 10
-0.52563
 20
-0.1555
 30
0.0
 10
-0.51293
 20
-0.1555
 30
0.0
 10
-0.50531
 20
-0.17074
 30
0.0
 10
-0.50531
 20
-0.17074
 30
0.0
 10
-0.4900700000000001
 20
-0.30282
 30
0.0
 10
-0.4697500000000001
 20
-0.4247400000000001
 30
0.0
 10
-0.47737
 20
-0.5568200000000001
 30
0.0
 10
-0.47737
 20
-0.5568200000000001
 30
0.0
 10
-0.47737
 20
-0.5568200000000001
 30
0.0
 10
-0.56881
 20
-0.19614
 30
0.0
 10
-0.56881
 20
-0.19614
 30
0.0
 10
-0.56881
 20
-0.19614
 30
0.0
 10
-0.56881
 20
-0.19614
 30
0.0
 10
-0.5434100000000001
 20
-0.1555
 30
0.0
 10
-0.5434100000000001
 20
-0.1555
 30
0.0
  0
SPLINE
  5
46
100
AcDbEntity
  8
Ebene 1
 62
     7
100
AcDbSpline
210
0.0
220
0.0
230
1.0
 70
     1
 71
     3
 72
    16
 73
    12
 74
     0
 42
0.0000000001
 43
0.0000000001
 40
0.0
 40
0.0
 40
0.0
 40
0.0
 40
0.3333333333333333
 40
0.3333333333333333
 40
0.3333333333333333
 40
0.3333333333333333
 40
0.6666666666666666
 40
0.6666666666666666
 40
0.6666666666666666
 40
0.6666666666666666
 40
1.0
 40
1.0
 40
1.0
 40
1.0
 10
-0.26147
 20
-0.1555
 30
0.0
 10
-0.16495
 20
-0.31552
 30
0.0
 10
-0.14209
 20
-0.5161800000000001
 30
0.0
 10
-0.10399
 20
-0.7041400000000001
 30
0.0
 10
-0.10399
 20
-0.7041400000000001
 30
0.0
 10
-0.17257
 20
-0.7447800000000001
 30
0.0
 10
-0.27671
 20
-0.71684
 30
0.0
 10
-0.3656100000000001
 20
-0.7320800000000001
 30
0.0
 10
-0.3656100000000001
 20
-0.7320800000000001
 30
0.0
 10
-0.4062500000000001
 20
-0.53142
 30
0.0
 10
-0.32497
 20
-0.3307600000000001
 30
0.0
 10
-0.26147
 20
-0.1555
 30
0.0
  0
SPLINE
  5
47
100
AcDbEntity
  8
Ebene 1
 62
     7
100
AcDbSpline
210
0.0
220
0.0
230
1.0
 70
     1
 71
     3
 72
    20
 73
    16
 74
     0
 42
0.0000000001
 43
0.0000000001
 40
0.0
 40
0.0
 40
0.0
 40
0.0
 40
0.25
 40
0.25
 40
0.25
 40
0.25
 40
0.5
 40
0.5
 40
0.5
 40
0.5
 40
0.75
 40
0.75
 40
0.75
 40
0.75
 40
1.0
 40
1.0
 40
1.0
 40
1.0
 10
-0.6627900000000001
 20
-0.17074
 30
0.0
 10
-0.5459500000000001
 20
-0.3307600000000001
 30
0.0
 10
-0.57389
 20
-0.5568200000000001
 30
0.0
 10
-0.5027700000000001
 20
-0.7320800000000001
 30
0.0
 10
-0.5027700000000001
 20
-0.7320800000000001
 30
0.0
 10
-0.5027700000000001
 20
-0.7320800000000001
 30
0.0
 10
-0.5180100000000001
 20
-0.75748
 30
0.0
 10
-0.5180100000000001
 20
-0.75748
 30
0.0
 10
-0.5180100000000001
 20
-0.75748
 30
0.0
 10
-0.57389
 20
-0.7447800000000001
 30
0.0
 10
-0.6475500000000001
 20
-0.75748
 30
0.0
 10
-0.6856500000000001
 20
-0.7041400000000001
 30
0.0
 10
-0.6856500000000001
 20
-0.7041400000000001
 30
0.0
 10
-0.69835
 20
-0.53142
 30
0.0
 10
-0.7288300000000001
 20
-0.3307600000000001
 30
0.0
 10
-0.6627900000000001
 20
-0.17074
 30
0.0
  0
SPLINE
  5
48
100
AcDbEntity
  8
Ebene 1
 62
     7
100
AcDbSpline
210
0.0
220
0.0
230
1.0
 70
     1
 71
     3
 72
    16
 73
    12
 74
     0
 42
0.0000000001
 43
0.0000000001
 40
0.0
 40
0.0
 40
0.0
 40
0.0
 40
0.3333333333333333
 40
0.3333333333333333
 40
0.3333333333333333
 40
0.3333333333333333
 40
0.6666666666666666
 40
0.6666666666666666
 40
0.6666666666666666
 40
0.6666666666666666
 40
1.0
 40
1.0
 40
1.0
 40
1.0
 10
-0.3960900000000001
 20
-0.17074
 30
0.0
 10
-0.3960900000000001
 20
-0.17074
 30
0.0
 10
-0.37069
 20
-0.17074
 30
0.0
 10
-0.37069
 20
-0.17074
 30
0.0
 10
-0.37069
 20
-0.17074
 30
0.0
 10
-0.38339
 20
-0.27742
 30
0.0
 10
-0.3859300000000001
 20
-0.3968
 30
0.0
 10
-0.43165
 20
-0.4780800000000001
 30
0.0
 10
-0.43165
 20
-0.4780800000000001
 30
0.0
 10
-0.4291100000000001
 20
-0.3714
 30
0.0
 10
-0.4926100000000001
 20
-0.24948
 30
0.0
 10
-0.3960900000000001
 20
-0.17074
 30
0.0
  0
SPLINE
  5
49
100
AcDbEntity
  8
Ebene 1
 62
     7
100
AcDbSpline
210
0.0
220
0.0
230
1.0
 70
     1
 71
     3
 72
    16
 73
    12
 74
     0
 42
0.0000000001
 43
0.0000000001
 40
0.0
 40
0.0
 40
0.0
 40
0.0
 40
0.3333333333333333
 40
0.3333333333333333
 40
0.3333333333333333
 40
0.3333333333333333
 40
0.6666666666666666
 40
0.6666666666666666
 40
0.6666666666666666
 40
0.6666666666666666
 40
1.0
 40
1.0
 40
1.0
 40
1.0
 10
-0.9828300000000001
 20
-0.18344
 30
0.0
 10
-0.8913900000000001
 20
-0.31552
 30
0.0
 10
-0.9574300000000001
 20
-0.50348
 30
0.0
 10
-0.93203
 20
-0.6635000000000001
 30
0.0
 10
-0.93203
 20
-0.6635000000000001
 30
0.0
 10
-0.93203
 20
-0.6635000000000001
 30
0.0
 10
-0.99299
 20
-0.6381
 30
0.0
 10
-0.99299
 20
-0.6381
 30
0.0
 10
-0.99299
 20
-0.6381
 30
0.0
 10
-0.99299
 20
-0.6381
 30
0.0
 10
-0.9828300000000001
 20
-0.18344
 30
0.0
 10
-0.9828300000000001
 20
-0.18344
 30
0.0
  0
SPLINE
  5
4A
100
AcDbEntity
  8
Ebene 1
 62
     7
100
AcDbSpline
210
0.0
220
0.0
230
1.0
 70
     1
 71
     3
 72
    16
 73
    12
 74
     0
 42
0.0000000001
 43
0.0000000001
 40
0.0
 40
0.0
 40
0.0
 40
0.0
 40
0.3333333333333333
 40
0.3333333333333333
 40
0.3333333333333333
 40
0.3333333333333333
 40
0.6666666666666666
 40
0.6666666666666666
 40
0.6666666666666666
 40
0.6666666666666666
 40
1.0
 40
1.0
 40
1.0
 40
1.0
 10
1.1914
 20
-0.35616
 30
0.0
 10
1.1914
 20
-0.35616
 30
0.0
 10
1.2574400000000001
 20
-0.3714
 30
0.0
 10
1.2574400000000001
 20
-0.3714
 30
0.0
 10
1.2574400000000001
 20
-0.3714
 30
0.0
 10
1.3260200000000002
 20
-0.53142
 30
0.0
 10
1.27014
 20
-0.71684
 30
0.0
 10
1.1634600000000002
 20
-0.82352
 30
0.0
 10
1.1634600000000002
 20
-0.82352
 30
0.0
 10
1.0974200000000001
 20
-0.6914400000000001
 30
0.0
 10
1.1634600000000002
 20
-0.50348
 30
0.0
 10
1.1914
 20
-0.35616
 30
0.0
  0
SPLINE
  5
4B
100
AcDbEntity
  8
Ebene 1
 62
     7
100
AcDbSpline
210
0.0
220
0.0
230
1.0
 70
     1
 71
     3
 72
    16
 73
    12
 74
     0
 42
0.0000000001
 43
0.0000000001
 40
0.0
 40
0.0
 40
0.0
 40
0.0
 40
0.3333333333333333
 40
0.3333333333333333
 40
0.3333333333333333
 40
0.3333333333333333
 40
0.6666666666666666
 40
0.6666666666666666
 40
0.6666666666666666
 40
0.6666666666666666
 40
1.0
 40
1.0
 40
1.0
 40
1.0
 10
1.0567800000000001
 20
-0.45014
 30
0.0
 10
1.0567800000000001
 20
-0.45014
 30
0.0
 10
1.0847200000000001
 20
-0.45014
 30
0.0
 10
1.0847200000000001
 20
-0.45014
 30
0.0
 10
1.0847200000000001
 20
-0.45014
 30
0.0
 10
1.0847200000000001
 20
-0.61016
 30
0.0
 10
1.0720200000000002
 20
-0.78288
 30
0.0
 10
0.9907400000000001
 20
-0.9175000000000001
 30
0.0
 10
0.9907400000000001
 20
-0.9175000000000001
 30
0.0
 10
0.9653400000000001
 20
-0.78288
 30
0.0
 10
0.8967600000000001
 20
-0.50348
 30
0.0
 10
1.0567800000000001
 20
-0.45014
 30
0.0
  0
SPLINE
  5
4C
100
AcDbEntity
  8
Ebene 1
 62
     7
100
AcDbSpline
210
0.0
220
0.0
230
1.0
 70
     1
 71
     3
 72
    16
 73
    12
 74
     0
 42
0.0000000001
 43
0.0000000001
 40
0.0
 40
0.0
 40
0.0
 40
0.0
 40
0.3333333333333333
 40
0.3333333333333333
 40
0.3333333333333333
 40
0.3333333333333333
 40
0.6666666666666666
 40
0.6666666666666666
 40
0.6666666666666666
 40
0.6666666666666666
 40
1.0
 40
1.0
 40
1.0
 40
1.0
 10
0.8586600000000001
 20
-0.5161800000000001
 30
0.0
 10
0.8586600000000001
 20
-0.5161800000000001
 30
0.0
 10
0.8840600000000001
 20
-0.5161800000000001
 30
0.0
 10
0.8840600000000001
 20
-0.5161800000000001
 30
0.0
 10
0.8840600000000001
 20
-0.5161800000000001
 30
0.0
 10
0.9094600000000001
 20
-0.6762
 30
0.0
 10
0.9094600000000001
 20
-0.86416
 30
0.0
 10
0.8180200000000001
 20
-0.9860800000000001
 30
0.0
 10
0.8180200000000001
 20
-0.9860800000000001
 30
0.0
 10
0.7773800000000001
 20
-0.8514600000000001
 30
0.0
 10
0.7113400000000001
 20
-0.5974600000000001
 30
0.0
 10
0.8586600000000001
 20
-0.5161800000000001
 30
0.0
  0
SPLINE
  5
4D
100
AcDbEntity
  8
Ebene 1
 62
     7
100
AcDbSpline
210
0.0
220
0.0
230
1.0
 70
     1
 71
     3
 72
    20
 73
    16
 74
     0
 42
0.0000000001
 43
0.0000000001
 40
0.0
 40
0.0
 40
0.0
 40
0.0
 40
0.25
 40
0.25
 40
0.25
 40
0.25
 40
0.5
 40
0.5
 40
0.5
 40
0.5
 40
0.75
 40
0.75
 40
0.75
 40
0.75
 40
1.0
 40
1.0
 40
1.0
 40
1.0
 10
0.658
 20
-0.5847600000000001
 30
0.0
 10
0.658
 20
-0.5847600000000001
 30
0.0
 10
0.6961000000000001
 20
-0.5847600000000001
 30
0.0
 10
0.6961000000000001
 20
-0.5847600000000001
 30
0.0
 10
0.6961000000000001
 20
-0.5847600000000001
 30
0.0
 10
0.72404
 20
-0.7701800000000001
 30
0.0
 10
0.7773800000000001
 20
-0.9987800000000001
 30
0.0
 10
0.6300600000000001
 20
-1.1435600000000001
 30
0.0
 10
0.6300600000000001
 20
-1.1435600000000001
 30
0.0
 10
0.6300600000000001
 20
-1.1435600000000001
 30
0.0
 10
0.5894200000000001
 20
-1.1054600000000001
 30
0.0
 10
0.5894200000000001
 20
-1.1054600000000001
 30
0.0
 10
0.5894200000000001
 20
-1.1054600000000001
 30
0.0
 10
0.6300600000000001
 20
-0.9454400000000001
 30
0.0
 10
0.45734
 20
-0.6635000000000001
 30
0.0
 10
0.658
 20
-0.5847600000000001
 30
0.0
  0
SPLINE
  5
4E
100
AcDbEntity
  8
Ebene 1
 62
     7
100
AcDbSpline
210
0.0
220
0.0
230
1.0
 70
     1
 71
     3
 72
    16
 73
    12
 74
     0
 42
0.0000000001
 43
0.0000000001
 40
0.0
 40
0.0
 40
0.0
 40
0.0
 40
0.3333333333333333
 40
0.3333333333333333
 40
0.3333333333333333
 40
0.3333333333333333
 40
0.6666666666666666
 40
0.6666666666666666
 40
0.6666666666666666
 40
0.6666666666666666
 40
1.0
 40
1.0
 40
1.0
 40
1.0
 10
0.404
 20
-0.6508000000000001
 30
0.0
 10
0.404
 20
-0.6508000000000001
 30
0.0
 10
0.47004
 20
-0.6508000000000001
 30
0.0
 10
0.47004
 20
-0.6508000000000001
 30
0.0
 10
0.47004
 20
-0.6508000000000001
 30
0.0
 10
0.53608
 20
-0.8514600000000001
 30
0.0
 10
0.51068
 20
-1.0648200000000001
 30
0.0
 10
0.3913
 20
-1.2248400000000002
 30
0.0
 10
0.3913
 20
-1.2248400000000002
 30
0.0
 10
0.32272
 20
-1.0648200000000001
 30
0.0
 10
0.28462
 20
-0.7981200000000001
 30
0.0
 10
0.404
 20
-0.6508000000000001
 30
0.0
  0
SPLINE
  5
4F
100
AcDbEntity
  8
Ebene 1
100
AcDbSpline
210
0.0
220
0.0
230
1.0
 70
     1
 71
     3
 72
    24
 73
    20
 74
     0
 42
0.0000000001
 43
0.0000000001
 40
0.0
 40
0.0
 40
0.0
 40
0.0
 40
0.2
 40
0.2
 40
0.2
 40
0.2
 40
0.4
 40
0.4
 40
0.4
 40
0.4
 40
0.6000000000000001
 40
0.6000000000000001
 40
0.6000000000000001
 40
0.6000000000000001
 40
0.8
 40
0.8
 40
0.8
 40
0.8
 40
1.0
 40
1.0
 40
1.0
 40
1.0
 10
1.9915000000000003
 20
-0.6508000000000001
 30
0.0
 10
2.0067400000000002
 20
-0.6508000000000001
 30
0.0
 10
2.0194400000000003
 20
-0.6508000000000001
 30
0.0
 10
2.0194400000000003
 20
-0.6635000000000001
 30
0.0
 10
2.0194400000000003
 20
-0.6635000000000001
 30
0.0
 10
1.8848200000000002
 20
-0.8108200000000001
 30
0.0
 10
1.6181200000000002
 20
-1.1715
 30
0.0
 10
1.4174600000000002
 20
-0.8921000000000001
 30
0.0
 10
1.4174600000000002
 20
-0.8921000000000001
 30
0.0
 10
1.4174600000000002
 20
-0.8921000000000001
 30
0.0
 10
1.5241400000000001
 20
-0.8768600000000001
 30
0.0
 10
1.5241400000000001
 20
-0.8768600000000001
 30
0.0
 10
1.5241400000000001
 20
-0.8768600000000001
 30
0.0
 10
1.5241400000000001
 20
-0.8768600000000001
 30
0.0
 10
1.5927200000000001
 20
-0.9302
 30
0.0
 10
1.5927200000000001
 20
-0.9302
 30
0.0
 10
1.5927200000000001
 20
-0.9302
 30
0.0
 10
1.5927200000000001
 20
-0.9302
 30
0.0
 10
1.9915000000000003
 20
-0.6508000000000001
 30
0.0
 10
1.9915000000000003
 20
-0.6508000000000001
 30
0.0
  0
SPLINE
  5
50
100
AcDbEntity
  8
Ebene 1
 62
     7
100
AcDbSpline
210
0.0
220
0.0
230
1.0
 70
     1
 71
     3
 72
    16
 73
    12
 74
     0
 42
0.0000000001
 43
0.0000000001
 40
0.0
 40
0.0
 40
0.0
 40
0.0
 40
0.3333333333333333
 40
0.3333333333333333
 40
0.3333333333333333
 40
0.3333333333333333
 40
0.6666666666666666
 40
0.6666666666666666
 40
0.6666666666666666
 40
0.6666666666666666
 40
1.0
 40
1.0
 40
1.0
 40
1.0
 10
0.10936
 20
-0.6914400000000001
 30
0.0
 10
0.10936
 20
-0.6914400000000001
 30
0.0
 10
0.25668
 20
-0.7041400000000001
 30
0.0
 10
0.25668
 20
-0.7041400000000001
 30
0.0
 10
0.25668
 20
-0.7041400000000001
 30
0.0
 10
0.31002
 20
-0.9175000000000001
 30
0.0
 10
0.25668
 20
-1.11816
 30
0.0
 10
0.1373
 20
-1.29088
 30
0.0
 10
0.1373
 20
-1.29088
 30
0.0
 10
0.02046
 20
-1.11816
 30
0.0
 10
-0.01001
 20
-0.8768600000000001
 30
0.0
 10
0.10936
 20
-0.6914400000000001
 30
0.0
  0
SPLINE
  5
51
100
AcDbEntity
  8
Ebene 1
 62
     7
100
AcDbSpline
210
0.0
220
0.0
230
1.0
 70
     1
 71
     3
 72
    16
 73
    12
 74
     0
 42
0.0000000001
 43
0.0000000001
 40
0.0
 40
0.0
 40
0.0
 40
0.0
 40
0.3333333333333333
 40
0.3333333333333333
 40
0.3333333333333333
 40
0.3333333333333333
 40
0.6666666666666666
 40
0.6666666666666666
 40
0.6666666666666666
 40
0.6666666666666666
 40
1.0
 40
1.0
 40
1.0
 40
1.0
 10
-0.9574300000000001
 20
-0.7447800000000001
 30
0.0
 10
-0.8736100000000001
 20
-0.7320800000000001
 30
0.0
 10
-0.8355100000000001
 20
-0.9048000000000001
 30
0.0
 10
-0.9396500000000001
 20
-0.9048000000000001
 30
0.0
 10
-0.9396500000000001
 20
-0.9048000000000001
 30
0.0
 10
-0.9396500000000001
 20
-0.9048000000000001
 30
0.0
 10
-0.9701300000000001
 20
-0.9302
 30
0.0
 10
-0.9701300000000001
 20
-0.9302
 30
0.0
 10
-0.9701300000000001
 20
-0.9302
 30
0.0
 10
-1.00569
 20
-0.8768600000000001
 30
0.0
 10
-1.03363
 20
-0.78288
 30
0.0
 10
-0.9574300000000001
 20
-0.7447800000000001
 30
0.0
  0
SPLINE
  5
52
100
AcDbEntity
  8
Ebene 1
 62
     7
100
AcDbSpline
210
0.0
220
0.0
230
1.0
 70
     1
 71
     3
 72
    12
 73
     8
 74
     0
 42
0.0000000001
 43
0.0000000001
 40
0.0
 40
0.0
 40
0.0
 40
0.0
 40
0.5
 40
0.5
 40
0.5
 40
0.5
 40
1.0
 40
1.0
 40
1.0
 40
1.0
 10
-0.8355100000000001
 20
-0.75748
 30
0.0
 10
-0.8355100000000001
 20
-0.75748
 30
0.0
 10
-0.7313700000000001
 20
-0.7701800000000001
 30
0.0
 10
-0.7313700000000001
 20
-0.7701800000000001
 30
0.0
 10
-0.7313700000000001
 20
-0.7701800000000001
 30
0.0
 10
-0.76185
 20
-0.8387600000000001
 30
0.0
 10
-0.82535
 20
-0.82352
 30
0.0
 10
-0.8355100000000001
 20
-0.75748
 30
0.0
  0
SPLINE
  5
53
100
AcDbEntity
  8
Ebene 1
 62
     7
100
AcDbSpline
210
0.0
220
0.0
230
1.0
 70
     1
 71
     3
 72
    16
 73
    12
 74
     0
 42
0.0000000001
 43
0.0000000001
 40
0.0
 40
0.0
 40
0.0
 40
0.0
 40
0.3333333333333333
 40
0.3333333333333333
 40
0.3333333333333333
 40
0.3333333333333333
 40
0.6666666666666666
 40
0.6666666666666666
 40
0.6666666666666666
 40
0.6666666666666666
 40
1.0
 40
1.0
 40
1.0
 40
1.0
 10
-0.18273
 20
-0.7701800000000001
 30
0.0
 10
-0.18273
 20
-0.7701800000000001
 30
0.0
 10
-0.03795
 20
-0.7701800000000001
 30
0.0
 10
-0.03795
 20
-0.7701800000000001
 30
0.0
 10
-0.03795
 20
-0.7701800000000001
 30
0.0
 10
-0.02271
 20
-0.9987800000000001
 30
0.0
 10
0.09158
 20
-1.2375400000000001
 30
0.0
 10
-0.10399
 20
-1.4255000000000002
 30
0.0
 10
-0.10399
 20
-1.4255000000000002
 30
0.0
 10
-0.20051
 20
-1.25278
 30
0.0
 10
-0.27163
 20
-0.97084
 30
0.0
 10
-0.18273
 20
-0.7701800000000001
 30
0.0
  0
SPLINE
  5
54
100
AcDbEntity
  8
Ebene 1
 62
     7
100
AcDbSpline
210
0.0
220
0.0
230
1.0
 70
     1
 71
     3
 72
    20
 73
    16
 74
     0
 42
0.0000000001
 43
0.0000000001
 40
0.0
 40
0.0
 40
0.0
 40
0.0
 40
0.25
 40
0.25
 40
0.25
 40
0.25
 40
0.5
 40
0.5
 40
0.5
 40
0.5
 40
0.75
 40
0.75
 40
0.75
 40
0.75
 40
1.0
 40
1.0
 40
1.0
 40
1.0
 10
-0.46213
 20
-0.7981200000000001
 30
0.0
 10
-0.46213
 20
-0.7981200000000001
 30
0.0
 10
-0.35799
 20
-0.7981200000000001
 30
0.0
 10
-0.35799
 20
-0.7981200000000001
 30
0.0
 10
-0.35799
 20
-0.7981200000000001
 30
0.0
 10
-0.26909
 20
-0.9987800000000001
 30
0.0
 10
-0.29195
 20
-1.2654800000000002
 30
0.0
 10
-0.3960900000000001
 20
-1.4382000000000001
 30
0.0
 10
-0.3960900000000001
 20
-1.4382000000000001
 30
0.0
 10
-0.3960900000000001
 20
-1.4382000000000001
 30
0.0
 10
-0.44435
 20
-1.37216
 30
0.0
 10
-0.44435
 20
-1.37216
 30
0.0
 10
-0.44435
 20
-1.37216
 30
0.0
 10
-0.44689
 20
-1.1842000000000001
 30
0.0
 10
-0.6018300000000001
 20
-0.9581400000000001
 30
0.0
 10
-0.46213
 20
-0.7981200000000001
 30
0.0
  0
SPLINE
  5
55
100
AcDbEntity
  8
Ebene 1
 62
     7
100
AcDbSpline
210
0.0
220
0.0
230
1.0
 70
     1
 71
     3
 72
    20
 73
    16
 74
     0
 42
0.0000000001
 43
0.0000000001
 40
0.0
 40
0.0
 40
0.0
 40
0.0
 40
0.25
 40
0.25
 40
0.25
 40
0.25
 40
0.5
 40
0.5
 40
0.5
 40
0.5
 40
0.75
 40
0.75
 40
0.75
 40
0.75
 40
1.0
 40
1.0
 40
1.0
 40
1.0
 10
-0.63739
 20
-0.8921000000000001
 30
0.0
 10
-0.63739
 20
-0.8921000000000001
 30
0.0
 10
-0.5992900000000001
 20
-0.8921000000000001
 30
0.0
 10
-0.5992900000000001
 20
-0.8921000000000001
 30
0.0
 10
-0.5992900000000001
 20
-0.8921000000000001
 30
0.0
 10
-0.57643
 20
-1.0648200000000001
 30
0.0
 10
-0.53071
 20
-1.2375400000000001
 30
0.0
 10
-0.6221500000000001
 20
-1.3848600000000002
 30
0.0
 10
-0.6221500000000001
 20
-1.3848600000000002
 30
0.0
 10
-0.6475500000000001
 20
-1.3848600000000002
 30
0.0
 10
-0.65771
 20
-1.37216
 30
0.0
 10
-0.6729500000000001
 20
-1.3594600000000001
 30
0.0
 10
-0.6729500000000001
 20
-1.3594600000000001
 30
0.0
 10
-0.69835
 20
-1.1994400000000001
 30
0.0
 10
-0.84821
 20
-0.9581400000000001
 30
0.0
 10
-0.63739
 20
-0.8921000000000001
 30
0.0
  0
SPLINE
  5
56
100
AcDbEntity
  8
Ebene 1
 62
     7
100
AcDbSpline
210
0.0
220
0.0
230
1.0
 70
     1
 71
     3
 72
    16
 73
    12
 74
     0
 42
0.0000000001
 43
0.0000000001
 40
0.0
 40
0.0
 40
0.0
 40
0.0
 40
0.3333333333333333
 40
0.3333333333333333
 40
0.3333333333333333
 40
0.3333333333333333
 40
0.6666666666666666
 40
0.6666666666666666
 40
0.6666666666666666
 40
0.6666666666666666
 40
1.0
 40
1.0
 40
1.0
 40
1.0
 10
-0.8507500000000001
 20
-1.03688
 30
0.0
 10
-0.8507500000000001
 20
-1.03688
 30
0.0
 10
-0.8126500000000001
 20
-1.03688
 30
0.0
 10
-0.8126500000000001
 20
-1.03688
 30
0.0
 10
-0.8126500000000001
 20
-1.03688
 30
0.0
 10
-0.7770900000000001
 20
-1.1308600000000002
 30
0.0
 10
-0.78471
 20
-1.25278
 30
0.0
 10
-0.82281
 20
-1.33152
 30
0.0
 10
-0.82281
 20
-1.33152
 30
0.0
 10
-0.8736100000000001
 20
-1.25278
 30
0.0
 10
-0.97267
 20
-1.1054600000000001
 30
0.0
 10
-0.8507500000000001
 20
-1.03688
 30
0.0
  0
SPLINE
  5
57
100
AcDbEntity
  8
Ebene 1
 62
     7
100
AcDbSpline
210
0.0
220
0.0
230
1.0
 70
     1
 71
     3
 72
    16
 73
    12
 74
     0
 42
0.0000000001
 43
0.0000000001
 40
0.0
 40
0.0
 40
0.0
 40
0.0
 40
0.3333333333333333
 40
0.3333333333333333
 40
0.3333333333333333
 40
0.3333333333333333
 40
0.6666666666666666
 40
0.6666666666666666
 40
0.6666666666666666
 40
0.6666666666666666
 40
1.0
 40
1.0
 40
1.0
 40
1.0
 10
-2.0775700000000001
 20
-2.3881600000000001
 30
0.0
 10
-2.0623300000000002
 20
-2.3881600000000001
 30
0.0
 10
-2.0420100000000003
 20
-2.4008600000000002
 30
0.0
 10
-2.05471
 20
-2.4135600000000004
 30
0.0
 10
-2.05471
 20
-2.4135600000000004
 30
0.0
 10
-2.27061
 20
-2.7742400000000003
 30
0.0
 10
-2.3874500000000003
 20
-3.2289000000000003
 30
0.0
 10
-2.5957300000000001
 20
-3.5768800000000005
 30
0.0
 10
-2.5957300000000001
 20
-3.5768800000000005
 30
0.0
 10
-2.4788900000000003
 20
-3.1603200000000005
 30
0.0
 10
-2.2782300000000002
 20
-2.7615400000000001
 30
0.0
 10
-2.0775700000000001
 20
-2.3881600000000001
 30
0.0
  0
SPLINE
  5
58
100
AcDbEntity
  8
Ebene 1
 62
     7
100
AcDbSpline
210
0.0
220
0.0
230
1.0
 70
     1
 71
     3
 72
    12
 73
     8
 74
     0
 42
0.0000000001
 43
0.0000000001
 40
0.0
 40
0.0
 40
0.0
 40
0.0
 40
0.5
 40
0.5
 40
0.5
 40
0.5
 40
1.0
 40
1.0
 40
1.0
 40
1.0
 10
-3.3196300000000001
 20
-2.4008600000000002
 30
0.0
 10
-3.2713700000000001
 20
-2.4415
 30
0.0
 10
-3.2154900000000004
 20
-2.5354800000000002
 30
0.0
 10
-3.1342100000000004
 20
-2.5354800000000002
 30
0.0
 10
-3.1342100000000004
 20
-2.5354800000000002
 30
0.0
 10
-3.2231100000000001
 20
-2.6929600000000002
 30
0.0
 10
-3.3729700000000005
 20
-2.5354800000000002
 30
0.0
 10
-3.3196300000000001
 20
-2.4008600000000002
 30
0.0
  0
SPLINE
  5
59
100
AcDbEntity
  8
Ebene 1
 62
     7
100
AcDbSpline
210
0.0
220
0.0
230
1.0
 70
     1
 71
     3
 72
    16
 73
    12
 74
     0
 42
0.0000000001
 43
0.0000000001
 40
0.0
 40
0.0
 40
0.0
 40
0.0
 40
0.3333333333333333
 40
0.3333333333333333
 40
0.3333333333333333
 40
0.3333333333333333
 40
0.6666666666666666
 40
0.6666666666666666
 40
0.6666666666666666
 40
0.6666666666666666
 40
1.0
 40
1.0
 40
1.0
 40
1.0
 10
-3.8962100000000004
 20
-3.0815800000000002
 30
0.0
 10
-3.8962100000000004
 20
-3.0815800000000002
 30
0.0
 10
-3.8708100000000005
 20
-3.0815800000000002
 30
0.0
 10
-3.8708100000000005
 20
-3.0815800000000002
 30
0.0
 10
-3.8708100000000005
 20
-3.0815800000000002
 30
0.0
 10
-3.8708100000000005
 20
-3.0815800000000002
 30
0.0
 10
-3.8454100000000002
 20
-3.3482800000000004
 30
0.0
 10
-3.8454100000000002
 20
-3.3482800000000004
 30
0.0
 10
-3.8454100000000002
 20
-3.3482800000000004
 30
0.0
 10
-3.9012900000000004
 20
-3.2822400000000003
 30
0.0
 10
-3.9317700000000002
 20
-3.1755600000000004
 30
0.0
 10
-3.8962100000000004
 20
-3.0815800000000002
 30
0.0
  0
SPLINE
  5
5A
100
AcDbEntity
  8
Ebene 1
 62
     7
100
AcDbSpline
210
0.0
220
0.0
230
1.0
 70
     1
 71
     3
 72
    20
 73
    16
 74
     0
 42
0.0000000001
 43
0.0000000001
 40
0.0
 40
0.0
 40
0.0
 40
0.0
 40
0.25
 40
0.25
 40
0.25
 40
0.25
 40
0.5
 40
0.5
 40
0.5
 40
0.5
 40
0.75
 40
0.75
 40
0.75
 40
0.75
 40
1.0
 40
1.0
 40
1.0
 40
1.0
 10
-3.3069300000000004
 20
-3.0815800000000002
 30
0.0
 10
-3.2993100000000002
 20
-3.0815800000000002
 30
0.0
 10
-3.2789900000000003
 20
-3.0815800000000002
 30
0.0
 10
-3.2815300000000001
 20
-3.0942800000000004
 30
0.0
 10
-3.2815300000000001
 20
-3.0942800000000004
 30
0.0
 10
-3.3323300000000002
 20
-3.1882600000000001
 30
0.0
 10
-3.3501100000000004
 20
-3.2949400000000004
 30
0.0
 10
-3.3374100000000002
 20
-3.3889200000000002
 30
0.0
 10
-3.3374100000000002
 20
-3.3889200000000002
 30
0.0
 10
-3.3374100000000002
 20
-3.3889200000000002
 30
0.0
 10
-3.4771100000000001
 20
-3.4143200000000005
 30
0.0
 10
-3.4771100000000001
 20
-3.4143200000000005
 30
0.0
 10
-3.4771100000000001
 20
-3.4143200000000005
 30
0.0
 10
-3.4948900000000003
 20
-3.2949400000000004
 30
0.0
 10
-3.3856700000000002
 20
-3.1755600000000004
 30
0.0
 10
-3.3069300000000004
 20
-3.0815800000000002
 30
0.0
  0
SPLINE
  5
5B
100
AcDbEntity
  8
Ebene 1
 62
     7
100
AcDbSpline
210
0.0
220
0.0
230
1.0
 70
     1
 71
     3
 72
    12
 73
     8
 74
     0
 42
0.0000000001
 43
0.0000000001
 40
0.0
 40
0.0
 40
0.0
 40
0.0
 40
0.5
 40
0.5
 40
0.5
 40
0.5
 40
1.0
 40
1.0
 40
1.0
 40
1.0
 10
-4.3788100000000005
 20
-3.03078
 30
0.0
 10
-4.35595
 20
-3.1501600000000001
 30
0.0
 10
-4.2949900000000003
 20
-3.3355800000000002
 30
0.0
 10
-4.23149
 20
-3.4422600000000001
 30
0.0
 10
-4.23149
 20
-3.4422600000000001
 30
0.0
 10
-4.35595
 20
-3.4016200000000003
 30
0.0
 10
-4.44231
 20
-3.1781000000000001
 30
0.0
 10
-4.3788100000000005
 20
-3.03078
 30
0.0
  0
SPLINE
  5
5C
100
AcDbEntity
  8
Ebene 1
 62
     7
100
AcDbSpline
210
0.0
220
0.0
230
1.0
 70
     1
 71
     3
 72
    12
 73
     8
 74
     0
 42
0.0000000001
 43
0.0000000001
 40
0.0
 40
0.0
 40
0.0
 40
0.0
 40
0.5
 40
0.5
 40
0.5
 40
0.5
 40
1.0
 40
1.0
 40
1.0
 40
1.0
 10
-4.0282900000000001
 20
-3.1603200000000005
 30
0.0
 10
-4.0003500000000001
 20
-3.2416000000000005
 30
0.0
 10
-4.0003500000000001
 20
-3.3355800000000002
 30
0.0
 10
-3.9927300000000003
 20
-3.4295600000000004
 30
0.0
 10
-3.9927300000000003
 20
-3.4295600000000004
 30
0.0
 10
-4.10703
 20
-3.4295600000000004
 30
0.0
 10
-4.0536900000000005
 20
-3.2289000000000003
 30
0.0
 10
-4.0282900000000001
 20
-3.1603200000000005
 30
0.0
  0
SPLINE
  5
5D
100
AcDbEntity
  8
Ebene 1
 62
     7
100
AcDbSpline
210
0.0
220
0.0
230
1.0
 70
     1
 71
     3
 72
    88
 73
    84
 74
     0
 42
0.0000000001
 43
0.0000000001
 40
0.0
 40
0.0
 40
0.0
 40
0.0
 40
0.0476190476190476
 40
0.0476190476190476
 40
0.0476190476190476
 40
0.0476190476190476
 40
0.0952380952380952
 40
0.0952380952380952
 40
0.0952380952380952
 40
0.0952380952380952
 40
0.1428571428571429
 40
0.1428571428571429
 40
0.1428571428571429
 40
0.1428571428571429
 40
0.1904761904761905
 40
0.1904761904761905
 40
0.1904761904761905
 40
0.1904761904761905
 40
0.2380952380952381
 40
0.2380952380952381
 40
0.2380952380952381
 40
0.2380952380952381
 40
0.2857142857142857
 40
0.2857142857142857
 40
0.2857142857142857
 40
0.2857142857142857
 40
0.3333333333333333
 40
0.3333333333333333
 40
0.3333333333333333
 40
0.3333333333333333
 40
0.3809523809523809
 40
0.3809523809523809
 40
0.3809523809523809
 40
0.3809523809523809
 40
0.4285714285714286
 40
0.4285714285714286
 40
0.4285714285714286
 40
0.4285714285714286
 40
0.4761904761904762
 40
0.4761904761904762
 40
0.4761904761904762
 40
0.4761904761904762
 40
0.5238095238095237
 40
0.5238095238095237
 40
0.5238095238095237
 40
0.5238095238095237
 40
0.5714285714285714
 40
0.5714285714285714
 40
0.5714285714285714
 40
0.5714285714285714
 40
0.6190476190476191
 40
0.6190476190476191
 40
0.6190476190476191
 40
0.6190476190476191
 40
0.6666666666666667
 40
0.6666666666666667
 40
0.6666666666666667
 40
0.6666666666666667
 40
0.7142857142857144
 40
0.7142857142857144
 40
0.7142857142857144
 40
0.7142857142857144
 40
0.7619047619047621
 40
0.7619047619047621
 40
0.7619047619047621
 40
0.7619047619047621
 40
0.8095238095238098
 40
0.8095238095238098
 40
0.8095238095238098
 40
0.8095238095238098
 40
0.8571428571428574
 40
0.8571428571428574
 40
0.8571428571428574
 40
0.8571428571428574
 40
0.9047619047619051
 40
0.9047619047619051
 40
0.9047619047619051
 40
0.9047619047619051
 40
0.9523809523809528
 40
0.9523809523809528
 40
0.9523809523809528
 40
0.9523809523809528
 40
1.0
 40
1.0
 40
1.0
 40
1.0
 10
-3.4694900000000004
 20
-3.4981400000000002
 30
0.0
 10
-3.4694900000000004
 20
-3.4981400000000002
 30
0.0
 10
-3.2154900000000004
 20
-3.5489400000000004
 30
0.0
 10
-3.2154900000000004
 20
-3.5489400000000004
 30
0.0
 10
-3.2154900000000004
 20
-3.5489400000000004
 30
0.0
 10
-2.9868900000000003
 20
-3.9096200000000003
 30
0.0
 10
-2.9792700000000001
 20
-4.43032
 30
0.0
 10
-3.3069300000000004
 20
-4.7503600000000006
 30
0.0
 10
-3.3069300000000004
 20
-4.7503600000000006
 30
0.0
 10
-3.0046700000000004
 20
-4.6589200000000002
 30
0.0
 10
-2.8929100000000001
 20
-4.1356800000000007
 30
0.0
 10
-2.7227300000000003
 20
-3.8562800000000004
 30
0.0
 10
-2.7227300000000003
 20
-3.8562800000000004
 30
0.0
 10
-2.8040100000000003
 20
-3.8969200000000002
 30
0.0
 10
-2.90307
 20
-4.1229800000000001
 30
0.0
 10
-2.94625
 20
-4.0696400000000006
 30
0.0
 10
-2.94625
 20
-4.0696400000000006
 30
0.0
 10
-2.8751300000000004
 20
-3.8969200000000002
 30
0.0
 10
-2.69733
 20
-3.6683200000000005
 30
0.0
 10
-2.5601700000000003
 20
-3.9223200000000005
 30
0.0
 10
-2.5601700000000003
 20
-3.9223200000000005
 30
0.0
 10
-2.69733
 20
-4.3388800000000005
 30
0.0
 10
-2.9614900000000004
 20
-4.7122600000000006
 30
0.0
 10
-3.3069300000000004
 20
-4.9789600000000007
 30
0.0
 10
-3.3069300000000004
 20
-4.9789600000000007
 30
0.0
 10
-3.3907500000000002
 20
-4.9916600000000004
 30
0.0
 10
-3.4567900000000003
 20
-4.9535600000000004
 30
0.0
 10
-3.5304500000000001
 20
-4.9256200000000003
 30
0.0
 10
-3.5304500000000001
 20
-4.9256200000000003
 30
0.0
 10
-3.6015700000000002
 20
-4.8443400000000008
 30
0.0
 10
-3.6015700000000002
 20
-4.7249600000000003
 30
0.0
 10
-3.6269700000000005
 20
-4.6589200000000002
 30
0.0
 10
-3.6269700000000005
 20
-4.6589200000000002
 30
0.0
 10
-3.6269700000000005
 20
-4.6589200000000002
 30
0.0
 10
-3.7031700000000005
 20
-4.7249600000000003
 30
0.0
 10
-3.7031700000000005
 20
-4.7249600000000003
 30
0.0
 10
-3.7031700000000005
 20
-4.7249600000000003
 30
0.0
 10
-3.7031700000000005
 20
-4.8722800000000008
 30
0.0
 10
-3.7819100000000003
 20
-4.93832
 30
0.0
 10
-3.8682700000000003
 20
-4.8062400000000007
 30
0.0
 10
-3.8682700000000003
 20
-4.8062400000000007
 30
0.0
 10
-4.1400500000000005
 20
-4.8849800000000005
 30
0.0
 10
-4.2873700000000001
 20
-4.4709600000000007
 30
0.0
 10
-3.9927300000000003
 20
-4.56494
 30
0.0
 10
-3.9927300000000003
 20
-4.56494
 30
0.0
 10
-3.9063700000000003
 20
-4.5370000000000008
 30
0.0
 10
-4.0384500000000001
 20
-4.3642799999999999
 30
0.0
 10
-3.9495500000000003
 20
-4.43032
 30
0.0
 10
-3.9495500000000003
 20
-4.43032
 30
0.0
 10
-3.8936700000000002
 20
-4.5116000000000005
 30
0.0
 10
-3.8301700000000003
 20
-4.60304
 30
0.0
 10
-3.8250900000000003
 20
-4.7122600000000006
 30
0.0
 10
-3.8250900000000003
 20
-4.7122600000000006
 30
0.0
 10
-3.7615900000000004
 20
-4.6436800000000007
 30
0.0
 10
-3.8225500000000001
 20
-4.5243000000000002
 30
0.0
 10
-3.8708100000000005
 20
-4.4582600000000001
 30
0.0
 10
-3.8708100000000005
 20
-4.4582600000000001
 30
0.0
 10
-3.9444700000000004
 20
-4.3896800000000002
 30
0.0
 10
-4.1908500000000002
 20
-4.05694
 30
0.0
 10
-4.1908500000000002
 20
-4.2703000000000007
 30
0.0
 10
-4.1908500000000002
 20
-4.2703000000000007
 30
0.0
 10
-4.26959
 20
-4.19156
 30
0.0
 10
-4.3407100000000005
 20
-4.2703000000000007
 30
0.0
 10
-4.4118300000000001
 20
-4.2982400000000007
 30
0.0
 10
-4.4118300000000001
 20
-4.2982400000000007
 30
0.0
 10
-4.4677100000000003
 20
-4.1356800000000007
 30
0.0
 10
-4.3229300000000004
 20
-4.0975800000000007
 30
0.0
 10
-4.2187900000000003
 20
-4.05694
 30
0.0
 10
-4.2187900000000003
 20
-4.05694
 30
0.0
 10
-4.4473900000000004
 20
-3.7648400000000004
 30
0.0
 10
-4.0689299999999999
 20
-3.5337000000000005
 30
0.0
 10
-3.7946100000000005
 20
-3.6429200000000002
 30
0.0
 10
-3.7946100000000005
 20
-3.6429200000000002
 30
0.0
 10
-3.7539700000000003
 20
-3.6581600000000001
 30
0.0
 10
-3.7133300000000005
 20
-3.6784800000000004
 30
0.0
 10
-3.6803100000000004
 20
-3.7089600000000003
 30
0.0
 10
-3.6803100000000004
 20
-3.7089600000000003
 30
0.0
 10
-3.5685500000000001
 20
-3.7064200000000005
 30
0.0
 10
-3.7488900000000003
 20
-3.6175200000000003
 30
0.0
 10
-3.7057100000000003
 20
-3.5946600000000002
 30
0.0
 10
-3.7057100000000003
 20
-3.5946600000000002
 30
0.0
 10
-3.6422100000000004
 20
-3.5591000000000004
 30
0.0
 10
-3.5431500000000002
 20
-3.4981400000000002
 30
0.0
 10
-3.4694900000000004
 20
-3.4981400000000002
 30
0.0
  0
SPLINE
  5
5E
100
AcDbEntity
  8
Ebene 1
 62
     7
100
AcDbSpline
210
0.0
220
0.0
230
1.0
 70
     1
 71
     3
 72
    12
 73
     8
 74
     0
 42
0.0000000001
 43
0.0000000001
 40
0.0
 40
0.0
 40
0.0
 40
0.0
 40
0.5
 40
0.5
 40
0.5
 40
0.5
 40
1.0
 40
1.0
 40
1.0
 40
1.0
 10
-4.2162500000000005
 20
-3.5895800000000002
 30
0.0
 10
-4.10703
 20
-3.5616400000000001
 30
0.0
 10
-4.2746700000000004
 20
-3.7242000000000002
 30
0.0
 10
-4.2416499999999999
 20
-3.6429200000000002
 30
0.0
 10
-4.2416499999999999
 20
-3.6429200000000002
 30
0.0
 10
-4.2416499999999999
 20
-3.6429200000000002
 30
0.0
 10
-4.2162500000000005
 20
-3.5895800000000002
 30
0.0
 10
-4.2162500000000005
 20
-3.5895800000000002
 30
0.0
  0
SPLINE
  5
5F
100
AcDbEntity
  8
Ebene 1
100
AcDbSpline
210
0.0
220
0.0
230
1.0
 70
     1
 71
     3
 72
    40
 73
    36
 74
     0
 42
0.0000000001
 43
0.0000000001
 40
0.0
 40
0.0
 40
0.0
 40
0.0
 40
0.1111111111111111
 40
0.1111111111111111
 40
0.1111111111111111
 40
0.1111111111111111
 40
0.2222222222222222
 40
0.2222222222222222
 40
0.2222222222222222
 40
0.2222222222222222
 40
0.3333333333333333
 40
0.3333333333333333
 40
0.3333333333333333
 40
0.3333333333333333
 40
0.4444444444444444
 40
0.4444444444444444
 40
0.4444444444444444
 40
0.4444444444444444
 40
0.5555555555555556
 40
0.5555555555555556
 40
0.5555555555555556
 40
0.5555555555555556
 40
0.6666666666666667
 40
0.6666666666666667
 40
0.6666666666666667
 40
0.6666666666666667
 40
0.7777777777777779
 40
0.7777777777777779
 40
0.7777777777777779
 40
0.7777777777777779
 40
0.8888888888888891
 40
0.8888888888888891
 40
0.8888888888888891
 40
0.8888888888888891
 40
1.0
 40
1.0
 40
1.0
 40
1.0
 10
-4.0181300000000002
 20
-3.6886400000000004
 30
0.0
 10
-3.8860500000000004
 20
-3.7013400000000005
 30
0.0
 10
-3.8581100000000004
 20
-3.7750000000000004
 30
0.0
 10
-3.7768300000000004
 20
-3.8715200000000003
 30
0.0
 10
-3.7768300000000004
 20
-3.8715200000000003
 30
0.0
 10
-3.8479500000000004
 20
-3.8715200000000003
 30
0.0
 10
-3.9038300000000001
 20
-3.8156400000000001
 30
0.0
 10
-3.9622500000000005
 20
-3.7750000000000004
 30
0.0
 10
-3.9622500000000005
 20
-3.7750000000000004
 30
0.0
 10
-3.9901900000000001
 20
-3.8435800000000002
 30
0.0
 10
-4.0409900000000007
 20
-3.8816800000000002
 30
0.0
 10
-4.1044900000000002
 20
-3.9096200000000003
 30
0.0
 10
-4.1044900000000002
 20
-3.9096200000000003
 30
0.0
 10
-4.1121100000000004
 20
-3.9223200000000005
 30
0.0
 10
-4.1095700000000006
 20
-3.9375600000000004
 30
0.0
 10
-4.0943300000000002
 20
-3.9375600000000004
 30
0.0
 10
-4.0943300000000002
 20
-3.9375600000000004
 30
0.0
 10
-4.0232100000000006
 20
-3.8562800000000004
 30
0.0
 10
-3.8962100000000004
 20
-3.9502600000000001
 30
0.0
 10
-3.8301700000000003
 20
-3.9909000000000003
 30
0.0
 10
-3.8301700000000003
 20
-3.9909000000000003
 30
0.0
 10
-3.9266900000000002
 20
-3.9502600000000001
 30
0.0
 10
-3.9825700000000004
 20
-4.0696400000000006
 30
0.0
 10
-4.0638500000000004
 20
-4.0289999999999999
 30
0.0
 10
-4.0638500000000004
 20
-4.0289999999999999
 30
0.0
 10
-4.0562300000000002
 20
-4.0696400000000006
 30
0.0
 10
-4.0536900000000005
 20
-4.1102800000000004
 30
0.0
 10
-4.0790900000000008
 20
-4.1356800000000007
 30
0.0
 10
-4.0790900000000008
 20
-4.1356800000000007
 30
0.0
 10
-4.1603700000000003
 20
-4.0696400000000006
 30
0.0
 10
-4.2060900000000006
 20
-3.9782000000000002
 30
0.0
 10
-4.2518100000000008
 20
-3.8816800000000002
 30
0.0
 10
-4.2518100000000008
 20
-3.8816800000000002
 30
0.0
 10
-4.1400500000000005
 20
-3.8308800000000005
 30
0.0
 10
-4.02067
 20
-3.8207200000000001
 30
0.0
 10
-4.0181300000000002
 20
-3.6886400000000004
 30
0.0
  0
SPLINE
  5
60
100
AcDbEntity
  8
Ebene 1
 62
     7
100
AcDbSpline
210
0.0
220
0.0
230
1.0
 70
     1
 71
     3
 72
    16
 73
    12
 74
     0
 42
0.0000000001
 43
0.0000000001
 40
0.0
 40
0.0
 40
0.0
 40
0.0
 40
0.3333333333333333
 40
0.3333333333333333
 40
0.3333333333333333
 40
0.3333333333333333
 40
0.6666666666666666
 40
0.6666666666666666
 40
0.6666666666666666
 40
0.6666666666666666
 40
1.0
 40
1.0
 40
1.0
 40
1.0
 10
-2.7328900000000003
 20
-3.6683200000000005
 30
0.0
 10
-2.6363700000000003
 20
-3.6683200000000005
 30
0.0
 10
-2.4534900000000004
 20
-3.7242000000000002
 30
0.0
 10
-2.5220700000000003
 20
-3.8562800000000004
 30
0.0
 10
-2.5220700000000003
 20
-3.8562800000000004
 30
0.0
 10
-2.5220700000000003
 20
-3.8562800000000004
 30
0.0
 10
-2.5550900000000003
 20
-3.8562800000000004
 30
0.0
 10
-2.5550900000000003
 20
-3.8562800000000004
 30
0.0
 10
-2.5550900000000003
 20
-3.8562800000000004
 30
0.0
 10
-2.5957300000000001
 20
-3.7496000000000005
 30
0.0
 10
-2.8065500000000001
 20
-3.7902400000000003
 30
0.0
 10
-2.7328900000000003
 20
-3.6683200000000005
 30
0.0
  0
SPLINE
  5
61
100
AcDbEntity
  8
Ebene 1
100
AcDbSpline
210
0.0
220
0.0
230
1.0
 70
     1
 71
     3
 72
    36
 73
    32
 74
     0
 42
0.0000000001
 43
0.0000000001
 40
0.0
 40
0.0
 40
0.0
 40
0.0
 40
0.125
 40
0.125
 40
0.125
 40
0.125
 40
0.25
 40
0.25
 40
0.25
 40
0.25
 40
0.375
 40
0.375
 40
0.375
 40
0.375
 40
0.5
 40
0.5
 40
0.5
 40
0.5
 40
0.625
 40
0.625
 40
0.625
 40
0.625
 40
0.75
 40
0.75
 40
0.75
 40
0.75
 40
0.875
 40
0.875
 40
0.875
 40
0.875
 40
1.0
 40
1.0
 40
1.0
 40
1.0
 10
-3.3729700000000005
 20
-3.7902400000000003
 30
0.0
 10
-3.3551900000000003
 20
-3.7902400000000003
 30
0.0
 10
-3.3247100000000001
 20
-3.7902400000000003
 30
0.0
 10
-3.3348700000000004
 20
-3.8156400000000001
 30
0.0
 10
-3.3348700000000004
 20
-3.8156400000000001
 30
0.0
 10
-3.4288500000000002
 20
-3.9223200000000005
 30
0.0
 10
-3.4085300000000003
 20
-4.0696400000000006
 30
0.0
 10
-3.3348700000000004
 20
-4.1763200000000005
 30
0.0
 10
-3.3348700000000004
 20
-4.1763200000000005
 30
0.0
 10
-3.3805900000000002
 20
-4.2982400000000007
 30
0.0
 10
-3.4186900000000002
 20
-4.5370000000000008
 30
0.0
 10
-3.5837900000000005
 20
-4.5370000000000008
 30
0.0
 10
-3.5837900000000005
 20
-4.5370000000000008
 30
0.0
 10
-3.6015700000000002
 20
-4.4709600000000007
 30
0.0
 10
-3.4542500000000005
 20
-4.4709600000000007
 30
0.0
 10
-3.4847300000000003
 20
-4.3642799999999999
 30
0.0
 10
-3.4847300000000003
 20
-4.3642799999999999
 30
0.0
 10
-3.4847300000000003
 20
-4.3642799999999999
 30
0.0
 10
-3.5964900000000002
 20
-4.4582600000000001
 30
0.0
 10
-3.5964900000000002
 20
-4.4582600000000001
 30
0.0
 10
-3.5964900000000002
 20
-4.4582600000000001
 30
0.0
 10
-3.5914100000000002
 20
-4.3388800000000005
 30
0.0
 10
-3.5964900000000002
 20
-4.2576000000000001
 30
0.0
 10
-3.5101300000000002
 20
-4.1509200000000002
 30
0.0
 10
-3.5101300000000002
 20
-4.1509200000000002
 30
0.0
 10
-3.5482300000000002
 20
-4.1102800000000004
 30
0.0
 10
-3.5736300000000001
 20
-4.2322000000000006
 30
0.0
 10
-3.6244300000000003
 20
-4.2042600000000006
 30
0.0
 10
-3.6244300000000003
 20
-4.2042600000000006
 30
0.0
 10
-3.5761700000000003
 20
-4.05694
 30
0.0
 10
-3.4771100000000001
 20
-3.9096200000000003
 30
0.0
 10
-3.3729700000000005
 20
-3.7902400000000003
 30
0.0
  0
SPLINE
  5
62
100
AcDbEntity
  8
Ebene 1
100
AcDbSpline
210
0.0
220
0.0
230
1.0
 70
     1
 71
     3
 72
    24
 73
    20
 74
     0
 42
0.0000000001
 43
0.0000000001
 40
0.0
 40
0.0
 40
0.0
 40
0.0
 40
0.2
 40
0.2
 40
0.2
 40
0.2
 40
0.4
 40
0.4
 40
0.4
 40
0.4
 40
0.6000000000000001
 40
0.6000000000000001
 40
0.6000000000000001
 40
0.6000000000000001
 40
0.8
 40
0.8
 40
0.8
 40
0.8
 40
1.0
 40
1.0
 40
1.0
 40
1.0
 10
-3.6955500000000003
 20
-3.8715200000000003
 30
0.0
 10
-3.4821900000000001
 20
-4.05694
 30
0.0
 10
-3.8885900000000002
 20
-4.2169600000000003
 30
0.0
 10
-3.7488900000000003
 20
-4.43032
 30
0.0
 10
-3.7488900000000003
 20
-4.43032
 30
0.0
 10
-3.7488900000000003
 20
-4.43032
 30
0.0
 10
-3.7336500000000004
 20
-4.5116000000000005
 30
0.0
 10
-3.7336500000000004
 20
-4.5116000000000005
 30
0.0
 10
-3.7336500000000004
 20
-4.5116000000000005
 30
0.0
 10
-3.7336500000000004
 20
-4.5116000000000005
 30
0.0
 10
-3.7514300000000005
 20
-4.6589200000000002
 30
0.0
 10
-3.7514300000000005
 20
-4.6589200000000002
 30
0.0
 10
-3.7514300000000005
 20
-4.6589200000000002
 30
0.0
 10
-3.7514300000000005
 20
-4.6589200000000002
 30
0.0
 10
-3.9216100000000003
 20
-4.2982400000000007
 30
0.0
 10
-3.9216100000000003
 20
-4.2982400000000007
 30
0.0
 10
-3.9216100000000003
 20
-4.2982400000000007
 30
0.0
 10
-3.8174700000000001
 20
-4.1763200000000005
 30
0.0
 10
-3.6472900000000004
 20
-4.0442400000000003
 30
0.0
 10
-3.6955500000000003
 20
-3.8715200000000003
 30
0.0
  0
SPLINE
  5
63
100
AcDbEntity
  8
Ebene 1
 62
     7
100
AcDbSpline
210
0.0
220
0.0
230
1.0
 70
     1
 71
     3
 72
    16
 73
    12
 74
     0
 42
0.0000000001
 43
0.0000000001
 40
0.0
 40
0.0
 40
0.0
 40
0.0
 40
0.3333333333333333
 40
0.3333333333333333
 40
0.3333333333333333
 40
0.3333333333333333
 40
0.6666666666666666
 40
0.6666666666666666
 40
0.6666666666666666
 40
0.6666666666666666
 40
1.0
 40
1.0
 40
1.0
 40
1.0
 10
-3.4542500000000005
 20
-3.9909000000000003
 30
0.0
 10
-3.4059900000000001
 20
-4.0975800000000007
 30
0.0
 10
-3.3501100000000004
 20
-4.2830000000000004
 30
0.0
 10
-3.4771100000000001
 20
-4.3515800000000002
 30
0.0
 10
-3.4771100000000001
 20
-4.3515800000000002
 30
0.0
 10
-3.4771100000000001
 20
-4.2576000000000001
 30
0.0
 10
-3.4009100000000001
 20
-4.1509200000000002
 30
0.0
 10
-3.4898100000000003
 20
-4.0975800000000007
 30
0.0
 10
-3.4898100000000003
 20
-4.0975800000000007
 30
0.0
 10
-3.4898100000000003
 20
-4.0975800000000007
 30
0.0
 10
-3.4542500000000005
 20
-3.9909000000000003
 30
0.0
 10
-3.4542500000000005
 20
-3.9909000000000003
 30
0.0
  0
SPLINE
  5
64
100
AcDbEntity
  8
Ebene 1
 62
     7
100
AcDbSpline
210
0.0
220
0.0
230
1.0
 70
     1
 71
     3
 72
    16
 73
    12
 74
     0
 42
0.0000000001
 43
0.0000000001
 40
0.0
 40
0.0
 40
0.0
 40
0.0
 40
0.3333333333333333
 40
0.3333333333333333
 40
0.3333333333333333
 40
0.3333333333333333
 40
0.6666666666666666
 40
0.6666666666666666
 40
0.6666666666666666
 40
0.6666666666666666
 40
1.0
 40
1.0
 40
1.0
 40
1.0
 10
-4.1502100000000004
 20
-4.3642799999999999
 30
0.0
 10
-4.05877
 20
-4.3388800000000005
 30
0.0
 10
-4.0308299999999999
 20
-4.4582600000000001
 30
0.0
 10
-4.1222700000000003
 20
-4.4709600000000007
 30
0.0
 10
-4.1222700000000003
 20
-4.4709600000000007
 30
0.0
 10
-4.1756100000000007
 20
-4.4836600000000004
 30
0.0
 10
-4.2365700000000004
 20
-4.3642799999999999
 30
0.0
 10
-4.1502100000000004
 20
-4.3896800000000002
 30
0.0
 10
-4.1502100000000004
 20
-4.3896800000000002
 30
0.0
 10
-4.1502100000000004
 20
-4.3896800000000002
 30
0.0
 10
-4.1502100000000004
 20
-4.3642799999999999
 30
0.0
 10
-4.1502100000000004
 20
-4.3642799999999999
 30
0.0
  0
SPLINE
  5
65
100
AcDbEntity
  8
Ebene 1
 62
     7
100
AcDbSpline
210
0.0
220
0.0
230
1.0
 70
     1
 71
     3
 72
    24
 73
    20
 74
     0
 42
0.0000000001
 43
0.0000000001
 40
0.0
 40
0.0
 40
0.0
 40
0.0
 40
0.2
 40
0.2
 40
0.2
 40
0.2
 40
0.4
 40
0.4
 40
0.4
 40
0.4
 40
0.6000000000000001
 40
0.6000000000000001
 40
0.6000000000000001
 40
0.6000000000000001
 40
0.8
 40
0.8
 40
0.8
 40
0.8
 40
1.0
 40
1.0
 40
1.0
 40
1.0
 10
-4.1883100000000004
 20
-4.8316400000000002
 30
0.0
 10
-4.26959
 20
-5.0323000000000002
 30
0.0
 10
-4.2492700000000001
 20
-5.3117000000000001
 30
0.0
 10
-4.1908500000000002
 20
-5.5530000000000008
 30
0.0
 10
-4.1908500000000002
 20
-5.5530000000000008
 30
0.0
 10
-4.3483300000000007
 20
-5.4463200000000001
 30
0.0
 10
-4.3102300000000007
 20
-5.2177200000000008
 30
0.0
 10
-4.26959
 20
-5.07294
 30
0.0
 10
-4.26959
 20
-5.07294
 30
0.0
 10
-4.26959
 20
-5.07294
 30
0.0
 10
-4.2721300000000006
 20
-5.0196000000000005
 30
0.0
 10
-4.2721300000000006
 20
-5.0196000000000005
 30
0.0
 10
-4.2721300000000006
 20
-5.0196000000000005
 30
0.0
 10
-4.2721300000000006
 20
-5.0196000000000005
 30
0.0
 10
-4.34579
 20
-5.0602400000000003
 30
0.0
 10
-4.34579
 20
-5.0602400000000003
 30
0.0
 10
-4.34579
 20
-5.0602400000000003
 30
0.0
 10
-4.34579
 20
-4.9637200000000004
 30
0.0
 10
-4.2670500000000002
 20
-4.8722800000000008
 30
0.0
 10
-4.1883100000000004
 20
-4.8316400000000002
 30
0.0
  0
SPLINE
  5
66
100
AcDbEntity
  8
Ebene 1
 62
     7
100
AcDbSpline
210
0.0
220
0.0
230
1.0
 70
     1
 71
     3
 72
    12
 73
     8
 74
     0
 42
0.0000000001
 43
0.0000000001
 40
0.0
 40
0.0
 40
0.0
 40
0.0
 40
0.5
 40
0.5
 40
0.5
 40
0.5
 40
1.0
 40
1.0
 40
1.0
 40
1.0
 10
-4.3635700000000002
 20
-4.8722800000000008
 30
0.0
 10
-4.3127700000000004
 20
-4.8849800000000005
 30
0.0
 10
-4.3788100000000005
 20
-4.9916600000000004
 30
0.0
 10
-4.3991300000000004
 20
-5.0196000000000005
 30
0.0
 10
-4.3991300000000004
 20
-5.0196000000000005
 30
0.0
 10
-4.4169100000000006
 20
-4.9637200000000004
 30
0.0
 10
-4.3838900000000001
 20
-4.9129200000000006
 30
0.0
 10
-4.3635700000000002
 20
-4.8722800000000008
 30
0.0
  0
SPLINE
  5
67
100
AcDbEntity
  8
Ebene 1
 62
     7
100
AcDbSpline
210
0.0
220
0.0
230
1.0
 70
     1
 71
     3
 72
    32
 73
    28
 74
     0
 42
0.0000000001
 43
0.0000000001
 40
0.0
 40
0.0
 40
0.0
 40
0.0
 40
0.1428571428571429
 40
0.1428571428571429
 40
0.1428571428571429
 40
0.1428571428571429
 40
0.2857142857142857
 40
0.2857142857142857
 40
0.2857142857142857
 40
0.2857142857142857
 40
0.4285714285714286
 40
0.4285714285714286
 40
0.4285714285714286
 40
0.4285714285714286
 40
0.5714285714285714
 40
0.5714285714285714
 40
0.5714285714285714
 40
0.5714285714285714
 40
0.7142857142857142
 40
0.7142857142857142
 40
0.7142857142857142
 40
0.7142857142857142
 40
0.857142857142857
 40
0.857142857142857
 40
0.857142857142857
 40
0.857142857142857
 40
1.0
 40
1.0
 40
1.0
 40
1.0
 10
-4.0562300000000002
 20
-4.8722800000000008
 30
0.0
 10
-4.0460700000000003
 20
-4.8722800000000008
 30
0.0
 10
-4.0257500000000004
 20
-4.8722800000000008
 30
0.0
 10
-4.0282900000000001
 20
-4.8849800000000005
 30
0.0
 10
-4.0282900000000001
 20
-4.8849800000000005
 30
0.0
 10
-4.1146500000000001
 20
-4.9789600000000007
 30
0.0
 10
-4.2010100000000001
 20
-5.0983400000000003
 30
0.0
 10
-4.1578300000000006
 20
-5.2177200000000008
 30
0.0
 10
-4.1578300000000006
 20
-5.2177200000000008
 30
0.0
 10
-4.0714700000000006
 20
-5.1262800000000004
 30
0.0
 10
-4.0714700000000006
 20
-4.9535600000000004
 30
0.0
 10
-3.9114500000000003
 20
-4.9256200000000003
 30
0.0
 10
-3.9114500000000003
 20
-4.9256200000000003
 30
0.0
 10
-3.8936700000000002
 20
-4.8976800000000003
 30
0.0
 10
-3.8708100000000005
 20
-4.9535600000000004
 30
0.0
 10
-3.8860500000000004
 20
-4.9637200000000004
 30
0.0
 10
-3.8860500000000004
 20
-4.9637200000000004
 30
0.0
 10
-3.9774900000000004
 20
-5.0450000000000008
 30
0.0
 10
-4.0562300000000002
 20
-5.1516800000000007
 30
0.0
 10
-4.0308299999999999
 20
-5.2736000000000001
 30
0.0
 10
-4.0308299999999999
 20
-5.2736000000000001
 30
0.0
 10
-4.0816300000000005
 20
-5.2736000000000001
 30
0.0
 10
-4.1400500000000005
 20
-5.2863000000000007
 30
0.0
 10
-4.1857700000000007
 20
-5.3396400000000002
 30
0.0
 10
-4.1857700000000007
 20
-5.3396400000000002
 30
0.0
 10
-4.2238700000000007
 20
-5.1796200000000008
 30
0.0
 10
-4.1984700000000004
 20
-4.9637200000000004
 30
0.0
 10
-4.0562300000000002
 20
-4.8722800000000008
 30
0.0
  0
SPLINE
  5
68
100
AcDbEntity
  8
Ebene 1
 62
     7
100
AcDbSpline
210
0.0
220
0.0
230
1.0
 70
     1
 71
     3
 72
    12
 73
     8
 74
     0
 42
0.0000000001
 43
0.0000000001
 40
0.0
 40
0.0
 40
0.0
 40
0.0
 40
0.5
 40
0.5
 40
0.5
 40
0.5
 40
1.0
 40
1.0
 40
1.0
 40
1.0
 10
-3.9089100000000001
 20
-5.0856400000000006
 30
0.0
 10
-3.8962100000000004
 20
-5.0450000000000008
 30
0.0
 10
-3.8835100000000002
 20
-4.9789600000000007
 30
0.0
 10
-3.8301700000000003
 20
-4.9916600000000004
 30
0.0
 10
-3.8301700000000003
 20
-4.9916600000000004
 30
0.0
 10
-3.8530300000000004
 20
-5.0323000000000002
 30
0.0
 10
-3.8708100000000005
 20
-5.07294
 30
0.0
 10
-3.9089100000000001
 20
-5.0856400000000006
 30
0.0
  0
ENDSEC
  0
SECTION
  2
OBJECTS
  0
DICTIONARY
  5
19
100
AcDbDictionary
280
     0
281
     1
  3
ACAD_GROUP
350
1A
  3
ACAD_MLINESTYLE
350
1B
  3
ACAD_LAYOUT
350
1E
  3
ACAD_PLOTSETTINGS
350
22
  3
ACAD_PLOTSTYLENAME
350
1F
  3
ACAD_WIPEOUT_VARS
350
23
  0
DICTIONARY
  5
1A
102
{ACAD_REACTORS
330
19
102
}
100
AcDbDictionary
280
     0
281
     1
  0
DICTIONARY
  5
1B
102
{ACAD_REACTORS
330
19
102
}
100
AcDbDictionary
280
     0
281
     1
  3
Standard
350
1C
  0
MLINESTYLE
  5
1C
102
{ACAD_REACTORS
330
1B
102
}
100
AcDbMlineStyle
  2
Standard
 70
     0
  3

 62
     0
 51
90.0
 52
90.0
 71
     2
 49
0.5
 62
   256
  6
BYLAYER
 49
-0.5
 62
   256
  6
BYLAYER
  0
ACDBDICTIONARYWDFLT
  5
1F
102
{ACAD_REACTORS
330
19
102
}
100
AcDbDictionary
281
     1
  3
Normal
350
1D
100
AcDbDictionaryWithDefault
340
1D
  0
ACDBPLACEHOLDER
  5
1D
102
{ACAD_REACTORS
330
1F
102
}
  0
LAYOUT
  5
20
102
{ACAD_REACTORS
330
1E
102
}
100
AcDbPlotSettings
  1

  2

  4

  6

 40
0.0
 41
0.0
 42
0.0
 43
0.0
 44
0.0
 45
0.0
 46
0.0
 47
0.0
 48
0.0
 49
0.0
140
0.0
141
0.0
142
1.0
143
1.0
 70
  1024
 72
     0
 73
     0
 74
     0
  7

 75
     0
147
1.0
148
0.0
149
0.0
100
AcDbLayout
  1
Model
 70
     0
 71
     0
 10
0.0
 20
0.0
 11
0.0
 21
0.0
 12
0.0
 22
0.0
 32
0.0
 14
0.0
 24
0.0
 34
0.0
 15
0.0
 25
0.0
 35
0.0
146
0.0
 13
0.0
 23
0.0
 33
0.0
 16
0.0
 26
0.0
 36
0.0
 17
0.0
 27
0.0
 37
0.0
 76
     0
330
A
331
0
345
0
346
0
  0
LAYOUT
  5
21
102
{ACAD_REACTORS
330
1E
102
}
100
AcDbPlotSettings
  1

  2

  4

  6

 40
0.0
 41
0.0
 42
0.0
 43
0.0
 44
0.0
 45
0.0
 46
0.0
 47
0.0
 48
0.0
 49
0.0
140
0.0
141
0.0
142
1.0
143
1.0
 70
     0
 72
     0
 73
     0
 74
     0
  7

 75
     0
147
1.0
148
0.0
149
0.0
100
AcDbLayout
  1
Layout1
 70
     0
 71
     0
 10
0.0
 20
0.0
 11
0.0
 21
0.0
 12
0.0
 22
0.0
 32
0.0
 14
0.0
 24
0.0
 34
0.0
 15
0.0
 25
0.0
 35
0.0
146
0.0
 13
0.0
 23
0.0
 33
0.0
 16
0.0
 26
0.0
 36
0.0
 17
0.0
 27
0.0
 37
0.0
 76
     0
330
B
331
0
345
0
346
0
  0
DICTIONARY
  5
1E
102
{ACAD_REACTORS
330
19
102
}
100
AcDbDictionary
280
     0
281
     1
  3
Layout1
350
21
  3
Model
350
20
  0
DICTIONARY
  5
22
102
{ACAD_REACTORS
330
19
102
}
100
AcDbDictionary
280
     0
281
     1
  0
WIPEOUTVARIABLES
  5
23
100
AcDbWipeoutVariables
 70
     1
  0
ENDSEC
  0
EOF
