  0
SECTION
  2
HEADER
  9
$ACADVER
  1
AC1015
  9
$ACADMAINTVER
 70
     6
  9
$DWGCODEPAGE
  3
DOS850
  9
$INSBASE
 10
0.0
 20
0.0
 30
0.0
  9
$EXTMIN
 10
-3.07071
 20
-6.99572
 30
1.000000E+20
  9
$EXTMAX
 10
3.0779
 20
6.98951
 30
-1.000000E+20
  9
$LIMMIN
 10
0.0
 20
0.0
  9
$LIMMAX
 10
0.0
 20
0.0
  9
$ORTHOMODE
 70
     0
  9
$REGENMODE
 70
     1
  9
$FILLMODE
 70
     1
  9
$QTEXTMODE
 70
     0
  9
$MIRRTEXT
 70
     1
  9
$LTSCALE
 40
1.0
  9
$ATTMODE
 70
     1
  9
$TEXTSIZE
 40
0.2
  9
$TRACEWID
 40
0.05
  9
$TEXTSTYLE
  7
Standard
  9
$CLAYER
  8
0
  9
$CELTYPE
  6
Continuous
  9
$CECOLOR
 62
   256
  9
$CELTSCALE
 40
1.0
  9
$DISPSILH
 70
     0
  9
$DIMSCALE
 40
1.0
  9
$DIMASZ
 40
0.18
  9
$DIMEXO
 40
0.0625
  9
$DIMDLI
 40
0.38
  9
$DIMRND
 40
0.0
  9
$DIMDLE
 40
0.0
  9
$DIMEXE
 40
0.18
  9
$DIMTP
 40
0.0
  9
$DIMTM
 40
0.0
  9
$DIMTXT
 40
0.18
  9
$DIMCEN
 40
0.09
  9
$DIMTSZ
 40
0.0
  9
$DIMTOL
 70
     0
  9
$DIMLIM
 70
     0
  9
$DIMTIH
 70
     1
  9
$DIMTOH
 70
     1
  9
$DIMSE1
 70
     0
  9
$DIMSE2
 70
     0
  9
$DIMTAD
 70
     0
  9
$DIMZIN
 70
     0
  9
$DIMBLK
  1

  9
$DIMASO
 70
     1
  9
$DIMSHO
 70
     1
  9
$DIMPOST
  1

  9
$DIMAPOST
  1

  9
$DIMALT
 70
     0
  9
$DIMALTD
 70
     2
  9
$DIMALTF
 40
25.4
  9
$DIMLFAC
 40
1.0
  9
$DIMTOFL
 70
     0
  9
$DIMTVP
 40
0.0
  9
$DIMTIX
 70
     0
  9
$DIMSOXD
 70
     0
  9
$DIMSAH
 70
     0
  9
$DIMBLK1
  1

  9
$DIMBLK2
  1

  9
$DIMSTYLE
  2
Standard
  9
$DIMCLRD
 70
     0
  9
$DIMCLRE
 70
     0
  9
$DIMCLRT
 70
     0
  9
$DIMTFAC
 40
1.0
  9
$DIMGAP
 40
0.09
  9
$DIMJUST
 70
     0
  9
$DIMSD1
 70
     0
  9
$DIMSD2
 70
     0
  9
$DIMTOLJ
 70
     1
  9
$DIMTZIN
 70
     0
  9
$DIMALTZ
 70
     0
  9
$DIMALTTZ
 70
     0
  9
$DIMUPT
 70
     0
  9
$DIMDEC
 70
     4
  9
$DIMTDEC
 70
     4
  9
$DIMALTU
 70
     2
  9
$DIMALTTD
 70
     2
  9
$DIMTXSTY
  7
Standard
  9
$DIMAUNIT
 70
     0
  9
$DIMADEC
 70
     0
  9
$DIMALTRND
 40
0.0
  9
$DIMAZIN
 70
     0
  9
$DIMDSEP
 70
     0
  9
$DIMATFIT
 70
     3
  9
$DIMFRAC
 70
     0
  9
$DIMLDRBLK
  1

  9
$DIMLUNIT
 70
     2
  9
$DIMLWD
 70
     0
  9
$DIMLWE
 70
     0
  9
$DIMTMOVE
 70
     0
  9
$LUNITS
 70
     2
  9
$LUPREC
 70
     4
  9
$SKETCHINC
 40
0.1
  9
$FILLETRAD
 40
0.0
  9
$AUNITS
 70
     0
  9
$AUPREC
 70
     0
  9
$MENU
  1
acad
  9
$ELEVATION
 40
0.0
  9
$PELEVATION
 40
0.0
  9
$THICKNESS
 40
0.0
  9
$LIMCHECK
 70
     0
  9
$CHAMFERA
 40
0.0
  9
$CHAMFERB
 40
0.0
  9
$CHAMFERC
 40
0.0
  9
$CHAMFERD
 40
0.0
  9
$SKPOLY
 70
     0
  9
$TDCREATE
 40
0.000000000
  9
$TDUCREATE
 40
0.000000000
  9
$TDUPDATE
 40
0.000000000
  9
$TDUUPDATE
 40
0.000000000
  9
$TDINDWG
 40
0.0000000000
  9
$TDUSRTIMER
 40
0.0000000000
  9
$USRTIMER
 70
     1
  9
$ANGBASE
 50
0.0
  9
$ANGDIR
 70
     0
  9
$PDMODE
 70
     0
  9
$PDSIZE
 40
0.0
  9
$PLINEWID
 40
0.0
  9
$SPLFRAME
 70
     0
  9
$SPLINETYPE
 70
     6
  9
$SPLINESEGS
 70
     8
  9
$HANDSEED
  5
40
  9
$SURFTAB1
 70
     6
  9
$SURFTAB2
 70
     6
  9
$SURFTYPE
 70
     6
  9
$SURFU
 70
     6
  9
$SURFV
 70
     6
  9
$UCSBASE
  2

  9
$UCSNAME
  2

  9
$UCSORG
 10
0.0
 20
0.0
 30
0.0
  9
$UCSXDIR
 10
1.0
 20
0.0
 30
0.0
  9
$UCSYDIR
 10
0.0
 20
1.0
 30
0.0
  9
$UCSORTHOREF
  2

  9
$UCSORTHOVIEW
 70
     0
  9
$UCSORGTOP
 10
0.0
 20
0.0
 30
0.0
  9
$UCSORGBOTTOM
 10
0.0
 20
0.0
 30
0.0
  9
$UCSORGLEFT
 10
0.0
 20
0.0
 30
0.0
  9
$UCSORGRIGHT
 10
0.0
 20
0.0
 30
0.0
  9
$UCSORGFRONT
 10
0.0
 20
0.0
 30
0.0
  9
$UCSORGBACK
 10
0.0
 20
0.0
 30
0.0
  9
$PUCSBASE
  2

  9
$PUCSNAME
  2

  9
$PUCSORG
 10
0.0
 20
0.0
 30
0.0
  9
$PUCSXDIR
 10
1.0
 20
0.0
 30
0.0
  9
$PUCSYDIR
 10
0.0
 20
1.0
 30
0.0
  9
$PUCSORTHOREF
  2

  9
$PUCSORTHOVIEW
 70
     0
  9
$PUCSORGTOP
 10
0.0
 20
0.0
 30
0.0
  9
$PUCSORGBOTTOM
 10
0.0
 20
0.0
 30
0.0
  9
$PUCSORGLEFT
 10
0.0
 20
0.0
 30
0.0
  9
$PUCSORGRIGHT
 10
0.0
 20
0.0
 30
0.0
  9
$PUCSORGFRONT
 10
0.0
 20
0.0
 30
0.0
  9
$PUCSORGBACK
 10
0.0
 20
0.0
 30
0.0
  9
$USERI1
 70
     0
  9
$USERI2
 70
     0
  9
$USERI3
 70
     0
  9
$USERI4
 70
     0
  9
$USERI5
 70
     0
  9
$USERR1
 40
0.0
  9
$USERR2
 40
0.0
  9
$USERR3
 40
0.0
  9
$USERR4
 40
0.0
  9
$USERR5
 40
0.0
  9
$WORLDVIEW
 70
     1
  9
$SHADEDGE
 70
     3
  9
$SHADEDIF
 70
    70
  9
$TILEMODE
 70
     1
  9
$MAXACTVP
 70
    16
  9
$PINSBASE
 10
0.0
 20
0.0
 30
0.0
  9
$PLIMCHECK
 70
     0
  9
$PEXTMIN
 10
1.000000E+20
 20
1.000000E+20
 30
1.000000E+20
  9
$PEXTMAX
 10
-1.000000E+20
 20
-1.000000E+20
 30
-1.000000E+20
  9
$PLIMMIN
 10
0.0
 20
0.0
  9
$PLIMMAX
 10
12.0
 20
9.0
  9
$UNITMODE
 70
     0
  9
$VISRETAIN
 70
     0
  9
$PLINEGEN
 70
     1
  9
$PSLTSCALE
 70
     0
  9
$TREEDEPTH
 70
  3020
  9
$CMLSTYLE
  2
Standard
  9
$CMLJUST
 70
     0
  9
$CMLSCALE
 40
1.0
  9
$PROXYGRAPHICS
 70
     0
  9
$MEASUREMENT
 70
     0
  9
$CELWEIGHT
370
     0
  9
$ENDCAPS
280
     0
  9
$JOINSTYLE
280
     0
  9
$LWDISPLAY
290
     0
  9
$INSUNITS
 70
     5
  9
$HYPERLINKBASE
  1

  9
$XEDIT
290
     1
  9
$CEPSNTYPE
380
     0
  9
$PSTYLEMODE
290
     1
  9
$FINGERPRINTGUID
  2

  9
$VERSIONGUID
  2

  9
$EXTNAMES
290
     1
  9
$PSVPSCALE
 40
0.0
  0
ENDSEC
  0
SECTION
  2
CLASSES
  0
CLASS
  1
LWPOLYLINE
  2
AcDbPolyline
  3
AutoCAD 2000
 90
    32768
280
     0
281
     1
  0
CLASS
  1
IMAGE
  2
AcDbRasterImage
  3
ISM
 90
    32895
280
     0
281
     1
  0
CLASS
  1
OLE2FRAME
  2
AcDbOle2Frame
  3
AutoCAD 2000
 90
    32768
280
     0
281
     1
  0
CLASS
  1
HATCH
  2
AcDbHatch
  3
AutoCAD 2000
 90
    32768
280
     0
281
     1
  0
CLASS
  1
DICTIONARYVAR
  2
AcDbDictionaryVar
  3
AutoCAD 2000
 90
    32768
280
     0
281
     0
  0
CLASS
  1
RASTERVARIABLES
  2
AcDbRasterVariables
  3
ISM
 90
    32768
280
     0
281
     0
  0
CLASS
  1
IMAGEDEF
  2
AcDbRasterImageDef
  3
ISM
 90
    32768
280
     0
281
     0
  0
CLASS
  1
IMAGEDEF_REACTOR
  2
AcDbRasterImageDefReactor
  3
ISM
 90
    32769
280
     0
281
     0
  0
CLASS
  1
IDBUFFER
  2
AcDbIdBuffer
  3
AutoCAD 2000
 90
    32768
280
     0
281
     0
  0
CLASS
  1
SPATIAL_FILTER
  2
AcDbSpatialFilter
  3
AutoCAD 2000
 90
    32768
280
     0
281
     0
  0
CLASS
  1
XRECORD
  2
AcDbXrecord
  3
AutoCAD 2000
 90
    32768
280
     0
281
     0
  0
CLASS
  1
SORTENTSTABLE
  2
AcDbSortentsTable
  3
AutoCAD 2000
 90
    32768
280
     0
281
     0
  0
CLASS
  1
LAYER_INDEX
  2
AcDbLayerIndex
  3
AutoCAD 2000
 90
    32768
280
     0
281
     0
  0
CLASS
  1
SPATIAL_INDEX
  2
AcDbSpatialIndex
  3
AutoCAD 2000
 90
    32768
280
     0
281
     0
  0
CLASS
  1
OBJECT_PTR
  2
CAseDLPNTableRecord
  3
"ASE-LPNTableRecord"
 90
    32769
280
     0
281
     0
  0
CLASS
  1
LAYOUT
  2
AcDbLayout
  3
AutoCAD 2000
 90
        0
280
     0
281
     0
  0
CLASS
  1
PLOTSETTINGS
  2
AcDbPlotSettings
  3
AutoCAD 2000
 90
    32768
280
     0
281
     0
  0
CLASS
  1
ACDBDICTIONARYWDFLT
  2
AcDbDictionaryWithDefault
  3
AutoCAD 2000
 90
        0
280
     0
281
     0
  0
CLASS
  1
ACDBPLACEHOLDER
  2
AcDbPlaceHolder
  3
AutoCAD 2000
 90
        0
280
     0
281
     0
  0
CLASS
  1
VBA_PROJECT
  2
AcDbVbaProject
  3
acadvba
 90
    32768
280
     0
281
     0
  0
CLASS
  1
WIPEOUT
  2
AcDbWipeout
  3
WipeOut|AutoCAD Express Tool|expresstools@autodesk.com
 90
    32895
280
     0
281
     1
  0
CLASS
  1
WIPEOUTVARIABLES
  2
AcDbWipeoutVariables
  3
WipeOut|AutoCAD Express Tool|expresstools@autodesk.com
 90
        0
280
     0
281
     0
  0
CLASS
  1
RTEXT
  2
RText
  3
RText|AutoCAD Express Tool|expresstools@autodesk.com
 90
    32768
280
     0
281
     1
  0
CLASS
  1
ARCALIGNEDTEXT
  2
AcDbArcAlignedText
  3
ATEXT|AutoCAD Express Tool|expresstools@autodesk.com
 90
    32768
280
     0
281
     1
  0
ENDSEC
  0
SECTION
  2
TABLES
  0
TABLE
  2
VPORT
  5
7
100
AcDbSymbolTable
 70
     1
  0
VPORT
  5
15
100
AcDbSymbolTableRecord
100
AcDbViewportTableRecord
  2
*ACTIVE
 70
     0
 10
0.0
 20
0.0
 11
1.0
 21
1.0
 12
6.591288
 22
4.579184
 13
0.0
 23
0.0
 14
1.0
 24
1.0
 15
0.0
 25
0.0
 16
0.0
 26
0.0
 36
1.0
 17
0.0
 27
0.0
 37
0.0
 40
9.158369
 41
0.688564
 42
50.0
 43
0.0
 44
0.0
 50
0.0
 51
0.0
 71
     0
 72
   100
 73
     1
 74
     1
 75
     0
 76
     0
 77
     0
 78
     0
281
     0
 65
     0
110
0.0
120
0.0
130
0.0
111
1.0
121
0.0
131
0.0
112
0.0
122
1.0
132
0.0
345
0
346
0
 79
     0
146
0.0
  0
ENDTAB
  0
TABLE
  2
LTYPE
  5
4
100
AcDbSymbolTable
 70
     3
  0
LTYPE
  5
11
100
AcDbSymbolTableRecord
100
AcDbLinetypeTableRecord
  2
ByBlock
 70
    64
  3

 72
    65
 73
     0
 40
0.0
  0
LTYPE
  5
12
100
AcDbSymbolTableRecord
100
AcDbLinetypeTableRecord
  2
ByLayer
 70
    64
  3

 72
    65
 73
     0
 40
0.0
  0
LTYPE
  5
13
100
AcDbSymbolTableRecord
100
AcDbLinetypeTableRecord
  2
Continuous
 70
    64
  3
Solid line
 72
    65
 73
     0
 40
0.0
  0
ENDTAB
  0
TABLE
  2
LAYER
  5
2
100
AcDbSymbolTable
 70
     2
  0
LAYER
  5
14
100
AcDbSymbolTableRecord
100
AcDbLayerTableRecord
  2
0
 70
     0
 62
     7
  6
Continuous
290
     1
370
    -3
390
1D
  0
LAYER
  5
24
100
AcDbSymbolTableRecord
100
AcDbLayerTableRecord
  2
Ebene 1
 70
     0
 62
     7
  6
Continuous
290
     1
370
    -3
390
1F
  0
ENDTAB
  0
TABLE
  2
STYLE
  5
3
100
AcDbSymbolTable
 70
     1
  0
STYLE
  5
17
100
AcDbSymbolTableRecord
100
AcDbTextStyleTableRecord
  2
Standard
 70
     0
 40
0.0
 41
1.0
 50
0.0
 71
     0
 42
0.0
  3
txt
  4

  0
ENDTAB
  0
TABLE
  2
VIEW
  5
5
100
AcDbSymbolTable
 70
     0
  0
ENDTAB
  0
TABLE
  2
UCS
  5
6
100
AcDbSymbolTable
 70
     0
  0
ENDTAB
  0
TABLE
  2
APPID
  5
8
100
AcDbSymbolTable
 70
     1
  0
APPID
  5
16
100
AcDbSymbolTableRecord
100
AcDbRegAppTableRecord
  2
ACAD
 70
     0
  0
ENDTAB
  0
TABLE
  2
DIMSTYLE
  5
9
100
AcDbSymbolTable
 70
     1
100
AcDbDimStyleTable
 71
     0
  0
DIMSTYLE
105
18
100
AcDbSymbolTableRecord
100
AcDbDimStyleTableRecord
  2
Standard
 70
     0
  3

  4

 40
1.0
 41
0.18
 42
0.0625
 43
0.38
 44
0.18
 45
0.0
 46
0.0
 47
0.0
 48
0.0
 71
     0
 72
     0
 73
     1
 74
     1
 75
     0
 76
     0
 77
     0
 78
     0
 79
     0
140
0.18
141
0.09
142
0.0
143
25.4
144
1.0
145
0.0
146
1.0
147
0.09
148
0.0
170
     0
171
     2
172
     0
173
     0
174
     0
175
     0
176
     0
177
     0
178
     0
179
     0
271
     4
272
     4
273
     2
274
     2
275
     0
276
     0
277
     2
278
    46
279
     0
280
     0
281
     0
282
     0
283
     1
284
     0
285
     0
286
     0
288
     0
340
17
341
0
342
0
343
0
344
0
371
    -2
372
    -2
  0
ENDTAB
  0
TABLE
  2
BLOCK_RECORD
  5
1
100
AcDbSymbolTable
 70
     0
  0
BLOCK_RECORD
  5
A
100
AcDbSymbolTableRecord
100
AcDbBlockTableRecord
  2
*MODEL_SPACE
340
20
  0
BLOCK_RECORD
  5
B
100
AcDbSymbolTableRecord
100
AcDbBlockTableRecord
  2
*PAPER_SPACE
340
21
  0
ENDTAB
  0
ENDSEC
  0
SECTION
  2
BLOCKS
  0
BLOCK
  5
D
100
AcDbEntity
  8
0
100
AcDbBlockBegin
  2
*MODEL_SPACE
 70
     0
 10
0.0
 20
0.0
 30
0.0
  3
*MODEL_SPACE
  1

  0
ENDBLK
  5
E
100
AcDbEntity
  8
0
100
AcDbBlockEnd
  0
BLOCK
  5
F
100
AcDbEntity
 67
     1
  8
0
100
AcDbBlockBegin
  2
*PAPER_SPACE
 70
     0
 10
0.0
 20
0.0
 30
0.0
  3
*PAPER_SPACE
  1

  0
ENDBLK
  5
10
100
AcDbEntity
 67
     1
  8
0
100
AcDbBlockEnd
  0
ENDSEC
  0
SECTION
  2
ENTITIES
  0
SPLINE
  5
25
100
AcDbEntity
  8
Ebene 1
100
AcDbSpline
210
0.0
220
0.0
230
1.0
 70
     1
 71
     3
 72
   156
 73
   152
 74
     0
 42
0.0000000001
 43
0.0000000001
 40
0.0
 40
0.0
 40
0.0
 40
0.0
 40
0.0263157894736842
 40
0.0263157894736842
 40
0.0263157894736842
 40
0.0263157894736842
 40
0.0526315789473684
 40
0.0526315789473684
 40
0.0526315789473684
 40
0.0526315789473684
 40
0.0789473684210526
 40
0.0789473684210526
 40
0.0789473684210526
 40
0.0789473684210526
 40
0.1052631578947368
 40
0.1052631578947368
 40
0.1052631578947368
 40
0.1052631578947368
 40
0.1315789473684211
 40
0.1315789473684211
 40
0.1315789473684211
 40
0.1315789473684211
 40
0.1578947368421053
 40
0.1578947368421053
 40
0.1578947368421053
 40
0.1578947368421053
 40
0.1842105263157895
 40
0.1842105263157895
 40
0.1842105263157895
 40
0.1842105263157895
 40
0.2105263157894737
 40
0.2105263157894737
 40
0.2105263157894737
 40
0.2105263157894737
 40
0.2368421052631579
 40
0.2368421052631579
 40
0.2368421052631579
 40
0.2368421052631579
 40
0.2631578947368421
 40
0.2631578947368421
 40
0.2631578947368421
 40
0.2631578947368421
 40
0.2894736842105263
 40
0.2894736842105263
 40
0.2894736842105263
 40
0.2894736842105263
 40
0.3157894736842105
 40
0.3157894736842105
 40
0.3157894736842105
 40
0.3157894736842105
 40
0.3421052631578947
 40
0.3421052631578947
 40
0.3421052631578947
 40
0.3421052631578947
 40
0.3684210526315789
 40
0.3684210526315789
 40
0.3684210526315789
 40
0.3684210526315789
 40
0.3947368421052631
 40
0.3947368421052631
 40
0.3947368421052631
 40
0.3947368421052631
 40
0.4210526315789472
 40
0.4210526315789472
 40
0.4210526315789472
 40
0.4210526315789472
 40
0.4473684210526314
 40
0.4473684210526314
 40
0.4473684210526314
 40
0.4473684210526314
 40
0.4736842105263156
 40
0.4736842105263156
 40
0.4736842105263156
 40
0.4736842105263156
 40
0.4999999999999998
 40
0.4999999999999998
 40
0.4999999999999998
 40
0.4999999999999998
 40
0.526315789473684
 40
0.526315789473684
 40
0.526315789473684
 40
0.526315789473684
 40
0.5526315789473681
 40
0.5526315789473681
 40
0.5526315789473681
 40
0.5526315789473681
 40
0.5789473684210523
 40
0.5789473684210523
 40
0.5789473684210523
 40
0.5789473684210523
 40
0.6052631578947365
 40
0.6052631578947365
 40
0.6052631578947365
 40
0.6052631578947365
 40
0.6315789473684207
 40
0.6315789473684207
 40
0.6315789473684207
 40
0.6315789473684207
 40
0.6578947368421049
 40
0.6578947368421049
 40
0.6578947368421049
 40
0.6578947368421049
 40
0.6842105263157891
 40
0.6842105263157891
 40
0.6842105263157891
 40
0.6842105263157891
 40
0.7105263157894732
 40
0.7105263157894732
 40
0.7105263157894732
 40
0.7105263157894732
 40
0.7368421052631574
 40
0.7368421052631574
 40
0.7368421052631574
 40
0.7368421052631574
 40
0.7631578947368416
 40
0.7631578947368416
 40
0.7631578947368416
 40
0.7631578947368416
 40
0.7894736842105258
 40
0.7894736842105258
 40
0.7894736842105258
 40
0.7894736842105258
 40
0.81578947368421
 40
0.81578947368421
 40
0.81578947368421
 40
0.81578947368421
 40
0.8421052631578941
 40
0.8421052631578941
 40
0.8421052631578941
 40
0.8421052631578941
 40
0.8684210526315783
 40
0.8684210526315783
 40
0.8684210526315783
 40
0.8684210526315783
 40
0.8947368421052625
 40
0.8947368421052625
 40
0.8947368421052625
 40
0.8947368421052625
 40
0.9210526315789467
 40
0.9210526315789467
 40
0.9210526315789467
 40
0.9210526315789467
 40
0.9473684210526309
 40
0.9473684210526309
 40
0.9473684210526309
 40
0.9473684210526309
 40
0.973684210526315
 40
0.973684210526315
 40
0.973684210526315
 40
0.973684210526315
 40
1.0
 40
1.0
 40
1.0
 40
1.0
 10
-0.10399
 20
6.989510000000001
 30
0.0
 10
0.25668
 20
6.951410000000001
 30
0.0
 10
0.5691000000000001
 20
6.826950000000001
 30
0.0
 10
0.8561200000000001
 20
6.5856500000000002
 30
0.0
 10
0.8561200000000001
 20
6.5856500000000002
 30
0.0
 10
1.7654400000000001
 20
4.6527100000000008
 30
0.0
 10
2.2201
 20
2.5724500000000003
 30
0.0
 10
3.0125800000000003
 20
0.6039500000000001
 30
0.0
 10
3.0125800000000003
 20
0.6039500000000001
 30
0.0
 10
3.0278200000000002
 20
0.3575700000000001
 30
0.0
 10
3.0430600000000001
 20
0.10865
 30
0.0
 10
2.9694000000000003
 20
-0.11994
 30
0.0
 10
2.9694000000000003
 20
-0.11994
 30
0.0
 10
3.3732600000000001
 20
-1.8903200000000002
 30
0.0
 10
2.5655400000000004
 20
-3.0104600000000001
 30
0.0
 10
1.9280000000000002
 20
-5.0196000000000005
 30
0.0
 10
1.9280000000000002
 20
-5.0196000000000005
 30
0.0
 10
1.7705200000000001
 20
-5.6622200000000005
 30
0.0
 10
1.7654400000000001
 20
-6.4089800000000006
 30
0.0
 10
1.9280000000000002
 20
-6.9957200000000004
 30
0.0
 10
1.9280000000000002
 20
-6.9957200000000004
 30
0.0
 10
1.5139800000000001
 20
-6.1448200000000002
 30
0.0
 10
1.3031600000000001
 20
-5.0577000000000005
 30
0.0
 10
1.6917800000000001
 20
-4.0848800000000001
 30
0.0
 10
1.6917800000000001
 20
-4.0848800000000001
 30
0.0
 10
1.5774800000000002
 20
-4.1509200000000002
 30
0.0
 10
1.5165200000000001
 20
-4.3871400000000005
 30
0.0
 10
1.4174600000000002
 20
-4.4760400000000002
 30
0.0
 10
1.4174600000000002
 20
-4.4760400000000002
 30
0.0
 10
1.3819000000000001
 20
-3.7496000000000005
 30
0.0
 10
1.6917800000000001
 20
-3.0561800000000003
 30
0.0
 10
1.7476600000000002
 20
-2.3195800000000002
 30
0.0
 10
1.7476600000000002
 20
-2.3195800000000002
 30
0.0
 10
1.6409800000000001
 20
-2.4948400000000004
 30
0.0
 10
1.5597000000000001
 20
-2.7005800000000004
 30
0.0
 10
1.4987400000000002
 20
-2.8961600000000001
 30
0.0
 10
1.4987400000000002
 20
-2.8961600000000001
 30
0.0
 10
1.3768200000000002
 20
-3.3279600000000005
 30
0.0
 10
1.3438000000000001
 20
-3.6734000000000004
 30
0.0
 10
1.3057000000000001
 20
-3.0155400000000001
 30
0.0
 10
1.3057000000000001
 20
-3.0155400000000001
 30
0.0
 10
1.44032
 20
-2.1900400000000002
 30
0.0
 10
1.9686400000000002
 20
-1.2400800000000001
 30
0.0
 10
1.4962000000000002
 20
-0.39172
 30
0.0
 10
1.4962000000000002
 20
-0.39172
 30
0.0
 10
1.3438000000000001
 20
-0.45268
 30
0.0
 10
1.2218800000000001
 20
-0.65588
 30
0.0
 10
1.0440800000000001
 20
-0.5390400000000001
 30
0.0
 10
1.0440800000000001
 20
-0.5390400000000001
 30
0.0
 10
1.0974200000000001
 20
-0.8387600000000001
 30
0.0
 10
1.27014
 20
-1.79634
 30
0.0
 10
0.9170800000000001
 20
-1.2604000000000002
 30
0.0
 10
0.9170800000000001
 20
-1.2604000000000002
 30
0.0
 10
0.8586600000000001
 20
-1.5017
 30
0.0
 10
0.9475600000000001
 20
-1.7988800000000003
 30
0.0
 10
0.6859400000000001
 20
-1.5347200000000001
 30
0.0
 10
0.6859400000000001
 20
-1.5347200000000001
 30
0.0
 10
0.57418
 20
-1.7226800000000002
 30
0.0
 10
0.68086
 20
-1.9970000000000001
 30
0.0
 10
0.55386
 20
-2.1798800000000003
 30
0.0
 10
0.55386
 20
-2.1798800000000003
 30
0.0
 10
0.4929000000000001
 20
-2.0300200000000004
 30
0.0
 10
0.5233800000000001
 20
-1.7861800000000001
 30
0.0
 10
0.36082
 20
-1.6972800000000001
 30
0.0
 10
0.36082
 20
-1.6972800000000001
 30
0.0
 10
0.2262
 20
-2.1519400000000002
 30
0.0
 10
-0.03033
 20
-1.7633200000000002
 30
0.0
 10
-0.14717
 20
-2.3043400000000003
 30
0.0
 10
-0.14717
 20
-2.3043400000000003
 30
0.0
 10
-0.23099
 20
-1.7455400000000001
 30
0.0
 10
-0.32497
 20
-1.92334
 30
0.0
 10
-0.5002300000000001
 20
-2.1798800000000003
 30
0.0
 10
-0.5002300000000001
 20
-2.1798800000000003
 30
0.0
 10
-0.50785
 20
-1.7912600000000001
 30
0.0
 10
-0.61199
 20
-1.3594600000000001
 30
0.0
 10
-0.7948700000000001
 20
-1.8547600000000002
 30
0.0
 10
-0.7948700000000001
 20
-1.8547600000000002
 30
0.0
 10
-0.8634500000000001
 20
-1.5575800000000002
 30
0.0
 10
-0.84567
 20
-1.08514
 30
0.0
 10
-1.0183900000000001
 20
-1.5118600000000002
 30
0.0
 10
-1.0183900000000001
 20
-1.5118600000000002
 30
0.0
 10
-1.12253
 20
-1.1791200000000002
 30
0.0
 10
-0.8532900000000001
 20
-0.8692400000000001
 30
0.0
 10
-0.95235
 20
-0.55428
 30
0.0
 10
-0.95235
 20
-0.55428
 30
0.0
 10
-1.33589
 20
-0.59238
 30
0.0
 10
-1.4984500000000001
 20
-0.74224
 30
0.0
 10
-1.3485900000000002
 20
-1.1892800000000001
 30
0.0
 10
-1.3485900000000002
 20
-1.1892800000000001
 30
0.0
 10
-1.20635
 20
-1.7201400000000002
 30
0.0
 10
-1.07935
 20
-2.2662400000000003
 30
0.0
 10
-1.12761
 20
-2.8377400000000002
 30
0.0
 10
-1.12761
 20
-2.8377400000000002
 30
0.0
 10
-1.2393700000000001
 20
-2.8428200000000001
 30
0.0
 10
-1.1885700000000001
 20
-2.4821400000000002
 30
0.0
 10
-1.3460500000000002
 20
-2.3957800000000002
 30
0.0
 10
-1.3460500000000002
 20
-2.3957800000000002
 30
0.0
 10
-1.3460500000000002
 20
-2.3957800000000002
 30
0.0
 10
-1.3485900000000002
 20
-3.1501600000000001
 30
0.0
 10
-1.3485900000000002
 20
-3.1501600000000001
 30
0.0
 10
-1.3485900000000002
 20
-3.1501600000000001
 30
0.0
 10
-1.1860300000000001
 20
-4.1052
 30
0.0
 10
-1.0183900000000001
 20
-5.2863000000000007
 30
0.0
 10
-1.4984500000000001
 20
-6.1651400000000001
 30
0.0
 10
-1.4984500000000001
 20
-6.1651400000000001
 30
0.0
 10
-1.4679700000000002
 20
-5.7003200000000005
 30
0.0
 10
-1.3587500000000001
 20
-5.1593
 30
0.0
 10
-1.4832100000000001
 20
-4.6792400000000001
 30
0.0
 10
-1.4832100000000001
 20
-4.6792400000000001
 30
0.0
 10
-1.4832100000000001
 20
-4.6792400000000001
 30
0.0
 10
-1.6457700000000002
 20
-4.2042600000000006
 30
0.0
 10
-1.6457700000000002
 20
-4.2042600000000006
 30
0.0
 10
-1.6457700000000002
 20
-4.2042600000000006
 30
0.0
 10
-1.7422900000000001
 20
-4.3795200000000003
 30
0.0
 10
-1.6940300000000001
 20
-4.7173400000000001
 30
0.0
 10
-1.8794500000000001
 20
-4.8087800000000005
 30
0.0
 10
-1.8794500000000001
 20
-4.8087800000000005
 30
0.0
 10
-1.8769100000000001
 20
-4.3769800000000005
 30
0.0
 10
-1.9810500000000002
 20
-3.9807400000000004
 30
0.0
 10
-2.0953500000000003
 20
-3.5845000000000002
 30
0.0
 10
-2.0953500000000003
 20
-3.5845000000000002
 30
0.0
 10
-2.2426700000000004
 20
-3.2162000000000002
 30
0.0
 10
-2.3772900000000003
 20
-2.8402800000000004
 30
0.0
 10
-2.4636500000000003
 20
-2.4516600000000004
 30
0.0
 10
-2.4636500000000003
 20
-2.4516600000000004
 30
0.0
 10
-2.5373100000000002
 20
-2.4415
 30
0.0
 10
-2.3976100000000002
 20
-2.7513800000000002
 30
0.0
 10
-2.4738100000000003
 20
-2.8352000000000004
 30
0.0
 10
-2.4738100000000003
 20
-2.8352000000000004
 30
0.0
 10
-2.6033500000000003
 20
-2.52278
 30
0.0
 10
-2.6693900000000004
 20
-2.1773400000000001
 30
0.0
 10
-2.7303500000000001
 20
-1.8420600000000003
 30
0.0
 10
-2.7303500000000001
 20
-1.8420600000000003
 30
0.0
 10
-2.8319500000000004
 20
-1.5550400000000002
 30
0.0
 10
-2.8446500000000001
 20
-1.2426200000000001
 30
0.0
 10
-2.8522700000000003
 20
-0.9251200000000001
 30
0.0
 10
-2.8522700000000003
 20
-0.9251200000000001
 30
0.0
 10
-2.94625
 20
-1.24516
 30
0.0
 10
-3.0046700000000004
 20
-1.5753600000000001
 30
0.0
 10
-3.0707100000000001
 20
-1.04196
 30
0.0
 10
-3.0707100000000001
 20
-1.04196
 30
0.0
 10
-3.0707100000000001
 20
-0.63302
 30
0.0
 10
-2.8751300000000004
 20
-0.27996
 30
0.0
 10
-2.7913100000000002
 20
0.09849
 30
0.0
 10
-2.7913100000000002
 20
0.09849
 30
0.0
 10
-2.7074900000000004
 20
2.4403700000000002
 30
0.0
 10
-1.4501900000000001
 20
4.4139500000000007
 30
0.0
 10
-0.8558300000000001
 20
6.6008900000000006
 30
0.0
 10
-0.8558300000000001
 20
6.6008900000000006
 30
0.0
 10
-0.61453
 20
6.7532900000000007
 30
0.0
 10
-0.37069
 20
6.9107700000000003
 30
0.0
 10
-0.10399
 20
6.989510000000001
 30
0.0
  0
SPLINE
  5
26
100
AcDbEntity
  8
Ebene 1
 62
     7
100
AcDbSpline
210
0.0
220
0.0
230
1.0
 70
     1
 71
     3
 72
   268
 73
   264
 74
     0
 42
0.0000000001
 43
0.0000000001
 40
0.0
 40
0.0
 40
0.0
 40
0.0
 40
0.0151515151515152
 40
0.0151515151515152
 40
0.0151515151515152
 40
0.0151515151515152
 40
0.0303030303030303
 40
0.0303030303030303
 40
0.0303030303030303
 40
0.0303030303030303
 40
0.0454545454545455
 40
0.0454545454545455
 40
0.0454545454545455
 40
0.0454545454545455
 40
0.0606060606060606
 40
0.0606060606060606
 40
0.0606060606060606
 40
0.0606060606060606
 40
0.0757575757575758
 40
0.0757575757575758
 40
0.0757575757575758
 40
0.0757575757575758
 40
0.0909090909090909
 40
0.0909090909090909
 40
0.0909090909090909
 40
0.0909090909090909
 40
0.1060606060606061
 40
0.1060606060606061
 40
0.1060606060606061
 40
0.1060606060606061
 40
0.1212121212121212
 40
0.1212121212121212
 40
0.1212121212121212
 40
0.1212121212121212
 40
0.1363636363636364
 40
0.1363636363636364
 40
0.1363636363636364
 40
0.1363636363636364
 40
0.1515151515151515
 40
0.1515151515151515
 40
0.1515151515151515
 40
0.1515151515151515
 40
0.1666666666666666
 40
0.1666666666666666
 40
0.1666666666666666
 40
0.1666666666666666
 40
0.1818181818181818
 40
0.1818181818181818
 40
0.1818181818181818
 40
0.1818181818181818
 40
0.1969696969696969
 40
0.1969696969696969
 40
0.1969696969696969
 40
0.1969696969696969
 40
0.212121212121212
 40
0.212121212121212
 40
0.212121212121212
 40
0.212121212121212
 40
0.2272727272727272
 40
0.2272727272727272
 40
0.2272727272727272
 40
0.2272727272727272
 40
0.2424242424242423
 40
0.2424242424242423
 40
0.2424242424242423
 40
0.2424242424242423
 40
0.2575757575757575
 40
0.2575757575757575
 40
0.2575757575757575
 40
0.2575757575757575
 40
0.2727272727272726
 40
0.2727272727272726
 40
0.2727272727272726
 40
0.2727272727272726
 40
0.2878787878787877
 40
0.2878787878787877
 40
0.2878787878787877
 40
0.2878787878787877
 40
0.3030303030303029
 40
0.3030303030303029
 40
0.3030303030303029
 40
0.3030303030303029
 40
0.318181818181818
 40
0.318181818181818
 40
0.318181818181818
 40
0.318181818181818
 40
0.3333333333333332
 40
0.3333333333333332
 40
0.3333333333333332
 40
0.3333333333333332
 40
0.3484848484848483
 40
0.3484848484848483
 40
0.3484848484848483
 40
0.3484848484848483
 40
0.3636363636363634
 40
0.3636363636363634
 40
0.3636363636363634
 40
0.3636363636363634
 40
0.3787878787878786
 40
0.3787878787878786
 40
0.3787878787878786
 40
0.3787878787878786
 40
0.3939393939393937
 40
0.3939393939393937
 40
0.3939393939393937
 40
0.3939393939393937
 40
0.4090909090909088
 40
0.4090909090909088
 40
0.4090909090909088
 40
0.4090909090909088
 40
0.424242424242424
 40
0.424242424242424
 40
0.424242424242424
 40
0.424242424242424
 40
0.4393939393939391
 40
0.4393939393939391
 40
0.4393939393939391
 40
0.4393939393939391
 40
0.4545454545454543
 40
0.4545454545454543
 40
0.4545454545454543
 40
0.4545454545454543
 40
0.4696969696969694
 40
0.4696969696969694
 40
0.4696969696969694
 40
0.4696969696969694
 40
0.4848484848484845
 40
0.4848484848484845
 40
0.4848484848484845
 40
0.4848484848484845
 40
0.4999999999999997
 40
0.4999999999999997
 40
0.4999999999999997
 40
0.4999999999999997
 40
0.5151515151515148
 40
0.5151515151515148
 40
0.5151515151515148
 40
0.5151515151515148
 40
0.5303030303030299
 40
0.5303030303030299
 40
0.5303030303030299
 40
0.5303030303030299
 40
0.5454545454545451
 40
0.5454545454545451
 40
0.5454545454545451
 40
0.5454545454545451
 40
0.5606060606060602
 40
0.5606060606060602
 40
0.5606060606060602
 40
0.5606060606060602
 40
0.5757575757575754
 40
0.5757575757575754
 40
0.5757575757575754
 40
0.5757575757575754
 40
0.5909090909090905
 40
0.5909090909090905
 40
0.5909090909090905
 40
0.5909090909090905
 40
0.6060606060606056
 40
0.6060606060606056
 40
0.6060606060606056
 40
0.6060606060606056
 40
0.6212121212121208
 40
0.6212121212121208
 40
0.6212121212121208
 40
0.6212121212121208
 40
0.6363636363636359
 40
0.6363636363636359
 40
0.6363636363636359
 40
0.6363636363636359
 40
0.6515151515151511
 40
0.6515151515151511
 40
0.6515151515151511
 40
0.6515151515151511
 40
0.6666666666666662
 40
0.6666666666666662
 40
0.6666666666666662
 40
0.6666666666666662
 40
0.6818181818181813
 40
0.6818181818181813
 40
0.6818181818181813
 40
0.6818181818181813
 40
0.6969696969696965
 40
0.6969696969696965
 40
0.6969696969696965
 40
0.6969696969696965
 40
0.7121212121212116
 40
0.7121212121212116
 40
0.7121212121212116
 40
0.7121212121212116
 40
0.7272727272727267
 40
0.7272727272727267
 40
0.7272727272727267
 40
0.7272727272727267
 40
0.7424242424242419
 40
0.7424242424242419
 40
0.7424242424242419
 40
0.7424242424242419
 40
0.757575757575757
 40
0.757575757575757
 40
0.757575757575757
 40
0.757575757575757
 40
0.7727272727272722
 40
0.7727272727272722
 40
0.7727272727272722
 40
0.7727272727272722
 40
0.7878787878787873
 40
0.7878787878787873
 40
0.7878787878787873
 40
0.7878787878787873
 40
0.8030303030303024
 40
0.8030303030303024
 40
0.8030303030303024
 40
0.8030303030303024
 40
0.8181818181818176
 40
0.8181818181818176
 40
0.8181818181818176
 40
0.8181818181818176
 40
0.8333333333333327
 40
0.8333333333333327
 40
0.8333333333333327
 40
0.8333333333333327
 40
0.8484848484848478
 40
0.8484848484848478
 40
0.8484848484848478
 40
0.8484848484848478
 40
0.863636363636363
 40
0.863636363636363
 40
0.863636363636363
 40
0.863636363636363
 40
0.8787878787878781
 40
0.8787878787878781
 40
0.8787878787878781
 40
0.8787878787878781
 40
0.8939393939393933
 40
0.8939393939393933
 40
0.8939393939393933
 40
0.8939393939393933
 40
0.9090909090909084
 40
0.9090909090909084
 40
0.9090909090909084
 40
0.9090909090909084
 40
0.9242424242424235
 40
0.9242424242424235
 40
0.9242424242424235
 40
0.9242424242424235
 40
0.9393939393939387
 40
0.9393939393939387
 40
0.9393939393939387
 40
0.9393939393939387
 40
0.9545454545454538
 40
0.9545454545454538
 40
0.9545454545454538
 40
0.9545454545454538
 40
0.969696969696969
 40
0.969696969696969
 40
0.969696969696969
 40
0.969696969696969
 40
0.9848484848484841
 40
0.9848484848484841
 40
0.9848484848484841
 40
0.9848484848484841
 40
1.0
 40
1.0
 40
1.0
 40
1.0
 10
2.3521800000000002
 20
1.6097900000000001
 30
0.0
 10
2.3725000000000001
 20
1.5539100000000001
 30
0.0
 10
2.4055200000000001
 20
1.8866500000000002
 30
0.0
 10
2.3420200000000002
 20
1.9501500000000001
 30
0.0
 10
2.3420200000000002
 20
1.9501500000000001
 30
0.0
 10
2.2404200000000003
 20
2.04413
 30
0.0
 10
2.20994
 20
2.2955900000000002
 30
0.0
 10
2.2226400000000002
 20
2.3692500000000001
 30
0.0
 10
2.2226400000000002
 20
2.3692500000000001
 30
0.0
 10
2.5731600000000001
 20
1.6910700000000001
 30
0.0
 10
2.8678000000000003
 20
0.9900300000000001
 30
0.0
 10
2.9541600000000003
 20
0.23311
 30
0.0
 10
2.9541600000000003
 20
0.23311
 30
0.0
 10
2.9084400000000001
 20
0.04515
 30
0.0
 10
2.8449400000000002
 20
0.15945
 30
0.0
 10
2.8195400000000004
 20
0.05531
 30
0.0
 10
2.8195400000000004
 20
0.05531
 30
0.0
 10
2.9059000000000004
 20
-0.27996
 30
0.0
 10
2.9617800000000001
 20
-0.63048
 30
0.0
 10
3.01004
 20
-0.9759200000000001
 30
0.0
 10
3.01004
 20
-0.9759200000000001
 30
0.0
 10
2.9033600000000002
 20
-0.7498600000000001
 30
0.0
 10
2.9160600000000003
 20
-0.44252
 30
0.0
 10
2.8195400000000004
 20
-0.20884
 30
0.0
 10
2.8195400000000004
 20
-0.20884
 30
0.0
 10
2.7814400000000004
 20
-0.19868
 30
0.0
 10
2.7916000000000003
 20
-0.2444
 30
0.0
 10
2.7916000000000003
 20
-0.2698
 30
0.0
 10
2.7916000000000003
 20
-0.2698
 30
0.0
 10
2.8754200000000001
 20
-1.0648200000000001
 30
0.0
 10
2.92876
 20
-1.9639800000000001
 30
0.0
 10
2.6011000000000002
 20
-2.6853400000000001
 30
0.0
 10
2.6011000000000002
 20
-2.6853400000000001
 30
0.0
 10
2.5731600000000001
 20
-2.3957800000000002
 30
0.0
 10
2.67984
 20
-1.8344400000000001
 30
0.0
 10
2.4944200000000003
 20
-1.7099800000000001
 30
0.0
 10
2.4944200000000003
 20
-1.7099800000000001
 30
0.0
 10
2.7789000000000001
 20
-3.1171400000000005
 30
0.0
 10
1.9457800000000001
 20
-4.2855400000000001
 30
0.0
 10
1.7222600000000001
 20
-5.5707800000000001
 30
0.0
 10
1.7222600000000001
 20
-5.5707800000000001
 30
0.0
 10
1.5190600000000001
 20
-5.0475400000000006
 30
0.0
 10
1.8797400000000002
 20
-4.5725600000000002
 30
0.0
 10
2.0296000000000003
 20
-4.0823400000000003
 30
0.0
 10
2.0296000000000003
 20
-4.0823400000000003
 30
0.0
 10
2.1591400000000003
 20
-3.6556200000000003
 30
0.0
 10
2.00928
 20
-3.9655000000000005
 30
0.0
 10
1.9051400000000001
 20
-4.2068000000000003
 30
0.0
 10
1.9051400000000001
 20
-4.2068000000000003
 30
0.0
 10
1.9051400000000001
 20
-4.2068000000000003
 30
0.0
 10
1.69686
 20
-4.5725600000000002
 30
0.0
 10
1.69686
 20
-4.5725600000000002
 30
0.0
 10
1.69686
 20
-4.5725600000000002
 30
0.0
 10
1.7679800000000001
 20
-4.1610800000000001
 30
0.0
 10
1.8543400000000001
 20
-3.7419800000000003
 30
0.0
 10
2.0296000000000003
 20
-3.3609800000000001
 30
0.0
 10
2.0296000000000003
 20
-3.3609800000000001
 30
0.0
 10
1.9407000000000001
 20
-3.3559000000000001
 30
0.0
 10
1.9330800000000001
 20
-3.4829000000000003
 30
0.0
 10
1.8822800000000002
 20
-3.5311600000000003
 30
0.0
 10
1.8822800000000002
 20
-3.5311600000000003
 30
0.0
 10
1.8822800000000002
 20
-3.5311600000000003
 30
0.0
 10
1.7044800000000002
 20
-3.8131000000000004
 30
0.0
 10
1.7044800000000002
 20
-3.8131000000000004
 30
0.0
 10
1.7044800000000002
 20
-3.8131000000000004
 30
0.0
 10
1.5520800000000001
 20
-4.0442400000000003
 30
0.0
 10
1.7476600000000002
 20
-3.4600400000000002
 30
0.0
 10
1.7705200000000001
 20
-3.3305000000000002
 30
0.0
 10
1.7705200000000001
 20
-3.3305000000000002
 30
0.0
 10
1.9051400000000001
 20
-2.9571200000000002
 30
0.0
 10
2.0702400000000001
 20
-2.5862800000000004
 30
0.0
 10
2.16676
 20
-2.2002000000000002
 30
0.0
 10
2.16676
 20
-2.2002000000000002
 30
0.0
 10
1.9813400000000001
 20
-2.3957800000000002
 30
0.0
 10
1.9229200000000002
 20
-2.8733000000000004
 30
0.0
 10
1.7121000000000002
 20
-3.1450800000000001
 30
0.0
 10
1.7121000000000002
 20
-3.1450800000000001
 30
0.0
 10
1.7324200000000001
 20
-2.8961600000000001
 30
0.0
 10
1.7984600000000002
 20
-2.65232
 30
0.0
 10
1.8416400000000002
 20
-2.4084800000000004
 30
0.0
 10
1.8416400000000002
 20
-2.4084800000000004
 30
0.0
 10
1.8467200000000001
 20
-2.2611600000000003
 30
0.0
 10
1.8695800000000002
 20
-2.1189200000000001
 30
0.0
 10
1.9000600000000001
 20
-1.9766800000000002
 30
0.0
 10
1.9000600000000001
 20
-1.9766800000000002
 30
0.0
 10
1.8899000000000001
 20
-1.9335000000000002
 30
0.0
 10
1.9280000000000002
 20
-1.8268200000000001
 30
0.0
 10
1.8594200000000001
 20
-1.8319000000000001
 30
0.0
 10
1.8594200000000001
 20
-1.8319000000000001
 30
0.0
 10
1.8594200000000001
 20
-1.8319000000000001
 30
0.0
 10
1.6511400000000001
 20
-2.1951200000000002
 30
0.0
 10
1.6511400000000001
 20
-2.1951200000000002
 30
0.0
 10
1.6511400000000001
 20
-2.1951200000000002
 30
0.0
 10
1.8314800000000002
 20
-1.4686800000000002
 30
0.0
 10
2.16168
 20
-0.71938
 30
0.0
 10
1.9000600000000001
 20
0.04007
 30
0.0
 10
1.9000600000000001
 20
0.04007
 30
0.0
 10
1.9254600000000002
 20
0.09849
 30
0.0
 10
1.9483200000000001
 20
0.35503
 30
0.0
 10
2.00928
 20
0.19247
 30
0.0
 10
2.00928
 20
0.19247
 30
0.0
 10
2.0931000000000002
 20
0.05277
 30
0.0
 10
2.16168
 20
-0.09708
 30
0.0
 10
2.1972400000000003
 20
-0.25456
 30
0.0
 10
2.1972400000000003
 20
-0.25456
 30
0.0
 10
2.2175600000000002
 20
-0.40188
 30
0.0
 10
2.2709000000000001
 20
-0.5415800000000001
 30
0.0
 10
2.2556600000000002
 20
-0.69906
 30
0.0
 10
2.2556600000000002
 20
-0.69906
 30
0.0
 10
2.2556600000000002
 20
-0.76002
 30
0.0
 10
2.2607400000000002
 20
-0.8311400000000001
 30
0.0
 10
2.2861400000000001
 20
-0.8768600000000001
 30
0.0
 10
2.2861400000000001
 20
-0.8768600000000001
 30
0.0
 10
2.3572600000000001
 20
-0.3307600000000001
 30
0.0
 10
2.3166200000000003
 20
0.28899
 30
0.0
 10
2.21502
 20
0.8249300000000001
 30
0.0
 10
2.21502
 20
0.8249300000000001
 30
0.0
 10
2.21502
 20
0.8249300000000001
 30
0.0
 10
2.3750400000000003
 20
0.30677
 30
0.0
 10
2.3750400000000003
 20
0.30677
 30
0.0
 10
2.3750400000000003
 20
0.30677
 30
0.0
 10
2.3750400000000003
 20
0.30677
 30
0.0
 10
2.4791800000000004
 20
-0.23932
 30
0.0
 10
2.4791800000000004
 20
-0.23932
 30
0.0
 10
2.4791800000000004
 20
-0.23932
 30
0.0
 10
2.5350600000000001
 20
-0.5161800000000001
 30
0.0
 10
2.4029800000000003
 20
-0.82098
 30
0.0
 10
2.5045800000000003
 20
-1.0826
 30
0.0
 10
2.5045800000000003
 20
-1.0826
 30
0.0
 10
2.5528400000000002
 20
-0.4882400000000001
 30
0.0
 10
2.5299800000000001
 20
0.12897
 30
0.0
 10
2.38774
 20
0.70555
 30
0.0
 10
2.38774
 20
0.70555
 30
0.0
 10
2.38774
 20
0.70555
 30
0.0
 10
2.30138
 20
0.9900300000000001
 30
0.0
 10
2.30138
 20
0.9900300000000001
 30
0.0
 10
2.30138
 20
0.9900300000000001
 30
0.0
 10
2.2810600000000001
 20
1.23133
 30
0.0
 10
2.5122
 20
0.58109
 30
0.0
 10
2.4944200000000003
 20
0.4109100000000001
 30
0.0
 10
2.4944200000000003
 20
0.4109100000000001
 30
0.0
 10
2.4944200000000003
 20
0.4109100000000001
 30
0.0
 10
2.6392000000000002
 20
-0.3536200000000001
 30
0.0
 10
2.6392000000000002
 20
-0.3536200000000001
 30
0.0
 10
2.6392000000000002
 20
-0.3536200000000001
 30
0.0
 10
2.6620600000000003
 20
1.02305
 30
0.0
 10
1.9305400000000001
 20
2.2193900000000002
 30
0.0
 10
1.6892400000000001
 20
3.5427300000000002
 30
0.0
 10
1.6892400000000001
 20
3.5427300000000002
 30
0.0
 10
1.56986
 20
3.6722700000000001
 30
0.0
 10
1.4784200000000001
 20
3.8322900000000004
 30
0.0
 10
1.32094
 20
3.9161100000000002
 30
0.0
 10
1.32094
 20
3.9161100000000002
 30
0.0
 10
1.2574400000000001
 20
3.8856300000000004
 30
0.0
 10
1.3819000000000001
 20
3.4487500000000004
 30
0.0
 10
1.2168000000000001
 20
3.7383100000000002
 30
0.0
 10
1.2168000000000001
 20
3.7383100000000002
 30
0.0
 10
1.1583800000000002
 20
3.8957900000000003
 30
0.0
 10
1.0898000000000001
 20
4.0507300000000006
 30
0.0
 10
1.0567800000000001
 20
4.2183700000000002
 30
0.0
 10
1.0567800000000001
 20
4.2183700000000002
 30
0.0
 10
1.0567800000000001
 20
4.2183700000000002
 30
0.0
 10
0.9196200000000001
 20
4.7619300000000004
 30
0.0
 10
0.9196200000000001
 20
4.7619300000000004
 30
0.0
 10
0.9196200000000001
 20
4.7619300000000004
 30
0.0
 10
0.85104
 20
4.9397300000000008
 30
0.0
 10
0.8815200000000001
 20
4.6755700000000004
 30
0.0
 10
0.8866000000000001
 20
4.6196900000000003
 30
0.0
 10
0.8866000000000001
 20
4.6196900000000003
 30
0.0
 10
0.9094600000000001
 20
4.4037900000000008
 30
0.0
 10
0.9983600000000001
 20
4.1523300000000001
 30
0.0
 10
1.0491600000000001
 20
3.9440500000000003
 30
0.0
 10
1.0491600000000001
 20
3.9440500000000003
 30
0.0
 10
1.19648
 20
3.6036900000000003
 30
0.0
 10
0.99582
 20
3.6976700000000005
 30
0.0
 10
0.9475600000000001
 20
3.9745300000000001
 30
0.0
 10
0.9475600000000001
 20
3.9745300000000001
 30
0.0
 10
0.9475600000000001
 20
3.9745300000000001
 30
0.0
 10
0.8408800000000001
 20
4.2259900000000004
 30
0.0
 10
0.8408800000000001
 20
4.2259900000000004
 30
0.0
 10
0.8408800000000001
 20
4.2259900000000004
 30
0.0
 10
0.8408800000000001
 20
4.2259900000000004
 30
0.0
 10
0.7723000000000001
 20
4.4368100000000004
 30
0.0
 10
0.7723000000000001
 20
4.4368100000000004
 30
0.0
 10
0.7723000000000001
 20
4.4368100000000004
 30
0.0
 10
0.68086
 20
4.8025700000000002
 30
0.0
 10
0.7596000000000001
 20
5.2064300000000001
 30
0.0
 10
0.9475600000000001
 20
5.5188500000000005
 30
0.0
 10
0.9475600000000001
 20
5.5188500000000005
 30
0.0
 10
1.11012
 20
5.3156500000000007
 30
0.0
 10
1.14568
 20
5.0387900000000005
 30
0.0
 10
1.27268
 20
4.8254300000000008
 30
0.0
 10
1.27268
 20
4.8254300000000008
 30
0.0
 10
1.2041000000000002
 20
5.2419900000000004
 30
0.0
 10
1.1660000000000001
 20
5.6915700000000005
 30
0.0
 10
0.93232
 20
6.0522500000000008
 30
0.0
 10
0.93232
 20
6.0522500000000008
 30
0.0
 10
0.6275200000000001
 20
5.6814100000000005
 30
0.0
 10
0.5868800000000001
 20
5.1251500000000005
 30
0.0
 10
0.3887600000000001
 20
4.7060500000000003
 30
0.0
 10
0.3887600000000001
 20
4.7060500000000003
 30
0.0
 10
0.31256
 20
4.8025700000000002
 30
0.0
 10
0.34812
 20
4.92957
 30
0.0
 10
0.3557400000000001
 20
5.0438700000000001
 30
0.0
 10
0.3557400000000001
 20
5.0438700000000001
 30
0.0
 10
0.3455800000000001
 20
5.4909100000000004
 30
0.0
 10
0.4624200000000001
 20
5.9608100000000004
 30
0.0
 10
0.6199
 20
6.3494300000000008
 30
0.0
 10
0.6199
 20
6.3494300000000008
 30
0.0
 10
0.42178
 20
6.1716300000000004
 30
0.0
 10
0.42432
 20
5.8490500000000001
 30
0.0
 10
0.32272
 20
5.6128300000000007
 30
0.0
 10
0.32272
 20
5.6128300000000007
 30
0.0
 10
0.32272
 20
5.6128300000000007
 30
0.0
 10
0.17286
 20
5.0057700000000001
 30
0.0
 10
0.17286
 20
5.0057700000000001
 30
0.0
 10
0.17286
 20
5.0057700000000001
 30
0.0
 10
0.11698
 20
4.8482900000000004
 30
0.0
 10
0.08142
 20
4.6654100000000005
 30
0.0
 10
-0.00747
 20
4.5282500000000008
 30
0.0
 10
-0.00747
 20
4.5282500000000008
 30
0.0
 10
-0.21321
 20
4.9981500000000008
 30
0.0
 10
-0.06843
 20
5.5594900000000003
 30
0.0
 10
-0.00239
 20
6.0217700000000001
 30
0.0
 10
-0.00239
 20
6.0217700000000001
 30
0.0
 10
-0.00239
 20
6.0217700000000001
 30
0.0
 10
-0.05319
 20
5.8566700000000003
 30
0.0
 10
-0.05319
 20
5.8566700000000003
 30
0.0
 10
-0.05319
 20
5.8566700000000003
 30
0.0
 10
-0.14209
 20
5.6001300000000001
 30
0.0
 10
-0.19543
 20
5.3410500000000001
 30
0.0
 10
-0.21067
 20
5.0641900000000009
 30
0.0
 10
-0.21067
 20
5.0641900000000009
 30
0.0
 10
-0.25131
 20
5.2419900000000004
 30
0.0
 10
-0.26401
 20
5.5086900000000005
 30
0.0
 10
-0.23861
 20
5.7169700000000008
 30
0.0
 10
-0.23861
 20
5.7169700000000008
 30
0.0
 10
-0.11669
 20
6.0852700000000004
 30
0.0
 10
-0.4164100000000001
 20
6.6847100000000008
 30
0.0
 10
-0.00239
 20
6.8980700000000006
 30
0.0
 10
-0.00239
 20
6.8980700000000006
 30
0.0
 10
0.02046
 20
6.7863100000000003
 30
0.0
 10
-0.09637
 20
6.6516900000000003
 30
0.0
 10
-0.01255
 20
6.5602500000000008
 30
0.0
 10
-0.01255
 20
6.5602500000000008
 30
0.0
 10
0.27446
 20
7.2765300000000002
 30
0.0
 10
0.1246
 20
6.4103900000000005
 30
0.0
 10
-0.00747
 20
6.0954300000000003
 30
0.0
 10
-0.00747
 20
6.0954300000000003
 30
0.0
 10
0.09412
 20
6.0624100000000007
 30
0.0
 10
0.1373
 20
6.5907300000000006
 30
0.0
 10
0.38622
 20
6.6923300000000001
 30
0.0
 10
0.38622
 20
6.6923300000000001
 30
0.0
 10
0.57418
 20
6.6923300000000001
 30
0.0
 10
0.7342000000000001
 20
6.5831100000000005
 30
0.0
 10
0.8561200000000001
 20
6.4383300000000006
 30
0.0
 10
0.8561200000000001
 20
6.4383300000000006
 30
0.0
 10
1.5317600000000002
 20
5.0133900000000002
 30
0.0
 10
1.9000600000000001
 20
3.4944700000000002
 30
0.0
 10
2.21502
 20
1.9730100000000002
 30
0.0
 10
2.21502
 20
1.9730100000000002
 30
0.0
 10
2.2429600000000001
 20
1.8409300000000002
 30
0.0
 10
2.2963
 20
1.7342500000000001
 30
0.0
 10
2.3521800000000002
 20
1.6097900000000001
 30
0.0
  0
SPLINE
  5
27
100
AcDbEntity
  8
Ebene 1
 62
     7
100
AcDbSpline
210
0.0
220
0.0
230
1.0
 70
     1
 71
     3
 72
    88
 73
    84
 74
     0
 42
0.0000000001
 43
0.0000000001
 40
0.0
 40
0.0
 40
0.0
 40
0.0
 40
0.0476190476190476
 40
0.0476190476190476
 40
0.0476190476190476
 40
0.0476190476190476
 40
0.0952380952380952
 40
0.0952380952380952
 40
0.0952380952380952
 40
0.0952380952380952
 40
0.1428571428571429
 40
0.1428571428571429
 40
0.1428571428571429
 40
0.1428571428571429
 40
0.1904761904761905
 40
0.1904761904761905
 40
0.1904761904761905
 40
0.1904761904761905
 40
0.2380952380952381
 40
0.2380952380952381
 40
0.2380952380952381
 40
0.2380952380952381
 40
0.2857142857142857
 40
0.2857142857142857
 40
0.2857142857142857
 40
0.2857142857142857
 40
0.3333333333333333
 40
0.3333333333333333
 40
0.3333333333333333
 40
0.3333333333333333
 40
0.3809523809523809
 40
0.3809523809523809
 40
0.3809523809523809
 40
0.3809523809523809
 40
0.4285714285714286
 40
0.4285714285714286
 40
0.4285714285714286
 40
0.4285714285714286
 40
0.4761904761904762
 40
0.4761904761904762
 40
0.4761904761904762
 40
0.4761904761904762
 40
0.5238095238095237
 40
0.5238095238095237
 40
0.5238095238095237
 40
0.5238095238095237
 40
0.5714285714285714
 40
0.5714285714285714
 40
0.5714285714285714
 40
0.5714285714285714
 40
0.6190476190476191
 40
0.6190476190476191
 40
0.6190476190476191
 40
0.6190476190476191
 40
0.6666666666666667
 40
0.6666666666666667
 40
0.6666666666666667
 40
0.6666666666666667
 40
0.7142857142857144
 40
0.7142857142857144
 40
0.7142857142857144
 40
0.7142857142857144
 40
0.7619047619047621
 40
0.7619047619047621
 40
0.7619047619047621
 40
0.7619047619047621
 40
0.8095238095238098
 40
0.8095238095238098
 40
0.8095238095238098
 40
0.8095238095238098
 40
0.8571428571428574
 40
0.8571428571428574
 40
0.8571428571428574
 40
0.8571428571428574
 40
0.9047619047619051
 40
0.9047619047619051
 40
0.9047619047619051
 40
0.9047619047619051
 40
0.9523809523809528
 40
0.9523809523809528
 40
0.9523809523809528
 40
0.9523809523809528
 40
1.0
 40
1.0
 40
1.0
 40
1.0
 10
-0.29449
 20
4.8965500000000004
 30
0.0
 10
-0.29449
 20
4.8965500000000004
 30
0.0
 10
-0.5637300000000001
 20
5.7576100000000006
 30
0.0
 10
-0.5637300000000001
 20
5.7576100000000006
 30
0.0
 10
-0.5637300000000001
 20
5.7576100000000006
 30
0.0
 10
-0.5637300000000001
 20
5.7576100000000006
 30
0.0
 10
-0.48753
 20
5.2521500000000003
 30
0.0
 10
-0.48753
 20
5.2521500000000003
 30
0.0
 10
-0.48753
 20
5.2521500000000003
 30
0.0
 10
-0.48753
 20
5.2521500000000003
 30
0.0
 10
-0.4291100000000001
 20
4.8508300000000002
 30
0.0
 10
-0.4291100000000001
 20
4.8508300000000002
 30
0.0
 10
-0.4291100000000001
 20
4.8508300000000002
 30
0.0
 10
-0.4291100000000001
 20
4.8508300000000002
 30
0.0
 10
-0.4164100000000001
 20
4.7365300000000001
 30
0.0
 10
-0.4164100000000001
 20
4.7365300000000001
 30
0.0
 10
-0.4164100000000001
 20
4.7365300000000001
 30
0.0
 10
-0.61199
 20
5.0387900000000005
 30
0.0
 10
-0.7720100000000001
 20
5.4223300000000005
 30
0.0
 10
-0.84567
 20
5.7576100000000006
 30
0.0
 10
-0.84567
 20
5.7576100000000006
 30
0.0
 10
-0.9548900000000001
 20
5.7804700000000002
 30
0.0
 10
-0.90917
 20
5.6356900000000003
 30
0.0
 10
-0.9472700000000001
 20
5.5798100000000002
 30
0.0
 10
-0.9472700000000001
 20
5.5798100000000002
 30
0.0
 10
-0.9472700000000001
 20
5.5798100000000002
 30
0.0
 10
-1.07681
 20
5.2191300000000007
 30
0.0
 10
-1.07681
 20
5.2191300000000007
 30
0.0
 10
-1.07681
 20
5.2191300000000007
 30
0.0
 10
-1.16317
 20
4.9829100000000004
 30
0.0
 10
-1.0742700000000001
 20
5.0845100000000008
 30
0.0
 10
-0.9752100000000001
 20
5.2191300000000007
 30
0.0
 10
-0.9752100000000001
 20
5.2191300000000007
 30
0.0
 10
-0.9752100000000001
 20
5.2191300000000007
 30
0.0
 10
-0.9218700000000001
 20
5.3080300000000005
 30
0.0
 10
-0.9218700000000001
 20
5.3080300000000005
 30
0.0
 10
-0.9218700000000001
 20
5.3080300000000005
 30
0.0
 10
-0.57643
 20
4.9524300000000006
 30
0.0
 10
-0.48753
 20
4.1548700000000007
 30
0.0
 10
-0.9142500000000001
 20
3.8602300000000005
 30
0.0
 10
-0.9142500000000001
 20
3.8602300000000005
 30
0.0
 10
-0.8964700000000001
 20
3.9897700000000005
 30
0.0
 10
-0.8736100000000001
 20
4.1193100000000005
 30
0.0
 10
-0.8736100000000001
 20
4.2564700000000002
 30
0.0
 10
-0.8736100000000001
 20
4.2564700000000002
 30
0.0
 10
-0.9015500000000001
 20
4.4139500000000007
 30
0.0
 10
-0.82789
 20
4.6577900000000003
 30
0.0
 10
-0.9015500000000001
 20
4.7593900000000007
 30
0.0
 10
-0.9015500000000001
 20
4.7593900000000007
 30
0.0
 10
-0.9015500000000001
 20
4.7593900000000007
 30
0.0
 10
-0.9193300000000001
 20
4.5257100000000001
 30
0.0
 10
-0.9193300000000001
 20
4.5257100000000001
 30
0.0
 10
-0.9193300000000001
 20
4.5257100000000001
 30
0.0
 10
-0.9675900000000001
 20
4.2691699999999999
 30
0.0
 10
-1.03363
 20
4.0100899999999999
 30
0.0
 10
-1.16571
 20
3.7789500000000005
 30
0.0
 10
-1.16571
 20
3.7789500000000005
 30
0.0
 10
-1.16571
 20
3.7789500000000005
 30
0.0
 10
-1.3612900000000001
 20
3.5782900000000004
 30
0.0
 10
-1.3612900000000001
 20
3.5782900000000004
 30
0.0
 10
-1.3612900000000001
 20
3.5782900000000004
 30
0.0
 10
-1.3612900000000001
 20
3.5782900000000004
 30
0.0
 10
-1.1149100000000001
 20
4.8178100000000006
 30
0.0
 10
-1.1149100000000001
 20
4.8178100000000006
 30
0.0
 10
-1.1149100000000001
 20
4.8178100000000006
 30
0.0
 10
-1.1149100000000001
 20
4.8178100000000006
 30
0.0
 10
-1.2342900000000001
 20
4.5282500000000008
 30
0.0
 10
-1.2342900000000001
 20
4.5282500000000008
 30
0.0
 10
-1.2342900000000001
 20
4.5282500000000008
 30
0.0
 10
-1.2850900000000001
 20
4.2640900000000004
 30
0.0
 10
-1.41717
 20
4.0177100000000001
 30
0.0
 10
-1.6584700000000001
 20
3.8754700000000004
 30
0.0
 10
-1.6584700000000001
 20
3.8754700000000004
 30
0.0
 10
-1.7219700000000002
 20
4.16249
 30
0.0
 10
-1.4476500000000001
 20
4.4266500000000004
 30
0.0
 10
-1.3612900000000001
 20
4.7009700000000008
 30
0.0
 10
-1.3612900000000001
 20
4.7009700000000008
 30
0.0
 10
-0.8964700000000001
 20
5.2826300000000002
 30
0.0
 10
-1.1174500000000001
 20
6.3265700000000002
 30
0.0
 10
-0.39863
 20
6.6466100000000008
 30
0.0
 10
-0.39863
 20
6.6466100000000008
 30
0.0
 10
-0.20559
 20
6.1132100000000005
 30
0.0
 10
-0.36815
 20
5.4680500000000007
 30
0.0
 10
-0.29449
 20
4.8965500000000004
 30
0.0
  0
SPLINE
  5
28
100
AcDbEntity
  8
Ebene 1
 62
     7
100
AcDbSpline
210
0.0
220
0.0
230
1.0
 70
     1
 71
     3
 72
    12
 73
     8
 74
     0
 42
0.0000000001
 43
0.0000000001
 40
0.0
 40
0.0
 40
0.0
 40
0.0
 40
0.5
 40
0.5
 40
0.5
 40
0.5
 40
1.0
 40
1.0
 40
1.0
 40
1.0
 10
-0.53325
 20
4.4647500000000004
 30
0.0
 10
-0.47229
 20
4.4545900000000005
 30
0.0
 10
-0.37831
 20
4.4164900000000005
 30
0.0
 10
-0.37323
 20
4.3504500000000004
 30
0.0
 10
-0.37323
 20
4.3504500000000004
 30
0.0
 10
-0.44181
 20
4.34537
 30
0.0
 10
-0.51039
 20
4.4012500000000001
 30
0.0
 10
-0.53325
 20
4.4647500000000004
 30
0.0
  0
SPLINE
  5
29
100
AcDbEntity
  8
Ebene 1
 62
     7
100
AcDbSpline
210
0.0
220
0.0
230
1.0
 70
     1
 71
     3
 72
    20
 73
    16
 74
     0
 42
0.0000000001
 43
0.0000000001
 40
0.0
 40
0.0
 40
0.0
 40
0.0
 40
0.25
 40
0.25
 40
0.25
 40
0.25
 40
0.5
 40
0.5
 40
0.5
 40
0.5
 40
0.75
 40
0.75
 40
0.75
 40
0.75
 40
1.0
 40
1.0
 40
1.0
 40
1.0
 10
0.4294000000000001
 20
4.4647500000000004
 30
0.0
 10
0.44464
 20
4.4672900000000002
 30
0.0
 10
0.44718
 20
4.4469700000000003
 30
0.0
 10
0.4421000000000001
 20
4.4393500000000001
 30
0.0
 10
0.4421000000000001
 20
4.4393500000000001
 30
0.0
 10
0.2389
 20
4.2894900000000007
 30
0.0
 10
-0.04303
 20
4.2767900000000001
 30
0.0
 10
-0.27671
 20
4.3072699999999999
 30
0.0
 10
-0.27671
 20
4.3072699999999999
 30
0.0
 10
-0.27671
 20
4.3072699999999999
 30
0.0
 10
-0.29449
 20
4.3606100000000003
 30
0.0
 10
-0.29449
 20
4.3606100000000003
 30
0.0
 10
-0.29449
 20
4.3606100000000003
 30
0.0
 10
-0.06589
 20
4.3606100000000003
 30
0.0
 10
0.2135
 20
4.3707700000000003
 30
0.0
 10
0.4294000000000001
 20
4.4647500000000004
 30
0.0
  0
SPLINE
  5
2A
100
AcDbEntity
  8
Ebene 1
 62
     7
100
AcDbSpline
210
0.0
220
0.0
230
1.0
 70
     1
 71
     3
 72
    16
 73
    12
 74
     0
 42
0.0000000001
 43
0.0000000001
 40
0.0
 40
0.0
 40
0.0
 40
0.0
 40
0.3333333333333333
 40
0.3333333333333333
 40
0.3333333333333333
 40
0.3333333333333333
 40
0.6666666666666666
 40
0.6666666666666666
 40
0.6666666666666666
 40
0.6666666666666666
 40
1.0
 40
1.0
 40
1.0
 40
1.0
 10
0.6224400000000001
 20
4.4647500000000004
 30
0.0
 10
0.7138800000000001
 20
4.28695
 30
0.0
 10
0.7900800000000001
 20
4.07613
 30
0.0
 10
0.82818
 20
3.8754700000000004
 30
0.0
 10
0.82818
 20
3.8754700000000004
 30
0.0
 10
0.7570600000000001
 20
3.8703900000000004
 30
0.0
 10
0.68086
 20
3.8780100000000002
 30
0.0
 10
0.6275200000000001
 20
3.9211900000000002
 30
0.0
 10
0.6275200000000001
 20
3.9211900000000002
 30
0.0
 10
0.61736
 20
4.1040700000000001
 30
0.0
 10
0.5945
 20
4.2793300000000007
 30
0.0
 10
0.6224400000000001
 20
4.4647500000000004
 30
0.0
  0
SPLINE
  5
2B
100
AcDbEntity
  8
Ebene 1
 62
     7
100
AcDbSpline
210
0.0
220
0.0
230
1.0
 70
     1
 71
     3
 72
    28
 73
    24
 74
     0
 42
0.0000000001
 43
0.0000000001
 40
0.0
 40
0.0
 40
0.0
 40
0.0
 40
0.1666666666666667
 40
0.1666666666666667
 40
0.1666666666666667
 40
0.1666666666666667
 40
0.3333333333333333
 40
0.3333333333333333
 40
0.3333333333333333
 40
0.3333333333333333
 40
0.5
 40
0.5
 40
0.5
 40
0.5
 40
0.6666666666666666
 40
0.6666666666666666
 40
0.6666666666666666
 40
0.6666666666666666
 40
0.8333333333333333
 40
0.8333333333333333
 40
0.8333333333333333
 40
0.8333333333333333
 40
1.0
 40
1.0
 40
1.0
 40
1.0
 10
0.3557400000000001
 20
4.3326700000000002
 30
0.0
 10
0.3659
 20
4.3326700000000002
 30
0.0
 10
0.3887600000000001
 20
4.33521
 30
0.0
 10
0.38622
 20
4.3174300000000008
 30
0.0
 10
0.38622
 20
4.3174300000000008
 30
0.0
 10
0.38622
 20
4.3174300000000008
 30
0.0
 10
0.32272
 20
3.6087700000000003
 30
0.0
 10
0.32272
 20
3.6087700000000003
 30
0.0
 10
0.32272
 20
3.6087700000000003
 30
0.0
 10
0.20842
 20
3.5478100000000001
 30
0.0
 10
0.06364
 20
3.4690700000000003
 30
0.0
 10
-0.05319
 20
3.5655900000000003
 30
0.0
 10
-0.05319
 20
3.5655900000000003
 30
0.0
 10
-0.13955
 20
3.6595700000000004
 30
0.0
 10
-0.12939
 20
3.7891100000000004
 30
0.0
 10
-0.08875
 20
3.9008700000000003
 30
0.0
 10
-0.08875
 20
3.9008700000000003
 30
0.0
 10
-0.24623
 20
3.9897700000000005
 30
0.0
 10
-0.12685
 20
4.1294700000000004
 30
0.0
 10
-0.02271
 20
4.2386900000000001
 30
0.0
 10
-0.02271
 20
4.2386900000000001
 30
0.0
 10
-0.02271
 20
4.2386900000000001
 30
0.0
 10
0.3557400000000001
 20
4.3326700000000002
 30
0.0
 10
0.3557400000000001
 20
4.3326700000000002
 30
0.0
  0
SPLINE
  5
2C
100
AcDbEntity
  8
Ebene 1
 62
     7
100
AcDbSpline
210
0.0
220
0.0
230
1.0
 70
     1
 71
     3
 72
    20
 73
    16
 74
     0
 42
0.0000000001
 43
0.0000000001
 40
0.0
 40
0.0
 40
0.0
 40
0.0
 40
0.25
 40
0.25
 40
0.25
 40
0.25
 40
0.5
 40
0.5
 40
0.5
 40
0.5
 40
0.75
 40
0.75
 40
0.75
 40
0.75
 40
1.0
 40
1.0
 40
1.0
 40
1.0
 10
-0.48753
 20
4.3174300000000008
 30
0.0
 10
-0.35037
 20
4.24885
 30
0.0
 10
-0.3325900000000001
 20
4.0278700000000001
 30
0.0
 10
-0.37069
 20
3.8856300000000004
 30
0.0
 10
-0.37069
 20
3.8856300000000004
 30
0.0
 10
-0.28687
 20
3.7840300000000004
 30
0.0
 10
-0.13701
 20
3.6722700000000001
 30
0.0
 10
-0.29449
 20
3.5579700000000001
 30
0.0
 10
-0.29449
 20
3.5579700000000001
 30
0.0
 10
-0.29449
 20
3.5579700000000001
 30
0.0
 10
-0.3656100000000001
 20
3.5935300000000003
 30
0.0
 10
-0.3656100000000001
 20
3.5935300000000003
 30
0.0
 10
-0.3656100000000001
 20
3.5935300000000003
 30
0.0
 10
-0.3656100000000001
 20
3.5935300000000003
 30
0.0
 10
-0.48753
 20
4.3174300000000008
 30
0.0
 10
-0.48753
 20
4.3174300000000008
 30
0.0
  0
SPLINE
  5
2D
100
AcDbEntity
  8
Ebene 1
 62
     7
100
AcDbSpline
210
0.0
220
0.0
230
1.0
 70
     1
 71
     3
 72
   196
 73
   192
 74
     0
 42
0.0000000001
 43
0.0000000001
 40
0.0
 40
0.0
 40
0.0
 40
0.0
 40
0.0208333333333333
 40
0.0208333333333333
 40
0.0208333333333333
 40
0.0208333333333333
 40
0.0416666666666667
 40
0.0416666666666667
 40
0.0416666666666667
 40
0.0416666666666667
 40
0.0625
 40
0.0625
 40
0.0625
 40
0.0625
 40
0.0833333333333333
 40
0.0833333333333333
 40
0.0833333333333333
 40
0.0833333333333333
 40
0.1041666666666667
 40
0.1041666666666667
 40
0.1041666666666667
 40
0.1041666666666667
 40
0.125
 40
0.125
 40
0.125
 40
0.125
 40
0.1458333333333333
 40
0.1458333333333333
 40
0.1458333333333333
 40
0.1458333333333333
 40
0.1666666666666667
 40
0.1666666666666667
 40
0.1666666666666667
 40
0.1666666666666667
 40
0.1875
 40
0.1875
 40
0.1875
 40
0.1875
 40
0.2083333333333333
 40
0.2083333333333333
 40
0.2083333333333333
 40
0.2083333333333333
 40
0.2291666666666667
 40
0.2291666666666667
 40
0.2291666666666667
 40
0.2291666666666667
 40
0.25
 40
0.25
 40
0.25
 40
0.25
 40
0.2708333333333333
 40
0.2708333333333333
 40
0.2708333333333333
 40
0.2708333333333333
 40
0.2916666666666666
 40
0.2916666666666666
 40
0.2916666666666666
 40
0.2916666666666666
 40
0.3124999999999999
 40
0.3124999999999999
 40
0.3124999999999999
 40
0.3124999999999999
 40
0.3333333333333333
 40
0.3333333333333333
 40
0.3333333333333333
 40
0.3333333333333333
 40
0.3541666666666666
 40
0.3541666666666666
 40
0.3541666666666666
 40
0.3541666666666666
 40
0.3749999999999999
 40
0.3749999999999999
 40
0.3749999999999999
 40
0.3749999999999999
 40
0.3958333333333332
 40
0.3958333333333332
 40
0.3958333333333332
 40
0.3958333333333332
 40
0.4166666666666665
 40
0.4166666666666665
 40
0.4166666666666665
 40
0.4166666666666665
 40
0.4374999999999998
 40
0.4374999999999998
 40
0.4374999999999998
 40
0.4374999999999998
 40
0.4583333333333332
 40
0.4583333333333332
 40
0.4583333333333332
 40
0.4583333333333332
 40
0.4791666666666665
 40
0.4791666666666665
 40
0.4791666666666665
 40
0.4791666666666665
 40
0.4999999999999998
 40
0.4999999999999998
 40
0.4999999999999998
 40
0.4999999999999998
 40
0.5208333333333332
 40
0.5208333333333332
 40
0.5208333333333332
 40
0.5208333333333332
 40
0.5416666666666665
 40
0.5416666666666665
 40
0.5416666666666665
 40
0.5416666666666665
 40
0.5624999999999999
 40
0.5624999999999999
 40
0.5624999999999999
 40
0.5624999999999999
 40
0.5833333333333333
 40
0.5833333333333333
 40
0.5833333333333333
 40
0.5833333333333333
 40
0.6041666666666666
 40
0.6041666666666666
 40
0.6041666666666666
 40
0.6041666666666666
 40
0.625
 40
0.625
 40
0.625
 40
0.625
 40
0.6458333333333334
 40
0.6458333333333334
 40
0.6458333333333334
 40
0.6458333333333334
 40
0.6666666666666667
 40
0.6666666666666667
 40
0.6666666666666667
 40
0.6666666666666667
 40
0.6875000000000001
 40
0.6875000000000001
 40
0.6875000000000001
 40
0.6875000000000001
 40
0.7083333333333335
 40
0.7083333333333335
 40
0.7083333333333335
 40
0.7083333333333335
 40
0.7291666666666669
 40
0.7291666666666669
 40
0.7291666666666669
 40
0.7291666666666669
 40
0.7500000000000002
 40
0.7500000000000002
 40
0.7500000000000002
 40
0.7500000000000002
 40
0.7708333333333336
 40
0.7708333333333336
 40
0.7708333333333336
 40
0.7708333333333336
 40
0.791666666666667
 40
0.791666666666667
 40
0.791666666666667
 40
0.791666666666667
 40
0.8125000000000003
 40
0.8125000000000003
 40
0.8125000000000003
 40
0.8125000000000003
 40
0.8333333333333337
 40
0.8333333333333337
 40
0.8333333333333337
 40
0.8333333333333337
 40
0.8541666666666671
 40
0.8541666666666671
 40
0.8541666666666671
 40
0.8541666666666671
 40
0.8750000000000004
 40
0.8750000000000004
 40
0.8750000000000004
 40
0.8750000000000004
 40
0.8958333333333338
 40
0.8958333333333338
 40
0.8958333333333338
 40
0.8958333333333338
 40
0.9166666666666672
 40
0.9166666666666672
 40
0.9166666666666672
 40
0.9166666666666672
 40
0.9375000000000006
 40
0.9375000000000006
 40
0.9375000000000006
 40
0.9375000000000006
 40
0.9583333333333339
 40
0.9583333333333339
 40
0.9583333333333339
 40
0.9583333333333339
 40
0.9791666666666673
 40
0.9791666666666673
 40
0.9791666666666673
 40
0.9791666666666673
 40
1.0
 40
1.0
 40
1.0
 40
1.0
 10
-0.5027700000000001
 20
3.8272100000000004
 30
0.0
 10
-0.7491500000000001
 20
3.2480900000000004
 30
0.0
 10
0.6453000000000001
 20
3.1439500000000002
 30
0.0
 10
0.40146
 20
3.7967300000000002
 30
0.0
 10
0.40146
 20
3.7967300000000002
 30
0.0
 10
1.2244200000000001
 20
3.9669100000000004
 30
0.0
 10
1.5774800000000002
 20
2.8289900000000001
 30
0.0
 10
0.8942200000000001
 20
2.6435700000000004
 30
0.0
 10
0.8942200000000001
 20
2.6435700000000004
 30
0.0
 10
1.3742800000000002
 20
2.4937100000000001
 30
0.0
 10
1.4098400000000002
 20
3.3090500000000005
 30
0.0
 10
1.4504800000000002
 20
3.6468700000000003
 30
0.0
 10
1.4504800000000002
 20
3.6468700000000003
 30
0.0
 10
1.9102200000000003
 20
3.1007700000000002
 30
0.0
 10
1.7273400000000001
 20
2.3489300000000002
 30
0.0
 10
1.5774800000000002
 20
1.7672700000000001
 30
0.0
 10
1.5774800000000002
 20
1.7672700000000001
 30
0.0
 10
1.5774800000000002
 20
1.7672700000000001
 30
0.0
 10
1.7197200000000001
 20
1.7063100000000002
 30
0.0
 10
1.7197200000000001
 20
1.7063100000000002
 30
0.0
 10
1.7197200000000001
 20
1.7063100000000002
 30
0.0
 10
1.6308200000000002
 20
1.9399900000000001
 30
0.0
 10
1.7679800000000001
 20
2.20669
 30
0.0
 10
1.8543400000000001
 20
2.4302100000000002
 30
0.0
 10
1.8543400000000001
 20
2.4302100000000002
 30
0.0
 10
2.2582
 20
1.7850500000000002
 30
0.0
 10
1.8213200000000001
 20
0.9824100000000001
 30
0.0
 10
2.0169000000000001
 20
0.5633100000000001
 30
0.0
 10
2.0169000000000001
 20
0.5633100000000001
 30
0.0
 10
1.9432400000000001
 20
0.53791
 30
0.0
 10
1.8797400000000002
 20
0.47695
 30
0.0
 10
1.8010000000000002
 20
0.48965
 30
0.0
 10
1.8010000000000002
 20
0.48965
 30
0.0
 10
1.78068
 20
0.87065
 30
0.0
 10
1.8797400000000002
 20
1.27197
 30
0.0
 10
1.7222600000000001
 20
1.61487
 30
0.0
 10
1.7222600000000001
 20
1.61487
 30
0.0
 10
1.7044800000000002
 20
1.5767700000000002
 30
0.0
 10
1.6613000000000002
 20
1.5869300000000002
 30
0.0
 10
1.6232000000000002
 20
1.5818500000000002
 30
0.0
 10
1.6232000000000002
 20
1.5818500000000002
 30
0.0
 10
1.7679800000000001
 20
1.06369
 30
0.0
 10
1.8137000000000001
 20
0.24327
 30
0.0
 10
1.4276200000000001
 20
-0.24948
 30
0.0
 10
1.4276200000000001
 20
-0.24948
 30
0.0
 10
1.5317600000000002
 20
-0.36124
 30
0.0
 10
1.6816200000000001
 20
0.02229
 30
0.0
 10
1.6740000000000002
 20
-0.17582
 30
0.0
 10
1.6740000000000002
 20
-0.17582
 30
0.0
 10
1.40222
 20
-0.49586
 30
0.0
 10
1.11012
 20
-0.5136400000000001
 30
0.0
 10
0.7748400000000001
 20
-0.4222
 30
0.0
 10
0.7748400000000001
 20
-0.4222
 30
0.0
 10
0.6681600000000001
 20
-0.53142
 30
0.0
 10
0.59958
 20
-0.6660400000000001
 30
0.0
 10
0.53354
 20
-0.8032
 30
0.0
 10
0.53354
 20
-0.8032
 30
0.0
 10
0.6097400000000001
 20
-0.9225800000000001
 30
0.0
 10
0.6707000000000001
 20
-0.6406400000000001
 30
0.0
 10
0.7519800000000001
 20
-0.6279400000000001
 30
0.0
 10
0.7519800000000001
 20
-0.6279400000000001
 30
0.0
 10
0.7494400000000001
 20
-0.8565400000000001
 30
0.0
 10
0.8815200000000001
 20
-1.8598400000000002
 30
0.0
 10
0.6961000000000001
 20
-1.2781800000000001
 30
0.0
 10
0.6961000000000001
 20
-1.2781800000000001
 30
0.0
 10
0.71896
 20
-1.21214
 30
0.0
 10
0.6529200000000001
 20
-1.1791200000000002
 30
0.0
 10
0.6681600000000001
 20
-1.2654800000000002
 30
0.0
 10
0.6681600000000001
 20
-1.2654800000000002
 30
0.0
 10
0.6681600000000001
 20
-1.2654800000000002
 30
0.0
 10
0.6656200000000001
 20
-1.4534400000000001
 30
0.0
 10
0.6656200000000001
 20
-1.4534400000000001
 30
0.0
 10
0.6656200000000001
 20
-1.4534400000000001
 30
0.0
 10
0.50814
 20
-1.0546600000000002
 30
0.0
 10
0.6199
 20
-1.7176000000000002
 30
0.0
 10
0.55894
 20
-1.8903200000000002
 30
0.0
 10
0.55894
 20
-1.8903200000000002
 30
0.0
 10
0.51576
 20
-1.7607800000000002
 30
0.0
 10
0.37352
 20
-1.5601200000000002
 30
0.0
 10
0.41162
 20
-1.3569200000000001
 30
0.0
 10
0.41162
 20
-1.3569200000000001
 30
0.0
 10
0.41162
 20
-1.3569200000000001
 30
0.0
 10
0.3684400000000001
 20
-1.3899400000000002
 30
0.0
 10
0.3684400000000001
 20
-1.3899400000000002
 30
0.0
 10
0.3684400000000001
 20
-1.3899400000000002
 30
0.0
 10
0.3684400000000001
 20
-1.3899400000000002
 30
0.0
 10
0.35828
 20
-1.5575800000000002
 30
0.0
 10
0.35828
 20
-1.5575800000000002
 30
0.0
 10
0.35828
 20
-1.5575800000000002
 30
0.0
 10
0.35828
 20
-1.5575800000000002
 30
0.0
 10
0.26684
 20
-1.7379200000000001
 30
0.0
 10
0.26684
 20
-1.7379200000000001
 30
0.0
 10
0.26684
 20
-1.7379200000000001
 30
0.0
 10
0.26684
 20
-1.7379200000000001
 30
0.0
 10
0.17794
 20
-1.9030200000000002
 30
0.0
 10
0.17794
 20
-1.9030200000000002
 30
0.0
 10
0.17794
 20
-1.9030200000000002
 30
0.0
 10
0.0738
 20
-1.7658600000000002
 30
0.0
 10
0.20334
 20
-1.45852
 30
0.0
 10
0.04332
 20
-1.7099800000000001
 30
0.0
 10
0.04332
 20
-1.7099800000000001
 30
0.0
 10
-0.09637
 20
-1.5017
 30
0.0
 10
-0.05319
 20
-2.0173200000000002
 30
0.0
 10
-0.14971
 20
-2.1214600000000003
 30
0.0
 10
-0.14971
 20
-2.1214600000000003
 30
0.0
 10
-0.13701
 20
-1.7785600000000001
 30
0.0
 10
-0.11669
 20
-1.6210800000000001
 30
0.0
 10
-0.16495
 20
-1.5194800000000002
 30
0.0
 10
-0.16495
 20
-1.5194800000000002
 30
0.0
 10
-0.23353
 20
-1.71252
 30
0.0
 10
-0.23861
 20
-1.7811000000000001
 30
0.0
 10
-0.30719
 20
-1.5499600000000002
 30
0.0
 10
-0.30719
 20
-1.5499600000000002
 30
0.0
 10
-0.30973
 20
-1.6820400000000002
 30
0.0
 10
-0.39863
 20
-1.8369800000000001
 30
0.0
 10
-0.45451
 20
-1.9563600000000001
 30
0.0
 10
-0.45451
 20
-1.9563600000000001
 30
0.0
 10
-0.4824500000000001
 20
-1.8471400000000002
 30
0.0
 10
-0.40879
 20
-1.33406
 30
0.0
 10
-0.48753
 20
-1.54488
 30
0.0
 10
-0.48753
 20
-1.54488
 30
0.0
 10
-0.5002300000000001
 20
-1.6134600000000001
 30
0.0
 10
-0.53579
 20
-1.5017
 30
0.0
 10
-0.5434100000000001
 20
-1.4813800000000001
 30
0.0
 10
-0.5434100000000001
 20
-1.4813800000000001
 30
0.0
 10
-0.57389
 20
-1.45852
 30
0.0
 10
-0.61707
 20
-1.41788
 30
0.0
 10
-0.5815100000000001
 20
-1.37978
 30
0.0
 10
-0.5815100000000001
 20
-1.37978
 30
0.0
 10
-0.5815100000000001
 20
-1.37978
 30
0.0
 10
-0.57643
 20
-1.29342
 30
0.0
 10
-0.57643
 20
-1.29342
 30
0.0
 10
-0.57643
 20
-1.29342
 30
0.0
 10
-0.6043700000000001
 20
-1.0648200000000001
 30
0.0
 10
-0.7491500000000001
 20
-1.6845800000000002
 30
0.0
 10
-0.74153
 20
-1.3823200000000002
 30
0.0
 10
-0.74153
 20
-1.3823200000000002
 30
0.0
 10
-0.74153
 20
-1.3823200000000002
 30
0.0
 10
-0.7567700000000001
 20
-1.1740400000000002
 30
0.0
 10
-0.7567700000000001
 20
-1.1740400000000002
 30
0.0
 10
-0.7567700000000001
 20
-1.1740400000000002
 30
0.0
 10
-0.6729500000000001
 20
-0.88448
 30
0.0
 10
-0.67803
 20
-0.71684
 30
0.0
 10
-0.53325
 20
-1.0699000000000001
 30
0.0
 10
-0.53325
 20
-1.0699000000000001
 30
0.0
 10
-0.54849
 20
-0.88448
 30
0.0
 10
-0.6221500000000001
 20
-0.6508000000000001
 30
0.0
 10
-0.7364500000000001
 20
-0.473
 30
0.0
 10
-0.7364500000000001
 20
-0.473
 30
0.0
 10
-1.0082300000000002
 20
-0.4044200000000001
 30
0.0
 10
-1.3155700000000001
 20
-0.7473200000000001
 30
0.0
 10
-1.6432300000000002
 20
-0.4272800000000001
 30
0.0
 10
-1.6432300000000002
 20
-0.4272800000000001
 30
0.0
 10
-1.7295900000000002
 20
-0.2317
 30
0.0
 10
-1.5136900000000002
 20
-0.3536200000000001
 30
0.0
 10
-1.4400300000000001
 20
-0.34346
 30
0.0
 10
-1.4400300000000001
 20
-0.34346
 30
0.0
 10
-1.5111500000000002
 20
-0.25456
 30
0.0
 10
-1.6762500000000002
 20
-0.2571
 30
0.0
 10
-1.7168900000000002
 20
-0.1301
 30
0.0
 10
-1.7168900000000002
 20
-0.1301
 30
0.0
 10
-1.4705100000000002
 20
0.21279
 30
0.0
 10
-1.67371
 20
0.62173
 30
0.0
 10
-1.8845300000000003
 20
0.9468500000000001
 30
0.0
 10
-1.8845300000000003
 20
0.9468500000000001
 30
0.0
 10
-1.7321300000000002
 20
1.2541900000000001
 30
0.0
 10
-1.8261100000000001
 20
1.5996300000000001
 30
0.0
 10
-1.6178300000000001
 20
1.86633
 30
0.0
 10
-1.6178300000000001
 20
1.86633
 30
0.0
 10
-1.8438900000000003
 20
2.2752700000000003
 30
0.0
 10
-2.0293100000000002
 20
2.7375500000000001
 30
0.0
 10
-1.8997700000000002
 20
3.2328500000000004
 30
0.0
 10
-1.8997700000000002
 20
3.2328500000000004
 30
0.0
 10
-1.8464300000000002
 20
3.4360500000000003
 30
0.0
 10
-1.7118100000000001
 20
3.6189300000000002
 30
0.0
 10
-1.58735
 20
3.7814900000000002
 30
0.0
 10
-1.58735
 20
3.7814900000000002
 30
0.0
 10
-1.6178300000000001
 20
3.4919300000000004
 30
0.0
 10
-1.6813300000000002
 20
3.0855300000000003
 30
0.0
 10
-1.4476500000000001
 20
2.8366100000000003
 30
0.0
 10
-1.4476500000000001
 20
2.8366100000000003
 30
0.0
 10
-1.2723900000000001
 20
2.6080100000000002
 30
0.0
 10
-0.82535
 20
2.3514700000000004
 30
0.0
 10
-0.7872500000000001
 20
2.7680300000000004
 30
0.0
 10
-0.7872500000000001
 20
2.7680300000000004
 30
0.0
 10
-0.9015500000000001
 20
2.7477100000000001
 30
0.0
 10
-0.99299
 20
2.55213
 30
0.0
 10
-1.1123700000000001
 20
2.63849
 30
0.0
 10
-1.1123700000000001
 20
2.63849
 30
0.0
 10
-1.9099300000000001
 20
2.9788500000000004
 30
0.0
 10
-1.0717300000000001
 20
3.8703900000000004
 30
0.0
 10
-0.5027700000000001
 20
3.8272100000000004
 30
0.0
  0
SPLINE
  5
2E
100
AcDbEntity
  8
Ebene 1
100
AcDbSpline
210
0.0
220
0.0
230
1.0
 70
     1
 71
     3
 72
    24
 73
    20
 74
     0
 42
0.0000000001
 43
0.0000000001
 40
0.0
 40
0.0
 40
0.0
 40
0.0
 40
0.2
 40
0.2
 40
0.2
 40
0.2
 40
0.4
 40
0.4
 40
0.4
 40
0.4
 40
0.6000000000000001
 40
0.6000000000000001
 40
0.6000000000000001
 40
0.6000000000000001
 40
0.8
 40
0.8
 40
0.8
 40
0.8
 40
1.0
 40
1.0
 40
1.0
 40
1.0
 10
1.3057000000000001
 20
2.4759300000000004
 30
0.0
 10
1.3895200000000001
 20
2.3387700000000002
 30
0.0
 10
1.1380600000000001
 20
2.1939900000000003
 30
0.0
 10
1.2599800000000001
 20
2.0314300000000003
 30
0.0
 10
1.2599800000000001
 20
2.0314300000000003
 30
0.0
 10
1.2599800000000001
 20
2.0314300000000003
 30
0.0
 10
1.2599800000000001
 20
1.9552300000000002
 30
0.0
 10
1.2599800000000001
 20
1.9552300000000002
 30
0.0
 10
1.2599800000000001
 20
1.9552300000000002
 30
0.0
 10
1.2599800000000001
 20
1.9552300000000002
 30
0.0
 10
1.2015600000000002
 20
1.9272900000000002
 30
0.0
 10
1.2015600000000002
 20
1.9272900000000002
 30
0.0
 10
1.2015600000000002
 20
1.9272900000000002
 30
0.0
 10
1.2015600000000002
 20
1.9272900000000002
 30
0.0
 10
1.1685400000000001
 20
2.0263500000000003
 30
0.0
 10
1.1685400000000001
 20
2.0263500000000003
 30
0.0
 10
1.1685400000000001
 20
2.0263500000000003
 30
0.0
 10
1.0034400000000001
 20
2.1711300000000002
 30
0.0
 10
1.23712
 20
2.33623
 30
0.0
 10
1.3057000000000001
 20
2.4759300000000004
 30
0.0
  0
SPLINE
  5
2F
100
AcDbEntity
  8
Ebene 1
 62
     7
100
AcDbSpline
210
0.0
220
0.0
230
1.0
 70
     1
 71
     3
 72
   104
 73
   100
 74
     0
 42
0.0000000001
 43
0.0000000001
 40
0.0
 40
0.0
 40
0.0
 40
0.0
 40
0.04
 40
0.04
 40
0.04
 40
0.04
 40
0.08
 40
0.08
 40
0.08
 40
0.08
 40
0.12
 40
0.12
 40
0.12
 40
0.12
 40
0.16
 40
0.16
 40
0.16
 40
0.16
 40
0.2
 40
0.2
 40
0.2
 40
0.2
 40
0.24
 40
0.24
 40
0.24
 40
0.24
 40
0.28
 40
0.28
 40
0.28
 40
0.28
 40
0.32
 40
0.32
 40
0.32
 40
0.32
 40
0.36
 40
0.36
 40
0.36
 40
0.36
 40
0.4
 40
0.4
 40
0.4
 40
0.4
 40
0.44
 40
0.44
 40
0.44
 40
0.44
 40
0.4799999999999999
 40
0.4799999999999999
 40
0.4799999999999999
 40
0.4799999999999999
 40
0.5199999999999999
 40
0.5199999999999999
 40
0.5199999999999999
 40
0.5199999999999999
 40
0.5599999999999999
 40
0.5599999999999999
 40
0.5599999999999999
 40
0.5599999999999999
 40
0.6
 40
0.6
 40
0.6
 40
0.6
 40
0.64
 40
0.64
 40
0.64
 40
0.64
 40
0.6800000000000001
 40
0.6800000000000001
 40
0.6800000000000001
 40
0.6800000000000001
 40
0.7200000000000001
 40
0.7200000000000001
 40
0.7200000000000001
 40
0.7200000000000001
 40
0.7600000000000001
 40
0.7600000000000001
 40
0.7600000000000001
 40
0.7600000000000001
 40
0.8000000000000002
 40
0.8000000000000002
 40
0.8000000000000002
 40
0.8000000000000002
 40
0.8400000000000002
 40
0.8400000000000002
 40
0.8400000000000002
 40
0.8400000000000002
 40
0.8800000000000002
 40
0.8800000000000002
 40
0.8800000000000002
 40
0.8800000000000002
 40
0.9200000000000003
 40
0.9200000000000003
 40
0.9200000000000003
 40
0.9200000000000003
 40
0.9600000000000003
 40
0.9600000000000003
 40
0.9600000000000003
 40
0.9600000000000003
 40
1.0
 40
1.0
 40
1.0
 40
1.0
 10
-2.0623300000000002
 20
2.46069
 30
0.0
 10
-1.9099300000000001
 20
1.9857100000000001
 30
0.0
 10
-2.2452100000000002
 20
1.53105
 30
0.0
 10
-2.3290300000000004
 20
1.06369
 30
0.0
 10
-2.3290300000000004
 20
1.06369
 30
0.0
 10
-2.22235
 20
1.0078100000000001
 30
0.0
 10
-2.26553
 20
1.2897500000000002
 30
0.0
 10
-2.18425
 20
1.3430900000000001
 30
0.0
 10
-2.18425
 20
1.3430900000000001
 30
0.0
 10
-2.2680700000000003
 20
0.4109100000000001
 30
0.0
 10
-2.4077700000000002
 20
-0.6025400000000001
 30
0.0
 10
-2.26553
 20
-1.5575800000000002
 30
0.0
 10
-2.26553
 20
-1.5575800000000002
 30
0.0
 10
-2.2198100000000003
 20
-1.24516
 30
0.0
 10
-2.2807700000000004
 20
-0.78288
 30
0.0
 10
-2.2071100000000001
 20
-0.4222
 30
0.0
 10
-2.2071100000000001
 20
-0.4222
 30
0.0
 10
-2.1690100000000001
 20
-0.3079
 30
0.0
 10
-2.15123
 20
-0.17836
 30
0.0
 10
-2.0623300000000002
 20
-0.08946
 30
0.0
 10
-2.0623300000000002
 20
-0.08946
 30
0.0
 10
-1.9708900000000003
 20
-0.6711200000000001
 30
0.0
 10
-2.0242300000000002
 20
-1.29342
 30
0.0
 10
-1.9327900000000002
 20
-1.8674600000000001
 30
0.0
 10
-1.9327900000000002
 20
-1.8674600000000001
 30
0.0
 10
-1.9277100000000003
 20
-1.7201400000000002
 30
0.0
 10
-1.9200900000000001
 20
-1.5575800000000002
 30
0.0
 10
-1.9429500000000002
 20
-1.4128000000000001
 30
0.0
 10
-1.9429500000000002
 20
-1.4128000000000001
 30
0.0
 10
-1.9429500000000002
 20
-1.4128000000000001
 30
0.0
 10
-1.9404100000000002
 20
-0.8946400000000001
 30
0.0
 10
-1.9404100000000002
 20
-0.8946400000000001
 30
0.0
 10
-1.9404100000000002
 20
-0.8946400000000001
 30
0.0
 10
-1.9404100000000002
 20
-0.8946400000000001
 30
0.0
 10
-1.8794500000000001
 20
-0.5238
 30
0.0
 10
-1.8794500000000001
 20
-0.5238
 30
0.0
 10
-1.8794500000000001
 20
-0.5238
 30
0.0
 10
-1.8794500000000001
 20
-0.5238
 30
0.0
 10
-1.79817
 20
-0.2571
 30
0.0
 10
-1.79817
 20
-0.2571
 30
0.0
 10
-1.79817
 20
-0.2571
 30
0.0
 10
-1.6762500000000002
 20
-0.74224
 30
0.0
 10
-1.9124700000000001
 20
-1.3061200000000002
 30
0.0
 10
-1.7245100000000002
 20
-1.7785600000000001
 30
0.0
 10
-1.7245100000000002
 20
-1.7785600000000001
 30
0.0
 10
-1.7422900000000001
 20
-1.6236200000000001
 30
0.0
 10
-1.7600700000000002
 20
-1.45852
 30
0.0
 10
-1.7346700000000002
 20
-1.3086600000000002
 30
0.0
 10
-1.7346700000000002
 20
-1.3086600000000002
 30
0.0
 10
-1.7321300000000002
 20
-1.2400800000000001
 30
0.0
 10
-1.7524500000000001
 20
-1.1435600000000001
 30
0.0
 10
-1.6940300000000001
 20
-1.1029200000000001
 30
0.0
 10
-1.6940300000000001
 20
-1.1029200000000001
 30
0.0
 10
-1.5238500000000001
 20
-2.2129000000000003
 30
0.0
 10
-1.3079500000000002
 20
-3.3432000000000004
 30
0.0
 10
-1.33843
 20
-4.4963600000000001
 30
0.0
 10
-1.33843
 20
-4.4963600000000001
 30
0.0
 10
-1.4324100000000002
 20
-4.3007800000000005
 30
0.0
 10
-1.4857500000000001
 20
-4.0645600000000002
 30
0.0
 10
-1.5568700000000002
 20
-3.8486600000000002
 30
0.0
 10
-1.5568700000000002
 20
-3.8486600000000002
 30
0.0
 10
-1.6610100000000001
 20
-3.5337000000000005
 30
0.0
 10
-1.7600700000000002
 20
-3.2187400000000004
 30
0.0
 10
-1.84135
 20
-2.8961600000000001
 30
0.0
 10
-1.84135
 20
-2.8961600000000001
 30
0.0
 10
-1.84135
 20
-2.8961600000000001
 30
0.0
 10
-1.9150100000000001
 20
-2.5100800000000003
 30
0.0
 10
-1.9150100000000001
 20
-2.5100800000000003
 30
0.0
 10
-1.9150100000000001
 20
-2.5100800000000003
 30
0.0
 10
-1.9556500000000001
 20
-2.6777200000000003
 30
0.0
 10
-1.8946900000000002
 20
-2.9190200000000002
 30
0.0
 10
-1.8692900000000001
 20
-3.1044400000000003
 30
0.0
 10
-1.8692900000000001
 20
-3.1044400000000003
 30
0.0
 10
-1.8464300000000002
 20
-3.4092400000000005
 30
0.0
 10
-1.6660900000000001
 20
-3.6911800000000001
 30
0.0
 10
-1.7397500000000001
 20
-4.0061400000000003
 30
0.0
 10
-1.7397500000000001
 20
-4.0061400000000003
 30
0.0
 10
-2.1486900000000002
 20
-3.2136600000000004
 30
0.0
 10
-2.4153900000000004
 20
-2.3399000000000001
 30
0.0
 10
-2.5830300000000004
 20
-1.4712200000000002
 30
0.0
 10
-2.5830300000000004
 20
-1.4712200000000002
 30
0.0
 10
-2.65415
 20
-1.63124
 30
0.0
 10
-2.5423900000000001
 20
-1.8522200000000002
 30
0.0
 10
-2.56779
 20
-2.0224000000000002
 30
0.0
 10
-2.56779
 20
-2.0224000000000002
 30
0.0
 10
-2.5042900000000001
 20
-2.1316200000000003
 30
0.0
 10
-2.5550900000000003
 20
-2.31704
 30
0.0
 10
-2.61097
 20
-2.1113
 30
0.0
 10
-2.61097
 20
-2.1113
 30
0.0
 10
-2.8344900000000002
 20
-1.21214
 30
0.0
 10
-2.8116300000000001
 20
-0.25202
 30
0.0
 10
-2.4509500000000002
 20
0.59379
 30
0.0
 10
-2.4509500000000002
 20
0.59379
 30
0.0
 10
-2.6084300000000002
 20
0.49219
 30
0.0
 10
-2.57287
 20
0.15691
 30
0.0
 10
-2.7125700000000004
 20
-0.00056
 30
0.0
 10
-2.7125700000000004
 20
-0.00056
 30
0.0
 10
-2.56779
 20
0.8376300000000001
 30
0.0
 10
-2.3341100000000004
 20
1.6580500000000002
 30
0.0
 10
-2.0623300000000002
 20
2.46069
 30
0.0
  0
SPLINE
  5
30
100
AcDbEntity
  8
Ebene 1
100
AcDbSpline
210
0.0
220
0.0
230
1.0
 70
     1
 71
     3
 72
    28
 73
    24
 74
     0
 42
0.0000000001
 43
0.0000000001
 40
0.0
 40
0.0
 40
0.0
 40
0.0
 40
0.1666666666666667
 40
0.1666666666666667
 40
0.1666666666666667
 40
0.1666666666666667
 40
0.3333333333333333
 40
0.3333333333333333
 40
0.3333333333333333
 40
0.3333333333333333
 40
0.5
 40
0.5
 40
0.5
 40
0.5
 40
0.6666666666666666
 40
0.6666666666666666
 40
0.6666666666666666
 40
0.6666666666666666
 40
0.8333333333333333
 40
0.8333333333333333
 40
0.8333333333333333
 40
0.8333333333333333
 40
1.0
 40
1.0
 40
1.0
 40
1.0
 10
-1.7346700000000002
 20
2.4454500000000001
 30
0.0
 10
-1.6102100000000001
 20
2.2828900000000001
 30
0.0
 10
-1.4298700000000002
 20
2.1330300000000002
 30
0.0
 10
-1.3892300000000002
 20
1.9145900000000002
 30
0.0
 10
-1.3892300000000002
 20
1.9145900000000002
 30
0.0
 10
-1.3028700000000002
 20
1.9882500000000001
 30
0.0
 10
-1.2012700000000001
 20
2.0695300000000003
 30
0.0
 10
-1.0996700000000001
 20
2.1152500000000001
 30
0.0
 10
-1.0996700000000001
 20
2.1152500000000001
 30
0.0
 10
-1.1403100000000002
 20
1.9577700000000002
 30
0.0
 10
-1.0285500000000001
 20
1.8536300000000001
 30
0.0
 10
-0.99553
 20
1.7215500000000001
 30
0.0
 10
-0.99553
 20
1.7215500000000001
 30
0.0
 10
-1.16825
 20
1.8129900000000001
 30
0.0
 10
-1.3181100000000001
 20
1.8282300000000002
 30
0.0
 10
-1.4781300000000002
 20
1.7215500000000001
 30
0.0
 10
-1.4781300000000002
 20
1.7215500000000001
 30
0.0
 10
-1.54417
 20
1.9577700000000002
 30
0.0
 10
-1.6025900000000002
 20
2.2016100000000001
 30
0.0
 10
-1.7651500000000002
 20
2.4022700000000001
 30
0.0
 10
-1.7651500000000002
 20
2.4022700000000001
 30
0.0
 10
-1.7651500000000002
 20
2.4022700000000001
 30
0.0
 10
-1.7346700000000002
 20
2.4454500000000001
 30
0.0
 10
-1.7346700000000002
 20
2.4454500000000001
 30
0.0
  0
SPLINE
  5
31
100
AcDbEntity
  8
Ebene 1
 62
     7
100
AcDbSpline
210
0.0
220
0.0
230
1.0
 70
     1
 71
     3
 72
    28
 73
    24
 74
     0
 42
0.0000000001
 43
0.0000000001
 40
0.0
 40
0.0
 40
0.0
 40
0.0
 40
0.1666666666666667
 40
0.1666666666666667
 40
0.1666666666666667
 40
0.1666666666666667
 40
0.3333333333333333
 40
0.3333333333333333
 40
0.3333333333333333
 40
0.3333333333333333
 40
0.5
 40
0.5
 40
0.5
 40
0.5
 40
0.6666666666666666
 40
0.6666666666666666
 40
0.6666666666666666
 40
0.6666666666666666
 40
0.8333333333333333
 40
0.8333333333333333
 40
0.8333333333333333
 40
0.8333333333333333
 40
1.0
 40
1.0
 40
1.0
 40
1.0
 10
-1.8997700000000002
 20
2.1482700000000001
 30
0.0
 10
-1.8007100000000003
 20
2.0771500000000001
 30
0.0
 10
-1.7219700000000002
 20
1.9399900000000001
 30
0.0
 10
-1.6762500000000002
 20
1.8206100000000001
 30
0.0
 10
-1.6762500000000002
 20
1.8206100000000001
 30
0.0
 10
-1.8184900000000002
 20
1.7190100000000001
 30
0.0
 10
-1.9581900000000001
 20
1.52851
 30
0.0
 10
-1.8540500000000002
 20
1.3329300000000002
 30
0.0
 10
-1.8540500000000002
 20
1.3329300000000002
 30
0.0
 10
-2.1232900000000003
 20
0.9493900000000001
 30
0.0
 10
-1.6813300000000002
 20
0.59379
 30
0.0
 10
-1.7524500000000001
 20
0.20771
 30
0.0
 10
-1.7524500000000001
 20
0.20771
 30
0.0
 10
-1.8464300000000002
 20
0.23819
 30
0.0
 10
-1.9429500000000002
 20
0.2737500000000001
 30
0.0
 10
-2.0293100000000002
 20
0.3270900000000001
 30
0.0
 10
-2.0293100000000002
 20
0.3270900000000001
 30
0.0
 10
-2.0445500000000001
 20
0.4210700000000001
 30
0.0
 10
-1.9632700000000001
 20
0.4947300000000001
 30
0.0
 10
-1.9277100000000003
 20
0.57601
 30
0.0
 10
-1.9277100000000003
 20
0.57601
 30
0.0
 10
-1.9759700000000002
 20
1.0916300000000001
 30
0.0
 10
-2.0496300000000001
 20
1.6453500000000001
 30
0.0
 10
-1.8997700000000002
 20
2.1482700000000001
 30
0.0
  0
SPLINE
  5
32
100
AcDbEntity
  8
Ebene 1
 62
     7
100
AcDbSpline
210
0.0
220
0.0
230
1.0
 70
     1
 71
     3
 72
    12
 73
     8
 74
     0
 42
0.0000000001
 43
0.0000000001
 40
0.0
 40
0.0
 40
0.0
 40
0.0
 40
0.5
 40
0.5
 40
0.5
 40
0.5
 40
1.0
 40
1.0
 40
1.0
 40
1.0
 10
-2.2858500000000004
 20
2.0898500000000002
 30
0.0
 10
-2.4255500000000003
 20
1.6580500000000002
 30
0.0
 10
-2.4077700000000002
 20
1.1856100000000001
 30
0.0
 10
-2.6236700000000002
 20
0.78683
 30
0.0
 10
-2.6236700000000002
 20
0.78683
 30
0.0
 10
-2.6998700000000002
 20
1.2186300000000001
 30
0.0
 10
-2.5347700000000004
 20
1.7190100000000001
 30
0.0
 10
-2.2858500000000004
 20
2.0898500000000002
 30
0.0
  0
SPLINE
  5
33
100
AcDbEntity
  8
Ebene 1
100
AcDbSpline
210
0.0
220
0.0
230
1.0
 70
     1
 71
     3
 72
    20
 73
    16
 74
     0
 42
0.0000000001
 43
0.0000000001
 40
0.0
 40
0.0
 40
0.0
 40
0.0
 40
0.25
 40
0.25
 40
0.25
 40
0.25
 40
0.5
 40
0.5
 40
0.5
 40
0.5
 40
0.75
 40
0.75
 40
0.75
 40
0.75
 40
1.0
 40
1.0
 40
1.0
 40
1.0
 10
0.9043800000000001
 20
1.8815700000000002
 30
0.0
 10
1.0009000000000001
 20
1.8536300000000001
 30
0.0
 10
1.1837800000000001
 20
1.8815700000000002
 30
0.0
 10
1.2142600000000001
 20
1.78251
 30
0.0
 10
1.2142600000000001
 20
1.78251
 30
0.0
 10
0.9628000000000001
 20
1.7571100000000002
 30
0.0
 10
0.71896
 20
1.6174100000000002
 30
0.0
 10
0.4929000000000001
 20
1.5005700000000002
 30
0.0
 10
0.4929000000000001
 20
1.5005700000000002
 30
0.0
 10
0.4929000000000001
 20
1.5005700000000002
 30
0.0
 10
0.658
 20
1.6707500000000002
 30
0.0
 10
0.658
 20
1.6707500000000002
 30
0.0
 10
0.658
 20
1.6707500000000002
 30
0.0
 10
0.7469
 20
1.7291700000000001
 30
0.0
 10
0.8408800000000001
 20
1.7926700000000002
 30
0.0
 10
0.9043800000000001
 20
1.8815700000000002
 30
0.0
  0
SPLINE
  5
34
100
AcDbEntity
  8
Ebene 1
100
AcDbSpline
210
0.0
220
0.0
230
1.0
 70
     1
 71
     3
 72
    16
 73
    12
 74
     0
 42
0.0000000001
 43
0.0000000001
 40
0.0
 40
0.0
 40
0.0
 40
0.0
 40
0.3333333333333333
 40
0.3333333333333333
 40
0.3333333333333333
 40
0.3333333333333333
 40
0.6666666666666666
 40
0.6666666666666666
 40
0.6666666666666666
 40
0.6666666666666666
 40
1.0
 40
1.0
 40
1.0
 40
1.0
 10
-0.99299
 20
1.6453500000000001
 30
0.0
 10
-0.82535
 20
1.6326500000000002
 30
0.0
 10
-0.6272300000000001
 20
1.5056500000000002
 30
0.0
 10
-0.55103
 20
1.3659500000000002
 30
0.0
 10
-0.55103
 20
1.3659500000000002
 30
0.0
 10
-0.71867
 20
1.4294500000000001
 30
0.0
 10
-0.8583700000000001
 20
1.5793100000000002
 30
0.0
 10
-1.0488700000000002
 20
1.57423
 30
0.0
 10
-1.0488700000000002
 20
1.57423
 30
0.0
 10
-1.0488700000000002
 20
1.57423
 30
0.0
 10
-0.99299
 20
1.6453500000000001
 30
0.0
 10
-0.99299
 20
1.6453500000000001
 30
0.0
  0
SPLINE
  5
35
100
AcDbEntity
  8
Ebene 1
100
AcDbSpline
210
0.0
220
0.0
230
1.0
 70
     1
 71
     3
 72
    16
 73
    12
 74
     0
 42
0.0000000001
 43
0.0000000001
 40
0.0
 40
0.0
 40
0.0
 40
0.0
 40
0.3333333333333333
 40
0.3333333333333333
 40
0.3333333333333333
 40
0.3333333333333333
 40
0.6666666666666666
 40
0.6666666666666666
 40
0.6666666666666666
 40
0.6666666666666666
 40
1.0
 40
1.0
 40
1.0
 40
1.0
 10
0.45988
 20
1.5996300000000001
 30
0.0
 10
0.47004
 20
1.5996300000000001
 30
0.0
 10
0.4929000000000001
 20
1.6021700000000001
 30
0.0
 10
0.48782
 20
1.5843900000000002
 30
0.0
 10
0.48782
 20
1.5843900000000002
 30
0.0
 10
0.3405
 20
1.4142100000000002
 30
0.0
 10
0.0992
 20
1.3049900000000001
 30
0.0
 10
-0.09637
 20
1.3811900000000001
 30
0.0
 10
-0.09637
 20
1.3811900000000001
 30
0.0
 10
0.05856
 20
1.5031100000000002
 30
0.0
 10
0.29478
 20
1.4726300000000001
 30
0.0
 10
0.45988
 20
1.5996300000000001
 30
0.0
  0
SPLINE
  5
36
100
AcDbEntity
  8
Ebene 1
100
AcDbSpline
210
0.0
220
0.0
230
1.0
 70
     1
 71
     3
 72
    44
 73
    40
 74
     0
 42
0.0000000001
 43
0.0000000001
 40
0.0
 40
0.0
 40
0.0
 40
0.0
 40
0.1
 40
0.1
 40
0.1
 40
0.1
 40
0.2
 40
0.2
 40
0.2
 40
0.2
 40
0.3
 40
0.3
 40
0.3
 40
0.3
 40
0.4
 40
0.4
 40
0.4
 40
0.4
 40
0.5
 40
0.5
 40
0.5
 40
0.5
 40
0.6
 40
0.6
 40
0.6
 40
0.6
 40
0.7
 40
0.7
 40
0.7
 40
0.7
 40
0.7999999999999999
 40
0.7999999999999999
 40
0.7999999999999999
 40
0.7999999999999999
 40
0.8999999999999999
 40
0.8999999999999999
 40
0.8999999999999999
 40
0.8999999999999999
 40
1.0
 40
1.0
 40
1.0
 40
1.0
 10
-1.6025900000000002
 20
1.40659
 30
0.0
 10
-1.2774700000000001
 20
1.14497
 30
0.0
 10
-0.9472700000000001
 20
0.63697
 30
0.0
 10
-0.44689
 20
0.85287
 30
0.0
 10
-0.44689
 20
0.85287
 30
0.0
 10
-0.44689
 20
0.7588900000000001
 30
0.0
 10
-0.5815100000000001
 20
0.76651
 30
0.0
 10
-0.63231
 20
0.70555
 30
0.0
 10
-0.63231
 20
0.70555
 30
0.0
 10
-0.56881
 20
0.5836300000000001
 30
0.0
 10
-0.54849
 20
0.43885
 30
0.0
 10
-0.50531
 20
0.31185
 30
0.0
 10
-0.50531
 20
0.31185
 30
0.0
 10
-0.7288300000000001
 20
0.46933
 30
0.0
 10
-0.9015500000000001
 20
0.01721
 30
0.0
 10
-1.08189
 20
-0.08946
 30
0.0
 10
-1.08189
 20
-0.08946
 30
0.0
 10
-1.1072900000000001
 20
-0.01834
 30
0.0
 10
-0.9879100000000001
 20
0.06801
 30
0.0
 10
-0.99553
 20
0.15691
 30
0.0
 10
-0.99553
 20
0.15691
 30
0.0
 10
-1.4959100000000001
 20
0.14421
 30
0.0
 10
-1.4247900000000002
 20
0.7969900000000001
 30
0.0
 10
-1.6914900000000002
 20
1.0789300000000002
 30
0.0
 10
-1.6914900000000002
 20
1.0789300000000002
 30
0.0
 10
-1.6838700000000002
 20
1.1602100000000002
 30
0.0
 10
-1.4959100000000001
 20
1.2186300000000001
 30
0.0
 10
-1.58989
 20
1.2999100000000001
 30
0.0
 10
-1.58989
 20
1.2999100000000001
 30
0.0
 10
-1.58989
 20
1.2999100000000001
 30
0.0
 10
-1.7321300000000002
 20
1.1297300000000001
 30
0.0
 10
-1.7321300000000002
 20
1.1297300000000001
 30
0.0
 10
-1.7321300000000002
 20
1.1297300000000001
 30
0.0
 10
-1.7753100000000002
 20
1.1754500000000001
 30
0.0
 10
-1.7168900000000002
 20
1.2440300000000002
 30
0.0
 10
-1.6940300000000001
 20
1.2922900000000002
 30
0.0
 10
-1.6940300000000001
 20
1.2922900000000002
 30
0.0
 10
-1.6940300000000001
 20
1.2922900000000002
 30
0.0
 10
-1.6025900000000002
 20
1.40659
 30
0.0
 10
-1.6025900000000002
 20
1.40659
 30
0.0
  0
SPLINE
  5
37
100
AcDbEntity
  8
Ebene 1
100
AcDbSpline
210
0.0
220
0.0
230
1.0
 70
     1
 71
     3
 72
    52
 73
    48
 74
     0
 42
0.0000000001
 43
0.0000000001
 40
0.0
 40
0.0
 40
0.0
 40
0.0
 40
0.0833333333333333
 40
0.0833333333333333
 40
0.0833333333333333
 40
0.0833333333333333
 40
0.1666666666666667
 40
0.1666666666666667
 40
0.1666666666666667
 40
0.1666666666666667
 40
0.25
 40
0.25
 40
0.25
 40
0.25
 40
0.3333333333333333
 40
0.3333333333333333
 40
0.3333333333333333
 40
0.3333333333333333
 40
0.4166666666666666
 40
0.4166666666666666
 40
0.4166666666666666
 40
0.4166666666666666
 40
0.4999999999999999
 40
0.4999999999999999
 40
0.4999999999999999
 40
0.4999999999999999
 40
0.5833333333333333
 40
0.5833333333333333
 40
0.5833333333333333
 40
0.5833333333333333
 40
0.6666666666666666
 40
0.6666666666666666
 40
0.6666666666666666
 40
0.6666666666666666
 40
0.75
 40
0.75
 40
0.75
 40
0.75
 40
0.8333333333333334
 40
0.8333333333333334
 40
0.8333333333333334
 40
0.8333333333333334
 40
0.9166666666666667
 40
0.9166666666666667
 40
0.9166666666666667
 40
0.9166666666666667
 40
1.0
 40
1.0
 40
1.0
 40
1.0
 10
1.3057000000000001
 20
1.36087
 30
0.0
 10
1.39714
 20
1.32023
 30
0.0
 10
1.4911200000000002
 20
1.2592700000000001
 30
0.0
 10
1.56986
 20
1.2033900000000002
 30
0.0
 10
1.56986
 20
1.2033900000000002
 30
0.0
 10
1.56986
 20
1.2033900000000002
 30
0.0
 10
1.4098400000000002
 20
1.22879
 30
0.0
 10
1.4098400000000002
 20
1.22879
 30
0.0
 10
1.4098400000000002
 20
1.22879
 30
0.0
 10
1.5774800000000002
 20
1.02559
 30
0.0
 10
1.3006200000000001
 20
0.7741300000000001
 30
0.0
 10
1.2803000000000002
 20
0.55061
 30
0.0
 10
1.2803000000000002
 20
0.55061
 30
0.0
 10
1.3082400000000001
 20
0.55569
 30
0.0
 10
1.3539600000000001
 20
0.59633
 30
0.0
 10
1.3768200000000002
 20
0.5633100000000001
 30
0.0
 10
1.3768200000000002
 20
0.5633100000000001
 30
0.0
 10
1.2447400000000002
 20
0.4413900000000001
 30
0.0
 10
0.88914
 20
0.21279
 30
0.0
 10
1.1533
 20
0.06801
 30
0.0
 10
1.1533
 20
0.06801
 30
0.0
 10
1.1609200000000002
 20
0.04261
 30
0.0
 10
1.18632
 20
0.01467
 30
0.0
 10
1.1533
 20
-0.00056
 30
0.0
 10
1.1533
 20
-0.00056
 30
0.0
 10
1.1533
 20
-0.00056
 30
0.0
 10
0.50814
 20
0.34233
 30
0.0
 10
0.50814
 20
0.34233
 30
0.0
 10
0.50814
 20
0.34233
 30
0.0
 10
0.50814
 20
0.34233
 30
0.0
 10
0.48528
 20
0.42361
 30
0.0
 10
0.48528
 20
0.42361
 30
0.0
 10
0.48528
 20
0.42361
 30
0.0
 10
0.4522600000000001
 20
0.40583
 30
0.0
 10
0.4294000000000001
 20
0.28645
 30
0.0
 10
0.37352
 20
0.3270900000000001
 30
0.0
 10
0.37352
 20
0.3270900000000001
 30
0.0
 10
0.37352
 20
0.3270900000000001
 30
0.0
 10
0.44464
 20
0.6496700000000001
 30
0.0
 10
0.44464
 20
0.6496700000000001
 30
0.0
 10
0.44464
 20
0.6496700000000001
 30
0.0
 10
0.44464
 20
0.6496700000000001
 30
0.0
 10
0.21096
 20
0.9417700000000001
 30
0.0
 10
0.21096
 20
0.9417700000000001
 30
0.0
 10
0.21096
 20
0.9417700000000001
 30
0.0
 10
0.6072000000000001
 20
0.61411
 30
0.0
 10
0.9932800000000001
 20
1.1271900000000001
 30
0.0
 10
1.3057000000000001
 20
1.36087
 30
0.0
  0
SPLINE
  5
38
100
AcDbEntity
  8
Ebene 1
100
AcDbSpline
210
0.0
220
0.0
230
1.0
 70
     1
 71
     3
 72
    16
 73
    12
 74
     0
 42
0.0000000001
 43
0.0000000001
 40
0.0
 40
0.0
 40
0.0
 40
0.0
 40
0.3333333333333333
 40
0.3333333333333333
 40
0.3333333333333333
 40
0.3333333333333333
 40
0.6666666666666666
 40
0.6666666666666666
 40
0.6666666666666666
 40
0.6666666666666666
 40
1.0
 40
1.0
 40
1.0
 40
1.0
 10
-0.20559
 20
1.2872100000000002
 30
0.0
 10
-0.18019
 20
1.2948300000000001
 30
0.0
 10
-0.16749
 20
1.2668900000000001
 30
0.0
 10
-0.14971
 20
1.2541900000000001
 30
0.0
 10
-0.14971
 20
1.2541900000000001
 30
0.0
 10
-0.15987
 20
1.1246500000000001
 30
0.0
 10
-0.11923
 20
0.8960500000000001
 30
0.0
 10
-0.30719
 20
0.8757300000000001
 30
0.0
 10
-0.30719
 20
0.8757300000000001
 30
0.0
 10
-0.25893
 20
1.0027300000000001
 30
0.0
 10
-0.22083
 20
1.14497
 30
0.0
 10
-0.20559
 20
1.2872100000000002
 30
0.0
  0
SPLINE
  5
39
100
AcDbEntity
  8
Ebene 1
100
AcDbSpline
210
0.0
220
0.0
230
1.0
 70
     1
 71
     3
 72
    12
 73
     8
 74
     0
 42
0.0000000001
 43
0.0000000001
 40
0.0
 40
0.0
 40
0.0
 40
0.0
 40
0.5
 40
0.5
 40
0.5
 40
0.5
 40
1.0
 40
1.0
 40
1.0
 40
1.0
 10
0.01284
 20
1.02051
 30
0.0
 10
0.06618
 20
1.0027300000000001
 30
0.0
 10
0.1627
 20
1.0052700000000001
 30
0.0
 10
0.16016
 20
0.93415
 30
0.0
 10
0.16016
 20
0.93415
 30
0.0
 10
0.09412
 20
0.8655700000000001
 30
0.0
 10
-0.06843
 20
0.9265300000000001
 30
0.0
 10
0.01284
 20
1.02051
 30
0.0
  0
SPLINE
  5
3A
100
AcDbEntity
  8
Ebene 1
100
AcDbSpline
210
0.0
220
0.0
230
1.0
 70
     1
 71
     3
 72
    16
 73
    12
 74
     0
 42
0.0000000001
 43
0.0000000001
 40
0.0
 40
0.0
 40
0.0
 40
0.0
 40
0.3333333333333333
 40
0.3333333333333333
 40
0.3333333333333333
 40
0.3333333333333333
 40
0.6666666666666666
 40
0.6666666666666666
 40
0.6666666666666666
 40
0.6666666666666666
 40
1.0
 40
1.0
 40
1.0
 40
1.0
 10
-0.34021
 20
0.8122300000000001
 30
0.0
 10
-0.34021
 20
0.8122300000000001
 30
0.0
 10
-0.27925
 20
0.7969900000000001
 30
0.0
 10
-0.27925
 20
0.7969900000000001
 30
0.0
 10
-0.27925
 20
0.7969900000000001
 30
0.0
 10
-0.38085
 20
0.5429900000000001
 30
0.0
 10
-0.21321
 20
0.26613
 30
0.0
 10
-0.22591
 20
0.02991
 30
0.0
 10
-0.22591
 20
0.02991
 30
0.0
 10
-0.3427500000000001
 20
0.22295
 30
0.0
 10
-0.59167
 20
0.5836300000000001
 30
0.0
 10
-0.34021
 20
0.8122300000000001
 30
0.0
  0
SPLINE
  5
3B
100
AcDbEntity
  8
Ebene 1
100
AcDbSpline
210
0.0
220
0.0
230
1.0
 70
     1
 71
     3
 72
    32
 73
    28
 74
     0
 42
0.0000000001
 43
0.0000000001
 40
0.0
 40
0.0
 40
0.0
 40
0.0
 40
0.1428571428571429
 40
0.1428571428571429
 40
0.1428571428571429
 40
0.1428571428571429
 40
0.2857142857142857
 40
0.2857142857142857
 40
0.2857142857142857
 40
0.2857142857142857
 40
0.4285714285714286
 40
0.4285714285714286
 40
0.4285714285714286
 40
0.4285714285714286
 40
0.5714285714285714
 40
0.5714285714285714
 40
0.5714285714285714
 40
0.5714285714285714
 40
0.7142857142857142
 40
0.7142857142857142
 40
0.7142857142857142
 40
0.7142857142857142
 40
0.857142857142857
 40
0.857142857142857
 40
0.857142857142857
 40
0.857142857142857
 40
1.0
 40
1.0
 40
1.0
 40
1.0
 10
-0.16241
 20
-0.03104
 30
0.0
 10
-0.16241
 20
-0.03104
 30
0.0
 10
0.04078
 20
-0.03612
 30
0.0
 10
0.04078
 20
-0.03612
 30
0.0
 10
0.04078
 20
-0.03612
 30
0.0
 10
0.04078
 20
-0.03612
 30
0.0
 10
0.12968
 20
-0.13772
 30
0.0
 10
0.12968
 20
-0.13772
 30
0.0
 10
0.12968
 20
-0.13772
 30
0.0
 10
0.12968
 20
-0.13772
 30
0.0
 10
0.2643
 20
-1.1842000000000001
 30
0.0
 10
0.2643
 20
-1.1842000000000001
 30
0.0
 10
0.2643
 20
-1.1842000000000001
 30
0.0
 10
0.12206
 20
-1.2146800000000002
 30
0.0
 10
0.04586
 20
-1.0673600000000001
 30
0.0
 10
-0.06081
 20
-1.0140200000000001
 30
0.0
 10
-0.06081
 20
-1.0140200000000001
 30
0.0
 10
-0.17003
 20
-1.0241800000000001
 30
0.0
 10
-0.21575
 20
-1.1943600000000001
 30
0.0
 10
-0.31989
 20
-1.1994400000000001
 30
0.0
 10
-0.31989
 20
-1.1994400000000001
 30
0.0
 10
-0.38847
 20
-0.8540000000000001
 30
0.0
 10
-0.22083
 20
-0.4679200000000001
 30
0.0
 10
-0.24623
 20
-0.10978
 30
0.0
 10
-0.24623
 20
-0.10978
 30
0.0
 10
-0.24623
 20
-0.10978
 30
0.0
 10
-0.16241
 20
-0.03104
 30
0.0
 10
-0.16241
 20
-0.03104
 30
0.0
  0
SPLINE
  5
3C
100
AcDbEntity
  8
Ebene 1
 62
     7
100
AcDbSpline
210
0.0
220
0.0
230
1.0
 70
     1
 71
     3
 72
    12
 73
     8
 74
     0
 42
0.0000000001
 43
0.0000000001
 40
0.0
 40
0.0
 40
0.0
 40
0.0
 40
0.5
 40
0.5
 40
0.5
 40
0.5
 40
1.0
 40
1.0
 40
1.0
 40
1.0
 10
-2.8344900000000002
 20
-0.47554
 30
0.0
 10
-2.8471900000000003
 20
-0.38664
 30
0.0
 10
-2.8014700000000001
 20
-0.3002800000000001
 30
0.0
 10
-2.77861
 20
-0.22662
 30
0.0
 10
-2.77861
 20
-0.22662
 30
0.0
 10
-2.7532100000000002
 20
-0.3002800000000001
 30
0.0
 10
-2.7989300000000004
 20
-0.41204
 30
0.0
 10
-2.8344900000000002
 20
-0.47554
 30
0.0
  0
SPLINE
  5
3D
100
AcDbEntity
  8
Ebene 1
 62
     7
100
AcDbSpline
210
0.0
220
0.0
230
1.0
 70
     1
 71
     3
 72
    16
 73
    12
 74
     0
 42
0.0000000001
 43
0.0000000001
 40
0.0
 40
0.0
 40
0.0
 40
0.0
 40
0.3333333333333333
 40
0.3333333333333333
 40
0.3333333333333333
 40
0.3333333333333333
 40
0.6666666666666666
 40
0.6666666666666666
 40
0.6666666666666666
 40
0.6666666666666666
 40
1.0
 40
1.0
 40
1.0
 40
1.0
 10
0.93486
 20
-0.6711200000000001
 30
0.0
 10
0.9450200000000001
 20
-0.6711200000000001
 30
0.0
 10
0.9678800000000001
 20
-0.6660400000000001
 30
0.0
 10
0.9628000000000001
 20
-0.6838200000000001
 30
0.0
 10
0.9628000000000001
 20
-0.6838200000000001
 30
0.0
 10
0.9424800000000001
 20
-0.90734
 30
0.0
 10
1.14568
 20
-1.0826
 30
0.0
 10
1.0796400000000002
 20
-1.3035800000000002
 30
0.0
 10
1.0796400000000002
 20
-1.3035800000000002
 30
0.0
 10
0.93232
 20
-1.1435600000000001
 30
0.0
 10
0.8993000000000001
 20
-0.88702
 30
0.0
 10
0.93486
 20
-0.6711200000000001
 30
0.0
  0
SPLINE
  5
3E
100
AcDbEntity
  8
Ebene 1
 62
     7
100
AcDbSpline
210
0.0
220
0.0
230
1.0
 70
     1
 71
     3
 72
    12
 73
     8
 74
     0
 42
0.0000000001
 43
0.0000000001
 40
0.0
 40
0.0
 40
0.0
 40
0.0
 40
0.5
 40
0.5
 40
0.5
 40
0.5
 40
1.0
 40
1.0
 40
1.0
 40
1.0
 10
-0.8304300000000001
 20
-0.7143000000000001
 30
0.0
 10
-0.7745500000000001
 20
-0.80574
 30
0.0
 10
-0.7542300000000001
 20
-0.9987800000000001
 30
0.0
 10
-0.8405900000000001
 20
-1.0826
 30
0.0
 10
-0.8405900000000001
 20
-1.0826
 30
0.0
 10
-0.9802900000000001
 20
-0.9886200000000001
 30
0.0
 10
-0.7974100000000001
 20
-0.8387600000000001
 30
0.0
 10
-0.8304300000000001
 20
-0.7143000000000001
 30
0.0
  0
SPLINE
  5
3F
100
AcDbEntity
  8
Ebene 1
 62
     7
100
AcDbSpline
210
0.0
220
0.0
230
1.0
 70
     1
 71
     3
 72
    16
 73
    12
 74
     0
 42
0.0000000001
 43
0.0000000001
 40
0.0
 40
0.0
 40
0.0
 40
0.0
 40
0.3333333333333333
 40
0.3333333333333333
 40
0.3333333333333333
 40
0.3333333333333333
 40
0.6666666666666666
 40
0.6666666666666666
 40
0.6666666666666666
 40
0.6666666666666666
 40
1.0
 40
1.0
 40
1.0
 40
1.0
 10
-1.63053
 20
-0.7727200000000001
 30
0.0
 10
-1.5213100000000002
 20
-1.2477
 30
0.0
 10
-1.2622300000000002
 20
-1.7633200000000002
 30
0.0
 10
-1.3054100000000002
 20
-2.2433800000000002
 30
0.0
 10
-1.3054100000000002
 20
-2.2433800000000002
 30
0.0
 10
-1.6000500000000002
 20
-1.9258800000000003
 30
0.0
 10
-1.5289300000000001
 20
-1.3975600000000001
 30
0.0
 10
-1.6864100000000002
 20
-1.0064000000000002
 30
0.0
 10
-1.6864100000000002
 20
-1.0064000000000002
 30
0.0
 10
-1.6864100000000002
 20
-1.0064000000000002
 30
0.0
 10
-1.63053
 20
-0.7727200000000001
 30
0.0
 10
-1.63053
 20
-0.7727200000000001
 30
0.0
  0
ENDSEC
  0
SECTION
  2
OBJECTS
  0
DICTIONARY
  5
19
100
AcDbDictionary
280
     0
281
     1
  3
ACAD_GROUP
350
1A
  3
ACAD_MLINESTYLE
350
1B
  3
ACAD_LAYOUT
350
1E
  3
ACAD_PLOTSETTINGS
350
22
  3
ACAD_PLOTSTYLENAME
350
1F
  3
ACAD_WIPEOUT_VARS
350
23
  0
DICTIONARY
  5
1A
102
{ACAD_REACTORS
330
19
102
}
100
AcDbDictionary
280
     0
281
     1
  0
DICTIONARY
  5
1B
102
{ACAD_REACTORS
330
19
102
}
100
AcDbDictionary
280
     0
281
     1
  3
Standard
350
1C
  0
MLINESTYLE
  5
1C
102
{ACAD_REACTORS
330
1B
102
}
100
AcDbMlineStyle
  2
Standard
 70
     0
  3

 62
     0
 51
90.0
 52
90.0
 71
     2
 49
0.5
 62
   256
  6
BYLAYER
 49
-0.5
 62
   256
  6
BYLAYER
  0
ACDBDICTIONARYWDFLT
  5
1F
102
{ACAD_REACTORS
330
19
102
}
100
AcDbDictionary
281
     1
  3
Normal
350
1D
100
AcDbDictionaryWithDefault
340
1D
  0
ACDBPLACEHOLDER
  5
1D
102
{ACAD_REACTORS
330
1F
102
}
  0
LAYOUT
  5
20
102
{ACAD_REACTORS
330
1E
102
}
100
AcDbPlotSettings
  1

  2

  4

  6

 40
0.0
 41
0.0
 42
0.0
 43
0.0
 44
0.0
 45
0.0
 46
0.0
 47
0.0
 48
0.0
 49
0.0
140
0.0
141
0.0
142
1.0
143
1.0
 70
  1024
 72
     0
 73
     0
 74
     0
  7

 75
     0
147
1.0
148
0.0
149
0.0
100
AcDbLayout
  1
Model
 70
     0
 71
     0
 10
0.0
 20
0.0
 11
0.0
 21
0.0
 12
0.0
 22
0.0
 32
0.0
 14
0.0
 24
0.0
 34
0.0
 15
0.0
 25
0.0
 35
0.0
146
0.0
 13
0.0
 23
0.0
 33
0.0
 16
0.0
 26
0.0
 36
0.0
 17
0.0
 27
0.0
 37
0.0
 76
     0
330
A
331
0
345
0
346
0
  0
LAYOUT
  5
21
102
{ACAD_REACTORS
330
1E
102
}
100
AcDbPlotSettings
  1

  2

  4

  6

 40
0.0
 41
0.0
 42
0.0
 43
0.0
 44
0.0
 45
0.0
 46
0.0
 47
0.0
 48
0.0
 49
0.0
140
0.0
141
0.0
142
1.0
143
1.0
 70
     0
 72
     0
 73
     0
 74
     0
  7

 75
     0
147
1.0
148
0.0
149
0.0
100
AcDbLayout
  1
Layout1
 70
     0
 71
     0
 10
0.0
 20
0.0
 11
0.0
 21
0.0
 12
0.0
 22
0.0
 32
0.0
 14
0.0
 24
0.0
 34
0.0
 15
0.0
 25
0.0
 35
0.0
146
0.0
 13
0.0
 23
0.0
 33
0.0
 16
0.0
 26
0.0
 36
0.0
 17
0.0
 27
0.0
 37
0.0
 76
     0
330
B
331
0
345
0
346
0
  0
DICTIONARY
  5
1E
102
{ACAD_REACTORS
330
19
102
}
100
AcDbDictionary
280
     0
281
     1
  3
Layout1
350
21
  3
Model
350
20
  0
DICTIONARY
  5
22
102
{ACAD_REACTORS
330
19
102
}
100
AcDbDictionary
280
     0
281
     1
  0
WIPEOUTVARIABLES
  5
23
100
AcDbWipeoutVariables
 70
     1
  0
ENDSEC
  0
EOF
