  0
SECTION
  2
HEADER
  9
$ACADVER
  1
AC1015
  9
$ACADMAINTVER
 70
     6
  9
$DWGCODEPAGE
  3
DOS850
  9
$INSBASE
 10
0.0
 20
0.0
 30
0.0
  9
$EXTMIN
 10
-4.67853
 20
-5.6238
 30
1.000000E+20
  9
$EXTMAX
 10
4.68535
 20
5.61791
 30
-1.000000E+20
  9
$LIMMIN
 10
0.0
 20
0.0
  9
$LIMMAX
 10
0.0
 20
0.0
  9
$ORTHOMODE
 70
     0
  9
$REGENMODE
 70
     1
  9
$FILLMODE
 70
     1
  9
$QTEXTMODE
 70
     0
  9
$MIRRTEXT
 70
     1
  9
$LTSCALE
 40
1.0
  9
$ATTMODE
 70
     1
  9
$TEXTSIZE
 40
0.2
  9
$TRACEWID
 40
0.05
  9
$TEXTSTYLE
  7
Standard
  9
$CLAYER
  8
0
  9
$CELTYPE
  6
Continuous
  9
$CECOLOR
 62
   256
  9
$CELTSCALE
 40
1.0
  9
$DISPSILH
 70
     0
  9
$DIMSCALE
 40
1.0
  9
$DIMASZ
 40
0.18
  9
$DIMEXO
 40
0.0625
  9
$DIMDLI
 40
0.38
  9
$DIMRND
 40
0.0
  9
$DIMDLE
 40
0.0
  9
$DIMEXE
 40
0.18
  9
$DIMTP
 40
0.0
  9
$DIMTM
 40
0.0
  9
$DIMTXT
 40
0.18
  9
$DIMCEN
 40
0.09
  9
$DIMTSZ
 40
0.0
  9
$DIMTOL
 70
     0
  9
$DIMLIM
 70
     0
  9
$DIMTIH
 70
     1
  9
$DIMTOH
 70
     1
  9
$DIMSE1
 70
     0
  9
$DIMSE2
 70
     0
  9
$DIMTAD
 70
     0
  9
$DIMZIN
 70
     0
  9
$DIMBLK
  1

  9
$DIMASO
 70
     1
  9
$DIMSHO
 70
     1
  9
$DIMPOST
  1

  9
$DIMAPOST
  1

  9
$DIMALT
 70
     0
  9
$DIMALTD
 70
     2
  9
$DIMALTF
 40
25.4
  9
$DIMLFAC
 40
1.0
  9
$DIMTOFL
 70
     0
  9
$DIMTVP
 40
0.0
  9
$DIMTIX
 70
     0
  9
$DIMSOXD
 70
     0
  9
$DIMSAH
 70
     0
  9
$DIMBLK1
  1

  9
$DIMBLK2
  1

  9
$DIMSTYLE
  2
Standard
  9
$DIMCLRD
 70
     0
  9
$DIMCLRE
 70
     0
  9
$DIMCLRT
 70
     0
  9
$DIMTFAC
 40
1.0
  9
$DIMGAP
 40
0.09
  9
$DIMJUST
 70
     0
  9
$DIMSD1
 70
     0
  9
$DIMSD2
 70
     0
  9
$DIMTOLJ
 70
     1
  9
$DIMTZIN
 70
     0
  9
$DIMALTZ
 70
     0
  9
$DIMALTTZ
 70
     0
  9
$DIMUPT
 70
     0
  9
$DIMDEC
 70
     4
  9
$DIMTDEC
 70
     4
  9
$DIMALTU
 70
     2
  9
$DIMALTTD
 70
     2
  9
$DIMTXSTY
  7
Standard
  9
$DIMAUNIT
 70
     0
  9
$DIMADEC
 70
     0
  9
$DIMALTRND
 40
0.0
  9
$DIMAZIN
 70
     0
  9
$DIMDSEP
 70
     0
  9
$DIMATFIT
 70
     3
  9
$DIMFRAC
 70
     0
  9
$DIMLDRBLK
  1

  9
$DIMLUNIT
 70
     2
  9
$DIMLWD
 70
     0
  9
$DIMLWE
 70
     0
  9
$DIMTMOVE
 70
     0
  9
$LUNITS
 70
     2
  9
$LUPREC
 70
     4
  9
$SKETCHINC
 40
0.1
  9
$FILLETRAD
 40
0.0
  9
$AUNITS
 70
     0
  9
$AUPREC
 70
     0
  9
$MENU
  1
acad
  9
$ELEVATION
 40
0.0
  9
$PELEVATION
 40
0.0
  9
$THICKNESS
 40
0.0
  9
$LIMCHECK
 70
     0
  9
$CHAMFERA
 40
0.0
  9
$CHAMFERB
 40
0.0
  9
$CHAMFERC
 40
0.0
  9
$CHAMFERD
 40
0.0
  9
$SKPOLY
 70
     0
  9
$TDCREATE
 40
0.000000000
  9
$TDUCREATE
 40
0.000000000
  9
$TDUPDATE
 40
0.000000000
  9
$TDUUPDATE
 40
0.000000000
  9
$TDINDWG
 40
0.0000000000
  9
$TDUSRTIMER
 40
0.0000000000
  9
$USRTIMER
 70
     1
  9
$ANGBASE
 50
0.0
  9
$ANGDIR
 70
     0
  9
$PDMODE
 70
     0
  9
$PDSIZE
 40
0.0
  9
$PLINEWID
 40
0.0
  9
$SPLFRAME
 70
     0
  9
$SPLINETYPE
 70
     6
  9
$SPLINESEGS
 70
     8
  9
$HANDSEED
  5
58
  9
$SURFTAB1
 70
     6
  9
$SURFTAB2
 70
     6
  9
$SURFTYPE
 70
     6
  9
$SURFU
 70
     6
  9
$SURFV
 70
     6
  9
$UCSBASE
  2

  9
$UCSNAME
  2

  9
$UCSORG
 10
0.0
 20
0.0
 30
0.0
  9
$UCSXDIR
 10
1.0
 20
0.0
 30
0.0
  9
$UCSYDIR
 10
0.0
 20
1.0
 30
0.0
  9
$UCSORTHOREF
  2

  9
$UCSORTHOVIEW
 70
     0
  9
$UCSORGTOP
 10
0.0
 20
0.0
 30
0.0
  9
$UCSORGBOTTOM
 10
0.0
 20
0.0
 30
0.0
  9
$UCSORGLEFT
 10
0.0
 20
0.0
 30
0.0
  9
$UCSORGRIGHT
 10
0.0
 20
0.0
 30
0.0
  9
$UCSORGFRONT
 10
0.0
 20
0.0
 30
0.0
  9
$UCSORGBACK
 10
0.0
 20
0.0
 30
0.0
  9
$PUCSBASE
  2

  9
$PUCSNAME
  2

  9
$PUCSORG
 10
0.0
 20
0.0
 30
0.0
  9
$PUCSXDIR
 10
1.0
 20
0.0
 30
0.0
  9
$PUCSYDIR
 10
0.0
 20
1.0
 30
0.0
  9
$PUCSORTHOREF
  2

  9
$PUCSORTHOVIEW
 70
     0
  9
$PUCSORGTOP
 10
0.0
 20
0.0
 30
0.0
  9
$PUCSORGBOTTOM
 10
0.0
 20
0.0
 30
0.0
  9
$PUCSORGLEFT
 10
0.0
 20
0.0
 30
0.0
  9
$PUCSORGRIGHT
 10
0.0
 20
0.0
 30
0.0
  9
$PUCSORGFRONT
 10
0.0
 20
0.0
 30
0.0
  9
$PUCSORGBACK
 10
0.0
 20
0.0
 30
0.0
  9
$USERI1
 70
     0
  9
$USERI2
 70
     0
  9
$USERI3
 70
     0
  9
$USERI4
 70
     0
  9
$USERI5
 70
     0
  9
$USERR1
 40
0.0
  9
$USERR2
 40
0.0
  9
$USERR3
 40
0.0
  9
$USERR4
 40
0.0
  9
$USERR5
 40
0.0
  9
$WORLDVIEW
 70
     1
  9
$SHADEDGE
 70
     3
  9
$SHADEDIF
 70
    70
  9
$TILEMODE
 70
     1
  9
$MAXACTVP
 70
    16
  9
$PINSBASE
 10
0.0
 20
0.0
 30
0.0
  9
$PLIMCHECK
 70
     0
  9
$PEXTMIN
 10
1.000000E+20
 20
1.000000E+20
 30
1.000000E+20
  9
$PEXTMAX
 10
-1.000000E+20
 20
-1.000000E+20
 30
-1.000000E+20
  9
$PLIMMIN
 10
0.0
 20
0.0
  9
$PLIMMAX
 10
12.0
 20
9.0
  9
$UNITMODE
 70
     0
  9
$VISRETAIN
 70
     0
  9
$PLINEGEN
 70
     1
  9
$PSLTSCALE
 70
     0
  9
$TREEDEPTH
 70
  3020
  9
$CMLSTYLE
  2
Standard
  9
$CMLJUST
 70
     0
  9
$CMLSCALE
 40
1.0
  9
$PROXYGRAPHICS
 70
     0
  9
$MEASUREMENT
 70
     0
  9
$CELWEIGHT
370
     0
  9
$ENDCAPS
280
     0
  9
$JOINSTYLE
280
     0
  9
$LWDISPLAY
290
     0
  9
$INSUNITS
 70
     5
  9
$HYPERLINKBASE
  1

  9
$XEDIT
290
     1
  9
$CEPSNTYPE
380
     0
  9
$PSTYLEMODE
290
     1
  9
$FINGERPRINTGUID
  2

  9
$VERSIONGUID
  2

  9
$EXTNAMES
290
     1
  9
$PSVPSCALE
 40
0.0
  0
ENDSEC
  0
SECTION
  2
CLASSES
  0
CLASS
  1
LWPOLYLINE
  2
AcDbPolyline
  3
AutoCAD 2000
 90
    32768
280
     0
281
     1
  0
CLASS
  1
IMAGE
  2
AcDbRasterImage
  3
ISM
 90
    32895
280
     0
281
     1
  0
CLASS
  1
OLE2FRAME
  2
AcDbOle2Frame
  3
AutoCAD 2000
 90
    32768
280
     0
281
     1
  0
CLASS
  1
HATCH
  2
AcDbHatch
  3
AutoCAD 2000
 90
    32768
280
     0
281
     1
  0
CLASS
  1
DICTIONARYVAR
  2
AcDbDictionaryVar
  3
AutoCAD 2000
 90
    32768
280
     0
281
     0
  0
CLASS
  1
RASTERVARIABLES
  2
AcDbRasterVariables
  3
ISM
 90
    32768
280
     0
281
     0
  0
CLASS
  1
IMAGEDEF
  2
AcDbRasterImageDef
  3
ISM
 90
    32768
280
     0
281
     0
  0
CLASS
  1
IMAGEDEF_REACTOR
  2
AcDbRasterImageDefReactor
  3
ISM
 90
    32769
280
     0
281
     0
  0
CLASS
  1
IDBUFFER
  2
AcDbIdBuffer
  3
AutoCAD 2000
 90
    32768
280
     0
281
     0
  0
CLASS
  1
SPATIAL_FILTER
  2
AcDbSpatialFilter
  3
AutoCAD 2000
 90
    32768
280
     0
281
     0
  0
CLASS
  1
XRECORD
  2
AcDbXrecord
  3
AutoCAD 2000
 90
    32768
280
     0
281
     0
  0
CLASS
  1
SORTENTSTABLE
  2
AcDbSortentsTable
  3
AutoCAD 2000
 90
    32768
280
     0
281
     0
  0
CLASS
  1
LAYER_INDEX
  2
AcDbLayerIndex
  3
AutoCAD 2000
 90
    32768
280
     0
281
     0
  0
CLASS
  1
SPATIAL_INDEX
  2
AcDbSpatialIndex
  3
AutoCAD 2000
 90
    32768
280
     0
281
     0
  0
CLASS
  1
OBJECT_PTR
  2
CAseDLPNTableRecord
  3
"ASE-LPNTableRecord"
 90
    32769
280
     0
281
     0
  0
CLASS
  1
LAYOUT
  2
AcDbLayout
  3
AutoCAD 2000
 90
        0
280
     0
281
     0
  0
CLASS
  1
PLOTSETTINGS
  2
AcDbPlotSettings
  3
AutoCAD 2000
 90
    32768
280
     0
281
     0
  0
CLASS
  1
ACDBDICTIONARYWDFLT
  2
AcDbDictionaryWithDefault
  3
AutoCAD 2000
 90
        0
280
     0
281
     0
  0
CLASS
  1
ACDBPLACEHOLDER
  2
AcDbPlaceHolder
  3
AutoCAD 2000
 90
        0
280
     0
281
     0
  0
CLASS
  1
VBA_PROJECT
  2
AcDbVbaProject
  3
acadvba
 90
    32768
280
     0
281
     0
  0
CLASS
  1
WIPEOUT
  2
AcDbWipeout
  3
WipeOut|AutoCAD Express Tool|expresstools@autodesk.com
 90
    32895
280
     0
281
     1
  0
CLASS
  1
WIPEOUTVARIABLES
  2
AcDbWipeoutVariables
  3
WipeOut|AutoCAD Express Tool|expresstools@autodesk.com
 90
        0
280
     0
281
     0
  0
CLASS
  1
RTEXT
  2
RText
  3
RText|AutoCAD Express Tool|expresstools@autodesk.com
 90
    32768
280
     0
281
     1
  0
CLASS
  1
ARCALIGNEDTEXT
  2
AcDbArcAlignedText
  3
ATEXT|AutoCAD Express Tool|expresstools@autodesk.com
 90
    32768
280
     0
281
     1
  0
ENDSEC
  0
SECTION
  2
TABLES
  0
TABLE
  2
VPORT
  5
7
100
AcDbSymbolTable
 70
     1
  0
VPORT
  5
15
100
AcDbSymbolTableRecord
100
AcDbViewportTableRecord
  2
*ACTIVE
 70
     0
 10
0.0
 20
0.0
 11
1.0
 21
1.0
 12
6.591288
 22
4.579184
 13
0.0
 23
0.0
 14
1.0
 24
1.0
 15
0.0
 25
0.0
 16
0.0
 26
0.0
 36
1.0
 17
0.0
 27
0.0
 37
0.0
 40
9.158369
 41
0.688564
 42
50.0
 43
0.0
 44
0.0
 50
0.0
 51
0.0
 71
     0
 72
   100
 73
     1
 74
     1
 75
     0
 76
     0
 77
     0
 78
     0
281
     0
 65
     0
110
0.0
120
0.0
130
0.0
111
1.0
121
0.0
131
0.0
112
0.0
122
1.0
132
0.0
345
0
346
0
 79
     0
146
0.0
  0
ENDTAB
  0
TABLE
  2
LTYPE
  5
4
100
AcDbSymbolTable
 70
     3
  0
LTYPE
  5
11
100
AcDbSymbolTableRecord
100
AcDbLinetypeTableRecord
  2
ByBlock
 70
    64
  3

 72
    65
 73
     0
 40
0.0
  0
LTYPE
  5
12
100
AcDbSymbolTableRecord
100
AcDbLinetypeTableRecord
  2
ByLayer
 70
    64
  3

 72
    65
 73
     0
 40
0.0
  0
LTYPE
  5
13
100
AcDbSymbolTableRecord
100
AcDbLinetypeTableRecord
  2
Continuous
 70
    64
  3
Solid line
 72
    65
 73
     0
 40
0.0
  0
ENDTAB
  0
TABLE
  2
LAYER
  5
2
100
AcDbSymbolTable
 70
     2
  0
LAYER
  5
14
100
AcDbSymbolTableRecord
100
AcDbLayerTableRecord
  2
0
 70
     0
 62
     7
  6
Continuous
290
     1
370
    -3
390
1D
  0
LAYER
  5
24
100
AcDbSymbolTableRecord
100
AcDbLayerTableRecord
  2
Ebene 1
 70
     0
 62
     7
  6
Continuous
290
     1
370
    -3
390
1F
  0
ENDTAB
  0
TABLE
  2
STYLE
  5
3
100
AcDbSymbolTable
 70
     1
  0
STYLE
  5
17
100
AcDbSymbolTableRecord
100
AcDbTextStyleTableRecord
  2
Standard
 70
     0
 40
0.0
 41
1.0
 50
0.0
 71
     0
 42
0.0
  3
txt
  4

  0
ENDTAB
  0
TABLE
  2
VIEW
  5
5
100
AcDbSymbolTable
 70
     0
  0
ENDTAB
  0
TABLE
  2
UCS
  5
6
100
AcDbSymbolTable
 70
     0
  0
ENDTAB
  0
TABLE
  2
APPID
  5
8
100
AcDbSymbolTable
 70
     1
  0
APPID
  5
16
100
AcDbSymbolTableRecord
100
AcDbRegAppTableRecord
  2
ACAD
 70
     0
  0
ENDTAB
  0
TABLE
  2
DIMSTYLE
  5
9
100
AcDbSymbolTable
 70
     1
100
AcDbDimStyleTable
 71
     0
  0
DIMSTYLE
105
18
100
AcDbSymbolTableRecord
100
AcDbDimStyleTableRecord
  2
Standard
 70
     0
  3

  4

 40
1.0
 41
0.18
 42
0.0625
 43
0.38
 44
0.18
 45
0.0
 46
0.0
 47
0.0
 48
0.0
 71
     0
 72
     0
 73
     1
 74
     1
 75
     0
 76
     0
 77
     0
 78
     0
 79
     0
140
0.18
141
0.09
142
0.0
143
25.4
144
1.0
145
0.0
146
1.0
147
0.09
148
0.0
170
     0
171
     2
172
     0
173
     0
174
     0
175
     0
176
     0
177
     0
178
     0
179
     0
271
     4
272
     4
273
     2
274
     2
275
     0
276
     0
277
     2
278
    46
279
     0
280
     0
281
     0
282
     0
283
     1
284
     0
285
     0
286
     0
288
     0
340
17
341
0
342
0
343
0
344
0
371
    -2
372
    -2
  0
ENDTAB
  0
TABLE
  2
BLOCK_RECORD
  5
1
100
AcDbSymbolTable
 70
     0
  0
BLOCK_RECORD
  5
A
100
AcDbSymbolTableRecord
100
AcDbBlockTableRecord
  2
*MODEL_SPACE
340
20
  0
BLOCK_RECORD
  5
B
100
AcDbSymbolTableRecord
100
AcDbBlockTableRecord
  2
*PAPER_SPACE
340
21
  0
ENDTAB
  0
ENDSEC
  0
SECTION
  2
BLOCKS
  0
BLOCK
  5
D
100
AcDbEntity
  8
0
100
AcDbBlockBegin
  2
*MODEL_SPACE
 70
     0
 10
0.0
 20
0.0
 30
0.0
  3
*MODEL_SPACE
  1

  0
ENDBLK
  5
E
100
AcDbEntity
  8
0
100
AcDbBlockEnd
  0
BLOCK
  5
F
100
AcDbEntity
 67
     1
  8
0
100
AcDbBlockBegin
  2
*PAPER_SPACE
 70
     0
 10
0.0
 20
0.0
 30
0.0
  3
*PAPER_SPACE
  1

  0
ENDBLK
  5
10
100
AcDbEntity
 67
     1
  8
0
100
AcDbBlockEnd
  0
ENDSEC
  0
SECTION
  2
ENTITIES
  0
SPLINE
  5
25
100
AcDbEntity
  8
Ebene 1
100
AcDbSpline
210
0.0
220
0.0
230
1.0
 70
     1
 71
     3
 72
    84
 73
    80
 74
     0
 42
0.0000000001
 43
0.0000000001
 40
0.0
 40
0.0
 40
0.0
 40
0.0
 40
0.05
 40
0.05
 40
0.05
 40
0.05
 40
0.1
 40
0.1
 40
0.1
 40
0.1
 40
0.15
 40
0.15
 40
0.15
 40
0.15
 40
0.2
 40
0.2
 40
0.2
 40
0.2
 40
0.25
 40
0.25
 40
0.25
 40
0.25
 40
0.3
 40
0.3
 40
0.3
 40
0.3
 40
0.35
 40
0.35
 40
0.35
 40
0.35
 40
0.4
 40
0.4
 40
0.4
 40
0.4
 40
0.45
 40
0.45
 40
0.45
 40
0.45
 40
0.4999999999999999
 40
0.4999999999999999
 40
0.4999999999999999
 40
0.4999999999999999
 40
0.5499999999999999
 40
0.5499999999999999
 40
0.5499999999999999
 40
0.5499999999999999
 40
0.6
 40
0.6
 40
0.6
 40
0.6
 40
0.65
 40
0.65
 40
0.65
 40
0.65
 40
0.7000000000000001
 40
0.7000000000000001
 40
0.7000000000000001
 40
0.7000000000000001
 40
0.7500000000000001
 40
0.7500000000000001
 40
0.7500000000000001
 40
0.7500000000000001
 40
0.8000000000000002
 40
0.8000000000000002
 40
0.8000000000000002
 40
0.8000000000000002
 40
0.8500000000000002
 40
0.8500000000000002
 40
0.8500000000000002
 40
0.8500000000000002
 40
0.9000000000000002
 40
0.9000000000000002
 40
0.9000000000000002
 40
0.9000000000000002
 40
0.9500000000000003
 40
0.9500000000000003
 40
0.9500000000000003
 40
0.9500000000000003
 40
1.0
 40
1.0
 40
1.0
 40
1.0
 10
1.1533
 20
5.6179100000000002
 30
0.0
 10
3.2742000000000004
 20
5.6001300000000001
 30
0.0
 10
5.3417600000000007
 20
3.3903300000000001
 30
0.0
 10
4.4502200000000007
 20
1.2516500000000002
 30
0.0
 10
4.4502200000000007
 20
1.2516500000000002
 30
0.0
 10
4.3968800000000003
 20
1.0078100000000001
 30
0.0
 10
4.3537000000000008
 20
0.7614300000000001
 30
0.0
 10
4.3460800000000006
 20
0.4972700000000001
 30
0.0
 10
4.3460800000000006
 20
0.4972700000000001
 30
0.0
 10
4.4045000000000005
 20
0.11119
 30
0.0
 10
4.7448600000000001
 20
-0.20122
 30
0.0
 10
4.6762800000000002
 20
-0.6228600000000001
 30
0.0
 10
4.6762800000000002
 20
-0.6228600000000001
 30
0.0
 10
4.5340400000000001
 20
-0.9378200000000001
 30
0.0
 10
4.0997000000000003
 20
-0.9200400000000001
 30
0.0
 10
3.9422200000000003
 20
-1.2350000000000001
 30
0.0
 10
3.9422200000000003
 20
-1.2350000000000001
 30
0.0
 10
3.7999800000000001
 20
-1.8496800000000002
 30
0.0
 10
3.8380800000000002
 20
-2.5329400000000004
 30
0.0
 10
3.7974400000000004
 20
-3.1831800000000001
 30
0.0
 10
3.7974400000000004
 20
-3.1831800000000001
 30
0.0
 10
3.2665800000000003
 20
-3.9020000000000001
 30
0.0
 10
2.84748
 20
-4.7071800000000001
 30
0.0
 10
2.4309200000000004
 20
-5.5149000000000008
 30
0.0
 10
2.4309200000000004
 20
-5.5149000000000008
 30
0.0
 10
2.1921600000000003
 20
-5.5860200000000004
 30
0.0
 10
1.9711800000000002
 20
-5.4615600000000004
 30
0.0
 10
1.7324200000000001
 20
-5.4793400000000005
 30
0.0
 10
1.7324200000000001
 20
-5.4793400000000005
 30
0.0
 10
1.4530200000000002
 20
-5.4793400000000005
 30
0.0
 10
1.1990200000000002
 20
-5.6546000000000003
 30
0.0
 10
0.9297800000000001
 20
-5.61904
 30
0.0
 10
0.9297800000000001
 20
-5.61904
 30
0.0
 10
0.2389
 20
-4.8468800000000005
 30
0.0
 10
-0.47737
 20
-4.0772600000000008
 30
0.0
 10
-1.2241300000000002
 20
-3.3940000000000001
 30
0.0
 10
-1.2241300000000002
 20
-3.3940000000000001
 30
0.0
 10
-1.2165100000000002
 20
-2.4288000000000003
 30
0.0
 10
-0.9980700000000001
 20
-1.2172200000000002
 30
0.0
 10
-2.06487
 20
-0.7981200000000001
 30
0.0
 10
-2.06487
 20
-0.7981200000000001
 30
0.0
 10
-2.2096500000000003
 20
-0.4806200000000001
 30
0.0
 10
-1.6914900000000002
 20
0.40837
 30
0.0
 10
-2.22743
 20
0.30423
 30
0.0
 10
-2.22743
 20
0.30423
 30
0.0
 10
-2.2833100000000002
 20
0.28645
 30
0.0
 10
-2.3468100000000001
 20
0.33979
 30
0.0
 10
-2.3696700000000002
 20
0.26867
 30
0.0
 10
-2.3696700000000002
 20
0.26867
 30
0.0
 10
-2.2985500000000001
 20
-0.7270000000000001
 30
0.0
 10
-1.8083300000000002
 20
-2.0782800000000003
 30
0.0
 10
-2.9233900000000004
 20
-2.7259800000000003
 30
0.0
 10
-2.9233900000000004
 20
-2.7259800000000003
 30
0.0
 10
-2.9233900000000004
 20
-2.7259800000000003
 30
0.0
 10
-2.8421100000000004
 20
-2.3043400000000003
 30
0.0
 10
-2.8421100000000004
 20
-2.3043400000000003
 30
0.0
 10
-2.8421100000000004
 20
-2.3043400000000003
 30
0.0
 10
-2.7836900000000004
 20
-2.0605000000000002
 30
0.0
 10
-2.8573500000000003
 20
-1.7633200000000002
 30
0.0
 10
-2.9767300000000003
 20
-1.58552
 30
0.0
 10
-2.9767300000000003
 20
-1.58552
 30
0.0
 10
-3.3374100000000002
 20
-2.4110200000000002
 30
0.0
 10
-3.8606500000000001
 20
-3.2695400000000001
 30
0.0
 10
-4.6785300000000003
 20
-3.6734000000000004
 30
0.0
 10
-4.6785300000000003
 20
-3.6734000000000004
 30
0.0
 10
-3.7844500000000001
 20
-2.2002000000000002
 30
0.0
 10
-4.5515300000000005
 20
0.11119
 30
0.0
 10
-2.7405100000000004
 20
1.02305
 30
0.0
 10
-2.7405100000000004
 20
1.02305
 30
0.0
 10
-2.8878300000000001
 20
1.1805300000000001
 30
0.0
 10
-3.0021300000000002
 20
1.3557900000000001
 30
0.0
 10
-2.94625
 20
1.5843900000000002
 30
0.0
 10
-2.94625
 20
1.5843900000000002
 30
0.0
 10
-2.8725900000000002
 20
1.8841100000000002
 30
0.0
 10
-2.6033500000000003
 20
2.0593700000000004
 30
0.0
 10
-2.31887
 20
2.0949300000000002
 30
0.0
 10
-2.31887
 20
2.0949300000000002
 30
0.0
 10
-2.35189
 20
3.9694500000000001
 30
0.0
 10
-0.69581
 20
5.6179100000000002
 30
0.0
 10
1.1533
 20
5.6179100000000002
 30
0.0
  0
SPLINE
  5
26
100
AcDbEntity
  8
Ebene 1
 62
     7
100
AcDbSpline
210
0.0
220
0.0
230
1.0
 70
     1
 71
     3
 72
   148
 73
   144
 74
     0
 42
0.0000000001
 43
0.0000000001
 40
0.0
 40
0.0
 40
0.0
 40
0.0
 40
0.0277777777777778
 40
0.0277777777777778
 40
0.0277777777777778
 40
0.0277777777777778
 40
0.0555555555555556
 40
0.0555555555555556
 40
0.0555555555555556
 40
0.0555555555555556
 40
0.0833333333333333
 40
0.0833333333333333
 40
0.0833333333333333
 40
0.0833333333333333
 40
0.1111111111111111
 40
0.1111111111111111
 40
0.1111111111111111
 40
0.1111111111111111
 40
0.1388888888888889
 40
0.1388888888888889
 40
0.1388888888888889
 40
0.1388888888888889
 40
0.1666666666666667
 40
0.1666666666666667
 40
0.1666666666666667
 40
0.1666666666666667
 40
0.1944444444444445
 40
0.1944444444444445
 40
0.1944444444444445
 40
0.1944444444444445
 40
0.2222222222222223
 40
0.2222222222222223
 40
0.2222222222222223
 40
0.2222222222222223
 40
0.2500000000000001
 40
0.2500000000000001
 40
0.2500000000000001
 40
0.2500000000000001
 40
0.2777777777777779
 40
0.2777777777777779
 40
0.2777777777777779
 40
0.2777777777777779
 40
0.3055555555555556
 40
0.3055555555555556
 40
0.3055555555555556
 40
0.3055555555555556
 40
0.3333333333333334
 40
0.3333333333333334
 40
0.3333333333333334
 40
0.3333333333333334
 40
0.3611111111111112
 40
0.3611111111111112
 40
0.3611111111111112
 40
0.3611111111111112
 40
0.388888888888889
 40
0.388888888888889
 40
0.388888888888889
 40
0.388888888888889
 40
0.4166666666666668
 40
0.4166666666666668
 40
0.4166666666666668
 40
0.4166666666666668
 40
0.4444444444444446
 40
0.4444444444444446
 40
0.4444444444444446
 40
0.4444444444444446
 40
0.4722222222222224
 40
0.4722222222222224
 40
0.4722222222222224
 40
0.4722222222222224
 40
0.5000000000000001
 40
0.5000000000000001
 40
0.5000000000000001
 40
0.5000000000000001
 40
0.5277777777777779
 40
0.5277777777777779
 40
0.5277777777777779
 40
0.5277777777777779
 40
0.5555555555555557
 40
0.5555555555555557
 40
0.5555555555555557
 40
0.5555555555555557
 40
0.5833333333333335
 40
0.5833333333333335
 40
0.5833333333333335
 40
0.5833333333333335
 40
0.6111111111111113
 40
0.6111111111111113
 40
0.6111111111111113
 40
0.6111111111111113
 40
0.6388888888888891
 40
0.6388888888888891
 40
0.6388888888888891
 40
0.6388888888888891
 40
0.6666666666666669
 40
0.6666666666666669
 40
0.6666666666666669
 40
0.6666666666666669
 40
0.6944444444444446
 40
0.6944444444444446
 40
0.6944444444444446
 40
0.6944444444444446
 40
0.7222222222222224
 40
0.7222222222222224
 40
0.7222222222222224
 40
0.7222222222222224
 40
0.7500000000000002
 40
0.7500000000000002
 40
0.7500000000000002
 40
0.7500000000000002
 40
0.777777777777778
 40
0.777777777777778
 40
0.777777777777778
 40
0.777777777777778
 40
0.8055555555555558
 40
0.8055555555555558
 40
0.8055555555555558
 40
0.8055555555555558
 40
0.8333333333333336
 40
0.8333333333333336
 40
0.8333333333333336
 40
0.8333333333333336
 40
0.8611111111111114
 40
0.8611111111111114
 40
0.8611111111111114
 40
0.8611111111111114
 40
0.8888888888888892
 40
0.8888888888888892
 40
0.8888888888888892
 40
0.8888888888888892
 40
0.916666666666667
 40
0.916666666666667
 40
0.916666666666667
 40
0.916666666666667
 40
0.9444444444444448
 40
0.9444444444444448
 40
0.9444444444444448
 40
0.9444444444444448
 40
0.9722222222222225
 40
0.9722222222222225
 40
0.9722222222222225
 40
0.9722222222222225
 40
1.0
 40
1.0
 40
1.0
 40
1.0
 10
2.5045800000000003
 20
5.2496100000000006
 30
0.0
 10
2.7763600000000004
 20
5.1454700000000004
 30
0.0
 10
3.0430600000000001
 20
4.9854500000000002
 30
0.0
 10
3.2208600000000001
 20
4.7416100000000005
 30
0.0
 10
3.2208600000000001
 20
4.7416100000000005
 30
0.0
 10
3.0938600000000003
 20
4.4444300000000005
 30
0.0
 10
2.8398600000000003
 20
4.2158300000000004
 30
0.0
 10
2.7154000000000003
 20
3.9338900000000003
 30
0.0
 10
2.7154000000000003
 20
3.9338900000000003
 30
0.0
 10
2.7154000000000003
 20
3.9338900000000003
 30
0.0
 10
3.5790000000000002
 20
2.9712300000000003
 30
0.0
 10
3.5790000000000002
 20
2.9712300000000003
 30
0.0
 10
3.5790000000000002
 20
2.9712300000000003
 30
0.0
 10
3.5790000000000002
 20
2.9712300000000003
 30
0.0
 10
3.7466400000000002
 20
2.9534500000000001
 30
0.0
 10
3.7466400000000002
 20
2.9534500000000001
 30
0.0
 10
3.7466400000000002
 20
2.9534500000000001
 30
0.0
 10
3.7466400000000002
 20
2.9534500000000001
 30
0.0
 10
3.7187000000000001
 20
3.0398100000000001
 30
0.0
 10
3.7187000000000001
 20
3.0398100000000001
 30
0.0
 10
3.7187000000000001
 20
3.0398100000000001
 30
0.0
 10
3.8761800000000002
 20
3.2861900000000004
 30
0.0
 10
4.0031800000000004
 20
3.5655900000000003
 30
0.0
 10
4.2013000000000007
 20
3.7941900000000004
 30
0.0
 10
4.2013000000000007
 20
3.7941900000000004
 30
0.0
 10
4.2013000000000007
 20
3.7941900000000004
 30
0.0
 10
4.2749600000000001
 20
3.6544900000000005
 30
0.0
 10
4.2749600000000001
 20
3.6544900000000005
 30
0.0
 10
4.2749600000000001
 20
3.6544900000000005
 30
0.0
 10
4.0768400000000007
 20
3.3395300000000003
 30
0.0
 10
3.8380800000000002
 20
3.0398100000000001
 30
0.0
 10
3.6755200000000001
 20
2.7070700000000003
 30
0.0
 10
3.6755200000000001
 20
2.7070700000000003
 30
0.0
 10
3.4418400000000005
 20
2.5851500000000001
 30
0.0
 10
3.1929200000000004
 20
2.5318100000000001
 30
0.0
 10
2.9414600000000002
 20
2.46069
 30
0.0
 10
2.9414600000000002
 20
2.46069
 30
0.0
 10
3.1141800000000002
 20
2.6181700000000001
 30
0.0
 10
3.3910400000000003
 20
2.6359500000000002
 30
0.0
 10
3.5561400000000001
 20
2.8112100000000004
 30
0.0
 10
3.5561400000000001
 20
2.8112100000000004
 30
0.0
 10
3.1700600000000003
 20
3.0067900000000001
 30
0.0
 10
2.9262200000000003
 20
3.4970100000000004
 30
0.0
 10
2.6265000000000001
 20
3.8119700000000005
 30
0.0
 10
2.6265000000000001
 20
3.8119700000000005
 30
0.0
 10
2.2709000000000001
 20
3.6367100000000003
 30
0.0
 10
1.8492600000000001
 20
3.5325700000000002
 30
0.0
 10
1.5444600000000002
 20
3.3039700000000001
 30
0.0
 10
1.5444600000000002
 20
3.3039700000000001
 30
0.0
 10
1.5647800000000001
 20
2.8467700000000002
 30
0.0
 10
1.8264000000000002
 20
2.3743300000000001
 30
0.0
 10
1.7324200000000001
 20
1.9526900000000003
 30
0.0
 10
1.7324200000000001
 20
1.9526900000000003
 30
0.0
 10
1.5012800000000002
 20
2.30321
 30
0.0
 10
1.5495400000000001
 20
2.9001100000000002
 30
0.0
 10
1.3793600000000001
 20
3.3395300000000003
 30
0.0
 10
1.3793600000000001
 20
3.3395300000000003
 30
0.0
 10
0.9297800000000001
 20
3.2861900000000004
 30
0.0
 10
0.4675
 20
3.3903300000000001
 30
0.0
 10
0.01792
 20
3.3039700000000001
 30
0.0
 10
0.01792
 20
3.3039700000000001
 30
0.0
 10
-0.22083
 20
2.8823300000000001
 30
0.0
 10
-0.45451
 20
2.4429100000000004
 30
0.0
 10
-0.6272300000000001
 20
2.00603
 30
0.0
 10
-0.6272300000000001
 20
2.00603
 30
0.0
 10
-0.6272300000000001
 20
2.00603
 30
0.0
 10
-0.26655
 20
1.86633
 30
0.0
 10
-0.26655
 20
1.86633
 30
0.0
 10
-0.26655
 20
1.86633
 30
0.0
 10
-0.26655
 20
1.86633
 30
0.0
 10
-0.42149
 20
1.8129900000000001
 30
0.0
 10
-0.42149
 20
1.8129900000000001
 30
0.0
 10
-0.42149
 20
1.8129900000000001
 30
0.0
 10
-0.7999500000000001
 20
2.0949300000000002
 30
0.0
 10
-0.7872500000000001
 20
1.4091300000000002
 30
0.0
 10
-1.1352300000000002
 20
1.3913500000000001
 30
0.0
 10
-1.1352300000000002
 20
1.3913500000000001
 30
0.0
 10
-1.07935
 20
1.5666100000000001
 30
0.0
 10
-0.8964700000000001
 20
1.7596500000000002
 30
0.0
 10
-0.8990100000000001
 20
1.9349100000000001
 30
0.0
 10
-0.8990100000000001
 20
1.9349100000000001
 30
0.0
 10
-1.2825500000000001
 20
2.1279500000000002
 30
0.0
 10
-1.6660900000000001
 20
2.4429100000000004
 30
0.0
 10
-1.9124700000000001
 20
2.7959700000000001
 30
0.0
 10
-1.9124700000000001
 20
2.7959700000000001
 30
0.0
 10
-2.0318500000000004
 20
2.7959700000000001
 30
0.0
 10
-2.0623300000000002
 20
2.6181700000000001
 30
0.0
 10
-2.1537700000000002
 20
2.6003900000000004
 30
0.0
 10
-2.1537700000000002
 20
2.6003900000000004
 30
0.0
 10
-2.1537700000000002
 20
2.6003900000000004
 30
0.0
 10
-1.9073900000000001
 20
3.6189300000000002
 30
0.0
 10
-1.9073900000000001
 20
3.6189300000000002
 30
0.0
 10
-1.9073900000000001
 20
3.6189300000000002
 30
0.0
 10
-1.8540500000000002
 20
3.4792300000000003
 30
0.0
 10
-1.9531100000000001
 20
3.2506300000000001
 30
0.0
 10
-1.8540500000000002
 20
3.1109300000000002
 30
0.0
 10
-1.8540500000000002
 20
3.1109300000000002
 30
0.0
 10
-1.6152900000000001
 20
3.3903300000000001
 30
0.0
 10
-1.3155700000000001
 20
3.6189300000000002
 30
0.0
 10
-1.0209300000000001
 20
3.8297500000000002
 30
0.0
 10
-1.0209300000000001
 20
3.8297500000000002
 30
0.0
 10
-1.08443
 20
4.0939100000000002
 30
0.0
 10
-1.1123700000000001
 20
4.5130100000000004
 30
0.0
 10
-0.9777500000000001
 20
4.7416100000000005
 30
0.0
 10
-0.9777500000000001
 20
4.7416100000000005
 30
0.0
 10
-0.8812300000000001
 20
4.5485700000000007
 30
0.0
 10
-0.9777500000000001
 20
4.2513900000000007
 30
0.0
 10
-0.8736100000000001
 20
4.0405700000000007
 30
0.0
 10
-0.8736100000000001
 20
4.0405700000000007
 30
0.0
 10
-0.65771
 20
4.2691699999999999
 30
0.0
 10
-0.41895
 20
4.4622100000000007
 30
0.0
 10
-0.18019
 20
4.6374700000000004
 30
0.0
 10
-0.18019
 20
4.6374700000000004
 30
0.0
 10
-0.26401
 20
4.79495
 30
0.0
 10
-0.30719
 20
5.0743500000000008
 30
0.0
 10
-0.4164100000000001
 20
5.1276900000000003
 30
0.0
 10
-0.4164100000000001
 20
5.1276900000000003
 30
0.0
 10
0.20334
 20
5.5848900000000006
 30
0.0
 10
0.9602600000000001
 20
5.3740700000000006
 30
0.0
 10
1.6587600000000002
 20
5.5137700000000001
 30
0.0
 10
1.6587600000000002
 20
5.5137700000000001
 30
0.0
 10
1.4301600000000001
 20
5.3740700000000006
 30
0.0
 10
1.7705200000000001
 20
5.1632500000000006
 30
0.0
 10
1.8721200000000002
 20
5.0387900000000005
 30
0.0
 10
1.8721200000000002
 20
5.0387900000000005
 30
0.0
 10
2.0448400000000002
 20
5.1099100000000002
 30
0.0
 10
2.1820000000000004
 20
5.3918500000000007
 30
0.0
 10
2.3598000000000003
 20
5.3385100000000003
 30
0.0
 10
2.3598000000000003
 20
5.3385100000000003
 30
0.0
 10
2.3267800000000003
 20
5.1276900000000003
 30
0.0
 10
1.8975200000000001
 20
4.9854500000000002
 30
0.0
 10
2.05246
 20
4.7771700000000008
 30
0.0
 10
2.05246
 20
4.7771700000000008
 30
0.0
 10
2.2505800000000002
 20
4.5485700000000007
 30
0.0
 10
2.4334600000000002
 20
4.28695
 30
0.0
 10
2.6569800000000003
 20
4.0939100000000002
 30
0.0
 10
2.6569800000000003
 20
4.0939100000000002
 30
0.0
 10
2.8398600000000003
 20
4.28695
 30
0.0
 10
3.0430600000000001
 20
4.5307900000000005
 30
0.0
 10
3.0659200000000002
 20
4.8101900000000004
 30
0.0
 10
3.0659200000000002
 20
4.8101900000000004
 30
0.0
 10
3.0659200000000002
 20
4.8101900000000004
 30
0.0
 10
2.5045800000000003
 20
5.2496100000000006
 30
0.0
 10
2.5045800000000003
 20
5.2496100000000006
 30
0.0
  0
SPLINE
  5
27
100
AcDbEntity
  8
Ebene 1
100
AcDbSpline
210
0.0
220
0.0
230
1.0
 70
     1
 71
     3
 72
    20
 73
    16
 74
     0
 42
0.0000000001
 43
0.0000000001
 40
0.0
 40
0.0
 40
0.0
 40
0.0
 40
0.25
 40
0.25
 40
0.25
 40
0.25
 40
0.5
 40
0.5
 40
0.5
 40
0.5
 40
0.75
 40
0.75
 40
0.75
 40
0.75
 40
1.0
 40
1.0
 40
1.0
 40
1.0
 10
1.0821800000000001
 20
5.4070900000000002
 30
0.0
 10
1.3895200000000001
 20
5.4604300000000006
 30
0.0
 10
1.48858
 20
5.0565700000000007
 30
0.0
 10
1.7273400000000001
 20
4.9524300000000006
 30
0.0
 10
1.7273400000000001
 20
4.9524300000000006
 30
0.0
 10
1.7273400000000001
 20
4.9524300000000006
 30
0.0
 10
1.7273400000000001
 20
4.8990900000000002
 30
0.0
 10
1.7273400000000001
 20
4.8990900000000002
 30
0.0
 10
1.7273400000000001
 20
4.8990900000000002
 30
0.0
 10
1.7273400000000001
 20
4.8990900000000002
 30
0.0
 10
1.2803000000000002
 20
4.7238300000000004
 30
0.0
 10
1.2803000000000002
 20
4.7238300000000004
 30
0.0
 10
1.2803000000000002
 20
4.7238300000000004
 30
0.0
 10
1.1812400000000001
 20
4.9346500000000004
 30
0.0
 10
1.0974200000000001
 20
5.1810300000000007
 30
0.0
 10
1.0821800000000001
 20
5.4070900000000002
 30
0.0
  0
SPLINE
  5
28
100
AcDbEntity
  8
Ebene 1
100
AcDbSpline
210
0.0
220
0.0
230
1.0
 70
     1
 71
     3
 72
    20
 73
    16
 74
     0
 42
0.0000000001
 43
0.0000000001
 40
0.0
 40
0.0
 40
0.0
 40
0.0
 40
0.25
 40
0.25
 40
0.25
 40
0.25
 40
0.5
 40
0.5
 40
0.5
 40
0.5
 40
0.75
 40
0.75
 40
0.75
 40
0.75
 40
1.0
 40
1.0
 40
1.0
 40
1.0
 10
0.88914
 20
5.3918500000000007
 30
0.0
 10
0.88914
 20
5.3918500000000007
 30
0.0
 10
1.02884
 20
5.3918500000000007
 30
0.0
 10
1.02884
 20
5.3918500000000007
 30
0.0
 10
1.02884
 20
5.3918500000000007
 30
0.0
 10
1.02884
 20
5.3918500000000007
 30
0.0
 10
1.1685400000000001
 20
4.6527100000000008
 30
0.0
 10
1.1685400000000001
 20
4.6527100000000008
 30
0.0
 10
1.1685400000000001
 20
4.6527100000000008
 30
0.0
 10
0.9882000000000001
 20
4.6374700000000004
 30
0.0
 10
0.78246
 20
4.6374700000000004
 30
0.0
 10
0.61482
 20
4.6196900000000003
 30
0.0
 10
0.61482
 20
4.6196900000000003
 30
0.0
 10
0.61482
 20
4.6196900000000003
 30
0.0
 10
0.88914
 20
5.3918500000000007
 30
0.0
 10
0.88914
 20
5.3918500000000007
 30
0.0
  0
SPLINE
  5
29
100
AcDbEntity
  8
Ebene 1
100
AcDbSpline
210
0.0
220
0.0
230
1.0
 70
     1
 71
     3
 72
    20
 73
    16
 74
     0
 42
0.0000000001
 43
0.0000000001
 40
0.0
 40
0.0
 40
0.0
 40
0.0
 40
0.25
 40
0.25
 40
0.25
 40
0.25
 40
0.5
 40
0.5
 40
0.5
 40
0.5
 40
0.75
 40
0.75
 40
0.75
 40
0.75
 40
1.0
 40
1.0
 40
1.0
 40
1.0
 10
0.29478
 20
5.3740700000000006
 30
0.0
 10
0.404
 20
5.4070900000000002
 30
0.0
 10
0.37606
 20
5.2496100000000006
 30
0.0
 10
0.47004
 20
5.2496100000000006
 30
0.0
 10
0.47004
 20
5.2496100000000006
 30
0.0
 10
0.47004
 20
5.2496100000000006
 30
0.0
 10
-0.05319
 20
4.7771700000000008
 30
0.0
 10
-0.05319
 20
4.7771700000000008
 30
0.0
 10
-0.05319
 20
4.7771700000000008
 30
0.0
 10
-0.17511
 20
4.8635300000000008
 30
0.0
 10
-0.22337
 20
5.0210100000000004
 30
0.0
 10
-0.24115
 20
5.1632500000000006
 30
0.0
 10
-0.24115
 20
5.1632500000000006
 30
0.0
 10
-0.08621
 20
5.2851700000000008
 30
0.0
 10
0.13476
 20
5.2673900000000007
 30
0.0
 10
0.29478
 20
5.3740700000000006
 30
0.0
  0
SPLINE
  5
2A
100
AcDbEntity
  8
Ebene 1
100
AcDbSpline
210
0.0
220
0.0
230
1.0
 70
     1
 71
     3
 72
    20
 73
    16
 74
     0
 42
0.0000000001
 43
0.0000000001
 40
0.0
 40
0.0
 40
0.0
 40
0.0
 40
0.25
 40
0.25
 40
0.25
 40
0.25
 40
0.5
 40
0.5
 40
0.5
 40
0.5
 40
0.75
 40
0.75
 40
0.75
 40
0.75
 40
1.0
 40
1.0
 40
1.0
 40
1.0
 10
0.68086
 20
5.3562900000000004
 30
0.0
 10
0.72404
 20
5.3562900000000004
 30
0.0
 10
0.76722
 20
5.3562900000000004
 30
0.0
 10
0.8002400000000001
 20
5.3207300000000002
 30
0.0
 10
0.8002400000000001
 20
5.3207300000000002
 30
0.0
 10
0.6249800000000001
 20
5.0743500000000008
 30
0.0
 10
0.48528
 20
4.79495
 30
0.0
 10
0.3786000000000001
 20
4.5130100000000004
 30
0.0
 10
0.3786000000000001
 20
4.5130100000000004
 30
0.0
 10
0.2516000000000001
 20
4.4622100000000007
 30
0.0
 10
0.1373
 20
4.6019100000000002
 30
0.0
 10
0.01792
 20
4.6196900000000003
 30
0.0
 10
0.01792
 20
4.6196900000000003
 30
0.0
 10
0.14746
 20
4.9168700000000003
 30
0.0
 10
0.4624200000000001
 20
5.1276900000000003
 30
0.0
 10
0.68086
 20
5.3562900000000004
 30
0.0
  0
SPLINE
  5
2B
100
AcDbEntity
  8
Ebene 1
100
AcDbSpline
210
0.0
220
0.0
230
1.0
 70
     1
 71
     3
 72
    28
 73
    24
 74
     0
 42
0.0000000001
 43
0.0000000001
 40
0.0
 40
0.0
 40
0.0
 40
0.0
 40
0.1666666666666667
 40
0.1666666666666667
 40
0.1666666666666667
 40
0.1666666666666667
 40
0.3333333333333333
 40
0.3333333333333333
 40
0.3333333333333333
 40
0.3333333333333333
 40
0.5
 40
0.5
 40
0.5
 40
0.5
 40
0.6666666666666666
 40
0.6666666666666666
 40
0.6666666666666666
 40
0.6666666666666666
 40
0.8333333333333333
 40
0.8333333333333333
 40
0.8333333333333333
 40
0.8333333333333333
 40
1.0
 40
1.0
 40
1.0
 40
1.0
 10
1.8365600000000002
 20
4.7593900000000007
 30
0.0
 10
1.8365600000000002
 20
4.7593900000000007
 30
0.0
 10
1.9203800000000002
 20
4.7593900000000007
 30
0.0
 10
1.9203800000000002
 20
4.7593900000000007
 30
0.0
 10
1.9203800000000002
 20
4.7593900000000007
 30
0.0
 10
2.08548
 20
4.4952300000000003
 30
0.0
 10
2.2734400000000003
 20
4.2513900000000007
 30
0.0
 10
2.4512400000000003
 20
4.0050100000000004
 30
0.0
 10
2.4512400000000003
 20
4.0050100000000004
 30
0.0
 10
2.2226400000000002
 20
3.7586300000000001
 30
0.0
 10
1.8213200000000001
 20
3.6900500000000003
 30
0.0
 10
1.5216000000000001
 20
3.5147900000000001
 30
0.0
 10
1.5216000000000001
 20
3.5147900000000001
 30
0.0
 10
1.3895200000000001
 20
3.7941900000000004
 30
0.0
 10
1.3666600000000002
 20
4.0939100000000002
 30
0.0
 10
1.2904600000000002
 20
4.4088700000000003
 30
0.0
 10
1.2904600000000002
 20
4.4088700000000003
 30
0.0
 10
1.2904600000000002
 20
4.4088700000000003
 30
0.0
 10
1.2066400000000002
 20
4.4444300000000005
 30
0.0
 10
1.2066400000000002
 20
4.4444300000000005
 30
0.0
 10
1.2066400000000002
 20
4.4444300000000005
 30
0.0
 10
1.3641200000000002
 20
4.6019100000000002
 30
0.0
 10
1.6384400000000001
 20
4.6196900000000003
 30
0.0
 10
1.8365600000000002
 20
4.7593900000000007
 30
0.0
  0
SPLINE
  5
2C
100
AcDbEntity
  8
Ebene 1
100
AcDbSpline
210
0.0
220
0.0
230
1.0
 70
     1
 71
     3
 72
    20
 73
    16
 74
     0
 42
0.0000000001
 43
0.0000000001
 40
0.0
 40
0.0
 40
0.0
 40
0.0
 40
0.25
 40
0.25
 40
0.25
 40
0.25
 40
0.5
 40
0.5
 40
0.5
 40
0.5
 40
0.75
 40
0.75
 40
0.75
 40
0.75
 40
1.0
 40
1.0
 40
1.0
 40
1.0
 10
-0.10653
 20
4.5307900000000005
 30
0.0
 10
0.02808
 20
4.4799900000000008
 30
0.0
 10
0.20334
 20
4.4444300000000005
 30
0.0
 10
0.31256
 20
4.3377500000000007
 30
0.0
 10
0.31256
 20
4.3377500000000007
 30
0.0
 10
0.17032
 20
4.07613
 30
0.0
 10
0.05602
 20
3.7586300000000001
 30
0.0
 10
-0.12431
 20
3.5147900000000001
 30
0.0
 10
-0.12431
 20
3.5147900000000001
 30
0.0
 10
-0.34529
 20
3.6189300000000002
 30
0.0
 10
-0.65517
 20
3.6189300000000002
 30
0.0
 10
-0.8075700000000001
 20
3.8653100000000005
 30
0.0
 10
-0.8075700000000001
 20
3.8653100000000005
 30
0.0
 10
-0.61453
 20
4.1269300000000007
 30
0.0
 10
-0.3427500000000001
 20
4.3199700000000005
 30
0.0
 10
-0.10653
 20
4.5307900000000005
 30
0.0
  0
SPLINE
  5
2D
100
AcDbEntity
  8
Ebene 1
100
AcDbSpline
210
0.0
220
0.0
230
1.0
 70
     1
 71
     3
 72
    24
 73
    20
 74
     0
 42
0.0000000001
 43
0.0000000001
 40
0.0
 40
0.0
 40
0.0
 40
0.0
 40
0.2
 40
0.2
 40
0.2
 40
0.2
 40
0.4
 40
0.4
 40
0.4
 40
0.4
 40
0.6000000000000001
 40
0.6000000000000001
 40
0.6000000000000001
 40
0.6000000000000001
 40
0.8
 40
0.8
 40
0.8
 40
0.8
 40
1.0
 40
1.0
 40
1.0
 40
1.0
 10
0.88914
 20
4.5307900000000005
 30
0.0
 10
0.88914
 20
4.5307900000000005
 30
0.0
 10
1.18632
 20
4.5307900000000005
 30
0.0
 10
1.18632
 20
4.5307900000000005
 30
0.0
 10
1.18632
 20
4.5307900000000005
 30
0.0
 10
1.1914
 20
4.1802700000000002
 30
0.0
 10
1.23204
 20
3.8119700000000005
 30
0.0
 10
1.36158
 20
3.4970100000000004
 30
0.0
 10
1.36158
 20
3.4970100000000004
 30
0.0
 10
0.9755
 20
3.4792300000000003
 30
0.0
 10
0.5640200000000001
 20
3.4614500000000001
 30
0.0
 10
0.16016
 20
3.4614500000000001
 30
0.0
 10
0.16016
 20
3.4614500000000001
 30
0.0
 10
0.21096
 20
3.7941900000000004
 30
0.0
 10
0.4090800000000001
 20
4.1447100000000008
 30
0.0
 10
0.5462400000000001
 20
4.4799900000000008
 30
0.0
 10
0.5462400000000001
 20
4.4799900000000008
 30
0.0
 10
0.5462400000000001
 20
4.4799900000000008
 30
0.0
 10
0.88914
 20
4.5307900000000005
 30
0.0
 10
0.88914
 20
4.5307900000000005
 30
0.0
  0
SPLINE
  5
2E
100
AcDbEntity
  8
Ebene 1
100
AcDbSpline
210
0.0
220
0.0
230
1.0
 70
     1
 71
     3
 72
    20
 73
    16
 74
     0
 42
0.0000000001
 43
0.0000000001
 40
0.0
 40
0.0
 40
0.0
 40
0.0
 40
0.25
 40
0.25
 40
0.25
 40
0.25
 40
0.5
 40
0.5
 40
0.5
 40
0.5
 40
0.75
 40
0.75
 40
0.75
 40
0.75
 40
1.0
 40
1.0
 40
1.0
 40
1.0
 10
-0.9650500000000001
 20
3.7052900000000002
 30
0.0
 10
-0.71867
 20
3.5833700000000004
 30
0.0
 10
-0.46213
 20
3.3903300000000001
 30
0.0
 10
-0.19543
 20
3.3039700000000001
 30
0.0
 10
-0.19543
 20
3.3039700000000001
 30
0.0
 10
-0.39355
 20
2.8823300000000001
 30
0.0
 10
-0.5611900000000001
 20
2.42767
 30
0.0
 10
-0.82535
 20
2.0415900000000002
 30
0.0
 10
-0.82535
 20
2.0415900000000002
 30
0.0
 10
-1.21397
 20
2.2854300000000003
 30
0.0
 10
-1.6559300000000001
 20
2.4962500000000003
 30
0.0
 10
-1.8057900000000002
 20
2.9356700000000004
 30
0.0
 10
-1.8057900000000002
 20
2.9356700000000004
 30
0.0
 10
-1.5619500000000002
 20
3.2328500000000004
 30
0.0
 10
-1.24953
 20
3.4614500000000001
 30
0.0
 10
-0.9650500000000001
 20
3.7052900000000002
 30
0.0
  0
SPLINE
  5
2F
100
AcDbEntity
  8
Ebene 1
 62
     7
100
AcDbSpline
210
0.0
220
0.0
230
1.0
 70
     1
 71
     3
 72
    16
 73
    12
 74
     0
 42
0.0000000001
 43
0.0000000001
 40
0.0
 40
0.0
 40
0.0
 40
0.0
 40
0.3333333333333333
 40
0.3333333333333333
 40
0.3333333333333333
 40
0.3333333333333333
 40
0.6666666666666666
 40
0.6666666666666666
 40
0.6666666666666666
 40
0.6666666666666666
 40
1.0
 40
1.0
 40
1.0
 40
1.0
 10
3.6958400000000005
 20
2.6359500000000002
 30
0.0
 10
3.8812600000000002
 20
2.6892900000000002
 30
0.0
 10
3.9396800000000005
 20
2.4784700000000002
 30
0.0
 10
4.0311200000000005
 20
2.3743300000000001
 30
0.0
 10
4.0311200000000005
 20
2.3743300000000001
 30
0.0
 10
4.0362
 20
2.3565500000000004
 30
0.0
 10
4.0235000000000003
 20
2.3387700000000002
 30
0.0
 10
4.0082599999999999
 20
2.3209900000000001
 30
0.0
 10
4.0082599999999999
 20
2.3209900000000001
 30
0.0
 10
3.8965000000000005
 20
2.3743300000000001
 30
0.0
 10
3.7441000000000004
 20
2.51403
 30
0.0
 10
3.6958400000000005
 20
2.6359500000000002
 30
0.0
  0
SPLINE
  5
30
100
AcDbEntity
  8
Ebene 1
 62
     7
100
AcDbSpline
210
0.0
220
0.0
230
1.0
 70
     1
 71
     3
 72
   160
 73
   156
 74
     0
 42
0.0000000001
 43
0.0000000001
 40
0.0
 40
0.0
 40
0.0
 40
0.0
 40
0.0256410256410256
 40
0.0256410256410256
 40
0.0256410256410256
 40
0.0256410256410256
 40
0.0512820512820513
 40
0.0512820512820513
 40
0.0512820512820513
 40
0.0512820512820513
 40
0.0769230769230769
 40
0.0769230769230769
 40
0.0769230769230769
 40
0.0769230769230769
 40
0.1025641025641026
 40
0.1025641025641026
 40
0.1025641025641026
 40
0.1025641025641026
 40
0.1282051282051282
 40
0.1282051282051282
 40
0.1282051282051282
 40
0.1282051282051282
 40
0.1538461538461538
 40
0.1538461538461538
 40
0.1538461538461538
 40
0.1538461538461538
 40
0.1794871794871795
 40
0.1794871794871795
 40
0.1794871794871795
 40
0.1794871794871795
 40
0.2051282051282051
 40
0.2051282051282051
 40
0.2051282051282051
 40
0.2051282051282051
 40
0.2307692307692307
 40
0.2307692307692307
 40
0.2307692307692307
 40
0.2307692307692307
 40
0.2564102564102564
 40
0.2564102564102564
 40
0.2564102564102564
 40
0.2564102564102564
 40
0.2820512820512821
 40
0.2820512820512821
 40
0.2820512820512821
 40
0.2820512820512821
 40
0.3076923076923077
 40
0.3076923076923077
 40
0.3076923076923077
 40
0.3076923076923077
 40
0.3333333333333334
 40
0.3333333333333334
 40
0.3333333333333334
 40
0.3333333333333334
 40
0.358974358974359
 40
0.358974358974359
 40
0.358974358974359
 40
0.358974358974359
 40
0.3846153846153847
 40
0.3846153846153847
 40
0.3846153846153847
 40
0.3846153846153847
 40
0.4102564102564104
 40
0.4102564102564104
 40
0.4102564102564104
 40
0.4102564102564104
 40
0.435897435897436
 40
0.435897435897436
 40
0.435897435897436
 40
0.435897435897436
 40
0.4615384615384617
 40
0.4615384615384617
 40
0.4615384615384617
 40
0.4615384615384617
 40
0.4871794871794873
 40
0.4871794871794873
 40
0.4871794871794873
 40
0.4871794871794873
 40
0.512820512820513
 40
0.512820512820513
 40
0.512820512820513
 40
0.512820512820513
 40
0.5384615384615387
 40
0.5384615384615387
 40
0.5384615384615387
 40
0.5384615384615387
 40
0.5641025641025643
 40
0.5641025641025643
 40
0.5641025641025643
 40
0.5641025641025643
 40
0.58974358974359
 40
0.58974358974359
 40
0.58974358974359
 40
0.58974358974359
 40
0.6153846153846156
 40
0.6153846153846156
 40
0.6153846153846156
 40
0.6153846153846156
 40
0.6410256410256413
 40
0.6410256410256413
 40
0.6410256410256413
 40
0.6410256410256413
 40
0.666666666666667
 40
0.666666666666667
 40
0.666666666666667
 40
0.666666666666667
 40
0.6923076923076926
 40
0.6923076923076926
 40
0.6923076923076926
 40
0.6923076923076926
 40
0.7179487179487183
 40
0.7179487179487183
 40
0.7179487179487183
 40
0.7179487179487183
 40
0.743589743589744
 40
0.743589743589744
 40
0.743589743589744
 40
0.743589743589744
 40
0.7692307692307696
 40
0.7692307692307696
 40
0.7692307692307696
 40
0.7692307692307696
 40
0.7948717948717953
 40
0.7948717948717953
 40
0.7948717948717953
 40
0.7948717948717953
 40
0.8205128205128209
 40
0.8205128205128209
 40
0.8205128205128209
 40
0.8205128205128209
 40
0.8461538461538466
 40
0.8461538461538466
 40
0.8461538461538466
 40
0.8461538461538466
 40
0.8717948717948723
 40
0.8717948717948723
 40
0.8717948717948723
 40
0.8717948717948723
 40
0.8974358974358979
 40
0.8974358974358979
 40
0.8974358974358979
 40
0.8974358974358979
 40
0.9230769230769236
 40
0.9230769230769236
 40
0.9230769230769236
 40
0.9230769230769236
 40
0.9487179487179492
 40
0.9487179487179492
 40
0.9487179487179492
 40
0.9487179487179492
 40
0.9743589743589749
 40
0.9743589743589749
 40
0.9743589743589749
 40
0.9743589743589749
 40
1.0
 40
1.0
 40
1.0
 40
1.0
 10
4.468
 20
2.4784700000000002
 30
0.0
 10
4.55436
 20
2.0415900000000002
 30
0.0
 10
4.3511600000000001
 20
1.5132700000000001
 30
0.0
 10
4.2546400000000002
 20
1.0586100000000001
 30
0.0
 10
4.2546400000000002
 20
1.0586100000000001
 30
0.0
 10
4.1759000000000004
 20
1.11195
 30
0.0
 10
4.2622600000000004
 20
1.4269100000000001
 30
0.0
 10
4.1530400000000007
 20
1.3380100000000001
 30
0.0
 10
4.1530400000000007
 20
1.3380100000000001
 30
0.0
 10
4.0793800000000005
 20
0.6547500000000001
 30
0.0
 10
4.4476800000000001
 20
0.11119
 30
0.0
 10
4.6077000000000004
 20
-0.4806200000000001
 30
0.0
 10
4.6077000000000004
 20
-0.4806200000000001
 30
0.0
 10
4.3079800000000006
 20
-0.88448
 30
0.0
 10
3.7644200000000003
 20
-1.1130800000000001
 30
0.0
 10
3.3275400000000004
 20
-1.3569200000000001
 30
0.0
 10
3.3275400000000004
 20
-1.3569200000000001
 30
0.0
 10
2.9795600000000002
 20
-1.2172200000000002
 30
0.0
 10
2.7687400000000002
 20
-0.7981200000000001
 30
0.0
 10
2.42076
 20
-0.6762
 30
0.0
 10
2.42076
 20
-0.6762
 30
0.0
 10
2.5350600000000001
 20
-0.9200400000000001
 30
0.0
 10
2.6620600000000003
 20
-1.16642
 30
0.0
 10
2.7204800000000002
 20
-1.4280400000000002
 30
0.0
 10
2.7204800000000002
 20
-1.4280400000000002
 30
0.0
 10
2.8220800000000001
 20
-0.6914400000000001
 30
0.0
 10
2.8906600000000005
 20
-1.8674600000000001
 30
0.0
 10
2.5960200000000002
 20
-2.02494
 30
0.0
 10
2.5960200000000002
 20
-2.02494
 30
0.0
 10
2.5960200000000002
 20
-2.02494
 30
0.0
 10
2.5731600000000001
 20
-1.5525000000000002
 30
0.0
 10
2.5731600000000001
 20
-1.5525000000000002
 30
0.0
 10
2.5731600000000001
 20
-1.5525000000000002
 30
0.0
 10
2.5807800000000003
 20
-1.3747
 30
0.0
 10
2.4512400000000003
 20
-1.5677400000000001
 30
0.0
 10
2.4918800000000001
 20
-1.6388600000000002
 30
0.0
 10
2.4918800000000001
 20
-1.6388600000000002
 30
0.0
 10
2.5731600000000001
 20
-2.1316200000000003
 30
0.0
 10
2.2963
 20
-2.3399000000000001
 30
0.0
 10
2.3115400000000004
 20
-1.7455400000000001
 30
0.0
 10
2.3115400000000004
 20
-1.7455400000000001
 30
0.0
 10
2.2455000000000003
 20
-1.6414000000000002
 30
0.0
 10
2.2277200000000001
 20
-1.8319000000000001
 30
0.0
 10
2.2353400000000003
 20
-2.0274800000000002
 30
0.0
 10
2.2353400000000003
 20
-2.0274800000000002
 30
0.0
 10
2.2378800000000001
 20
-2.1290800000000001
 30
0.0
 10
2.2937600000000002
 20
-2.2459200000000004
 30
0.0
 10
2.2556600000000002
 20
-2.2891000000000004
 30
0.0
 10
2.2556600000000002
 20
-2.2891000000000004
 30
0.0
 10
1.9153000000000002
 20
-2.3043400000000003
 30
0.0
 10
2.0550000000000002
 20
-1.8674600000000001
 30
0.0
 10
2.0829400000000002
 20
-1.6566400000000001
 30
0.0
 10
2.0829400000000002
 20
-1.6566400000000001
 30
0.0
 10
1.8848200000000002
 20
-1.6871200000000002
 30
0.0
 10
1.9737200000000001
 20
-2.01478
 30
0.0
 10
1.8441800000000002
 20
-2.2002000000000002
 30
0.0
 10
1.8441800000000002
 20
-2.2002000000000002
 30
0.0
 10
1.7273400000000001
 20
-2.3703800000000004
 30
0.0
 10
1.5927200000000001
 20
-2.4643600000000001
 30
0.0
 10
1.5216000000000001
 20
-2.2586200000000001
 30
0.0
 10
1.5216000000000001
 20
-2.2586200000000001
 30
0.0
 10
1.5089000000000001
 20
-2.22052
 30
0.0
 10
1.5114400000000001
 20
-1.9538200000000001
 30
0.0
 10
1.4200000000000002
 20
-2.10622
 30
0.0
 10
1.4200000000000002
 20
-2.10622
 30
0.0
 10
1.4936600000000002
 20
-2.2967200000000001
 30
0.0
 10
1.2549000000000001
 20
-2.39832
 30
0.0
 10
1.2295
 20
-2.1544800000000004
 30
0.0
 10
1.2295
 20
-2.1544800000000004
 30
0.0
 10
1.10504
 20
-2.3094200000000003
 30
0.0
 10
0.9374000000000001
 20
-2.2611600000000003
 30
0.0
 10
0.9678800000000001
 20
-2.1570200000000002
 30
0.0
 10
0.9678800000000001
 20
-2.1570200000000002
 30
0.0
 10
1.0263
 20
-1.9563600000000001
 30
0.0
 10
1.0136000000000001
 20
-1.8344400000000001
 30
0.0
 10
0.9577200000000001
 20
-1.79634
 30
0.0
 10
0.9577200000000001
 20
-1.79634
 30
0.0
 10
0.9043800000000001
 20
-2.0173200000000002
 30
0.0
 10
0.86882
 20
-2.1341600000000001
 30
0.0
 10
0.78754
 20
-2.2103600000000001
 30
0.0
 10
0.78754
 20
-2.2103600000000001
 30
0.0
 10
0.7062600000000001
 20
-2.2840200000000004
 30
0.0
 10
0.5818000000000001
 20
-2.2967200000000001
 30
0.0
 10
0.64022
 20
-2.0046200000000001
 30
0.0
 10
0.64022
 20
-2.0046200000000001
 30
0.0
 10
0.3913
 20
-2.2383000000000002
 30
0.0
 10
0.35828
 20
-1.7328400000000002
 30
0.0
 10
0.37098
 20
-1.3061200000000002
 30
0.0
 10
0.37098
 20
-1.3061200000000002
 30
0.0
 10
0.3252600000000001
 20
-1.1842000000000001
 30
0.0
 10
0.3151000000000001
 20
-1.58552
 30
0.0
 10
0.29478
 20
-1.6922000000000001
 30
0.0
 10
0.29478
 20
-1.6922000000000001
 30
0.0
 10
0.29478
 20
-1.6922000000000001
 30
0.0
 10
0.25668
 20
-1.9030200000000002
 30
0.0
 10
0.25668
 20
-1.9030200000000002
 30
0.0
 10
0.25668
 20
-1.9030200000000002
 30
0.0
 10
-0.03795
 20
-1.5677400000000001
 30
0.0
 10
0.3278
 20
-1.0089400000000002
 30
0.0
 10
0.5005200000000001
 20
-0.65842
 30
0.0
 10
0.5005200000000001
 20
-0.65842
 30
0.0
 10
0.12714
 20
-1.0089400000000002
 30
0.0
 10
-0.22337
 20
-1.4813800000000001
 30
0.0
 10
-0.71867
 20
-1.6210800000000001
 30
0.0
 10
-0.71867
 20
-1.6210800000000001
 30
0.0
 10
-1.1606300000000001
 20
-1.3416800000000002
 30
0.0
 10
-1.58989
 20
-1.0089400000000002
 30
0.0
 10
-1.9835900000000002
 20
-0.65842
 30
0.0
 10
-1.9835900000000002
 20
-0.65842
 30
0.0
 10
-2.0039100000000003
 20
-0.3587
 30
0.0
 10
-1.8591300000000002
 20
-0.11232
 30
0.0
 10
-1.67117
 20
0.09341
 30
0.0
 10
-1.67117
 20
0.09341
 30
0.0
 10
-1.9429500000000002
 20
-0.06152
 30
0.0
 10
-1.7651500000000002
 20
0.26867
 30
0.0
 10
-1.75499
 20
0.4972700000000001
 30
0.0
 10
-1.75499
 20
0.4972700000000001
 30
0.0
 10
-1.75499
 20
0.4972700000000001
 30
0.0
 10
-1.7727700000000002
 20
0.6039500000000001
 30
0.0
 10
-1.7727700000000002
 20
0.6039500000000001
 30
0.0
 10
-1.7727700000000002
 20
0.6039500000000001
 30
0.0
 10
-1.7727700000000002
 20
0.6039500000000001
 30
0.0
 10
-1.92517
 20
0.28645
 30
0.0
 10
-1.92517
 20
0.28645
 30
0.0
 10
-1.92517
 20
0.28645
 30
0.0
 10
-1.92517
 20
0.28645
 30
0.0
 10
-1.9785100000000002
 20
0.4617100000000001
 30
0.0
 10
-1.9785100000000002
 20
0.4617100000000001
 30
0.0
 10
-1.9785100000000002
 20
0.4617100000000001
 30
0.0
 10
-1.29271
 20
1.1703700000000001
 30
0.0
 10
-0.22591
 20
2.21177
 30
0.0
 10
0.7469
 20
1.6428100000000001
 30
0.0
 10
0.7469
 20
1.6428100000000001
 30
0.0
 10
0.785
 20
1.6174100000000002
 30
0.0
 10
0.9882000000000001
 20
1.4294500000000001
 30
0.0
 10
0.9221600000000001
 20
1.5843900000000002
 30
0.0
 10
0.9221600000000001
 20
1.5843900000000002
 30
0.0
 10
0.52846
 20
2.1279500000000002
 30
0.0
 10
1.52922
 20
1.7418700000000003
 30
0.0
 10
1.8873600000000001
 20
1.86633
 30
0.0
 10
1.8873600000000001
 20
1.86633
 30
0.0
 10
1.8670400000000003
 20
1.7596500000000002
 30
0.0
 10
1.5876400000000002
 20
1.6910700000000001
 30
0.0
 10
1.6587600000000002
 20
1.5843900000000002
 30
0.0
 10
1.6587600000000002
 20
1.5843900000000002
 30
0.0
 10
2.2886800000000003
 20
2.0136500000000002
 30
0.0
 10
3.0303600000000004
 20
2.1000100000000002
 30
0.0
 10
3.7491800000000004
 20
1.9120500000000002
 30
0.0
 10
3.7491800000000004
 20
1.9120500000000002
 30
0.0
 10
3.8533200000000005
 20
1.8841100000000002
 30
0.0
 10
4.0387400000000007
 20
1.7520300000000002
 30
0.0
 10
4.0946199999999999
 20
1.8485500000000001
 30
0.0
 10
4.0946199999999999
 20
1.8485500000000001
 30
0.0
 10
3.5358200000000002
 20
2.1127100000000003
 30
0.0
 10
4.2267000000000001
 20
2.2701900000000004
 30
0.0
 10
4.468
 20
2.4784700000000002
 30
0.0
  0
SPLINE
  5
31
100
AcDbEntity
  8
Ebene 1
 62
     7
100
AcDbSpline
210
0.0
220
0.0
230
1.0
 70
     1
 71
     3
 72
    12
 73
     8
 74
     0
 42
0.0000000001
 43
0.0000000001
 40
0.0
 40
0.0
 40
0.0
 40
0.0
 40
0.5
 40
0.5
 40
0.5
 40
0.5
 40
1.0
 40
1.0
 40
1.0
 40
1.0
 10
3.0837000000000003
 20
2.42767
 30
0.0
 10
2.7662000000000004
 20
2.2701900000000004
 30
0.0
 10
2.4614000000000003
 20
1.9882500000000001
 30
0.0
 10
2.0880200000000002
 20
1.9882500000000001
 30
0.0
 10
2.0880200000000002
 20
1.9882500000000001
 30
0.0
 10
2.3725000000000001
 20
2.21685
 30
0.0
 10
2.7255600000000002
 20
2.3743300000000001
 30
0.0
 10
3.0837000000000003
 20
2.42767
 30
0.0
  0
SPLINE
  5
32
100
AcDbEntity
  8
Ebene 1
 62
     7
100
AcDbSpline
210
0.0
220
0.0
230
1.0
 70
     1
 71
     3
 72
    16
 73
    12
 74
     0
 42
0.0000000001
 43
0.0000000001
 40
0.0
 40
0.0
 40
0.0
 40
0.0
 40
0.3333333333333333
 40
0.3333333333333333
 40
0.3333333333333333
 40
0.3333333333333333
 40
0.6666666666666666
 40
0.6666666666666666
 40
0.6666666666666666
 40
0.6666666666666666
 40
1.0
 40
1.0
 40
1.0
 40
1.0
 10
-2.5449300000000004
 20
1.9704700000000002
 30
0.0
 10
-2.5271500000000002
 20
1.9704700000000002
 30
0.0
 10
-2.5220700000000003
 20
1.9526900000000003
 30
0.0
 10
-2.52969
 20
1.9349100000000001
 30
0.0
 10
-2.52969
 20
1.9349100000000001
 30
0.0
 10
-2.6744700000000003
 20
1.7596500000000002
 30
0.0
 10
-2.3747500000000001
 20
1.53105
 30
0.0
 10
-2.5449300000000004
 20
1.3913500000000001
 30
0.0
 10
-2.5449300000000004
 20
1.3913500000000001
 30
0.0
 10
-2.77861
 20
1.4954900000000002
 30
0.0
 10
-2.8268700000000004
 20
1.8841100000000002
 30
0.0
 10
-2.5449300000000004
 20
1.9704700000000002
 30
0.0
  0
SPLINE
  5
33
100
AcDbEntity
  8
Ebene 1
 62
     7
100
AcDbSpline
210
0.0
220
0.0
230
1.0
 70
     1
 71
     3
 72
    20
 73
    16
 74
     0
 42
0.0000000001
 43
0.0000000001
 40
0.0
 40
0.0
 40
0.0
 40
0.0
 40
0.25
 40
0.25
 40
0.25
 40
0.25
 40
0.5
 40
0.5
 40
0.5
 40
0.5
 40
0.75
 40
0.75
 40
0.75
 40
0.75
 40
1.0
 40
1.0
 40
1.0
 40
1.0
 10
-2.2807700000000004
 20
1.6021700000000001
 30
0.0
 10
-2.1563100000000004
 20
1.3557900000000001
 30
0.0
 10
-2.1258300000000001
 20
0.95447
 30
0.0
 10
-1.8108700000000002
 20
0.8325500000000001
 30
0.0
 10
-1.8108700000000002
 20
0.8325500000000001
 30
0.0
 10
-1.8896100000000002
 20
0.72587
 30
0.0
 10
-1.9861300000000002
 20
0.6903100000000001
 30
0.0
 10
-1.9480300000000002
 20
0.8325500000000001
 30
0.0
 10
-1.9480300000000002
 20
0.8325500000000001
 30
0.0
 10
-1.9480300000000002
 20
0.8325500000000001
 30
0.0
 10
-2.0293100000000002
 20
0.7792100000000001
 30
0.0
 10
-2.0293100000000002
 20
0.7792100000000001
 30
0.0
 10
-2.0293100000000002
 20
0.7792100000000001
 30
0.0
 10
-2.22235
 20
1.0078100000000001
 30
0.0
 10
-2.23759
 20
1.32277
 30
0.0
 10
-2.2807700000000004
 20
1.6021700000000001
 30
0.0
  0
SPLINE
  5
34
100
AcDbEntity
  8
Ebene 1
100
AcDbSpline
210
0.0
220
0.0
230
1.0
 70
     1
 71
     3
 72
    40
 73
    36
 74
     0
 42
0.0000000001
 43
0.0000000001
 40
0.0
 40
0.0
 40
0.0
 40
0.0
 40
0.1111111111111111
 40
0.1111111111111111
 40
0.1111111111111111
 40
0.1111111111111111
 40
0.2222222222222222
 40
0.2222222222222222
 40
0.2222222222222222
 40
0.2222222222222222
 40
0.3333333333333333
 40
0.3333333333333333
 40
0.3333333333333333
 40
0.3333333333333333
 40
0.4444444444444444
 40
0.4444444444444444
 40
0.4444444444444444
 40
0.4444444444444444
 40
0.5555555555555556
 40
0.5555555555555556
 40
0.5555555555555556
 40
0.5555555555555556
 40
0.6666666666666667
 40
0.6666666666666667
 40
0.6666666666666667
 40
0.6666666666666667
 40
0.7777777777777779
 40
0.7777777777777779
 40
0.7777777777777779
 40
0.7777777777777779
 40
0.8888888888888891
 40
0.8888888888888891
 40
0.8888888888888891
 40
0.8888888888888891
 40
1.0
 40
1.0
 40
1.0
 40
1.0
 10
-0.71867
 20
1.44469
 30
0.0
 10
-0.08621
 20
1.6021700000000001
 30
0.0
 10
0.26938
 20
0.6725300000000001
 30
0.0
 10
0.8967600000000001
 20
1.02305
 30
0.0
 10
0.8967600000000001
 20
1.02305
 30
0.0
 10
0.8967600000000001
 20
1.02305
 30
0.0
 10
1.0644
 20
1.0408300000000001
 30
0.0
 10
1.0644
 20
1.0408300000000001
 30
0.0
 10
1.0644
 20
1.0408300000000001
 30
0.0
 10
1.0644
 20
1.0078100000000001
 30
0.0
 10
1.02884
 20
0.9722500000000001
 30
0.0
 10
1.0110600000000001
 20
0.93669
 30
0.0
 10
1.0110600000000001
 20
0.93669
 30
0.0
 10
0.2516000000000001
 20
0.5861700000000001
 30
0.0
 10
0.2008
 20
-0.42982
 30
0.0
 10
-0.5611900000000001
 20
-0.76256
 30
0.0
 10
-0.5611900000000001
 20
-0.76256
 30
0.0
 10
-1.0742700000000001
 20
-0.6762
 30
0.0
 10
-1.3536700000000002
 20
-0.14788
 30
0.0
 10
-1.6152900000000001
 20
0.23311
 30
0.0
 10
-1.6152900000000001
 20
0.23311
 30
0.0
 10
-1.50353
 20
0.61919
 30
0.0
 10
-1.2266700000000001
 20
0.95447
 30
0.0
 10
-0.9066300000000001
 20
1.1983100000000002
 30
0.0
 10
-0.9066300000000001
 20
1.1983100000000002
 30
0.0
 10
-0.8761500000000001
 20
1.2160900000000001
 30
0.0
 10
-0.82789
 20
1.23387
 30
0.0
 10
-0.8126500000000001
 20
1.2694300000000001
 30
0.0
 10
-0.8126500000000001
 20
1.2694300000000001
 30
0.0
 10
-1.0488700000000002
 20
1.2160900000000001
 30
0.0
 10
-1.1911100000000001
 20
0.9189100000000001
 30
0.0
 10
-1.41717
 20
0.8655700000000001
 30
0.0
 10
-1.41717
 20
0.8655700000000001
 30
0.0
 10
-1.3003300000000002
 20
1.1652900000000002
 30
0.0
 10
-0.9574300000000001
 20
1.2872100000000002
 30
0.0
 10
-0.71867
 20
1.44469
 30
0.0
  0
SPLINE
  5
35
100
AcDbEntity
  8
Ebene 1
 62
     7
100
AcDbSpline
210
0.0
220
0.0
230
1.0
 70
     1
 71
     3
 72
    12
 73
     8
 74
     0
 42
0.0000000001
 43
0.0000000001
 40
0.0
 40
0.0
 40
0.0
 40
0.0
 40
0.5
 40
0.5
 40
0.5
 40
0.5
 40
1.0
 40
1.0
 40
1.0
 40
1.0
 10
-2.3341100000000004
 20
1.3557900000000001
 30
0.0
 10
-2.2020300000000002
 20
1.2694300000000001
 30
0.0
 10
-2.4458700000000002
 20
1.0941700000000001
 30
0.0
 10
-2.5220700000000003
 20
1.0078100000000001
 30
0.0
 10
-2.5220700000000003
 20
1.0078100000000001
 30
0.0
 10
-2.5271500000000002
 20
1.14751
 30
0.0
 10
-2.4128500000000002
 20
1.2516500000000002
 30
0.0
 10
-2.3341100000000004
 20
1.3557900000000001
 30
0.0
  0
SPLINE
  5
36
100
AcDbEntity
  8
Ebene 1
100
AcDbSpline
210
0.0
220
0.0
230
1.0
 70
     1
 71
     3
 72
    36
 73
    32
 74
     0
 42
0.0000000001
 43
0.0000000001
 40
0.0
 40
0.0
 40
0.0
 40
0.0
 40
0.125
 40
0.125
 40
0.125
 40
0.125
 40
0.25
 40
0.25
 40
0.25
 40
0.25
 40
0.375
 40
0.375
 40
0.375
 40
0.375
 40
0.5
 40
0.5
 40
0.5
 40
0.5
 40
0.625
 40
0.625
 40
0.625
 40
0.625
 40
0.75
 40
0.75
 40
0.75
 40
0.75
 40
0.875
 40
0.875
 40
0.875
 40
0.875
 40
1.0
 40
1.0
 40
1.0
 40
1.0
 10
2.8373200000000001
 20
1.2872100000000002
 30
0.0
 10
3.2462600000000004
 20
1.3557900000000001
 30
0.0
 10
3.5129600000000001
 20
0.9722500000000001
 30
0.0
 10
3.9041200000000003
 20
0.9722500000000001
 30
0.0
 10
3.9041200000000003
 20
0.9722500000000001
 30
0.0
 10
3.9041200000000003
 20
0.9722500000000001
 30
0.0
 10
3.9727000000000001
 20
0.8833500000000001
 30
0.0
 10
3.9727000000000001
 20
0.8833500000000001
 30
0.0
 10
3.9727000000000001
 20
0.8833500000000001
 30
0.0
 10
3.9727000000000001
 20
0.8833500000000001
 30
0.0
 10
4.04636
 20
0.40837
 30
0.0
 10
4.04636
 20
0.40837
 30
0.0
 10
4.04636
 20
0.40837
 30
0.0
 10
3.7466400000000002
 20
0.09341
 30
0.0
 10
3.5434400000000004
 20
-0.3942600000000001
 30
0.0
 10
3.0989400000000002
 20
-0.5161800000000001
 30
0.0
 10
3.0989400000000002
 20
-0.5161800000000001
 30
0.0
 10
2.5401400000000001
 20
-0.37648
 30
0.0
 10
2.4055200000000001
 20
0.21787
 30
0.0
 10
2.1489800000000003
 20
0.6547500000000001
 30
0.0
 10
2.1489800000000003
 20
0.6547500000000001
 30
0.0
 10
2.03722
 20
0.78683
 30
0.0
 10
1.8137000000000001
 20
0.7792100000000001
 30
0.0
 10
1.6663800000000002
 20
0.85033
 30
0.0
 10
1.6663800000000002
 20
0.85033
 30
0.0
 10
1.6181200000000002
 20
0.8757300000000001
 30
0.0
 10
1.5038200000000002
 20
0.91383
 30
0.0
 10
1.5800200000000002
 20
0.9722500000000001
 30
0.0
 10
1.5800200000000002
 20
0.9722500000000001
 30
0.0
 10
2.0042
 20
0.72587
 30
0.0
 10
2.4360000000000004
 20
1.11195
 30
0.0
 10
2.8373200000000001
 20
1.2872100000000002
 30
0.0
  0
SPLINE
  5
37
100
AcDbEntity
  8
Ebene 1
100
AcDbSpline
210
0.0
220
0.0
230
1.0
 70
     1
 71
     3
 72
    12
 73
     8
 74
     0
 42
0.0000000001
 43
0.0000000001
 40
0.0
 40
0.0
 40
0.0
 40
0.0
 40
0.5
 40
0.5
 40
0.5
 40
0.5
 40
1.0
 40
1.0
 40
1.0
 40
1.0
 10
1.2599800000000001
 20
1.23387
 30
0.0
 10
1.3565
 20
1.1805300000000001
 30
0.0
 10
1.1914
 20
1.02305
 30
0.0
 10
1.1228200000000002
 20
1.0078100000000001
 30
0.0
 10
1.1228200000000002
 20
1.0078100000000001
 30
0.0
 10
1.1304400000000001
 20
1.0941700000000001
 30
0.0
 10
1.2041000000000002
 20
1.1652900000000002
 30
0.0
 10
1.2599800000000001
 20
1.23387
 30
0.0
  0
SPLINE
  5
38
100
AcDbEntity
  8
Ebene 1
 62
     7
100
AcDbSpline
210
0.0
220
0.0
230
1.0
 70
     1
 71
     3
 72
    20
 73
    16
 74
     0
 42
0.0000000001
 43
0.0000000001
 40
0.0
 40
0.0
 40
0.0
 40
0.0
 40
0.25
 40
0.25
 40
0.25
 40
0.25
 40
0.5
 40
0.5
 40
0.5
 40
0.5
 40
0.75
 40
0.75
 40
0.75
 40
0.75
 40
1.0
 40
1.0
 40
1.0
 40
1.0
 10
2.5909400000000002
 20
0.9011300000000001
 30
0.0
 10
2.5909400000000002
 20
0.9011300000000001
 30
0.0
 10
2.6239600000000003
 20
0.9011300000000001
 30
0.0
 10
2.6239600000000003
 20
0.9011300000000001
 30
0.0
 10
2.6239600000000003
 20
0.9011300000000001
 30
0.0
 10
2.5833200000000001
 20
0.8147700000000001
 30
0.0
 10
2.4385400000000002
 20
0.8147700000000001
 30
0.0
 10
2.3521800000000002
 20
0.7969900000000001
 30
0.0
 10
2.3521800000000002
 20
0.7969900000000001
 30
0.0
 10
2.3369400000000002
 20
0.84779
 30
0.0
 10
2.4029800000000003
 20
0.84779
 30
0.0
 10
2.4309200000000004
 20
0.84779
 30
0.0
 10
2.4309200000000004
 20
0.84779
 30
0.0
 10
2.4309200000000004
 20
0.84779
 30
0.0
 10
2.5909400000000002
 20
0.9011300000000001
 30
0.0
 10
2.5909400000000002
 20
0.9011300000000001
 30
0.0
  0
SPLINE
  5
39
100
AcDbEntity
  8
Ebene 1
 62
     7
100
AcDbSpline
210
0.0
220
0.0
230
1.0
 70
     1
 71
     3
 72
    12
 73
     8
 74
     0
 42
0.0000000001
 43
0.0000000001
 40
0.0
 40
0.0
 40
0.0
 40
0.0
 40
0.5
 40
0.5
 40
0.5
 40
0.5
 40
1.0
 40
1.0
 40
1.0
 40
1.0
 10
0.01284
 20
0.8833500000000001
 30
0.0
 10
0.1246
 20
0.9189100000000001
 30
0.0
 10
0.1754
 20
0.7969900000000001
 30
0.0
 10
0.2389
 20
0.74365
 30
0.0
 10
0.2389
 20
0.74365
 30
0.0
 10
0.15
 20
0.6725300000000001
 30
0.0
 10
-0.12939
 20
0.7969900000000001
 30
0.0
 10
0.01284
 20
0.8833500000000001
 30
0.0
  0
SPLINE
  5
3A
100
AcDbEntity
  8
Ebene 1
 62
     7
100
AcDbSpline
210
0.0
220
0.0
230
1.0
 70
     1
 71
     3
 72
    12
 73
     8
 74
     0
 42
0.0000000001
 43
0.0000000001
 40
0.0
 40
0.0
 40
0.0
 40
0.0
 40
0.5
 40
0.5
 40
0.5
 40
0.5
 40
1.0
 40
1.0
 40
1.0
 40
1.0
 10
-2.5093700000000001
 20
0.63697
 30
0.0
 10
-2.3874500000000003
 20
0.51505
 30
0.0
 10
-2.2147300000000003
 20
0.47949
 30
0.0
 10
-2.0572500000000002
 20
0.4439300000000001
 30
0.0
 10
-2.0572500000000002
 20
0.4439300000000001
 30
0.0
 10
-2.1969500000000002
 20
0.26867
 30
0.0
 10
-2.4636500000000003
 20
0.4617100000000001
 30
0.0
 10
-2.5093700000000001
 20
0.63697
 30
0.0
  0
SPLINE
  5
3B
100
AcDbEntity
  8
Ebene 1
 62
     7
100
AcDbSpline
210
0.0
220
0.0
230
1.0
 70
     1
 71
     3
 72
    24
 73
    20
 74
     0
 42
0.0000000001
 43
0.0000000001
 40
0.0
 40
0.0
 40
0.0
 40
0.0
 40
0.2
 40
0.2
 40
0.2
 40
0.2
 40
0.4
 40
0.4
 40
0.4
 40
0.4
 40
0.6000000000000001
 40
0.6000000000000001
 40
0.6000000000000001
 40
0.6000000000000001
 40
0.8
 40
0.8
 40
0.8
 40
0.8
 40
1.0
 40
1.0
 40
1.0
 40
1.0
 10
-3.2815300000000001
 20
0.5683900000000001
 30
0.0
 10
-3.2662900000000001
 20
0.5683900000000001
 30
0.0
 10
-3.2307300000000003
 20
0.5861700000000001
 30
0.0
 10
-3.2281900000000001
 20
0.55061
 30
0.0
 10
-3.2281900000000001
 20
0.55061
 30
0.0
 10
-3.2942300000000002
 20
0.21787
 30
0.0
 10
-3.3170900000000003
 20
-0.11232
 30
0.0
 10
-3.4415500000000003
 20
-0.42982
 30
0.0
 10
-3.4415500000000003
 20
-0.42982
 30
0.0
 10
-3.6650700000000005
 20
-0.53396
 30
0.0
 10
-3.8022300000000002
 20
-0.8514600000000001
 30
0.0
 10
-3.9927300000000003
 20
-0.99116
 30
0.0
 10
-3.9927300000000003
 20
-0.99116
 30
0.0
 10
-3.8758900000000005
 20
-0.7447800000000001
 30
0.0
 10
-3.6904700000000004
 20
-0.42982
 30
0.0
 10
-3.5126700000000004
 20
-0.18344
 30
0.0
 10
-3.5126700000000004
 20
-0.18344
 30
0.0
 10
-3.4694900000000004
 20
0.07563
 30
0.0
 10
-3.4237700000000002
 20
0.3575700000000001
 30
0.0
 10
-3.2815300000000001
 20
0.5683900000000001
 30
0.0
  0
SPLINE
  5
3C
100
AcDbEntity
  8
Ebene 1
100
AcDbSpline
210
0.0
220
0.0
230
1.0
 70
     1
 71
     3
 72
    44
 73
    40
 74
     0
 42
0.0000000001
 43
0.0000000001
 40
0.0
 40
0.0
 40
0.0
 40
0.0
 40
0.1
 40
0.1
 40
0.1
 40
0.1
 40
0.2
 40
0.2
 40
0.2
 40
0.2
 40
0.3
 40
0.3
 40
0.3
 40
0.3
 40
0.4
 40
0.4
 40
0.4
 40
0.4
 40
0.5
 40
0.5
 40
0.5
 40
0.5
 40
0.6
 40
0.6
 40
0.6
 40
0.6
 40
0.7
 40
0.7
 40
0.7
 40
0.7
 40
0.7999999999999999
 40
0.7999999999999999
 40
0.7999999999999999
 40
0.7999999999999999
 40
0.8999999999999999
 40
0.8999999999999999
 40
0.8999999999999999
 40
0.8999999999999999
 40
1.0
 40
1.0
 40
1.0
 40
1.0
 10
1.4174600000000002
 20
0.4617100000000001
 30
0.0
 10
1.8492600000000001
 20
0.18231
 30
0.0
 10
2.08548
 20
-0.41204
 30
0.0
 10
2.0448400000000002
 20
-0.9200400000000001
 30
0.0
 10
2.0448400000000002
 20
-0.9200400000000001
 30
0.0
 10
2.0448400000000002
 20
-0.9200400000000001
 30
0.0
 10
1.9051400000000001
 20
-1.0597400000000001
 30
0.0
 10
1.9051400000000001
 20
-1.0597400000000001
 30
0.0
 10
1.9051400000000001
 20
-1.0597400000000001
 30
0.0
 10
1.7984600000000002
 20
-1.0953000000000002
 30
0.0
 10
1.6409800000000001
 20
-0.88448
 30
0.0
 10
1.5927200000000001
 20
-1.0089400000000002
 30
0.0
 10
1.5927200000000001
 20
-1.0089400000000002
 30
0.0
 10
1.5368400000000002
 20
-1.3747
 30
0.0
 10
1.5012800000000002
 20
-0.99116
 30
0.0
 10
1.5216000000000001
 20
-0.8159000000000001
 30
0.0
 10
1.5216000000000001
 20
-0.8159000000000001
 30
0.0
 10
1.5216000000000001
 20
-0.8159000000000001
 30
0.0
 10
1.5368400000000002
 20
-0.53396
 30
0.0
 10
1.5368400000000002
 20
-0.53396
 30
0.0
 10
1.5368400000000002
 20
-0.53396
 30
0.0
 10
1.4784200000000001
 20
-0.6050800000000001
 30
0.0
 10
1.4758800000000001
 20
-0.7270000000000001
 30
0.0
 10
1.4708000000000001
 20
-0.8159000000000001
 30
0.0
 10
1.4708000000000001
 20
-0.8159000000000001
 30
0.0
 10
1.3666600000000002
 20
-1.1130800000000001
 30
0.0
 10
1.4936600000000002
 20
-1.4636
 30
0.0
 10
1.3869800000000001
 20
-1.7455400000000001
 30
0.0
 10
1.3869800000000001
 20
-1.7455400000000001
 30
0.0
 10
1.3869800000000001
 20
-1.7455400000000001
 30
0.0
 10
1.3438000000000001
 20
-1.07752
 30
0.0
 10
1.3438000000000001
 20
-1.07752
 30
0.0
 10
1.3438000000000001
 20
-1.07752
 30
0.0
 10
1.3438000000000001
 20
-1.07752
 30
0.0
 10
1.01868
 20
-1.0953000000000002
 30
0.0
 10
1.01868
 20
-1.0953000000000002
 30
0.0
 10
1.01868
 20
-1.0953000000000002
 30
0.0
 10
0.57926
 20
-0.6228600000000001
 30
0.0
 10
0.9932800000000001
 20
0.11119
 30
0.0
 10
1.4174600000000002
 20
0.4617100000000001
 30
0.0
  0
SPLINE
  5
3D
100
AcDbEntity
  8
Ebene 1
 62
     7
100
AcDbSpline
210
0.0
220
0.0
230
1.0
 70
     1
 71
     3
 72
    12
 73
     8
 74
     0
 42
0.0000000001
 43
0.0000000001
 40
0.0
 40
0.0
 40
0.0
 40
0.0
 40
0.5
 40
0.5
 40
0.5
 40
0.5
 40
1.0
 40
1.0
 40
1.0
 40
1.0
 10
-3.3501100000000004
 20
-0.28758
 30
0.0
 10
-3.2256500000000004
 20
-0.34092
 30
0.0
 10
-3.2891500000000002
 20
-0.55174
 30
0.0
 10
-3.3805900000000002
 20
-0.6228600000000001
 30
0.0
 10
-3.3805900000000002
 20
-0.6228600000000001
 30
0.0
 10
-3.4491700000000001
 20
-0.5161800000000001
 30
0.0
 10
-3.3704300000000003
 20
-0.3942600000000001
 30
0.0
 10
-3.3501100000000004
 20
-0.28758
 30
0.0
  0
SPLINE
  5
3E
100
AcDbEntity
  8
Ebene 1
 62
     7
100
AcDbSpline
210
0.0
220
0.0
230
1.0
 70
     1
 71
     3
 72
    12
 73
     8
 74
     0
 42
0.0000000001
 43
0.0000000001
 40
0.0
 40
0.0
 40
0.0
 40
0.0
 40
0.5
 40
0.5
 40
0.5
 40
0.5
 40
1.0
 40
1.0
 40
1.0
 40
1.0
 10
-2.7024100000000004
 20
-0.30536
 30
0.0
 10
-2.6744700000000003
 20
-0.32314
 30
0.0
 10
-2.6744700000000003
 20
-0.41204
 30
0.0
 10
-2.7024100000000004
 20
-0.42982
 30
0.0
 10
-2.7024100000000004
 20
-0.42982
 30
0.0
 10
-2.7379700000000002
 20
-0.41204
 30
0.0
 10
-2.7201900000000001
 20
-0.34092
 30
0.0
 10
-2.7024100000000004
 20
-0.30536
 30
0.0
  0
SPLINE
  5
3F
100
AcDbEntity
  8
Ebene 1
 62
     7
100
AcDbSpline
210
0.0
220
0.0
230
1.0
 70
     1
 71
     3
 72
    12
 73
     8
 74
     0
 42
0.0000000001
 43
0.0000000001
 40
0.0
 40
0.0
 40
0.0
 40
0.0
 40
0.5
 40
0.5
 40
0.5
 40
0.5
 40
1.0
 40
1.0
 40
1.0
 40
1.0
 10
-2.6312900000000004
 20
-0.32314
 30
0.0
 10
-2.4534900000000004
 20
-0.30536
 30
0.0
 10
-2.3264900000000002
 20
-0.42982
 30
0.0
 10
-2.3544300000000002
 20
-0.6228600000000001
 30
0.0
 10
-2.3544300000000002
 20
-0.6228600000000001
 30
0.0
 10
-2.5093700000000001
 20
-0.6228600000000001
 30
0.0
 10
-2.6897100000000003
 20
-0.5161800000000001
 30
0.0
 10
-2.6312900000000004
 20
-0.32314
 30
0.0
  0
SPLINE
  5
40
100
AcDbEntity
  8
Ebene 1
 62
     7
100
AcDbSpline
210
0.0
220
0.0
230
1.0
 70
     1
 71
     3
 72
    16
 73
    12
 74
     0
 42
0.0000000001
 43
0.0000000001
 40
0.0
 40
0.0
 40
0.0
 40
0.0
 40
0.3333333333333333
 40
0.3333333333333333
 40
0.3333333333333333
 40
0.3333333333333333
 40
0.6666666666666666
 40
0.6666666666666666
 40
0.6666666666666666
 40
0.6666666666666666
 40
1.0
 40
1.0
 40
1.0
 40
1.0
 10
-3.2637500000000004
 20
-0.55174
 30
0.0
 10
-3.1545300000000003
 20
-0.6914400000000001
 30
0.0
 10
-3.0427700000000004
 20
-0.8514600000000001
 30
0.0
 10
-2.8802100000000004
 20
-0.9378200000000001
 30
0.0
 10
-2.8802100000000004
 20
-0.9378200000000001
 30
0.0
 10
-2.8675100000000002
 20
-0.99116
 30
0.0
 10
-2.8852900000000004
 20
-1.04196
 30
0.0
 10
-2.9157700000000002
 20
-1.0953000000000002
 30
0.0
 10
-2.9157700000000002
 20
-1.0953000000000002
 30
0.0
 10
-3.0986500000000001
 20
-1.0089400000000002
 30
0.0
 10
-3.4390100000000001
 20
-0.76256
 30
0.0
 10
-3.2637500000000004
 20
-0.55174
 30
0.0
  0
SPLINE
  5
41
100
AcDbEntity
  8
Ebene 1
 62
     7
100
AcDbSpline
210
0.0
220
0.0
230
1.0
 70
     1
 71
     3
 72
    32
 73
    28
 74
     0
 42
0.0000000001
 43
0.0000000001
 40
0.0
 40
0.0
 40
0.0
 40
0.0
 40
0.1428571428571429
 40
0.1428571428571429
 40
0.1428571428571429
 40
0.1428571428571429
 40
0.2857142857142857
 40
0.2857142857142857
 40
0.2857142857142857
 40
0.2857142857142857
 40
0.4285714285714286
 40
0.4285714285714286
 40
0.4285714285714286
 40
0.4285714285714286
 40
0.5714285714285714
 40
0.5714285714285714
 40
0.5714285714285714
 40
0.5714285714285714
 40
0.7142857142857142
 40
0.7142857142857142
 40
0.7142857142857142
 40
0.7142857142857142
 40
0.857142857142857
 40
0.857142857142857
 40
0.857142857142857
 40
0.857142857142857
 40
1.0
 40
1.0
 40
1.0
 40
1.0
 10
-2.3163300000000002
 20
-0.8159000000000001
 30
0.0
 10
-2.1740900000000001
 20
-1.0953000000000002
 30
0.0
 10
-2.3696700000000002
 20
-1.4280400000000002
 30
0.0
 10
-2.3645900000000002
 20
-1.7277600000000002
 30
0.0
 10
-2.3645900000000002
 20
-1.7277600000000002
 30
0.0
 10
-2.3645900000000002
 20
-1.7277600000000002
 30
0.0
 10
-2.2985500000000001
 20
-1.7633200000000002
 30
0.0
 10
-2.2985500000000001
 20
-1.7633200000000002
 30
0.0
 10
-2.2985500000000001
 20
-1.7633200000000002
 30
0.0
 10
-2.2985500000000001
 20
-1.7633200000000002
 30
0.0
 10
-2.31887
 20
-1.8852400000000002
 30
0.0
 10
-2.31887
 20
-1.8852400000000002
 30
0.0
 10
-2.31887
 20
-1.8852400000000002
 30
0.0
 10
-2.3315700000000001
 20
-1.9030200000000002
 30
0.0
 10
-2.3468100000000001
 20
-1.9030200000000002
 30
0.0
 10
-2.3696700000000002
 20
-1.9030200000000002
 30
0.0
 10
-2.3696700000000002
 20
-1.9030200000000002
 30
0.0
 10
-2.5144500000000001
 20
-1.7785600000000001
 30
0.0
 10
-2.7760700000000003
 20
-2.02494
 30
0.0
 10
-2.8370300000000004
 20
-1.7785600000000001
 30
0.0
 10
-2.8370300000000004
 20
-1.7785600000000001
 30
0.0
 10
-2.7074900000000004
 20
-1.79634
 30
0.0
 10
-2.60589
 20
-1.7785600000000001
 30
0.0
 10
-2.4941300000000002
 20
-1.6922000000000001
 30
0.0
 10
-2.4941300000000002
 20
-1.6922000000000001
 30
0.0
 10
-2.4941300000000002
 20
-1.6922000000000001
 30
0.0
 10
-2.3163300000000002
 20
-0.8159000000000001
 30
0.0
 10
-2.3163300000000002
 20
-0.8159000000000001
 30
0.0
  0
SPLINE
  5
42
100
AcDbEntity
  8
Ebene 1
 62
     7
100
AcDbSpline
210
0.0
220
0.0
230
1.0
 70
     1
 71
     3
 72
    24
 73
    20
 74
     0
 42
0.0000000001
 43
0.0000000001
 40
0.0
 40
0.0
 40
0.0
 40
0.0
 40
0.2
 40
0.2
 40
0.2
 40
0.2
 40
0.4
 40
0.4
 40
0.4
 40
0.4
 40
0.6000000000000001
 40
0.6000000000000001
 40
0.6000000000000001
 40
0.6000000000000001
 40
0.8
 40
0.8
 40
0.8
 40
0.8
 40
1.0
 40
1.0
 40
1.0
 40
1.0
 10
-4.0333700000000006
 20
-1.2172200000000002
 30
0.0
 10
-3.9317700000000002
 20
-1.3924800000000002
 30
0.0
 10
-3.9876500000000004
 20
-1.6388600000000002
 30
0.0
 10
-3.9241500000000005
 20
-1.8496800000000002
 30
0.0
 10
-3.9241500000000005
 20
-1.8496800000000002
 30
0.0
 10
-3.9241500000000005
 20
-1.8496800000000002
 30
0.0
 10
-3.2459700000000002
 20
-2.0071600000000003
 30
0.0
 10
-3.2459700000000002
 20
-2.0071600000000003
 30
0.0
 10
-3.2459700000000002
 20
-2.0071600000000003
 30
0.0
 10
-3.2485100000000005
 20
-2.0605000000000002
 30
0.0
 10
-3.2942300000000002
 20
-2.09606
 30
0.0
 10
-3.3196300000000001
 20
-2.1468600000000002
 30
0.0
 10
-3.3196300000000001
 20
-2.1468600000000002
 30
0.0
 10
-3.5329900000000003
 20
-2.1316200000000003
 30
0.0
 10
-3.7717500000000004
 20
-2.1316200000000003
 30
0.0
 10
-3.9597100000000003
 20
-2.02494
 30
0.0
 10
-3.9597100000000003
 20
-2.02494
 30
0.0
 10
-3.9520900000000001
 20
-1.7455400000000001
 30
0.0
 10
-4.0841700000000003
 20
-1.49916
 30
0.0
 10
-4.0333700000000006
 20
-1.2172200000000002
 30
0.0
  0
SPLINE
  5
43
100
AcDbEntity
  8
Ebene 1
 62
     7
100
AcDbSpline
210
0.0
220
0.0
230
1.0
 70
     1
 71
     3
 72
    24
 73
    20
 74
     0
 42
0.0000000001
 43
0.0000000001
 40
0.0
 40
0.0
 40
0.0
 40
0.0
 40
0.2
 40
0.2
 40
0.2
 40
0.2
 40
0.4
 40
0.4
 40
0.4
 40
0.4
 40
0.6000000000000001
 40
0.6000000000000001
 40
0.6000000000000001
 40
0.6000000000000001
 40
0.8
 40
0.8
 40
0.8
 40
0.8
 40
1.0
 40
1.0
 40
1.0
 40
1.0
 10
2.9084400000000001
 20
-1.2172200000000002
 30
0.0
 10
2.92876
 20
-1.2172200000000002
 30
0.0
 10
2.9440000000000004
 20
-1.2172200000000002
 30
0.0
 10
2.9567000000000001
 20
-1.2350000000000001
 30
0.0
 10
2.9567000000000001
 20
-1.2350000000000001
 30
0.0
 10
2.9998800000000001
 20
-1.6566400000000001
 30
0.0
 10
3.0964
 20
-2.1468600000000002
 30
0.0
 10
2.9262200000000003
 20
-2.5329400000000004
 30
0.0
 10
2.9262200000000003
 20
-2.5329400000000004
 30
0.0
 10
2.9262200000000003
 20
-2.5329400000000004
 30
0.0
 10
2.8246200000000004
 20
-2.4973800000000002
 30
0.0
 10
2.8246200000000004
 20
-2.4973800000000002
 30
0.0
 10
2.8246200000000004
 20
-2.4973800000000002
 30
0.0
 10
2.88558
 20
-2.3043400000000003
 30
0.0
 10
2.7738200000000002
 20
-2.0782800000000003
 30
0.0
 10
2.9262200000000003
 20
-1.9030200000000002
 30
0.0
 10
2.9262200000000003
 20
-1.9030200000000002
 30
0.0
 10
2.9262200000000003
 20
-1.9030200000000002
 30
0.0
 10
2.9084400000000001
 20
-1.2172200000000002
 30
0.0
 10
2.9084400000000001
 20
-1.2172200000000002
 30
0.0
  0
SPLINE
  5
44
100
AcDbEntity
  8
Ebene 1
 62
     7
100
AcDbSpline
210
0.0
220
0.0
230
1.0
 70
     1
 71
     3
 72
   112
 73
   108
 74
     0
 42
0.0000000001
 43
0.0000000001
 40
0.0
 40
0.0
 40
0.0
 40
0.0
 40
0.037037037037037
 40
0.037037037037037
 40
0.037037037037037
 40
0.037037037037037
 40
0.0740740740740741
 40
0.0740740740740741
 40
0.0740740740740741
 40
0.0740740740740741
 40
0.1111111111111111
 40
0.1111111111111111
 40
0.1111111111111111
 40
0.1111111111111111
 40
0.1481481481481481
 40
0.1481481481481481
 40
0.1481481481481481
 40
0.1481481481481481
 40
0.1851851851851852
 40
0.1851851851851852
 40
0.1851851851851852
 40
0.1851851851851852
 40
0.2222222222222222
 40
0.2222222222222222
 40
0.2222222222222222
 40
0.2222222222222222
 40
0.2592592592592592
 40
0.2592592592592592
 40
0.2592592592592592
 40
0.2592592592592592
 40
0.2962962962962963
 40
0.2962962962962963
 40
0.2962962962962963
 40
0.2962962962962963
 40
0.3333333333333333
 40
0.3333333333333333
 40
0.3333333333333333
 40
0.3333333333333333
 40
0.3703703703703704
 40
0.3703703703703704
 40
0.3703703703703704
 40
0.3703703703703704
 40
0.4074074074074074
 40
0.4074074074074074
 40
0.4074074074074074
 40
0.4074074074074074
 40
0.4444444444444444
 40
0.4444444444444444
 40
0.4444444444444444
 40
0.4444444444444444
 40
0.4814814814814815
 40
0.4814814814814815
 40
0.4814814814814815
 40
0.4814814814814815
 40
0.5185185185185185
 40
0.5185185185185185
 40
0.5185185185185185
 40
0.5185185185185185
 40
0.5555555555555556
 40
0.5555555555555556
 40
0.5555555555555556
 40
0.5555555555555556
 40
0.5925925925925926
 40
0.5925925925925926
 40
0.5925925925925926
 40
0.5925925925925926
 40
0.6296296296296295
 40
0.6296296296296295
 40
0.6296296296296295
 40
0.6296296296296295
 40
0.6666666666666665
 40
0.6666666666666665
 40
0.6666666666666665
 40
0.6666666666666665
 40
0.7037037037037035
 40
0.7037037037037035
 40
0.7037037037037035
 40
0.7037037037037035
 40
0.7407407407407405
 40
0.7407407407407405
 40
0.7407407407407405
 40
0.7407407407407405
 40
0.7777777777777775
 40
0.7777777777777775
 40
0.7777777777777775
 40
0.7777777777777775
 40
0.8148148148148144
 40
0.8148148148148144
 40
0.8148148148148144
 40
0.8148148148148144
 40
0.8518518518518514
 40
0.8518518518518514
 40
0.8518518518518514
 40
0.8518518518518514
 40
0.8888888888888884
 40
0.8888888888888884
 40
0.8888888888888884
 40
0.8888888888888884
 40
0.9259259259259254
 40
0.9259259259259254
 40
0.9259259259259254
 40
0.9259259259259254
 40
0.9629629629629624
 40
0.9629629629629624
 40
0.9629629629629624
 40
0.9629629629629624
 40
1.0
 40
1.0
 40
1.0
 40
1.0
 10
-0.03795
 20
-1.3416800000000002
 30
0.0
 10
0.02554
 20
-1.58552
 30
0.0
 10
-0.31735
 20
-2.1646400000000003
 30
0.0
 10
-0.02017
 20
-2.2713200000000002
 30
0.0
 10
-0.02017
 20
-2.2713200000000002
 30
0.0
 10
-0.02017
 20
-2.2713200000000002
 30
0.0
 10
0.01284
 20
-2.5862800000000004
 30
0.0
 10
0.01284
 20
-2.5862800000000004
 30
0.0
 10
0.01284
 20
-2.5862800000000004
 30
0.0
 10
0.12714
 20
-2.5685000000000002
 30
0.0
 10
0.16016
 20
-2.4110200000000002
 30
0.0
 10
0.2389
 20
-2.3399000000000001
 30
0.0
 10
0.2389
 20
-2.3399000000000001
 30
0.0
 10
0.3024
 20
-2.4973800000000002
 30
0.0
 10
0.15762
 20
-2.7259800000000003
 30
0.0
 10
0.33034
 20
-2.8326600000000002
 30
0.0
 10
0.33034
 20
-2.8326600000000002
 30
0.0
 10
0.5233800000000001
 20
-2.7615400000000001
 30
0.0
 10
0.5386200000000001
 20
-2.5329400000000004
 30
0.0
 10
0.5462400000000001
 20
-2.3576800000000002
 30
0.0
 10
0.5462400000000001
 20
-2.3576800000000002
 30
0.0
 10
0.5462400000000001
 20
-2.3576800000000002
 30
0.0
 10
0.69864
 20
-2.3399000000000001
 30
0.0
 10
0.69864
 20
-2.3399000000000001
 30
0.0
 10
0.69864
 20
-2.3399000000000001
 30
0.0
 10
0.9475600000000001
 20
-2.5151600000000003
 30
0.0
 10
0.7900800000000001
 20
-2.90124
 30
0.0
 10
0.8967600000000001
 20
-3.1654000000000004
 30
0.0
 10
0.8967600000000001
 20
-3.1654000000000004
 30
0.0
 10
1.1228200000000002
 20
-3.2695400000000001
 30
0.0
 10
1.1914
 20
-3.0079200000000004
 30
0.0
 10
1.1583800000000002
 20
-2.81488
 30
0.0
 10
1.1583800000000002
 20
-2.81488
 30
0.0
 10
1.31586
 20
-3.2009600000000002
 30
0.0
 10
1.5647800000000001
 20
-2.7259800000000003
 30
0.0
 10
1.52668
 20
-2.4618200000000003
 30
0.0
 10
1.52668
 20
-2.4618200000000003
 30
0.0
 10
1.52668
 20
-2.4618200000000003
 30
0.0
 10
1.6638400000000002
 20
-2.5151600000000003
 30
0.0
 10
1.6638400000000002
 20
-2.5151600000000003
 30
0.0
 10
1.6638400000000002
 20
-2.5151600000000003
 30
0.0
 10
2.0575400000000004
 20
-2.1138400000000002
 30
0.0
 10
2.4410800000000004
 20
-2.4110200000000002
 30
0.0
 10
2.3344
 20
-2.9368000000000003
 30
0.0
 10
2.3344
 20
-2.9368000000000003
 30
0.0
 10
2.3344
 20
-2.9368000000000003
 30
0.0
 10
2.5096600000000002
 20
-2.90124
 30
0.0
 10
2.5096600000000002
 20
-2.90124
 30
0.0
 10
2.5096600000000002
 20
-2.90124
 30
0.0
 10
2.6290400000000003
 20
-2.8326600000000002
 30
0.0
 10
2.5477600000000002
 20
-2.6548600000000002
 30
0.0
 10
2.6138000000000003
 20
-2.5507200000000001
 30
0.0
 10
2.6138000000000003
 20
-2.5507200000000001
 30
0.0
 10
2.7814400000000004
 20
-2.6726400000000003
 30
0.0
 10
2.7027000000000001
 20
-2.9368000000000003
 30
0.0
 10
2.7281000000000004
 20
-3.11206
 30
0.0
 10
2.7281000000000004
 20
-3.11206
 30
0.0
 10
2.6696800000000001
 20
-2.8326600000000002
 30
0.0
 10
2.4004400000000001
 20
-2.9901400000000002
 30
0.0
 10
2.4512400000000003
 20
-3.2517600000000004
 30
0.0
 10
2.4512400000000003
 20
-3.2517600000000004
 30
0.0
 10
2.4893400000000003
 20
-3.4270200000000002
 30
0.0
 10
2.3496400000000004
 20
-3.6378400000000002
 30
0.0
 10
2.2455000000000003
 20
-3.6556200000000003
 30
0.0
 10
2.2455000000000003
 20
-3.6556200000000003
 30
0.0
 10
2.1693000000000002
 20
-3.4981400000000002
 30
0.0
 10
2.3496400000000004
 20
-3.2517600000000004
 30
0.0
 10
2.1845400000000001
 20
-3.1476200000000003
 30
0.0
 10
2.1845400000000001
 20
-3.1476200000000003
 30
0.0
 10
2.1845400000000001
 20
-3.1476200000000003
 30
0.0
 10
1.9127600000000002
 20
-3.0942800000000004
 30
0.0
 10
1.9127600000000002
 20
-3.0942800000000004
 30
0.0
 10
1.9127600000000002
 20
-3.0942800000000004
 30
0.0
 10
1.8924400000000001
 20
-3.4625800000000004
 30
0.0
 10
2.0727800000000003
 20
-3.8664400000000003
 30
0.0
 10
1.6638400000000002
 20
-4.0594800000000006
 30
0.0
 10
1.6638400000000002
 20
-4.0594800000000006
 30
0.0
 10
1.4987400000000002
 20
-3.9375600000000004
 30
0.0
 10
1.3082400000000001
 20
-3.4270200000000002
 30
0.0
 10
1.1583800000000002
 20
-3.9020000000000001
 30
0.0
 10
1.1583800000000002
 20
-3.9020000000000001
 30
0.0
 10
1.2396600000000002
 20
-3.6378400000000002
 30
0.0
 10
0.91454
 20
-3.3406600000000002
 30
0.0
 10
0.82564
 20
-3.6734000000000004
 30
0.0
 10
0.82564
 20
-3.6734000000000004
 30
0.0
 10
0.7773800000000001
 20
-3.5337000000000005
 30
0.0
 10
0.8535800000000001
 20
-3.2517600000000004
 30
0.0
 10
0.6275200000000001
 20
-3.2365200000000001
 30
0.0
 10
0.6275200000000001
 20
-3.2365200000000001
 30
0.0
 10
0.51068
 20
-3.2695400000000001
 30
0.0
 10
0.52846
 20
-3.4092400000000005
 30
0.0
 10
0.4929000000000001
 20
-3.4625800000000004
 30
0.0
 10
0.4929000000000001
 20
-3.4625800000000004
 30
0.0
 10
0.29732
 20
-3.3051000000000004
 30
0.0
 10
0.38368
 20
-2.6218400000000002
 30
0.0
 10
0.10682
 20
-3.0434800000000002
 30
0.0
 10
0.10682
 20
-3.0434800000000002
 30
0.0
 10
0.04586
 20
-2.8834600000000004
 30
0.0
 10
0.1627
 20
-2.5685000000000002
 30
0.0
 10
-0.10145
 20
-2.6218400000000002
 30
0.0
 10
-0.10145
 20
-2.6218400000000002
 30
0.0
 10
-0.10145
 20
-2.4465800000000004
 30
0.0
 10
-0.20051
 20
-2.2002000000000002
 30
0.0
 10
-0.37069
 20
-2.3221200000000004
 30
0.0
 10
-0.37069
 20
-2.3221200000000004
 30
0.0
 10
-0.34021
 20
-1.9741400000000002
 30
0.0
 10
-0.30973
 20
-1.58552
 30
0.0
 10
-0.03795
 20
-1.3416800000000002
 30
0.0
  0
SPLINE
  5
45
100
AcDbEntity
  8
Ebene 1
 62
     7
100
AcDbSpline
210
0.0
220
0.0
230
1.0
 70
     1
 71
     3
 72
   128
 73
   124
 74
     0
 42
0.0000000001
 43
0.0000000001
 40
0.0
 40
0.0
 40
0.0
 40
0.0
 40
0.032258064516129
 40
0.032258064516129
 40
0.032258064516129
 40
0.032258064516129
 40
0.0645161290322581
 40
0.0645161290322581
 40
0.0645161290322581
 40
0.0645161290322581
 40
0.0967741935483871
 40
0.0967741935483871
 40
0.0967741935483871
 40
0.0967741935483871
 40
0.1290322580645161
 40
0.1290322580645161
 40
0.1290322580645161
 40
0.1290322580645161
 40
0.1612903225806452
 40
0.1612903225806452
 40
0.1612903225806452
 40
0.1612903225806452
 40
0.1935483870967742
 40
0.1935483870967742
 40
0.1935483870967742
 40
0.1935483870967742
 40
0.2258064516129032
 40
0.2258064516129032
 40
0.2258064516129032
 40
0.2258064516129032
 40
0.2580645161290323
 40
0.2580645161290323
 40
0.2580645161290323
 40
0.2580645161290323
 40
0.2903225806451613
 40
0.2903225806451613
 40
0.2903225806451613
 40
0.2903225806451613
 40
0.3225806451612903
 40
0.3225806451612903
 40
0.3225806451612903
 40
0.3225806451612903
 40
0.3548387096774193
 40
0.3548387096774193
 40
0.3548387096774193
 40
0.3548387096774193
 40
0.3870967741935483
 40
0.3870967741935483
 40
0.3870967741935483
 40
0.3870967741935483
 40
0.4193548387096773
 40
0.4193548387096773
 40
0.4193548387096773
 40
0.4193548387096773
 40
0.4516129032258063
 40
0.4516129032258063
 40
0.4516129032258063
 40
0.4516129032258063
 40
0.4838709677419353
 40
0.4838709677419353
 40
0.4838709677419353
 40
0.4838709677419353
 40
0.5161290322580643
 40
0.5161290322580643
 40
0.5161290322580643
 40
0.5161290322580643
 40
0.5483870967741933
 40
0.5483870967741933
 40
0.5483870967741933
 40
0.5483870967741933
 40
0.5806451612903223
 40
0.5806451612903223
 40
0.5806451612903223
 40
0.5806451612903223
 40
0.6129032258064513
 40
0.6129032258064513
 40
0.6129032258064513
 40
0.6129032258064513
 40
0.6451612903225803
 40
0.6451612903225803
 40
0.6451612903225803
 40
0.6451612903225803
 40
0.6774193548387093
 40
0.6774193548387093
 40
0.6774193548387093
 40
0.6774193548387093
 40
0.7096774193548383
 40
0.7096774193548383
 40
0.7096774193548383
 40
0.7096774193548383
 40
0.7419354838709673
 40
0.7419354838709673
 40
0.7419354838709673
 40
0.7419354838709673
 40
0.7741935483870963
 40
0.7741935483870963
 40
0.7741935483870963
 40
0.7741935483870963
 40
0.8064516129032253
 40
0.8064516129032253
 40
0.8064516129032253
 40
0.8064516129032253
 40
0.8387096774193543
 40
0.8387096774193543
 40
0.8387096774193543
 40
0.8387096774193543
 40
0.8709677419354833
 40
0.8709677419354833
 40
0.8709677419354833
 40
0.8709677419354833
 40
0.9032258064516123
 40
0.9032258064516123
 40
0.9032258064516123
 40
0.9032258064516123
 40
0.9354838709677413
 40
0.9354838709677413
 40
0.9354838709677413
 40
0.9354838709677413
 40
0.9677419354838703
 40
0.9677419354838703
 40
0.9677419354838703
 40
0.9677419354838703
 40
1.0
 40
1.0
 40
1.0
 40
1.0
 10
3.3275400000000004
 20
-3.7597600000000004
 30
0.0
 10
3.3275400000000004
 20
-3.7597600000000004
 30
0.0
 10
3.3427800000000003
 20
-3.6200600000000005
 30
0.0
 10
3.3427800000000003
 20
-3.6200600000000005
 30
0.0
 10
3.3427800000000003
 20
-3.6200600000000005
 30
0.0
 10
2.88558
 20
-4.1814
 30
0.0
 10
2.7763600000000004
 20
-4.9535600000000004
 30
0.0
 10
2.3090000000000002
 20
-5.4793400000000005
 30
0.0
 10
2.3090000000000002
 20
-5.4793400000000005
 30
0.0
 10
1.9610200000000002
 20
-5.5149000000000008
 30
0.0
 10
1.8365600000000002
 20
-5.32186
 30
0.0
 10
1.9940400000000003
 20
-5.0754800000000007
 30
0.0
 10
1.9940400000000003
 20
-5.0754800000000007
 30
0.0
 10
1.6740000000000002
 20
-5.2355
 30
0.0
 10
1.3895200000000001
 20
-5.4971200000000007
 30
0.0
 10
1.0313800000000002
 20
-5.5682400000000003
 30
0.0
 10
1.0313800000000002
 20
-5.5682400000000003
 30
0.0
 10
0.3659
 20
-5.0399200000000004
 30
0.0
 10
-0.10145
 20
-4.2880800000000008
 30
0.0
 10
-0.6272300000000001
 20
-3.6200600000000005
 30
0.0
 10
-0.6272300000000001
 20
-3.6200600000000005
 30
0.0
 10
-0.8151900000000001
 20
-3.5159200000000004
 30
0.0
 10
-0.51293
 20
-3.7953200000000002
 30
0.0
 10
-0.5840500000000001
 20
-3.9020000000000001
 30
0.0
 10
-0.5840500000000001
 20
-3.9020000000000001
 30
0.0
 10
-1.5263900000000001
 20
-3.4803600000000001
 30
0.0
 10
-0.9853700000000001
 20
-2.2713200000000002
 30
0.0
 10
-1.1072900000000001
 20
-1.49916
 30
0.0
 10
-1.1072900000000001
 20
-1.49916
 30
0.0
 10
-0.8609100000000001
 20
-1.7277600000000002
 30
0.0
 10
-0.91171
 20
-2.2179800000000003
 30
0.0
 10
-0.8634500000000001
 20
-2.5507200000000001
 30
0.0
 10
-0.8634500000000001
 20
-2.5507200000000001
 30
0.0
 10
-0.67803
 20
-2.23576
 30
0.0
 10
-1.1072900000000001
 20
-1.4458200000000001
 30
0.0
 10
-0.53071
 20
-1.6922000000000001
 30
0.0
 10
-0.53071
 20
-1.6922000000000001
 30
0.0
 10
-0.40371
 20
-2.1646400000000003
 30
0.0
 10
-0.44689
 20
-2.6548600000000002
 30
0.0
 10
-0.43419
 20
-3.11206
 30
0.0
 10
-0.43419
 20
-3.11206
 30
0.0
 10
-0.27417
 20
-2.6726400000000003
 30
0.0
 10
-0.18273
 20
-3.3228800000000001
 30
0.0
 10
-0.13701
 20
-3.5337000000000005
 30
0.0
 10
-0.13701
 20
-3.5337000000000005
 30
0.0
 10
-0.06081
 20
-3.4803600000000001
 30
0.0
 10
-0.15479
 20
-3.3940000000000001
 30
0.0
 10
-0.13701
 20
-3.3228800000000001
 30
0.0
 10
-0.13701
 20
-3.3228800000000001
 30
0.0
 10
0.06364
 20
-3.4625800000000004
 30
0.0
 10
0.41162
 20
-3.4625800000000004
 30
0.0
 10
0.3532
 20
-3.8308800000000005
 30
0.0
 10
0.3532
 20
-3.8308800000000005
 30
0.0
 10
0.51576
 20
-3.4803600000000001
 30
0.0
 10
0.4827400000000001
 20
-4.09504
 30
0.0
 10
0.61482
 20
-4.3414200000000003
 30
0.0
 10
0.61482
 20
-4.3414200000000003
 30
0.0
 10
0.6021200000000001
 20
-3.7775400000000001
 30
0.0
 10
0.8332600000000001
 20
-4.0772600000000008
 30
0.0
 10
0.86882
 20
-4.4633400000000005
 30
0.0
 10
0.86882
 20
-4.4633400000000005
 30
0.0
 10
0.76722
 20
-3.8842200000000005
 30
0.0
 10
1.3260200000000002
 20
-4.39222
 30
0.0
 10
1.19394
 20
-4.7605200000000005
 30
0.0
 10
1.19394
 20
-4.7605200000000005
 30
0.0
 10
1.2549000000000001
 20
-4.78592
 30
0.0
 10
1.2574400000000001
 20
-4.6919400000000007
 30
0.0
 10
1.2625200000000001
 20
-4.6462200000000005
 30
0.0
 10
1.2625200000000001
 20
-4.6462200000000005
 30
0.0
 10
1.27522
 20
-4.5065200000000001
 30
0.0
 10
1.1990200000000002
 20
-4.3261799999999999
 30
0.0
 10
1.2472800000000002
 20
-4.1814
 30
0.0
 10
1.2472800000000002
 20
-4.1814
 30
0.0
 10
1.4555600000000002
 20
-4.1941000000000006
 30
0.0
 10
1.6460600000000001
 20
-4.0493200000000007
 30
0.0
 10
1.7324200000000001
 20
-4.1610800000000001
 30
0.0
 10
1.7324200000000001
 20
-4.1610800000000001
 30
0.0
 10
1.7603600000000001
 20
-4.1966400000000004
 30
0.0
 10
1.7273400000000001
 20
-4.4658800000000003
 30
0.0
 10
1.8162400000000001
 20
-4.3566600000000006
 30
0.0
 10
1.8162400000000001
 20
-4.3566600000000006
 30
0.0
 10
1.7603600000000001
 20
-3.6810200000000002
 30
0.0
 10
2.12866
 20
-3.9858200000000004
 30
0.0
 10
2.0956400000000004
 20
-4.40238
 30
0.0
 10
2.0956400000000004
 20
-4.40238
 30
0.0
 10
2.09056
 20
-4.4633400000000005
 30
0.0
 10
1.9991200000000002
 20
-4.5674800000000007
 30
0.0
 10
2.0727800000000003
 20
-4.6208200000000001
 30
0.0
 10
2.0727800000000003
 20
-4.6208200000000001
 30
0.0
 10
2.2302600000000004
 20
-4.39222
 30
0.0
 10
2.1743800000000002
 20
-4.0417000000000005
 30
0.0
 10
2.2455000000000003
 20
-3.7775400000000001
 30
0.0
 10
2.2455000000000003
 20
-3.7775400000000001
 30
0.0
 10
2.4309200000000004
 20
-3.5133800000000002
 30
0.0
 10
2.5553800000000004
 20
-3.5743400000000003
 30
0.0
 10
2.6341200000000002
 20
-3.7927800000000005
 30
0.0
 10
2.6341200000000002
 20
-3.7927800000000005
 30
0.0
 10
2.6646000000000001
 20
-3.8766000000000003
 30
0.0
 10
2.59348
 20
-4.26776
 30
0.0
 10
2.7281000000000004
 20
-4.09504
 30
0.0
 10
2.7281000000000004
 20
-4.09504
 30
0.0
 10
2.71794
 20
-3.7267400000000004
 30
0.0
 10
2.7382600000000004
 20
-3.3940000000000001
 30
0.0
 10
2.8246200000000004
 20
-3.0612600000000003
 30
0.0
 10
2.8246200000000004
 20
-3.0612600000000003
 30
0.0
 10
3.0202000000000004
 20
-3.0257000000000001
 30
0.0
 10
2.8703400000000001
 20
-3.5337000000000005
 30
0.0
 10
2.9135200000000001
 20
-3.7267400000000004
 30
0.0
 10
2.9135200000000001
 20
-3.7267400000000004
 30
0.0
 10
3.1345000000000001
 20
-2.6396200000000003
 30
0.0
 10
3.1421200000000002
 20
-2.6726400000000003
 30
0.0
 10
3.2640400000000001
 20
-1.5169400000000002
 30
0.0
 10
3.2640400000000001
 20
-1.5169400000000002
 30
0.0
 10
3.6221800000000002
 20
-1.4636
 30
0.0
 10
3.2818200000000002
 20
-2.1138400000000002
 30
0.0
 10
3.4037400000000004
 20
-2.3399000000000001
 30
0.0
 10
3.4037400000000004
 20
-2.3399000000000001
 30
0.0
 10
3.4621600000000003
 20
-2.02494
 30
0.0
 10
3.4240600000000003
 20
-1.6033000000000002
 30
0.0
 10
3.6577400000000004
 20
-1.3747
 30
0.0
 10
3.6577400000000004
 20
-1.3747
 30
0.0
 10
3.6044000000000005
 20
-2.0782800000000003
 30
0.0
 10
4.0082599999999999
 20
-3.1476200000000003
 30
0.0
 10
3.3275400000000004
 20
-3.7597600000000004
 30
0.0
  0
SPLINE
  5
46
100
AcDbEntity
  8
Ebene 1
 62
     7
100
AcDbSpline
210
0.0
220
0.0
230
1.0
 70
     1
 71
     3
 72
    12
 73
     8
 74
     0
 42
0.0000000001
 43
0.0000000001
 40
0.0
 40
0.0
 40
0.0
 40
0.0
 40
0.5
 40
0.5
 40
0.5
 40
0.5
 40
1.0
 40
1.0
 40
1.0
 40
1.0
 10
-0.00239
 20
-1.7785600000000001
 30
0.0
 10
0.02808
 20
-1.8852400000000002
 30
0.0
 10
0.02808
 20
-2.1138400000000002
 30
0.0
 10
-0.08367
 20
-2.1646400000000003
 30
0.0
 10
-0.08367
 20
-2.1646400000000003
 30
0.0
 10
-0.06843
 20
-2.0427200000000001
 30
0.0
 10
-0.03795
 20
-1.9030200000000002
 30
0.0
 10
-0.00239
 20
-1.7785600000000001
 30
0.0
  0
SPLINE
  5
47
100
AcDbEntity
  8
Ebene 1
 62
     7
100
AcDbSpline
210
0.0
220
0.0
230
1.0
 70
     1
 71
     3
 72
    12
 73
     8
 74
     0
 42
0.0000000001
 43
0.0000000001
 40
0.0
 40
0.0
 40
0.0
 40
0.0
 40
0.5
 40
0.5
 40
0.5
 40
0.5
 40
1.0
 40
1.0
 40
1.0
 40
1.0
 10
0.10174
 20
-1.9208000000000001
 30
0.0
 10
0.28462
 20
-2.02494
 30
0.0
 10
0.16524
 20
-2.3043400000000003
 30
0.0
 10
0.07126
 20
-2.4465800000000004
 30
0.0
 10
0.07126
 20
-2.4465800000000004
 30
0.0
 10
0.11444
 20
-2.2713200000000002
 30
0.0
 10
0.02808
 20
-2.0782800000000003
 30
0.0
 10
0.10174
 20
-1.9208000000000001
 30
0.0
  0
SPLINE
  5
48
100
AcDbEntity
  8
Ebene 1
 62
     7
100
AcDbSpline
210
0.0
220
0.0
230
1.0
 70
     1
 71
     3
 72
    16
 73
    12
 74
     0
 42
0.0000000001
 43
0.0000000001
 40
0.0
 40
0.0
 40
0.0
 40
0.0
 40
0.3333333333333333
 40
0.3333333333333333
 40
0.3333333333333333
 40
0.3333333333333333
 40
0.6666666666666666
 40
0.6666666666666666
 40
0.6666666666666666
 40
0.6666666666666666
 40
1.0
 40
1.0
 40
1.0
 40
1.0
 10
2.67984
 20
-2.02494
 30
0.0
 10
2.7052400000000003
 20
-2.02494
 30
0.0
 10
2.7306400000000002
 20
-2.02494
 30
0.0
 10
2.7458800000000001
 20
-2.0427200000000001
 30
0.0
 10
2.7458800000000001
 20
-2.0427200000000001
 30
0.0
 10
2.71286
 20
-2.18242
 30
0.0
 10
2.8449400000000002
 20
-2.39324
 30
0.0
 10
2.6976200000000001
 20
-2.4796
 30
0.0
 10
2.6976200000000001
 20
-2.4796
 30
0.0
 10
2.6239600000000003
 20
-2.3576800000000002
 30
0.0
 10
2.6011000000000002
 20
-2.1468600000000002
 30
0.0
 10
2.67984
 20
-2.02494
 30
0.0
  0
SPLINE
  5
49
100
AcDbEntity
  8
Ebene 1
 62
     7
100
AcDbSpline
210
0.0
220
0.0
230
1.0
 70
     1
 71
     3
 72
    16
 73
    12
 74
     0
 42
0.0000000001
 43
0.0000000001
 40
0.0
 40
0.0
 40
0.0
 40
0.0
 40
0.3333333333333333
 40
0.3333333333333333
 40
0.3333333333333333
 40
0.3333333333333333
 40
0.6666666666666666
 40
0.6666666666666666
 40
0.6666666666666666
 40
0.6666666666666666
 40
1.0
 40
1.0
 40
1.0
 40
1.0
 10
0.3659
 20
-2.0605000000000002
 30
0.0
 10
0.3659
 20
-2.0605000000000002
 30
0.0
 10
0.4319400000000001
 20
-2.0782800000000003
 30
0.0
 10
0.4319400000000001
 20
-2.0782800000000003
 30
0.0
 10
0.4319400000000001
 20
-2.0782800000000003
 30
0.0
 10
0.48782
 20
-2.2535400000000001
 30
0.0
 10
0.51322
 20
-2.5151600000000003
 30
0.0
 10
0.38368
 20
-2.6396200000000003
 30
0.0
 10
0.38368
 20
-2.6396200000000003
 30
0.0
 10
0.31764
 20
-2.4796
 30
0.0
 10
0.34304
 20
-2.23576
 30
0.0
 10
0.3659
 20
-2.0605000000000002
 30
0.0
  0
SPLINE
  5
4A
100
AcDbEntity
  8
Ebene 1
 62
     7
100
AcDbSpline
210
0.0
220
0.0
230
1.0
 70
     1
 71
     3
 72
    16
 73
    12
 74
     0
 42
0.0000000001
 43
0.0000000001
 40
0.0
 40
0.0
 40
0.0
 40
0.0
 40
0.3333333333333333
 40
0.3333333333333333
 40
0.3333333333333333
 40
0.3333333333333333
 40
0.6666666666666666
 40
0.6666666666666666
 40
0.6666666666666666
 40
0.6666666666666666
 40
1.0
 40
1.0
 40
1.0
 40
1.0
 10
2.4334600000000002
 20
-2.2002000000000002
 30
0.0
 10
2.6188800000000003
 20
-2.3221200000000004
 30
0.0
 10
2.5325200000000003
 20
-2.6726400000000003
 30
0.0
 10
2.4512400000000003
 20
-2.8326600000000002
 30
0.0
 10
2.4512400000000003
 20
-2.8326600000000002
 30
0.0
 10
2.4512400000000003
 20
-2.8326600000000002
 30
0.0
 10
2.4029800000000003
 20
-2.7971000000000004
 30
0.0
 10
2.4029800000000003
 20
-2.7971000000000004
 30
0.0
 10
2.4029800000000003
 20
-2.7971000000000004
 30
0.0
 10
2.4029800000000003
 20
-2.7971000000000004
 30
0.0
 10
2.4334600000000002
 20
-2.2002000000000002
 30
0.0
 10
2.4334600000000002
 20
-2.2002000000000002
 30
0.0
  0
SPLINE
  5
4B
100
AcDbEntity
  8
Ebene 1
 62
     7
100
AcDbSpline
210
0.0
220
0.0
230
1.0
 70
     1
 71
     3
 72
    20
 73
    16
 74
     0
 42
0.0000000001
 43
0.0000000001
 40
0.0
 40
0.0
 40
0.0
 40
0.0
 40
0.25
 40
0.25
 40
0.25
 40
0.25
 40
0.5
 40
0.5
 40
0.5
 40
0.5
 40
0.75
 40
0.75
 40
0.75
 40
0.75
 40
1.0
 40
1.0
 40
1.0
 40
1.0
 10
0.9424800000000001
 20
-2.3399000000000001
 30
0.0
 10
0.9424800000000001
 20
-2.3399000000000001
 30
0.0
 10
1.0974200000000001
 20
-2.3754600000000003
 30
0.0
 10
1.0974200000000001
 20
-2.3754600000000003
 30
0.0
 10
1.0974200000000001
 20
-2.3754600000000003
 30
0.0
 10
1.0974200000000001
 20
-2.3754600000000003
 30
0.0
 10
1.1177400000000002
 20
-2.4465800000000004
 30
0.0
 10
1.1177400000000002
 20
-2.4465800000000004
 30
0.0
 10
1.1177400000000002
 20
-2.4465800000000004
 30
0.0
 10
1.0085200000000001
 20
-2.6396200000000003
 30
0.0
 10
1.1253600000000001
 20
-2.9368000000000003
 30
0.0
 10
0.9653400000000001
 20
-3.0942800000000004
 30
0.0
 10
0.9653400000000001
 20
-3.0942800000000004
 30
0.0
 10
0.9018400000000001
 20
-2.8656800000000002
 30
0.0
 10
0.9170800000000001
 20
-2.5862800000000004
 30
0.0
 10
0.9424800000000001
 20
-2.3399000000000001
 30
0.0
  0
SPLINE
  5
4C
100
AcDbEntity
  8
Ebene 1
 62
     7
100
AcDbSpline
210
0.0
220
0.0
230
1.0
 70
     1
 71
     3
 72
    16
 73
    12
 74
     0
 42
0.0000000001
 43
0.0000000001
 40
0.0
 40
0.0
 40
0.0
 40
0.0
 40
0.3333333333333333
 40
0.3333333333333333
 40
0.3333333333333333
 40
0.3333333333333333
 40
0.6666666666666666
 40
0.6666666666666666
 40
0.6666666666666666
 40
0.6666666666666666
 40
1.0
 40
1.0
 40
1.0
 40
1.0
 10
-0.28179
 20
-2.3576800000000002
 30
0.0
 10
-0.25893
 20
-2.3576800000000002
 30
0.0
 10
-0.24623
 20
-2.3576800000000002
 30
0.0
 10
-0.23353
 20
-2.3754600000000003
 30
0.0
 10
-0.23353
 20
-2.3754600000000003
 30
0.0
 10
-0.23861
 20
-2.4973800000000002
 30
0.0
 10
-0.19543
 20
-2.6548600000000002
 30
0.0
 10
-0.28179
 20
-2.7437600000000004
 30
0.0
 10
-0.28179
 20
-2.7437600000000004
 30
0.0
 10
-0.37069
 20
-2.6396200000000003
 30
0.0
 10
-0.3325900000000001
 20
-2.4796
 30
0.0
 10
-0.28179
 20
-2.3576800000000002
 30
0.0
  0
SPLINE
  5
4D
100
AcDbEntity
  8
Ebene 1
 62
     7
100
AcDbSpline
210
0.0
220
0.0
230
1.0
 70
     1
 71
     3
 72
    16
 73
    12
 74
     0
 42
0.0000000001
 43
0.0000000001
 40
0.0
 40
0.0
 40
0.0
 40
0.0
 40
0.3333333333333333
 40
0.3333333333333333
 40
0.3333333333333333
 40
0.3333333333333333
 40
0.6666666666666666
 40
0.6666666666666666
 40
0.6666666666666666
 40
0.6666666666666666
 40
1.0
 40
1.0
 40
1.0
 40
1.0
 10
1.2599800000000001
 20
-2.39324
 30
0.0
 10
1.5724
 20
-2.3221200000000004
 30
0.0
 10
1.4276200000000001
 20
-2.7615400000000001
 30
0.0
 10
1.3285600000000002
 20
-2.8834600000000004
 30
0.0
 10
1.3285600000000002
 20
-2.8834600000000004
 30
0.0
 10
1.3285600000000002
 20
-2.8834600000000004
 30
0.0
 10
1.2803000000000002
 20
-2.8834600000000004
 30
0.0
 10
1.2803000000000002
 20
-2.8834600000000004
 30
0.0
 10
1.2803000000000002
 20
-2.8834600000000004
 30
0.0
 10
1.2625200000000001
 20
-2.7259800000000003
 30
0.0
 10
1.2269600000000001
 20
-2.5507200000000001
 30
0.0
 10
1.2599800000000001
 20
-2.39324
 30
0.0
  0
SPLINE
  5
4E
100
AcDbEntity
  8
Ebene 1
 62
     7
100
AcDbSpline
210
0.0
220
0.0
230
1.0
 70
     1
 71
     3
 72
    12
 73
     8
 74
     0
 42
0.0000000001
 43
0.0000000001
 40
0.0
 40
0.0
 40
0.0
 40
0.0
 40
0.5
 40
0.5
 40
0.5
 40
0.5
 40
1.0
 40
1.0
 40
1.0
 40
1.0
 10
2.8373200000000001
 20
-2.6218400000000002
 30
0.0
 10
2.9008200000000004
 20
-2.7082000000000002
 30
0.0
 10
2.9744800000000002
 20
-2.9901400000000002
 30
0.0
 10
2.7890600000000001
 20
-3.0079200000000004
 30
0.0
 10
2.7890600000000001
 20
-3.0079200000000004
 30
0.0
 10
2.7763600000000004
 20
-2.8656800000000002
 30
0.0
 10
2.7890600000000001
 20
-2.7437600000000004
 30
0.0
 10
2.8373200000000001
 20
-2.6218400000000002
 30
0.0
  0
SPLINE
  5
4F
100
AcDbEntity
  8
Ebene 1
 62
     7
100
AcDbSpline
210
0.0
220
0.0
230
1.0
 70
     1
 71
     3
 72
    16
 73
    12
 74
     0
 42
0.0000000001
 43
0.0000000001
 40
0.0
 40
0.0
 40
0.0
 40
0.0
 40
0.3333333333333333
 40
0.3333333333333333
 40
0.3333333333333333
 40
0.3333333333333333
 40
0.6666666666666666
 40
0.6666666666666666
 40
0.6666666666666666
 40
0.6666666666666666
 40
1.0
 40
1.0
 40
1.0
 40
1.0
 10
-0.10653
 20
-2.7793200000000002
 30
0.0
 10
-0.10653
 20
-2.7793200000000002
 30
0.0
 10
-0.00493
 20
-2.7793200000000002
 30
0.0
 10
-0.00493
 20
-2.7793200000000002
 30
0.0
 10
-0.00493
 20
-2.7793200000000002
 30
0.0
 10
0.00522
 20
-2.9368000000000003
 30
0.0
 10
-0.04811
 20
-3.11206
 30
0.0
 10
-0.12431
 20
-3.2365200000000001
 30
0.0
 10
-0.12431
 20
-3.2365200000000001
 30
0.0
 10
-0.20051
 20
-3.0942800000000004
 30
0.0
 10
-0.16749
 20
-2.9190200000000002
 30
0.0
 10
-0.10653
 20
-2.7793200000000002
 30
0.0
  0
SPLINE
  5
50
100
AcDbEntity
  8
Ebene 1
 62
     7
100
AcDbSpline
210
0.0
220
0.0
230
1.0
 70
     1
 71
     3
 72
    16
 73
    12
 74
     0
 42
0.0000000001
 43
0.0000000001
 40
0.0
 40
0.0
 40
0.0
 40
0.0
 40
0.3333333333333333
 40
0.3333333333333333
 40
0.3333333333333333
 40
0.3333333333333333
 40
0.6666666666666666
 40
0.6666666666666666
 40
0.6666666666666666
 40
0.6666666666666666
 40
1.0
 40
1.0
 40
1.0
 40
1.0
 10
-4.2975300000000001
 20
-2.8834600000000004
 30
0.0
 10
-4.2848300000000004
 20
-2.8834600000000004
 30
0.0
 10
-4.25943
 20
-2.8834600000000004
 30
0.0
 10
-4.2619700000000007
 20
-2.90124
 30
0.0
 10
-4.2619700000000007
 20
-2.90124
 30
0.0
 10
-4.3432500000000003
 20
-3.0765000000000002
 30
0.0
 10
-4.1146500000000001
 20
-3.1831800000000001
 30
0.0
 10
-4.2137100000000007
 20
-3.3228800000000001
 30
0.0
 10
-4.2137100000000007
 20
-3.3228800000000001
 30
0.0
 10
-4.4016700000000002
 20
-3.3051000000000004
 30
0.0
 10
-4.31785
 20
-3.0079200000000004
 30
0.0
 10
-4.2975300000000001
 20
-2.8834600000000004
 30
0.0
  0
SPLINE
  5
51
100
AcDbEntity
  8
Ebene 1
 62
     7
100
AcDbSpline
210
0.0
220
0.0
230
1.0
 70
     1
 71
     3
 72
    16
 73
    12
 74
     0
 42
0.0000000001
 43
0.0000000001
 40
0.0
 40
0.0
 40
0.0
 40
0.0
 40
0.3333333333333333
 40
0.3333333333333333
 40
0.3333333333333333
 40
0.3333333333333333
 40
0.6666666666666666
 40
0.6666666666666666
 40
0.6666666666666666
 40
0.6666666666666666
 40
1.0
 40
1.0
 40
1.0
 40
1.0
 10
0.1881
 20
-3.0765000000000002
 30
0.0
 10
0.1881
 20
-3.0765000000000002
 30
0.0
 10
0.2389
 20
-3.0765000000000002
 30
0.0
 10
0.2389
 20
-3.0765000000000002
 30
0.0
 10
0.2389
 20
-3.0765000000000002
 30
0.0
 10
0.2389
 20
-3.2187400000000004
 30
0.0
 10
0.31256
 20
-3.4092400000000005
 30
0.0
 10
0.11952
 20
-3.4270200000000002
 30
0.0
 10
0.11952
 20
-3.4270200000000002
 30
0.0
 10
0.01284
 20
-3.3228800000000001
 30
0.0
 10
0.11444
 20
-3.1831800000000001
 30
0.0
 10
0.1881
 20
-3.0765000000000002
 30
0.0
  0
SPLINE
  5
52
100
AcDbEntity
  8
Ebene 1
 62
     7
100
AcDbSpline
210
0.0
220
0.0
230
1.0
 70
     1
 71
     3
 72
    16
 73
    12
 74
     0
 42
0.0000000001
 43
0.0000000001
 40
0.0
 40
0.0
 40
0.0
 40
0.0
 40
0.3333333333333333
 40
0.3333333333333333
 40
0.3333333333333333
 40
0.3333333333333333
 40
0.6666666666666666
 40
0.6666666666666666
 40
0.6666666666666666
 40
0.6666666666666666
 40
1.0
 40
1.0
 40
1.0
 40
1.0
 10
2.5909400000000002
 20
-3.0942800000000004
 30
0.0
 10
2.5909400000000002
 20
-3.0942800000000004
 30
0.0
 10
2.6239600000000003
 20
-3.0942800000000004
 30
0.0
 10
2.6239600000000003
 20
-3.0942800000000004
 30
0.0
 10
2.6239600000000003
 20
-3.0942800000000004
 30
0.0
 10
2.6341200000000002
 20
-3.2187400000000004
 30
0.0
 10
2.6874600000000002
 20
-3.4448000000000003
 30
0.0
 10
2.54522
 20
-3.4803600000000001
 30
0.0
 10
2.54522
 20
-3.4803600000000001
 30
0.0
 10
2.54522
 20
-3.4803600000000001
 30
0.0
 10
2.5909400000000002
 20
-3.0942800000000004
 30
0.0
 10
2.5909400000000002
 20
-3.0942800000000004
 30
0.0
  0
SPLINE
  5
53
100
AcDbEntity
  8
Ebene 1
 62
     7
100
AcDbSpline
210
0.0
220
0.0
230
1.0
 70
     1
 71
     3
 72
    16
 73
    12
 74
     0
 42
0.0000000001
 43
0.0000000001
 40
0.0
 40
0.0
 40
0.0
 40
0.0
 40
0.3333333333333333
 40
0.3333333333333333
 40
0.3333333333333333
 40
0.3333333333333333
 40
0.6666666666666666
 40
0.6666666666666666
 40
0.6666666666666666
 40
0.6666666666666666
 40
1.0
 40
1.0
 40
1.0
 40
1.0
 10
1.9940400000000003
 20
-3.1831800000000001
 30
0.0
 10
1.9940400000000003
 20
-3.1831800000000001
 30
0.0
 10
2.1489800000000003
 20
-3.2365200000000001
 30
0.0
 10
2.1489800000000003
 20
-3.2365200000000001
 30
0.0
 10
2.1489800000000003
 20
-3.2365200000000001
 30
0.0
 10
2.1413600000000002
 20
-3.4448000000000003
 30
0.0
 10
2.1261200000000002
 20
-3.6734000000000004
 30
0.0
 10
2.0804
 20
-3.8664400000000003
 30
0.0
 10
2.0804
 20
-3.8664400000000003
 30
0.0
 10
2.0296000000000003
 20
-3.6556200000000003
 30
0.0
 10
1.9915000000000003
 20
-3.3940000000000001
 30
0.0
 10
1.9940400000000003
 20
-3.1831800000000001
 30
0.0
  0
SPLINE
  5
54
100
AcDbEntity
  8
Ebene 1
 62
     7
100
AcDbSpline
210
0.0
220
0.0
230
1.0
 70
     1
 71
     3
 72
    20
 73
    16
 74
     0
 42
0.0000000001
 43
0.0000000001
 40
0.0
 40
0.0
 40
0.0
 40
0.0
 40
0.25
 40
0.25
 40
0.25
 40
0.25
 40
0.5
 40
0.5
 40
0.5
 40
0.5
 40
0.75
 40
0.75
 40
0.75
 40
0.75
 40
1.0
 40
1.0
 40
1.0
 40
1.0
 10
0.6453000000000001
 20
-3.3228800000000001
 30
0.0
 10
0.6453000000000001
 20
-3.3228800000000001
 30
0.0
 10
0.6935600000000001
 20
-3.3228800000000001
 30
0.0
 10
0.6935600000000001
 20
-3.3228800000000001
 30
0.0
 10
0.6935600000000001
 20
-3.3228800000000001
 30
0.0
 10
0.7799200000000001
 20
-3.5159200000000004
 30
0.0
 10
0.7900800000000001
 20
-3.8308800000000005
 30
0.0
 10
0.6275200000000001
 20
-3.9528000000000003
 30
0.0
 10
0.6275200000000001
 20
-3.9528000000000003
 30
0.0
 10
0.6097400000000001
 20
-3.9528000000000003
 30
0.0
 10
0.59704
 20
-3.9375600000000004
 30
0.0
 10
0.59196
 20
-3.9197800000000003
 30
0.0
 10
0.59196
 20
-3.9197800000000003
 30
0.0
 10
0.6072000000000001
 20
-3.7267400000000004
 30
0.0
 10
0.55386
 20
-3.4981400000000002
 30
0.0
 10
0.6453000000000001
 20
-3.3228800000000001
 30
0.0
  0
SPLINE
  5
55
100
AcDbEntity
  8
Ebene 1
 62
     7
100
AcDbSpline
210
0.0
220
0.0
230
1.0
 70
     1
 71
     3
 72
    12
 73
     8
 74
     0
 42
0.0000000001
 43
0.0000000001
 40
0.0
 40
0.0
 40
0.0
 40
0.0
 40
0.5
 40
0.5
 40
0.5
 40
0.5
 40
1.0
 40
1.0
 40
1.0
 40
1.0
 10
0.38368
 20
-3.4803600000000001
 30
0.0
 10
0.4192400000000001
 20
-3.4981400000000002
 30
0.0
 10
0.45988
 20
-3.5667200000000001
 30
0.0
 10
0.41416
 20
-3.6022800000000004
 30
0.0
 10
0.41416
 20
-3.6022800000000004
 30
0.0
 10
0.34812
 20
-3.5845000000000002
 30
0.0
 10
0.3887600000000001
 20
-3.5337000000000005
 30
0.0
 10
0.38368
 20
-3.4803600000000001
 30
0.0
  0
SPLINE
  5
56
100
AcDbEntity
  8
Ebene 1
 62
     7
100
AcDbSpline
210
0.0
220
0.0
230
1.0
 70
     1
 71
     3
 72
    12
 73
     8
 74
     0
 42
0.0000000001
 43
0.0000000001
 40
0.0
 40
0.0
 40
0.0
 40
0.0
 40
0.5
 40
0.5
 40
0.5
 40
0.5
 40
1.0
 40
1.0
 40
1.0
 40
1.0
 10
0.9247000000000001
 20
-3.5667200000000001
 30
0.0
 10
1.14822
 20
-3.6556200000000003
 30
0.0
 10
1.05932
 20
-3.9705800000000004
 30
0.0
 10
1.0466200000000001
 20
-4.1661600000000005
 30
0.0
 10
1.0466200000000001
 20
-4.1661600000000005
 30
0.0
 10
0.7570600000000001
 20
-4.1483800000000004
 30
0.0
 10
0.8612000000000001
 20
-3.7419800000000003
 30
0.0
 10
0.9247000000000001
 20
-3.5667200000000001
 30
0.0
  0
SPLINE
  5
57
100
AcDbEntity
  8
Ebene 1
 62
     7
100
AcDbSpline
210
0.0
220
0.0
230
1.0
 70
     1
 71
     3
 72
    16
 73
    12
 74
     0
 42
0.0000000001
 43
0.0000000001
 40
0.0
 40
0.0
 40
0.0
 40
0.0
 40
0.3333333333333333
 40
0.3333333333333333
 40
0.3333333333333333
 40
0.3333333333333333
 40
0.6666666666666666
 40
0.6666666666666666
 40
0.6666666666666666
 40
0.6666666666666666
 40
1.0
 40
1.0
 40
1.0
 40
1.0
 10
1.3641200000000002
 20
-3.7775400000000001
 30
0.0
 10
1.3641200000000002
 20
-3.7775400000000001
 30
0.0
 10
1.3946000000000001
 20
-3.8131000000000004
 30
0.0
 10
1.3946000000000001
 20
-3.8131000000000004
 30
0.0
 10
1.3946000000000001
 20
-3.8131000000000004
 30
0.0
 10
1.36158
 20
-3.9375600000000004
 30
0.0
 10
1.5724
 20
-4.1306000000000003
 30
0.0
 10
1.3463400000000001
 20
-4.1483800000000004
 30
0.0
 10
1.3463400000000001
 20
-4.1483800000000004
 30
0.0
 10
1.1990200000000002
 20
-4.09504
 30
0.0
 10
1.2803000000000002
 20
-3.8664400000000003
 30
0.0
 10
1.3641200000000002
 20
-3.7775400000000001
 30
0.0
  0
ENDSEC
  0
SECTION
  2
OBJECTS
  0
DICTIONARY
  5
19
100
AcDbDictionary
280
     0
281
     1
  3
ACAD_GROUP
350
1A
  3
ACAD_MLINESTYLE
350
1B
  3
ACAD_LAYOUT
350
1E
  3
ACAD_PLOTSETTINGS
350
22
  3
ACAD_PLOTSTYLENAME
350
1F
  3
ACAD_WIPEOUT_VARS
350
23
  0
DICTIONARY
  5
1A
102
{ACAD_REACTORS
330
19
102
}
100
AcDbDictionary
280
     0
281
     1
  0
DICTIONARY
  5
1B
102
{ACAD_REACTORS
330
19
102
}
100
AcDbDictionary
280
     0
281
     1
  3
Standard
350
1C
  0
MLINESTYLE
  5
1C
102
{ACAD_REACTORS
330
1B
102
}
100
AcDbMlineStyle
  2
Standard
 70
     0
  3

 62
     0
 51
90.0
 52
90.0
 71
     2
 49
0.5
 62
   256
  6
BYLAYER
 49
-0.5
 62
   256
  6
BYLAYER
  0
ACDBDICTIONARYWDFLT
  5
1F
102
{ACAD_REACTORS
330
19
102
}
100
AcDbDictionary
281
     1
  3
Normal
350
1D
100
AcDbDictionaryWithDefault
340
1D
  0
ACDBPLACEHOLDER
  5
1D
102
{ACAD_REACTORS
330
1F
102
}
  0
LAYOUT
  5
20
102
{ACAD_REACTORS
330
1E
102
}
100
AcDbPlotSettings
  1

  2

  4

  6

 40
0.0
 41
0.0
 42
0.0
 43
0.0
 44
0.0
 45
0.0
 46
0.0
 47
0.0
 48
0.0
 49
0.0
140
0.0
141
0.0
142
1.0
143
1.0
 70
  1024
 72
     0
 73
     0
 74
     0
  7

 75
     0
147
1.0
148
0.0
149
0.0
100
AcDbLayout
  1
Model
 70
     0
 71
     0
 10
0.0
 20
0.0
 11
0.0
 21
0.0
 12
0.0
 22
0.0
 32
0.0
 14
0.0
 24
0.0
 34
0.0
 15
0.0
 25
0.0
 35
0.0
146
0.0
 13
0.0
 23
0.0
 33
0.0
 16
0.0
 26
0.0
 36
0.0
 17
0.0
 27
0.0
 37
0.0
 76
     0
330
A
331
0
345
0
346
0
  0
LAYOUT
  5
21
102
{ACAD_REACTORS
330
1E
102
}
100
AcDbPlotSettings
  1

  2

  4

  6

 40
0.0
 41
0.0
 42
0.0
 43
0.0
 44
0.0
 45
0.0
 46
0.0
 47
0.0
 48
0.0
 49
0.0
140
0.0
141
0.0
142
1.0
143
1.0
 70
     0
 72
     0
 73
     0
 74
     0
  7

 75
     0
147
1.0
148
0.0
149
0.0
100
AcDbLayout
  1
Layout1
 70
     0
 71
     0
 10
0.0
 20
0.0
 11
0.0
 21
0.0
 12
0.0
 22
0.0
 32
0.0
 14
0.0
 24
0.0
 34
0.0
 15
0.0
 25
0.0
 35
0.0
146
0.0
 13
0.0
 23
0.0
 33
0.0
 16
0.0
 26
0.0
 36
0.0
 17
0.0
 27
0.0
 37
0.0
 76
     0
330
B
331
0
345
0
346
0
  0
DICTIONARY
  5
1E
102
{ACAD_REACTORS
330
19
102
}
100
AcDbDictionary
280
     0
281
     1
  3
Layout1
350
21
  3
Model
350
20
  0
DICTIONARY
  5
22
102
{ACAD_REACTORS
330
19
102
}
100
AcDbDictionary
280
     0
281
     1
  0
WIPEOUTVARIABLES
  5
23
100
AcDbWipeoutVariables
 70
     1
  0
ENDSEC
  0
EOF
