  0
SECTION
  2
HEADER
  9
$ACADVER
  1
AC1015
  9
$ACADMAINTVER
 70
     6
  9
$DWGCODEPAGE
  3
DOS850
  9
$INSBASE
 10
0.0
 20
0.0
 30
0.0
  9
$EXTMIN
 10
-3.54243
 20
-6.84586
 30
1.000000E+20
  9
$EXTMAX
 10
3.54855
 20
6.84072
 30
-1.000000E+20
  9
$LIMMIN
 10
0.0
 20
0.0
  9
$LIMMAX
 10
0.0
 20
0.0
  9
$ORTHOMODE
 70
     0
  9
$REGENMODE
 70
     1
  9
$FILLMODE
 70
     1
  9
$QTEXTMODE
 70
     0
  9
$MIRRTEXT
 70
     1
  9
$LTSCALE
 40
1.0
  9
$ATTMODE
 70
     1
  9
$TEXTSIZE
 40
0.2
  9
$TRACEWID
 40
0.05
  9
$TEXTSTYLE
  7
Standard
  9
$CLAYER
  8
0
  9
$CELTYPE
  6
Continuous
  9
$CECOLOR
 62
   256
  9
$CELTSCALE
 40
1.0
  9
$DISPSILH
 70
     0
  9
$DIMSCALE
 40
1.0
  9
$DIMASZ
 40
0.18
  9
$DIMEXO
 40
0.0625
  9
$DIMDLI
 40
0.38
  9
$DIMRND
 40
0.0
  9
$DIMDLE
 40
0.0
  9
$DIMEXE
 40
0.18
  9
$DIMTP
 40
0.0
  9
$DIMTM
 40
0.0
  9
$DIMTXT
 40
0.18
  9
$DIMCEN
 40
0.09
  9
$DIMTSZ
 40
0.0
  9
$DIMTOL
 70
     0
  9
$DIMLIM
 70
     0
  9
$DIMTIH
 70
     1
  9
$DIMTOH
 70
     1
  9
$DIMSE1
 70
     0
  9
$DIMSE2
 70
     0
  9
$DIMTAD
 70
     0
  9
$DIMZIN
 70
     0
  9
$DIMBLK
  1

  9
$DIMASO
 70
     1
  9
$DIMSHO
 70
     1
  9
$DIMPOST
  1

  9
$DIMAPOST
  1

  9
$DIMALT
 70
     0
  9
$DIMALTD
 70
     2
  9
$DIMALTF
 40
25.4
  9
$DIMLFAC
 40
1.0
  9
$DIMTOFL
 70
     0
  9
$DIMTVP
 40
0.0
  9
$DIMTIX
 70
     0
  9
$DIMSOXD
 70
     0
  9
$DIMSAH
 70
     0
  9
$DIMBLK1
  1

  9
$DIMBLK2
  1

  9
$DIMSTYLE
  2
Standard
  9
$DIMCLRD
 70
     0
  9
$DIMCLRE
 70
     0
  9
$DIMCLRT
 70
     0
  9
$DIMTFAC
 40
1.0
  9
$DIMGAP
 40
0.09
  9
$DIMJUST
 70
     0
  9
$DIMSD1
 70
     0
  9
$DIMSD2
 70
     0
  9
$DIMTOLJ
 70
     1
  9
$DIMTZIN
 70
     0
  9
$DIMALTZ
 70
     0
  9
$DIMALTTZ
 70
     0
  9
$DIMUPT
 70
     0
  9
$DIMDEC
 70
     4
  9
$DIMTDEC
 70
     4
  9
$DIMALTU
 70
     2
  9
$DIMALTTD
 70
     2
  9
$DIMTXSTY
  7
Standard
  9
$DIMAUNIT
 70
     0
  9
$DIMADEC
 70
     0
  9
$DIMALTRND
 40
0.0
  9
$DIMAZIN
 70
     0
  9
$DIMDSEP
 70
     0
  9
$DIMATFIT
 70
     3
  9
$DIMFRAC
 70
     0
  9
$DIMLDRBLK
  1

  9
$DIMLUNIT
 70
     2
  9
$DIMLWD
 70
     0
  9
$DIMLWE
 70
     0
  9
$DIMTMOVE
 70
     0
  9
$LUNITS
 70
     2
  9
$LUPREC
 70
     4
  9
$SKETCHINC
 40
0.1
  9
$FILLETRAD
 40
0.0
  9
$AUNITS
 70
     0
  9
$AUPREC
 70
     0
  9
$MENU
  1
acad
  9
$ELEVATION
 40
0.0
  9
$PELEVATION
 40
0.0
  9
$THICKNESS
 40
0.0
  9
$LIMCHECK
 70
     0
  9
$CHAMFERA
 40
0.0
  9
$CHAMFERB
 40
0.0
  9
$CHAMFERC
 40
0.0
  9
$CHAMFERD
 40
0.0
  9
$SKPOLY
 70
     0
  9
$TDCREATE
 40
0.000000000
  9
$TDUCREATE
 40
0.000000000
  9
$TDUPDATE
 40
0.000000000
  9
$TDUUPDATE
 40
0.000000000
  9
$TDINDWG
 40
0.0000000000
  9
$TDUSRTIMER
 40
0.0000000000
  9
$USRTIMER
 70
     1
  9
$ANGBASE
 50
0.0
  9
$ANGDIR
 70
     0
  9
$PDMODE
 70
     0
  9
$PDSIZE
 40
0.0
  9
$PLINEWID
 40
0.0
  9
$SPLFRAME
 70
     0
  9
$SPLINETYPE
 70
     6
  9
$SPLINESEGS
 70
     8
  9
$HANDSEED
  5
46
  9
$SURFTAB1
 70
     6
  9
$SURFTAB2
 70
     6
  9
$SURFTYPE
 70
     6
  9
$SURFU
 70
     6
  9
$SURFV
 70
     6
  9
$UCSBASE
  2

  9
$UCSNAME
  2

  9
$UCSORG
 10
0.0
 20
0.0
 30
0.0
  9
$UCSXDIR
 10
1.0
 20
0.0
 30
0.0
  9
$UCSYDIR
 10
0.0
 20
1.0
 30
0.0
  9
$UCSORTHOREF
  2

  9
$UCSORTHOVIEW
 70
     0
  9
$UCSORGTOP
 10
0.0
 20
0.0
 30
0.0
  9
$UCSORGBOTTOM
 10
0.0
 20
0.0
 30
0.0
  9
$UCSORGLEFT
 10
0.0
 20
0.0
 30
0.0
  9
$UCSORGRIGHT
 10
0.0
 20
0.0
 30
0.0
  9
$UCSORGFRONT
 10
0.0
 20
0.0
 30
0.0
  9
$UCSORGBACK
 10
0.0
 20
0.0
 30
0.0
  9
$PUCSBASE
  2

  9
$PUCSNAME
  2

  9
$PUCSORG
 10
0.0
 20
0.0
 30
0.0
  9
$PUCSXDIR
 10
1.0
 20
0.0
 30
0.0
  9
$PUCSYDIR
 10
0.0
 20
1.0
 30
0.0
  9
$PUCSORTHOREF
  2

  9
$PUCSORTHOVIEW
 70
     0
  9
$PUCSORGTOP
 10
0.0
 20
0.0
 30
0.0
  9
$PUCSORGBOTTOM
 10
0.0
 20
0.0
 30
0.0
  9
$PUCSORGLEFT
 10
0.0
 20
0.0
 30
0.0
  9
$PUCSORGRIGHT
 10
0.0
 20
0.0
 30
0.0
  9
$PUCSORGFRONT
 10
0.0
 20
0.0
 30
0.0
  9
$PUCSORGBACK
 10
0.0
 20
0.0
 30
0.0
  9
$USERI1
 70
     0
  9
$USERI2
 70
     0
  9
$USERI3
 70
     0
  9
$USERI4
 70
     0
  9
$USERI5
 70
     0
  9
$USERR1
 40
0.0
  9
$USERR2
 40
0.0
  9
$USERR3
 40
0.0
  9
$USERR4
 40
0.0
  9
$USERR5
 40
0.0
  9
$WORLDVIEW
 70
     1
  9
$SHADEDGE
 70
     3
  9
$SHADEDIF
 70
    70
  9
$TILEMODE
 70
     1
  9
$MAXACTVP
 70
    16
  9
$PINSBASE
 10
0.0
 20
0.0
 30
0.0
  9
$PLIMCHECK
 70
     0
  9
$PEXTMIN
 10
1.000000E+20
 20
1.000000E+20
 30
1.000000E+20
  9
$PEXTMAX
 10
-1.000000E+20
 20
-1.000000E+20
 30
-1.000000E+20
  9
$PLIMMIN
 10
0.0
 20
0.0
  9
$PLIMMAX
 10
12.0
 20
9.0
  9
$UNITMODE
 70
     0
  9
$VISRETAIN
 70
     0
  9
$PLINEGEN
 70
     1
  9
$PSLTSCALE
 70
     0
  9
$TREEDEPTH
 70
  3020
  9
$CMLSTYLE
  2
Standard
  9
$CMLJUST
 70
     0
  9
$CMLSCALE
 40
1.0
  9
$PROXYGRAPHICS
 70
     0
  9
$MEASUREMENT
 70
     0
  9
$CELWEIGHT
370
     0
  9
$ENDCAPS
280
     0
  9
$JOINSTYLE
280
     0
  9
$LWDISPLAY
290
     0
  9
$INSUNITS
 70
     5
  9
$HYPERLINKBASE
  1

  9
$XEDIT
290
     1
  9
$CEPSNTYPE
380
     0
  9
$PSTYLEMODE
290
     1
  9
$FINGERPRINTGUID
  2

  9
$VERSIONGUID
  2

  9
$EXTNAMES
290
     1
  9
$PSVPSCALE
 40
0.0
  0
ENDSEC
  0
SECTION
  2
CLASSES
  0
CLASS
  1
LWPOLYLINE
  2
AcDbPolyline
  3
AutoCAD 2000
 90
    32768
280
     0
281
     1
  0
CLASS
  1
IMAGE
  2
AcDbRasterImage
  3
ISM
 90
    32895
280
     0
281
     1
  0
CLASS
  1
OLE2FRAME
  2
AcDbOle2Frame
  3
AutoCAD 2000
 90
    32768
280
     0
281
     1
  0
CLASS
  1
HATCH
  2
AcDbHatch
  3
AutoCAD 2000
 90
    32768
280
     0
281
     1
  0
CLASS
  1
DICTIONARYVAR
  2
AcDbDictionaryVar
  3
AutoCAD 2000
 90
    32768
280
     0
281
     0
  0
CLASS
  1
RASTERVARIABLES
  2
AcDbRasterVariables
  3
ISM
 90
    32768
280
     0
281
     0
  0
CLASS
  1
IMAGEDEF
  2
AcDbRasterImageDef
  3
ISM
 90
    32768
280
     0
281
     0
  0
CLASS
  1
IMAGEDEF_REACTOR
  2
AcDbRasterImageDefReactor
  3
ISM
 90
    32769
280
     0
281
     0
  0
CLASS
  1
IDBUFFER
  2
AcDbIdBuffer
  3
AutoCAD 2000
 90
    32768
280
     0
281
     0
  0
CLASS
  1
SPATIAL_FILTER
  2
AcDbSpatialFilter
  3
AutoCAD 2000
 90
    32768
280
     0
281
     0
  0
CLASS
  1
XRECORD
  2
AcDbXrecord
  3
AutoCAD 2000
 90
    32768
280
     0
281
     0
  0
CLASS
  1
SORTENTSTABLE
  2
AcDbSortentsTable
  3
AutoCAD 2000
 90
    32768
280
     0
281
     0
  0
CLASS
  1
LAYER_INDEX
  2
AcDbLayerIndex
  3
AutoCAD 2000
 90
    32768
280
     0
281
     0
  0
CLASS
  1
SPATIAL_INDEX
  2
AcDbSpatialIndex
  3
AutoCAD 2000
 90
    32768
280
     0
281
     0
  0
CLASS
  1
OBJECT_PTR
  2
CAseDLPNTableRecord
  3
"ASE-LPNTableRecord"
 90
    32769
280
     0
281
     0
  0
CLASS
  1
LAYOUT
  2
AcDbLayout
  3
AutoCAD 2000
 90
        0
280
     0
281
     0
  0
CLASS
  1
PLOTSETTINGS
  2
AcDbPlotSettings
  3
AutoCAD 2000
 90
    32768
280
     0
281
     0
  0
CLASS
  1
ACDBDICTIONARYWDFLT
  2
AcDbDictionaryWithDefault
  3
AutoCAD 2000
 90
        0
280
     0
281
     0
  0
CLASS
  1
ACDBPLACEHOLDER
  2
AcDbPlaceHolder
  3
AutoCAD 2000
 90
        0
280
     0
281
     0
  0
CLASS
  1
VBA_PROJECT
  2
AcDbVbaProject
  3
acadvba
 90
    32768
280
     0
281
     0
  0
CLASS
  1
WIPEOUT
  2
AcDbWipeout
  3
WipeOut|AutoCAD Express Tool|expresstools@autodesk.com
 90
    32895
280
     0
281
     1
  0
CLASS
  1
WIPEOUTVARIABLES
  2
AcDbWipeoutVariables
  3
WipeOut|AutoCAD Express Tool|expresstools@autodesk.com
 90
        0
280
     0
281
     0
  0
CLASS
  1
RTEXT
  2
RText
  3
RText|AutoCAD Express Tool|expresstools@autodesk.com
 90
    32768
280
     0
281
     1
  0
CLASS
  1
ARCALIGNEDTEXT
  2
AcDbArcAlignedText
  3
ATEXT|AutoCAD Express Tool|expresstools@autodesk.com
 90
    32768
280
     0
281
     1
  0
ENDSEC
  0
SECTION
  2
TABLES
  0
TABLE
  2
VPORT
  5
7
100
AcDbSymbolTable
 70
     1
  0
VPORT
  5
15
100
AcDbSymbolTableRecord
100
AcDbViewportTableRecord
  2
*ACTIVE
 70
     0
 10
0.0
 20
0.0
 11
1.0
 21
1.0
 12
6.591288
 22
4.579184
 13
0.0
 23
0.0
 14
1.0
 24
1.0
 15
0.0
 25
0.0
 16
0.0
 26
0.0
 36
1.0
 17
0.0
 27
0.0
 37
0.0
 40
9.158369
 41
0.688564
 42
50.0
 43
0.0
 44
0.0
 50
0.0
 51
0.0
 71
     0
 72
   100
 73
     1
 74
     1
 75
     0
 76
     0
 77
     0
 78
     0
281
     0
 65
     0
110
0.0
120
0.0
130
0.0
111
1.0
121
0.0
131
0.0
112
0.0
122
1.0
132
0.0
345
0
346
0
 79
     0
146
0.0
  0
ENDTAB
  0
TABLE
  2
LTYPE
  5
4
100
AcDbSymbolTable
 70
     3
  0
LTYPE
  5
11
100
AcDbSymbolTableRecord
100
AcDbLinetypeTableRecord
  2
ByBlock
 70
    64
  3

 72
    65
 73
     0
 40
0.0
  0
LTYPE
  5
12
100
AcDbSymbolTableRecord
100
AcDbLinetypeTableRecord
  2
ByLayer
 70
    64
  3

 72
    65
 73
     0
 40
0.0
  0
LTYPE
  5
13
100
AcDbSymbolTableRecord
100
AcDbLinetypeTableRecord
  2
Continuous
 70
    64
  3
Solid line
 72
    65
 73
     0
 40
0.0
  0
ENDTAB
  0
TABLE
  2
LAYER
  5
2
100
AcDbSymbolTable
 70
     2
  0
LAYER
  5
14
100
AcDbSymbolTableRecord
100
AcDbLayerTableRecord
  2
0
 70
     0
 62
     7
  6
Continuous
290
     1
370
    -3
390
1D
  0
LAYER
  5
24
100
AcDbSymbolTableRecord
100
AcDbLayerTableRecord
  2
Ebene 1
 70
     0
 62
     7
  6
Continuous
290
     1
370
    -3
390
1F
  0
ENDTAB
  0
TABLE
  2
STYLE
  5
3
100
AcDbSymbolTable
 70
     1
  0
STYLE
  5
17
100
AcDbSymbolTableRecord
100
AcDbTextStyleTableRecord
  2
Standard
 70
     0
 40
0.0
 41
1.0
 50
0.0
 71
     0
 42
0.0
  3
txt
  4

  0
ENDTAB
  0
TABLE
  2
VIEW
  5
5
100
AcDbSymbolTable
 70
     0
  0
ENDTAB
  0
TABLE
  2
UCS
  5
6
100
AcDbSymbolTable
 70
     0
  0
ENDTAB
  0
TABLE
  2
APPID
  5
8
100
AcDbSymbolTable
 70
     1
  0
APPID
  5
16
100
AcDbSymbolTableRecord
100
AcDbRegAppTableRecord
  2
ACAD
 70
     0
  0
ENDTAB
  0
TABLE
  2
DIMSTYLE
  5
9
100
AcDbSymbolTable
 70
     1
100
AcDbDimStyleTable
 71
     0
  0
DIMSTYLE
105
18
100
AcDbSymbolTableRecord
100
AcDbDimStyleTableRecord
  2
Standard
 70
     0
  3

  4

 40
1.0
 41
0.18
 42
0.0625
 43
0.38
 44
0.18
 45
0.0
 46
0.0
 47
0.0
 48
0.0
 71
     0
 72
     0
 73
     1
 74
     1
 75
     0
 76
     0
 77
     0
 78
     0
 79
     0
140
0.18
141
0.09
142
0.0
143
25.4
144
1.0
145
0.0
146
1.0
147
0.09
148
0.0
170
     0
171
     2
172
     0
173
     0
174
     0
175
     0
176
     0
177
     0
178
     0
179
     0
271
     4
272
     4
273
     2
274
     2
275
     0
276
     0
277
     2
278
    46
279
     0
280
     0
281
     0
282
     0
283
     1
284
     0
285
     0
286
     0
288
     0
340
17
341
0
342
0
343
0
344
0
371
    -2
372
    -2
  0
ENDTAB
  0
TABLE
  2
BLOCK_RECORD
  5
1
100
AcDbSymbolTable
 70
     0
  0
BLOCK_RECORD
  5
A
100
AcDbSymbolTableRecord
100
AcDbBlockTableRecord
  2
*MODEL_SPACE
340
20
  0
BLOCK_RECORD
  5
B
100
AcDbSymbolTableRecord
100
AcDbBlockTableRecord
  2
*PAPER_SPACE
340
21
  0
ENDTAB
  0
ENDSEC
  0
SECTION
  2
BLOCKS
  0
BLOCK
  5
D
100
AcDbEntity
  8
0
100
AcDbBlockBegin
  2
*MODEL_SPACE
 70
     0
 10
0.0
 20
0.0
 30
0.0
  3
*MODEL_SPACE
  1

  0
ENDBLK
  5
E
100
AcDbEntity
  8
0
100
AcDbBlockEnd
  0
BLOCK
  5
F
100
AcDbEntity
 67
     1
  8
0
100
AcDbBlockBegin
  2
*PAPER_SPACE
 70
     0
 10
0.0
 20
0.0
 30
0.0
  3
*PAPER_SPACE
  1

  0
ENDBLK
  5
10
100
AcDbEntity
 67
     1
  8
0
100
AcDbBlockEnd
  0
ENDSEC
  0
SECTION
  2
ENTITIES
  0
SPLINE
  5
25
100
AcDbEntity
  8
Ebene 1
100
AcDbSpline
210
0.0
220
0.0
230
1.0
 70
     1
 71
     3
 72
   176
 73
   172
 74
     0
 42
0.0000000001
 43
0.0000000001
 40
0.0
 40
0.0
 40
0.0
 40
0.0
 40
0.0232558139534884
 40
0.0232558139534884
 40
0.0232558139534884
 40
0.0232558139534884
 40
0.0465116279069767
 40
0.0465116279069767
 40
0.0465116279069767
 40
0.0465116279069767
 40
0.0697674418604651
 40
0.0697674418604651
 40
0.0697674418604651
 40
0.0697674418604651
 40
0.0930232558139535
 40
0.0930232558139535
 40
0.0930232558139535
 40
0.0930232558139535
 40
0.1162790697674419
 40
0.1162790697674419
 40
0.1162790697674419
 40
0.1162790697674419
 40
0.1395348837209302
 40
0.1395348837209302
 40
0.1395348837209302
 40
0.1395348837209302
 40
0.1627906976744186
 40
0.1627906976744186
 40
0.1627906976744186
 40
0.1627906976744186
 40
0.186046511627907
 40
0.186046511627907
 40
0.186046511627907
 40
0.186046511627907
 40
0.2093023255813953
 40
0.2093023255813953
 40
0.2093023255813953
 40
0.2093023255813953
 40
0.2325581395348837
 40
0.2325581395348837
 40
0.2325581395348837
 40
0.2325581395348837
 40
0.2558139534883721
 40
0.2558139534883721
 40
0.2558139534883721
 40
0.2558139534883721
 40
0.2790697674418604
 40
0.2790697674418604
 40
0.2790697674418604
 40
0.2790697674418604
 40
0.3023255813953488
 40
0.3023255813953488
 40
0.3023255813953488
 40
0.3023255813953488
 40
0.3255813953488371
 40
0.3255813953488371
 40
0.3255813953488371
 40
0.3255813953488371
 40
0.3488372093023255
 40
0.3488372093023255
 40
0.3488372093023255
 40
0.3488372093023255
 40
0.3720930232558138
 40
0.3720930232558138
 40
0.3720930232558138
 40
0.3720930232558138
 40
0.3953488372093022
 40
0.3953488372093022
 40
0.3953488372093022
 40
0.3953488372093022
 40
0.4186046511627906
 40
0.4186046511627906
 40
0.4186046511627906
 40
0.4186046511627906
 40
0.4418604651162789
 40
0.4418604651162789
 40
0.4418604651162789
 40
0.4418604651162789
 40
0.4651162790697673
 40
0.4651162790697673
 40
0.4651162790697673
 40
0.4651162790697673
 40
0.4883720930232556
 40
0.4883720930232556
 40
0.4883720930232556
 40
0.4883720930232556
 40
0.511627906976744
 40
0.511627906976744
 40
0.511627906976744
 40
0.511627906976744
 40
0.5348837209302324
 40
0.5348837209302324
 40
0.5348837209302324
 40
0.5348837209302324
 40
0.5581395348837208
 40
0.5581395348837208
 40
0.5581395348837208
 40
0.5581395348837208
 40
0.5813953488372092
 40
0.5813953488372092
 40
0.5813953488372092
 40
0.5813953488372092
 40
0.6046511627906976
 40
0.6046511627906976
 40
0.6046511627906976
 40
0.6046511627906976
 40
0.6279069767441861
 40
0.6279069767441861
 40
0.6279069767441861
 40
0.6279069767441861
 40
0.6511627906976745
 40
0.6511627906976745
 40
0.6511627906976745
 40
0.6511627906976745
 40
0.6744186046511629
 40
0.6744186046511629
 40
0.6744186046511629
 40
0.6744186046511629
 40
0.6976744186046513
 40
0.6976744186046513
 40
0.6976744186046513
 40
0.6976744186046513
 40
0.7209302325581397
 40
0.7209302325581397
 40
0.7209302325581397
 40
0.7209302325581397
 40
0.7441860465116281
 40
0.7441860465116281
 40
0.7441860465116281
 40
0.7441860465116281
 40
0.7674418604651165
 40
0.7674418604651165
 40
0.7674418604651165
 40
0.7674418604651165
 40
0.790697674418605
 40
0.790697674418605
 40
0.790697674418605
 40
0.790697674418605
 40
0.8139534883720934
 40
0.8139534883720934
 40
0.8139534883720934
 40
0.8139534883720934
 40
0.8372093023255818
 40
0.8372093023255818
 40
0.8372093023255818
 40
0.8372093023255818
 40
0.8604651162790702
 40
0.8604651162790702
 40
0.8604651162790702
 40
0.8604651162790702
 40
0.8837209302325586
 40
0.8837209302325586
 40
0.8837209302325586
 40
0.8837209302325586
 40
0.906976744186047
 40
0.906976744186047
 40
0.906976744186047
 40
0.906976744186047
 40
0.9302325581395354
 40
0.9302325581395354
 40
0.9302325581395354
 40
0.9302325581395354
 40
0.9534883720930238
 40
0.9534883720930238
 40
0.9534883720930238
 40
0.9534883720930238
 40
0.9767441860465123
 40
0.9767441860465123
 40
0.9767441860465123
 40
0.9767441860465123
 40
1.0
 40
1.0
 40
1.0
 40
1.0
 10
0.9399400000000001
 20
-1.0165600000000001
 30
0.0
 10
0.8180200000000001
 20
-1.2299200000000001
 30
0.0
 10
0.6326000000000001
 20
-1.16134
 30
0.0
 10
0.8205600000000001
 20
-0.8768600000000001
 30
0.0
 10
0.8205600000000001
 20
-0.8768600000000001
 30
0.0
 10
0.5843400000000001
 20
-1.0216400000000001
 30
0.0
 10
0.63514
 20
-0.8286000000000001
 30
0.0
 10
0.7265800000000001
 20
-0.6711200000000001
 30
0.0
 10
0.7265800000000001
 20
-0.6711200000000001
 30
0.0
 10
0.3786000000000001
 20
-0.84638
 30
0.0
 10
0.57926
 20
-0.6228600000000001
 30
0.0
 10
0.61482
 20
-0.3841000000000001
 30
0.0
 10
0.61482
 20
-0.3841000000000001
 30
0.0
 10
0.27192
 20
-0.39934
 30
0.0
 10
0.29224
 20
0.20263
 30
0.0
 10
-0.07605
 20
-0.14534
 30
0.0
 10
-0.07605
 20
-0.14534
 30
0.0
 10
-0.17511
 20
-0.2571
 30
0.0
 10
-0.4494300000000001
 20
-0.2571
 30
0.0
 10
-0.35037
 20
-0.4476000000000001
 30
0.0
 10
-0.35037
 20
-0.4476000000000001
 30
0.0
 10
0.16524
 20
-1.3874000000000002
 30
0.0
 10
0.9602600000000001
 20
-2.6116800000000002
 30
0.0
 10
0.17794
 20
-3.6149800000000001
 30
0.0
 10
0.17794
 20
-3.6149800000000001
 30
0.0
 10
0.15508
 20
-3.4397200000000003
 30
0.0
 10
0.25668
 20
-3.2822400000000003
 30
0.0
 10
0.20334
 20
-3.1222200000000004
 30
0.0
 10
0.20334
 20
-3.1222200000000004
 30
0.0
 10
0.23128
 20
-2.9164800000000004
 30
0.0
 10
0.07634
 20
-2.5024600000000001
 30
0.0
 10
0.01284
 20
-2.8987000000000003
 30
0.0
 10
0.01284
 20
-2.8987000000000003
 30
0.0
 10
-0.00747
 20
-3.4244800000000004
 30
0.0
 10
0.19826
 20
-3.9807400000000004
 30
0.0
 10
0.00014
 20
-4.4582600000000001
 30
0.0
 10
0.00014
 20
-4.4582600000000001
 30
0.0
 10
-0.02271
 20
-4.1890200000000002
 30
0.0
 10
-0.10653
 20
-3.9020000000000001
 30
0.0
 10
-0.24877
 20
-3.6632400000000005
 30
0.0
 10
-0.24877
 20
-3.6632400000000005
 30
0.0
 10
-0.28179
 20
-4.2372800000000002
 30
0.0
 10
0.01284
 20
-4.7148000000000003
 30
0.0
 10
0.08904
 20
-5.2405800000000005
 30
0.0
 10
0.08904
 20
-5.2405800000000005
 30
0.0
 10
0.12968
 20
-5.7968400000000004
 30
0.0
 10
0.00522
 20
-6.4318400000000002
 30
0.0
 10
-0.36307
 20
-6.8458600000000009
 30
0.0
 10
-0.36307
 20
-6.8458600000000009
 30
0.0
 10
-0.13955
 20
-6.1930800000000001
 30
0.0
 10
-0.10145
 20
-5.3345600000000006
 30
0.0
 10
-0.59167
 20
-4.7605200000000005
 30
0.0
 10
-0.59167
 20
-4.7605200000000005
 30
0.0
 10
-0.67803
 20
-4.6335200000000007
 30
0.0
 10
-0.76185
 20
-4.5065200000000001
 30
0.0
 10
-0.7999500000000001
 20
-4.3490400000000005
 30
0.0
 10
-0.7999500000000001
 20
-4.3490400000000005
 30
0.0
 10
-0.8939300000000001
 20
-4.2042600000000006
 30
0.0
 10
-0.8583700000000001
 20
-4.60304
 30
0.0
 10
-0.8634500000000001
 20
-4.6970200000000002
 30
0.0
 10
-0.8634500000000001
 20
-4.6970200000000002
 30
0.0
 10
-1.4298700000000002
 20
-4.26776
 30
0.0
 10
-0.74407
 20
-3.4575000000000005
 30
0.0
 10
-1.2596900000000002
 20
-2.9952200000000002
 30
0.0
 10
-1.2596900000000002
 20
-2.9952200000000002
 30
0.0
 10
-1.2596900000000002
 20
-2.9952200000000002
 30
0.0
 10
-1.7854700000000001
 20
-2.5024600000000001
 30
0.0
 10
-1.7854700000000001
 20
-2.5024600000000001
 30
0.0
 10
-1.7854700000000001
 20
-2.5024600000000001
 30
0.0
 10
-2.0623300000000002
 20
-3.2187400000000004
 30
0.0
 10
-3.2358100000000003
 20
-2.6294600000000004
 30
0.0
 10
-2.7227300000000003
 20
-2.0071600000000003
 30
0.0
 10
-2.7227300000000003
 20
-2.0071600000000003
 30
0.0
 10
-2.6998700000000002
 20
-2.1189200000000001
 30
0.0
 10
-2.6312900000000004
 20
-2.43642
 30
0.0
 10
-2.4077700000000002
 20
-2.3576800000000002
 30
0.0
 10
-2.4077700000000002
 20
-2.3576800000000002
 30
0.0
 10
-2.1969500000000002
 20
-2.1671800000000001
 30
0.0
 10
-2.3671300000000004
 20
-1.8801600000000001
 30
0.0
 10
-2.5017500000000004
 20
-1.7049000000000001
 30
0.0
 10
-2.5017500000000004
 20
-1.7049000000000001
 30
0.0
 10
-2.7532100000000002
 20
-1.49916
 30
0.0
 10
-3.0072100000000002
 20
-1.29088
 30
0.0
 10
-3.1951700000000001
 20
-1.03688
 30
0.0
 10
-3.1951700000000001
 20
-1.03688
 30
0.0
 10
-4.0562300000000002
 20
1.5539100000000001
 30
0.0
 10
-3.2612100000000002
 20
4.3707700000000003
 30
0.0
 10
-1.4273300000000002
 20
6.3621300000000005
 30
0.0
 10
-1.4273300000000002
 20
6.3621300000000005
 30
0.0
 10
-0.38847
 20
6.8879100000000006
 30
0.0
 10
0.8739000000000001
 20
7.0784100000000008
 30
0.0
 10
1.8721200000000002
 20
6.4256300000000008
 30
0.0
 10
1.8721200000000002
 20
6.4256300000000008
 30
0.0
 10
2.7738200000000002
 20
5.2318300000000004
 30
0.0
 10
3.5840800000000002
 20
3.8627700000000003
 30
0.0
 10
3.5307400000000002
 20
2.3184500000000003
 30
0.0
 10
3.5307400000000002
 20
2.3184500000000003
 30
0.0
 10
3.6323400000000001
 20
1.0763900000000002
 30
0.0
 10
3.2615000000000003
 20
-0.0031
 30
0.0
 10
3.3707200000000004
 20
-1.2273800000000001
 30
0.0
 10
3.3707200000000004
 20
-1.2273800000000001
 30
0.0
 10
3.3707200000000004
 20
-1.2273800000000001
 30
0.0
 10
3.3300800000000002
 20
-1.3086600000000002
 30
0.0
 10
3.3300800000000002
 20
-1.3086600000000002
 30
0.0
 10
3.3300800000000002
 20
-1.3086600000000002
 30
0.0
 10
3.1243400000000001
 20
-0.6863600000000001
 30
0.0
 10
3.2767400000000002
 20
-1.7049000000000001
 30
0.0
 10
3.0684600000000004
 20
-1.9131800000000001
 30
0.0
 10
3.0684600000000004
 20
-1.9131800000000001
 30
0.0
 10
2.97194
 20
-1.8496800000000002
 30
0.0
 10
2.9973400000000003
 20
-1.7201400000000002
 30
0.0
 10
2.9694000000000003
 20
-1.6109200000000001
 30
0.0
 10
2.9694000000000003
 20
-1.6109200000000001
 30
0.0
 10
2.9694000000000003
 20
-1.6109200000000001
 30
0.0
 10
2.9541600000000003
 20
-1.5144000000000002
 30
0.0
 10
2.9541600000000003
 20
-1.5144000000000002
 30
0.0
 10
2.9541600000000003
 20
-1.5144000000000002
 30
0.0
 10
2.8957400000000004
 20
-1.6896600000000002
 30
0.0
 10
2.88558
 20
-2.0884400000000003
 30
0.0
 10
2.7357200000000002
 20
-2.27894
 30
0.0
 10
2.7357200000000002
 20
-2.27894
 30
0.0
 10
2.6087200000000004
 20
-2.0884400000000003
 30
0.0
 10
2.6925400000000002
 20
-1.7201400000000002
 30
0.0
 10
2.5655400000000004
 20
-1.5779000000000001
 30
0.0
 10
2.5655400000000004
 20
-1.5779000000000001
 30
0.0
 10
2.5274400000000004
 20
-1.8649200000000001
 30
0.0
 10
2.46394
 20
-2.1519400000000002
 30
0.0
 10
2.3648800000000003
 20
-2.4211800000000001
 30
0.0
 10
2.3648800000000003
 20
-2.4211800000000001
 30
0.0
 10
2.2124800000000002
 20
-2.2941800000000003
 30
0.0
 10
2.2836000000000003
 20
-1.9919200000000001
 30
0.0
 10
2.2074000000000003
 20
-1.8014200000000002
 30
0.0
 10
2.2074000000000003
 20
-1.8014200000000002
 30
0.0
 10
2.2074000000000003
 20
-1.8014200000000002
 30
0.0
 10
1.9076800000000003
 20
-2.3907000000000003
 30
0.0
 10
1.9076800000000003
 20
-2.3907000000000003
 30
0.0
 10
1.9076800000000003
 20
-2.3907000000000003
 30
0.0
 10
1.8441800000000002
 20
-2.3094200000000003
 30
0.0
 10
1.8492600000000001
 20
-2.18242
 30
0.0
 10
1.8594200000000001
 20
-2.0732000000000004
 30
0.0
 10
1.8594200000000001
 20
-2.0732000000000004
 30
0.0
 10
1.8594200000000001
 20
-2.0732000000000004
 30
0.0
 10
1.8594200000000001
 20
-1.9131800000000001
 30
0.0
 10
1.8594200000000001
 20
-1.9131800000000001
 30
0.0
 10
1.8594200000000001
 20
-1.9131800000000001
 30
0.0
 10
1.8746600000000002
 20
-1.5144000000000002
 30
0.0
 10
1.6333600000000001
 20
-2.3754600000000003
 30
0.0
 10
1.5571600000000001
 20
-2.1036800000000002
 30
0.0
 10
1.5571600000000001
 20
-2.1036800000000002
 30
0.0
 10
1.5571600000000001
 20
-2.1036800000000002
 30
0.0
 10
1.5571600000000001
 20
-1.9589000000000001
 30
0.0
 10
1.5571600000000001
 20
-1.9589000000000001
 30
0.0
 10
1.5571600000000001
 20
-1.9589000000000001
 30
0.0
 10
1.7248000000000001
 20
-1.4026400000000001
 30
0.0
 10
1.4530200000000002
 20
-1.8166600000000002
 30
0.0
 10
1.2599800000000001
 20
-2.0401800000000003
 30
0.0
 10
1.2599800000000001
 20
-2.0401800000000003
 30
0.0
 10
1.2472800000000002
 20
-1.8496800000000002
 30
0.0
 10
1.2980800000000001
 20
-1.62616
 30
0.0
 10
1.3463400000000001
 20
-1.4356600000000002
 30
0.0
 10
1.3463400000000001
 20
-1.4356600000000002
 30
0.0
 10
1.02884
 20
-1.7379200000000001
 30
0.0
 10
0.8739000000000001
 20
-1.6109200000000001
 30
0.0
 10
1.1279000000000001
 20
-1.2426200000000001
 30
0.0
 10
1.1279000000000001
 20
-1.2426200000000001
 30
0.0
 10
1.02376
 20
-1.2705600000000001
 30
0.0
 10
0.91454
 20
-1.2756400000000001
 30
0.0
 10
0.9678800000000001
 20
-1.1054600000000001
 30
0.0
 10
0.9678800000000001
 20
-1.1054600000000001
 30
0.0
 10
1.0085200000000001
 20
-0.97084
 30
0.0
 10
1.0466200000000001
 20
-0.8311400000000001
 30
0.0
 10
0.9399400000000001
 20
-1.0165600000000001
 30
0.0
  0
SPLINE
  5
26
100
AcDbEntity
  8
Ebene 1
 62
     7
100
AcDbSpline
210
0.0
220
0.0
230
1.0
 70
     1
 71
     3
 72
   304
 73
   300
 74
     0
 42
0.0000000001
 43
0.0000000001
 40
0.0
 40
0.0
 40
0.0
 40
0.0
 40
0.0133333333333333
 40
0.0133333333333333
 40
0.0133333333333333
 40
0.0133333333333333
 40
0.0266666666666667
 40
0.0266666666666667
 40
0.0266666666666667
 40
0.0266666666666667
 40
0.04
 40
0.04
 40
0.04
 40
0.04
 40
0.0533333333333333
 40
0.0533333333333333
 40
0.0533333333333333
 40
0.0533333333333333
 40
0.0666666666666667
 40
0.0666666666666667
 40
0.0666666666666667
 40
0.0666666666666667
 40
0.08
 40
0.08
 40
0.08
 40
0.08
 40
0.0933333333333333
 40
0.0933333333333333
 40
0.0933333333333333
 40
0.0933333333333333
 40
0.1066666666666667
 40
0.1066666666666667
 40
0.1066666666666667
 40
0.1066666666666667
 40
0.12
 40
0.12
 40
0.12
 40
0.12
 40
0.1333333333333333
 40
0.1333333333333333
 40
0.1333333333333333
 40
0.1333333333333333
 40
0.1466666666666667
 40
0.1466666666666667
 40
0.1466666666666667
 40
0.1466666666666667
 40
0.16
 40
0.16
 40
0.16
 40
0.16
 40
0.1733333333333333
 40
0.1733333333333333
 40
0.1733333333333333
 40
0.1733333333333333
 40
0.1866666666666667
 40
0.1866666666666667
 40
0.1866666666666667
 40
0.1866666666666667
 40
0.2
 40
0.2
 40
0.2
 40
0.2
 40
0.2133333333333334
 40
0.2133333333333334
 40
0.2133333333333334
 40
0.2133333333333334
 40
0.2266666666666667
 40
0.2266666666666667
 40
0.2266666666666667
 40
0.2266666666666667
 40
0.24
 40
0.24
 40
0.24
 40
0.24
 40
0.2533333333333334
 40
0.2533333333333334
 40
0.2533333333333334
 40
0.2533333333333334
 40
0.2666666666666667
 40
0.2666666666666667
 40
0.2666666666666667
 40
0.2666666666666667
 40
0.28
 40
0.28
 40
0.28
 40
0.28
 40
0.2933333333333333
 40
0.2933333333333333
 40
0.2933333333333333
 40
0.2933333333333333
 40
0.3066666666666666
 40
0.3066666666666666
 40
0.3066666666666666
 40
0.3066666666666666
 40
0.3199999999999999
 40
0.3199999999999999
 40
0.3199999999999999
 40
0.3199999999999999
 40
0.3333333333333332
 40
0.3333333333333332
 40
0.3333333333333332
 40
0.3333333333333332
 40
0.3466666666666665
 40
0.3466666666666665
 40
0.3466666666666665
 40
0.3466666666666665
 40
0.3599999999999998
 40
0.3599999999999998
 40
0.3599999999999998
 40
0.3599999999999998
 40
0.3733333333333331
 40
0.3733333333333331
 40
0.3733333333333331
 40
0.3733333333333331
 40
0.3866666666666664
 40
0.3866666666666664
 40
0.3866666666666664
 40
0.3866666666666664
 40
0.3999999999999997
 40
0.3999999999999997
 40
0.3999999999999997
 40
0.3999999999999997
 40
0.4133333333333331
 40
0.4133333333333331
 40
0.4133333333333331
 40
0.4133333333333331
 40
0.4266666666666664
 40
0.4266666666666664
 40
0.4266666666666664
 40
0.4266666666666664
 40
0.4399999999999997
 40
0.4399999999999997
 40
0.4399999999999997
 40
0.4399999999999997
 40
0.453333333333333
 40
0.453333333333333
 40
0.453333333333333
 40
0.453333333333333
 40
0.4666666666666663
 40
0.4666666666666663
 40
0.4666666666666663
 40
0.4666666666666663
 40
0.4799999999999996
 40
0.4799999999999996
 40
0.4799999999999996
 40
0.4799999999999996
 40
0.4933333333333329
 40
0.4933333333333329
 40
0.4933333333333329
 40
0.4933333333333329
 40
0.5066666666666663
 40
0.5066666666666663
 40
0.5066666666666663
 40
0.5066666666666663
 40
0.5199999999999996
 40
0.5199999999999996
 40
0.5199999999999996
 40
0.5199999999999996
 40
0.5333333333333329
 40
0.5333333333333329
 40
0.5333333333333329
 40
0.5333333333333329
 40
0.5466666666666662
 40
0.5466666666666662
 40
0.5466666666666662
 40
0.5466666666666662
 40
0.5599999999999995
 40
0.5599999999999995
 40
0.5599999999999995
 40
0.5599999999999995
 40
0.5733333333333328
 40
0.5733333333333328
 40
0.5733333333333328
 40
0.5733333333333328
 40
0.5866666666666661
 40
0.5866666666666661
 40
0.5866666666666661
 40
0.5866666666666661
 40
0.5999999999999994
 40
0.5999999999999994
 40
0.5999999999999994
 40
0.5999999999999994
 40
0.6133333333333327
 40
0.6133333333333327
 40
0.6133333333333327
 40
0.6133333333333327
 40
0.626666666666666
 40
0.626666666666666
 40
0.626666666666666
 40
0.626666666666666
 40
0.6399999999999994
 40
0.6399999999999994
 40
0.6399999999999994
 40
0.6399999999999994
 40
0.6533333333333327
 40
0.6533333333333327
 40
0.6533333333333327
 40
0.6533333333333327
 40
0.666666666666666
 40
0.666666666666666
 40
0.666666666666666
 40
0.666666666666666
 40
0.6799999999999993
 40
0.6799999999999993
 40
0.6799999999999993
 40
0.6799999999999993
 40
0.6933333333333326
 40
0.6933333333333326
 40
0.6933333333333326
 40
0.6933333333333326
 40
0.7066666666666659
 40
0.7066666666666659
 40
0.7066666666666659
 40
0.7066666666666659
 40
0.7199999999999992
 40
0.7199999999999992
 40
0.7199999999999992
 40
0.7199999999999992
 40
0.7333333333333325
 40
0.7333333333333325
 40
0.7333333333333325
 40
0.7333333333333325
 40
0.7466666666666658
 40
0.7466666666666658
 40
0.7466666666666658
 40
0.7466666666666658
 40
0.7599999999999991
 40
0.7599999999999991
 40
0.7599999999999991
 40
0.7599999999999991
 40
0.7733333333333324
 40
0.7733333333333324
 40
0.7733333333333324
 40
0.7733333333333324
 40
0.7866666666666657
 40
0.7866666666666657
 40
0.7866666666666657
 40
0.7866666666666657
 40
0.7999999999999991
 40
0.7999999999999991
 40
0.7999999999999991
 40
0.7999999999999991
 40
0.8133333333333324
 40
0.8133333333333324
 40
0.8133333333333324
 40
0.8133333333333324
 40
0.8266666666666657
 40
0.8266666666666657
 40
0.8266666666666657
 40
0.8266666666666657
 40
0.839999999999999
 40
0.839999999999999
 40
0.839999999999999
 40
0.839999999999999
 40
0.8533333333333323
 40
0.8533333333333323
 40
0.8533333333333323
 40
0.8533333333333323
 40
0.8666666666666656
 40
0.8666666666666656
 40
0.8666666666666656
 40
0.8666666666666656
 40
0.8799999999999989
 40
0.8799999999999989
 40
0.8799999999999989
 40
0.8799999999999989
 40
0.8933333333333322
 40
0.8933333333333322
 40
0.8933333333333322
 40
0.8933333333333322
 40
0.9066666666666655
 40
0.9066666666666655
 40
0.9066666666666655
 40
0.9066666666666655
 40
0.9199999999999988
 40
0.9199999999999988
 40
0.9199999999999988
 40
0.9199999999999988
 40
0.9333333333333321
 40
0.9333333333333321
 40
0.9333333333333321
 40
0.9333333333333321
 40
0.9466666666666654
 40
0.9466666666666654
 40
0.9466666666666654
 40
0.9466666666666654
 40
0.9599999999999987
 40
0.9599999999999987
 40
0.9599999999999987
 40
0.9599999999999987
 40
0.9733333333333321
 40
0.9733333333333321
 40
0.9733333333333321
 40
0.9733333333333321
 40
0.9866666666666654
 40
0.9866666666666654
 40
0.9866666666666654
 40
0.9866666666666654
 40
1.0
 40
1.0
 40
1.0
 40
1.0
 10
0.23636
 20
6.7913900000000007
 30
0.0
 10
1.1253600000000001
 20
6.7278900000000004
 30
0.0
 10
1.3666600000000002
 20
5.6153700000000004
 30
0.0
 10
1.7603600000000001
 20
5.0413300000000003
 30
0.0
 10
1.7603600000000001
 20
5.0413300000000003
 30
0.0
 10
1.65368
 20
5.6153700000000004
 30
0.0
 10
1.2269600000000001
 20
6.1233700000000004
 30
0.0
 10
1.06948
 20
6.6643900000000009
 30
0.0
 10
1.06948
 20
6.6643900000000009
 30
0.0
 10
1.7908400000000002
 20
6.8396500000000007
 30
0.0
 10
1.6765400000000001
 20
5.3435900000000007
 30
0.0
 10
1.8746600000000002
 20
5.5493300000000003
 30
0.0
 10
1.8746600000000002
 20
5.5493300000000003
 30
0.0
 10
1.8645
 20
5.6610900000000006
 30
0.0
 10
1.8441800000000002
 20
5.7576100000000006
 30
0.0
 10
1.8162400000000001
 20
5.8515900000000007
 30
0.0
 10
1.8162400000000001
 20
5.8515900000000007
 30
0.0
 10
1.5546200000000001
 20
7.362890000000001
 30
0.0
 10
2.7281000000000004
 20
4.7695500000000006
 30
0.0
 10
2.0651600000000001
 20
4.8330500000000001
 30
0.0
 10
2.0651600000000001
 20
4.8330500000000001
 30
0.0
 10
2.0931000000000002
 20
5.0565700000000007
 30
0.0
 10
1.8619600000000001
 20
4.8508300000000002
 30
0.0
 10
1.8721200000000002
 20
5.2318300000000004
 30
0.0
 10
1.8721200000000002
 20
5.2318300000000004
 30
0.0
 10
1.8492600000000001
 20
5.3740700000000006
 30
0.0
 10
1.7578200000000002
 20
5.2800900000000004
 30
0.0
 10
1.8238600000000003
 20
5.1835700000000005
 30
0.0
 10
1.8238600000000003
 20
5.1835700000000005
 30
0.0
 10
1.8238600000000003
 20
5.1835700000000005
 30
0.0
 10
1.8391000000000002
 20
5.0260900000000008
 30
0.0
 10
1.8391000000000002
 20
5.0260900000000008
 30
0.0
 10
1.8391000000000002
 20
5.0260900000000008
 30
0.0
 10
1.8645
 20
4.8178100000000006
 30
0.0
 10
1.9051400000000001
 20
4.5307900000000005
 30
0.0
 10
1.6511400000000001
 20
4.4850700000000003
 30
0.0
 10
1.6511400000000001
 20
4.4850700000000003
 30
0.0
 10
1.4479400000000002
 20
4.54603
 30
0.0
 10
1.2574400000000001
 20
4.6755700000000004
 30
0.0
 10
1.0644
 20
4.7847900000000001
 30
0.0
 10
1.0644
 20
4.7847900000000001
 30
0.0
 10
0.9755
 20
4.7060500000000003
 30
0.0
 10
1.2168000000000001
 20
4.64255
 30
0.0
 10
1.2193400000000001
 20
4.54603
 30
0.0
 10
1.2193400000000001
 20
4.54603
 30
0.0
 10
0.64022
 20
4.67049
 30
0.0
 10
0.28716
 20
4.7517700000000005
 30
0.0
 10
-0.11161
 20
4.8990900000000002
 30
0.0
 10
-0.11161
 20
4.8990900000000002
 30
0.0
 10
-0.13447
 20
4.8025700000000002
 30
0.0
 10
0.1119
 20
4.8025700000000002
 30
0.0
 10
0.0738
 20
4.64255
 30
0.0
 10
0.0738
 20
4.64255
 30
0.0
 10
-0.6424700000000001
 20
4.7390700000000008
 30
0.0
 10
-1.2723900000000001
 20
4.4672900000000002
 30
0.0
 10
-1.7473700000000001
 20
3.8957900000000003
 30
0.0
 10
-1.7473700000000001
 20
3.8957900000000003
 30
0.0
 10
-1.4374900000000002
 20
4.03803
 30
0.0
 10
-0.8431300000000001
 20
4.6273100000000005
 30
0.0
 10
-0.30719
 20
4.4368100000000004
 30
0.0
 10
-0.30719
 20
4.4368100000000004
 30
0.0
 10
-0.69835
 20
4.2412300000000007
 30
0.0
 10
-1.1377700000000002
 20
3.7383100000000002
 30
0.0
 10
-1.33335
 20
3.3217500000000002
 30
0.0
 10
-1.33335
 20
3.3217500000000002
 30
0.0
 10
-1.37907
 20
3.2252300000000003
 30
0.0
 10
-1.5213100000000002
 20
2.8543900000000004
 30
0.0
 10
-1.37907
 20
3.0042500000000003
 30
0.0
 10
-1.37907
 20
3.0042500000000003
 30
0.0
 10
-1.2596900000000002
 20
3.2582500000000003
 30
0.0
 10
-1.0945900000000002
 20
3.4182700000000001
 30
0.0
 10
-0.8583700000000001
 20
3.5757500000000002
 30
0.0
 10
-0.8583700000000001
 20
3.5757500000000002
 30
0.0
 10
-0.59167
 20
2.6054700000000004
 30
0.0
 10
-1.33081
 20
1.9044300000000001
 30
0.0
 10
-1.7956300000000001
 20
1.1729100000000001
 30
0.0
 10
-1.7956300000000001
 20
1.1729100000000001
 30
0.0
 10
-1.54671
 20
1.3024500000000001
 30
0.0
 10
-1.4832100000000001
 20
1.44723
 30
0.0
 10
-1.33335
 20
1.5843900000000002
 30
0.0
 10
-1.33335
 20
1.5843900000000002
 30
0.0
 10
-1.04633
 20
1.8510900000000001
 30
0.0
 10
-0.8075700000000001
 20
2.1381100000000002
 30
0.0
 10
-0.74407
 20
2.5267300000000001
 30
0.0
 10
-0.74407
 20
2.5267300000000001
 30
0.0
 10
-0.55357
 20
2.1762100000000002
 30
0.0
 10
-0.7770900000000001
 20
1.7469500000000002
 30
0.0
 10
-0.88631
 20
1.3964300000000001
 30
0.0
 10
-0.88631
 20
1.3964300000000001
 30
0.0
 10
-0.6831100000000001
 20
1.4751700000000001
 30
0.0
 10
-0.5230900000000001
 20
2.2701900000000004
 30
0.0
 10
-0.41387
 20
1.9679300000000002
 30
0.0
 10
-0.41387
 20
1.9679300000000002
 30
0.0
 10
-0.38847
 20
1.7342500000000001
 30
0.0
 10
-0.5586500000000001
 20
1.4167500000000002
 30
0.0
 10
-0.9599700000000001
 20
1.2262500000000001
 30
0.0
 10
-0.9599700000000001
 20
1.2262500000000001
 30
0.0
 10
-1.2876300000000001
 20
1.0738500000000002
 30
0.0
 10
-1.3968500000000001
 20
0.7588900000000001
 30
0.0
 10
-0.9015500000000001
 20
1.1424300000000001
 30
0.0
 10
-0.9015500000000001
 20
1.1424300000000001
 30
0.0
 10
-0.82535
 20
1.2033900000000002
 30
0.0
 10
-0.5434100000000001
 20
1.3786500000000002
 30
0.0
 10
-0.68057
 20
1.18815
 30
0.0
 10
-0.68057
 20
1.18815
 30
0.0
 10
-0.8405900000000001
 20
1.1221100000000002
 30
0.0
 10
-1.1326900000000002
 20
0.89351
 30
0.0
 10
-1.2749300000000001
 20
0.66491
 30
0.0
 10
-1.2749300000000001
 20
0.66491
 30
0.0
 10
-1.4705100000000002
 20
0.35249
 30
0.0
 10
-1.46543
 20
0.07563
 30
0.0
 10
-1.1733300000000002
 20
0.53537
 30
0.0
 10
-1.1733300000000002
 20
0.53537
 30
0.0
 10
-1.1047500000000001
 20
0.61665
 30
0.0
 10
-1.1174500000000001
 20
0.53537
 30
0.0
 10
-1.1504700000000001
 20
0.47187
 30
0.0
 10
-1.1504700000000001
 20
0.47187
 30
0.0
 10
-1.3104900000000002
 20
0.13913
 30
0.0
 10
-1.3257300000000001
 20
-0.22662
 30
0.0
 10
-1.3054100000000002
 20
-0.59238
 30
0.0
 10
-1.3054100000000002
 20
-0.59238
 30
0.0
 10
-1.2368300000000001
 20
-0.95052
 30
0.0
 10
-1.1580900000000001
 20
-1.3467600000000002
 30
0.0
 10
-0.9269500000000001
 20
-1.4356600000000002
 30
0.0
 10
-0.9269500000000001
 20
-1.4356600000000002
 30
0.0
 10
-1.1453900000000001
 20
-0.9886200000000001
 30
0.0
 10
-1.3079500000000002
 20
-0.4476000000000001
 30
0.0
 10
-1.1149100000000001
 20
0.04261
 30
0.0
 10
-1.1149100000000001
 20
0.04261
 30
0.0
 10
-1.0564900000000002
 20
0.26613
 30
0.0
 10
-0.9574300000000001
 20
0.6318900000000001
 30
0.0
 10
-0.8786900000000001
 20
0.24835
 30
0.0
 10
-0.8786900000000001
 20
0.24835
 30
0.0
 10
-0.7872500000000001
 20
0.5201300000000001
 30
0.0
 10
-0.8380500000000001
 20
0.16961
 30
0.0
 10
-0.82789
 20
0.05785
 30
0.0
 10
-0.82789
 20
0.05785
 30
0.0
 10
-0.5865900000000001
 20
-0.6838200000000001
 30
0.0
 10
0.14238
 20
-1.2654800000000002
 30
0.0
 10
0.28208
 20
-2.0401800000000003
 30
0.0
 10
0.28208
 20
-2.0401800000000003
 30
0.0
 10
0.32018
 20
-2.2560800000000003
 30
0.0
 10
0.41162
 20
-2.5253200000000002
 30
0.0
 10
0.31256
 20
-2.7717000000000001
 30
0.0
 10
0.31256
 20
-2.7717000000000001
 30
0.0
 10
0.01792
 20
-2.3272000000000004
 30
0.0
 10
0.09158
 20
-1.7201400000000002
 30
0.0
 10
-0.23353
 20
-1.2756400000000001
 30
0.0
 10
-0.23353
 20
-1.2756400000000001
 30
0.0
 10
-0.24877
 20
-1.2426200000000001
 30
0.0
 10
-0.28179
 20
-1.2426200000000001
 30
0.0
 10
-0.28687
 20
-1.2756400000000001
 30
0.0
 10
-0.28687
 20
-1.2756400000000001
 30
0.0
 10
0.09158
 20
-2.0401800000000003
 30
0.0
 10
-0.07351
 20
-2.8987000000000003
 30
0.0
 10
-0.03541
 20
-3.7267400000000004
 30
0.0
 10
-0.03541
 20
-3.7267400000000004
 30
0.0
 10
-0.12685
 20
-3.5845000000000002
 30
0.0
 10
-0.18273
 20
-3.4092400000000005
 30
0.0
 10
-0.20813
 20
-3.2492200000000002
 30
0.0
 10
-0.20813
 20
-3.2492200000000002
 30
0.0
 10
-0.23607
 20
-3.1222200000000004
 30
0.0
 10
-0.16241
 20
-2.6929600000000002
 30
0.0
 10
-0.28687
 20
-2.81996
 30
0.0
 10
-0.28687
 20
-2.81996
 30
0.0
 10
-0.34783
 20
-3.2339800000000003
 30
0.0
 10
-0.3960900000000001
 20
-3.5972000000000004
 30
0.0
 10
-0.33005
 20
-3.9858200000000004
 30
0.0
 10
-0.33005
 20
-3.9858200000000004
 30
0.0
 10
-0.23353
 20
-4.5522400000000003
 30
0.0
 10
0.00268
 20
-5.1364400000000003
 30
0.0
 10
-0.02017
 20
-5.7333400000000001
 30
0.0
 10
-0.02017
 20
-5.7333400000000001
 30
0.0
 10
-0.22845
 20
-5.2228000000000003
 30
0.0
 10
-0.38339
 20
-4.60304
 30
0.0
 10
-0.5408700000000001
 20
-4.0620200000000004
 30
0.0
 10
-0.5408700000000001
 20
-4.0620200000000004
 30
0.0
 10
-0.6881900000000001
 20
-4.1661600000000005
 30
0.0
 10
-0.49515
 20
-4.3388800000000005
 30
0.0
 10
-0.47737
 20
-4.5370000000000008
 30
0.0
 10
-0.47737
 20
-4.5370000000000008
 30
0.0
 10
-0.49769
 20
-4.6182800000000004
 30
0.0
 10
-0.44435
 20
-4.9053000000000004
 30
0.0
 10
-0.55611
 20
-4.7148000000000003
 30
0.0
 10
-0.55611
 20
-4.7148000000000003
 30
0.0
 10
-0.7567700000000001
 20
-4.4430200000000006
 30
0.0
 10
-0.8507500000000001
 20
-4.0772600000000008
 30
0.0
 10
-0.7364500000000001
 20
-3.7597600000000004
 30
0.0
 10
-0.7364500000000001
 20
-3.7597600000000004
 30
0.0
 10
-0.9447300000000001
 20
-3.8232600000000003
 30
0.0
 10
-0.8913900000000001
 20
-4.2576000000000001
 30
0.0
 10
-0.94981
 20
-4.4582600000000001
 30
0.0
 10
-0.94981
 20
-4.4582600000000001
 30
0.0
 10
-1.0920500000000002
 20
-4.1737800000000007
 30
0.0
 10
-1.0641100000000001
 20
-3.4092400000000005
 30
0.0
 10
-0.7491500000000001
 20
-3.5514800000000002
 30
0.0
 10
-0.7491500000000001
 20
-3.5514800000000002
 30
0.0
 10
-0.6704100000000001
 20
-3.0104600000000001
 30
0.0
 10
-0.9447300000000001
 20
-2.56596
 30
0.0
 10
-1.12507
 20
-2.1036800000000002
 30
0.0
 10
-1.12507
 20
-2.1036800000000002
 30
0.0
 10
-1.3079500000000002
 20
-1.7531600000000001
 30
0.0
 10
-1.0691900000000001
 20
-2.4059400000000002
 30
0.0
 10
-1.00569
 20
-2.5329400000000004
 30
0.0
 10
-1.00569
 20
-2.5329400000000004
 30
0.0
 10
-0.8913900000000001
 20
-2.8047200000000001
 30
0.0
 10
-0.8431300000000001
 20
-3.0917400000000002
 30
0.0
 10
-0.8151900000000001
 20
-3.3914600000000004
 30
0.0
 10
-0.8151900000000001
 20
-3.3914600000000004
 30
0.0
 10
-0.8151900000000001
 20
-3.3914600000000004
 30
0.0
 10
-1.33335
 20
-2.7107400000000004
 30
0.0
 10
-1.33335
 20
-2.7107400000000004
 30
0.0
 10
-1.33335
 20
-2.7107400000000004
 30
0.0
 10
-1.33335
 20
-2.7107400000000004
 30
0.0
 10
-1.7194300000000002
 20
-2.4059400000000002
 30
0.0
 10
-1.7194300000000002
 20
-2.4059400000000002
 30
0.0
 10
-1.7194300000000002
 20
-2.4059400000000002
 30
0.0
 10
-1.7194300000000002
 20
-2.4059400000000002
 30
0.0
 10
-2.3290300000000004
 20
-1.3874000000000002
 30
0.0
 10
-2.3290300000000004
 20
-1.3874000000000002
 30
0.0
 10
-2.3290300000000004
 20
-1.3874000000000002
 30
0.0
 10
-2.3290300000000004
 20
-1.3874000000000002
 30
0.0
 10
-2.48651
 20
-1.3239000000000001
 30
0.0
 10
-2.48651
 20
-1.3239000000000001
 30
0.0
 10
-2.48651
 20
-1.3239000000000001
 30
0.0
 10
-2.2782300000000002
 20
-1.7201400000000002
 30
0.0
 10
-1.7753100000000002
 20
-2.4211800000000001
 30
0.0
 10
-2.30871
 20
-2.7082000000000002
 30
0.0
 10
-2.30871
 20
-2.7082000000000002
 30
0.0
 10
-3.0453100000000002
 20
-2.5177
 30
0.0
 10
-1.9429500000000002
 20
-2.5024600000000001
 30
0.0
 10
-2.1817100000000003
 20
-2.0401800000000003
 30
0.0
 10
-2.1817100000000003
 20
-2.0401800000000003
 30
0.0
 10
-2.7252700000000001
 20
-1.2604000000000002
 30
0.0
 10
-3.6828500000000002
 20
-0.4806200000000001
 30
0.0
 10
-3.2307300000000003
 20
0.5836300000000001
 30
0.0
 10
-3.2307300000000003
 20
0.5836300000000001
 30
0.0
 10
-3.4999700000000002
 20
0.37789
 30
0.0
 10
-3.3856700000000002
 20
0.78937
 30
0.0
 10
-3.4186900000000002
 20
1.0763900000000002
 30
0.0
 10
-3.4186900000000002
 20
1.0763900000000002
 30
0.0
 10
-3.4186900000000002
 20
1.0763900000000002
 30
0.0
 10
-3.2942300000000002
 20
0.8223900000000001
 30
0.0
 10
-3.2942300000000002
 20
0.8223900000000001
 30
0.0
 10
-3.2942300000000002
 20
0.8223900000000001
 30
0.0
 10
-3.2637500000000004
 20
0.68015
 30
0.0
 10
-3.1926300000000003
 20
0.7741300000000001
 30
0.0
 10
-3.2154900000000004
 20
0.87065
 30
0.0
 10
-3.2154900000000004
 20
0.87065
 30
0.0
 10
-3.4313900000000004
 20
1.2516500000000002
 30
0.0
 10
-3.3729700000000005
 20
1.6809100000000001
 30
0.0
 10
-3.1672300000000004
 20
2.04921
 30
0.0
 10
-3.1672300000000004
 20
2.04921
 30
0.0
 10
-3.2053300000000005
 20
2.2397100000000001
 30
0.0
 10
-3.3399500000000004
 20
1.8739500000000002
 30
0.0
 10
-3.4034500000000003
 20
1.8104500000000001
 30
0.0
 10
-3.4034500000000003
 20
1.8104500000000001
 30
0.0
 10
-3.4694900000000004
 20
2.4632300000000003
 30
0.0
 10
-2.9284700000000004
 20
2.9077300000000004
 30
0.0
 10
-2.5982700000000003
 20
3.3852500000000001
 30
0.0
 10
-2.5982700000000003
 20
3.3852500000000001
 30
0.0
 10
-2.7938500000000004
 20
3.2734900000000002
 30
0.0
 10
-3.0580100000000003
 20
2.8924900000000004
 30
0.0
 10
-3.2916900000000004
 20
2.7172300000000003
 30
0.0
 10
-3.2916900000000004
 20
2.7172300000000003
 30
0.0
 10
-3.2256500000000004
 20
3.2912700000000004
 30
0.0
 10
-2.7760700000000003
 20
3.7510100000000004
 30
0.0
 10
-2.4077700000000002
 20
4.1828099999999999
 30
0.0
 10
-2.4077700000000002
 20
4.1828099999999999
 30
0.0
 10
-2.4560300000000002
 20
4.2767900000000001
 30
0.0
 10
-2.61097
 20
4.03803
 30
0.0
 10
-2.7176500000000003
 20
4.0227900000000005
 30
0.0
 10
-2.7176500000000003
 20
4.0227900000000005
 30
0.0
 10
-2.6770100000000001
 20
4.6527100000000008
 30
0.0
 10
-2.22235
 20
5.0591100000000004
 30
0.0
 10
-1.7422900000000001
 20
5.4705900000000005
 30
0.0
 10
-1.7422900000000001
 20
5.4705900000000005
 30
0.0
 10
-1.6635500000000001
 20
5.5366300000000006
 30
0.0
 10
-1.1834900000000002
 20
5.8160300000000005
 30
0.0
 10
-1.5162300000000002
 20
5.7880900000000004
 30
0.0
 10
-1.5162300000000002
 20
5.7880900000000004
 30
0.0
 10
-2.10297
 20
5.3918500000000007
 30
0.0
 10
-1.5670300000000001
 20
6.1792500000000006
 30
0.0
 10
-1.12761
 20
6.3062500000000004
 30
0.0
 10
-1.12761
 20
6.3062500000000004
 30
0.0
 10
-0.4799100000000001
 20
6.4180100000000007
 30
0.0
 10
-0.06843
 20
6.1386100000000008
 30
0.0
 10
0.39384
 20
5.7245900000000001
 30
0.0
 10
0.39384
 20
5.7245900000000001
 30
0.0
 10
0.47512
 20
5.8211100000000009
 30
0.0
 10
-0.30973
 20
6.3468900000000001
 30
0.0
 10
-0.55357
 20
6.5678700000000001
 30
0.0
 10
-0.55357
 20
6.5678700000000001
 30
0.0
 10
-0.3325900000000001
 20
6.903150000000001
 30
0.0
 10
0.5614800000000001
 20
6.2656100000000006
 30
0.0
 10
0.29732
 20
6.5678700000000001
 30
0.0
 10
0.29732
 20
6.5678700000000001
 30
0.0
 10
0.18556
 20
6.6339100000000002
 30
0.0
 10
0.01792
 20
6.7609100000000009
 30
0.0
 10
0.23636
 20
6.7913900000000007
 30
0.0
  0
SPLINE
  5
27
100
AcDbEntity
  8
Ebene 1
 62
     7
100
AcDbSpline
210
0.0
220
0.0
230
1.0
 70
     1
 71
     3
 72
    16
 73
    12
 74
     0
 42
0.0000000001
 43
0.0000000001
 40
0.0
 40
0.0
 40
0.0
 40
0.0
 40
0.3333333333333333
 40
0.3333333333333333
 40
0.3333333333333333
 40
0.3333333333333333
 40
0.6666666666666666
 40
0.6666666666666666
 40
0.6666666666666666
 40
0.6666666666666666
 40
1.0
 40
1.0
 40
1.0
 40
1.0
 10
2.3674200000000001
 20
5.5188500000000005
 30
0.0
 10
2.7027000000000001
 20
5.2318300000000004
 30
0.0
 10
2.97194
 20
4.6908100000000008
 30
0.0
 10
2.8601800000000002
 20
4.2615500000000006
 30
0.0
 10
2.8601800000000002
 20
4.2615500000000006
 30
0.0
 10
2.6392000000000002
 20
4.3885500000000004
 30
0.0
 10
2.4487000000000001
 20
4.6273100000000005
 30
0.0
 10
2.4487000000000001
 20
4.8990900000000002
 30
0.0
 10
2.4487000000000001
 20
4.8990900000000002
 30
0.0
 10
2.3598000000000003
 20
5.0870500000000005
 30
0.0
 10
2.3090000000000002
 20
5.3105700000000002
 30
0.0
 10
2.3674200000000001
 20
5.5188500000000005
 30
0.0
  0
SPLINE
  5
28
100
AcDbEntity
  8
Ebene 1
100
AcDbSpline
210
0.0
220
0.0
230
1.0
 70
     1
 71
     3
 72
    16
 73
    12
 74
     0
 42
0.0000000001
 43
0.0000000001
 40
0.0
 40
0.0
 40
0.0
 40
0.0
 40
0.3333333333333333
 40
0.3333333333333333
 40
0.3333333333333333
 40
0.3333333333333333
 40
0.6666666666666666
 40
0.6666666666666666
 40
0.6666666666666666
 40
0.6666666666666666
 40
1.0
 40
1.0
 40
1.0
 40
1.0
 10
0.04332
 20
5.4223300000000005
 30
0.0
 10
0.29478
 20
5.3740700000000006
 30
0.0
 10
0.6122800000000001
 20
5.3435900000000007
 30
0.0
 10
0.7748400000000001
 20
5.1353100000000005
 30
0.0
 10
0.7748400000000001
 20
5.1353100000000005
 30
0.0
 10
0.5487800000000001
 20
5.2623100000000003
 30
0.0
 10
0.29986
 20
5.3435900000000007
 30
0.0
 10
0.05094
 20
5.3740700000000006
 30
0.0
 10
0.05094
 20
5.3740700000000006
 30
0.0
 10
0.05094
 20
5.3740700000000006
 30
0.0
 10
0.04332
 20
5.4223300000000005
 30
0.0
 10
0.04332
 20
5.4223300000000005
 30
0.0
  0
SPLINE
  5
29
100
AcDbEntity
  8
Ebene 1
100
AcDbSpline
210
0.0
220
0.0
230
1.0
 70
     1
 71
     3
 72
    32
 73
    28
 74
     0
 42
0.0000000001
 43
0.0000000001
 40
0.0
 40
0.0
 40
0.0
 40
0.0
 40
0.1428571428571429
 40
0.1428571428571429
 40
0.1428571428571429
 40
0.1428571428571429
 40
0.2857142857142857
 40
0.2857142857142857
 40
0.2857142857142857
 40
0.2857142857142857
 40
0.4285714285714286
 40
0.4285714285714286
 40
0.4285714285714286
 40
0.4285714285714286
 40
0.5714285714285714
 40
0.5714285714285714
 40
0.5714285714285714
 40
0.5714285714285714
 40
0.7142857142857142
 40
0.7142857142857142
 40
0.7142857142857142
 40
0.7142857142857142
 40
0.857142857142857
 40
0.857142857142857
 40
0.857142857142857
 40
0.857142857142857
 40
1.0
 40
1.0
 40
1.0
 40
1.0
 10
-1.3993900000000001
 20
5.3283500000000004
 30
0.0
 10
-1.0971300000000002
 20
5.3283500000000004
 30
0.0
 10
-0.7872500000000001
 20
5.2623100000000003
 30
0.0
 10
-0.5434100000000001
 20
5.1048300000000006
 30
0.0
 10
-0.5434100000000001
 20
5.1048300000000006
 30
0.0
 10
-0.8151900000000001
 20
5.2013500000000006
 30
0.0
 10
-1.1326900000000002
 20
5.2013500000000006
 30
0.0
 10
-1.3689100000000001
 20
5.0083100000000007
 30
0.0
 10
-1.3689100000000001
 20
5.0083100000000007
 30
0.0
 10
-1.4806700000000002
 20
5.0565700000000007
 30
0.0
 10
-1.2596900000000002
 20
5.1200700000000001
 30
0.0
 10
-1.2444500000000001
 20
5.1835700000000005
 30
0.0
 10
-1.2444500000000001
 20
5.1835700000000005
 30
0.0
 10
-1.6152900000000001
 20
5.2013500000000006
 30
0.0
 10
-1.9048500000000002
 20
4.88131
 30
0.0
 10
-2.0877300000000001
 20
4.5790500000000005
 30
0.0
 10
-2.0877300000000001
 20
4.5790500000000005
 30
0.0
 10
-2.1283700000000003
 20
4.5307900000000005
 30
0.0
 10
-2.1639300000000001
 20
4.4368100000000004
 30
0.0
 10
-2.2401300000000002
 20
4.4368100000000004
 30
0.0
 10
-2.2401300000000002
 20
4.4368100000000004
 30
0.0
 10
-2.2452100000000002
 20
4.5638100000000001
 30
0.0
 10
-2.1105900000000002
 20
4.6273100000000005
 30
0.0
 10
-2.0572500000000002
 20
4.7212900000000007
 30
0.0
 10
-2.0572500000000002
 20
4.7212900000000007
 30
0.0
 10
-1.8997700000000002
 20
4.97783
 30
0.0
 10
-1.6660900000000001
 20
5.2165900000000001
 30
0.0
 10
-1.3993900000000001
 20
5.3283500000000004
 30
0.0
  0
SPLINE
  5
2A
100
AcDbEntity
  8
Ebene 1
 62
     7
100
AcDbSpline
210
0.0
220
0.0
230
1.0
 70
     1
 71
     3
 72
   160
 73
   156
 74
     0
 42
0.0000000001
 43
0.0000000001
 40
0.0
 40
0.0
 40
0.0
 40
0.0
 40
0.0256410256410256
 40
0.0256410256410256
 40
0.0256410256410256
 40
0.0256410256410256
 40
0.0512820512820513
 40
0.0512820512820513
 40
0.0512820512820513
 40
0.0512820512820513
 40
0.0769230769230769
 40
0.0769230769230769
 40
0.0769230769230769
 40
0.0769230769230769
 40
0.1025641025641026
 40
0.1025641025641026
 40
0.1025641025641026
 40
0.1025641025641026
 40
0.1282051282051282
 40
0.1282051282051282
 40
0.1282051282051282
 40
0.1282051282051282
 40
0.1538461538461538
 40
0.1538461538461538
 40
0.1538461538461538
 40
0.1538461538461538
 40
0.1794871794871795
 40
0.1794871794871795
 40
0.1794871794871795
 40
0.1794871794871795
 40
0.2051282051282051
 40
0.2051282051282051
 40
0.2051282051282051
 40
0.2051282051282051
 40
0.2307692307692307
 40
0.2307692307692307
 40
0.2307692307692307
 40
0.2307692307692307
 40
0.2564102564102564
 40
0.2564102564102564
 40
0.2564102564102564
 40
0.2564102564102564
 40
0.2820512820512821
 40
0.2820512820512821
 40
0.2820512820512821
 40
0.2820512820512821
 40
0.3076923076923077
 40
0.3076923076923077
 40
0.3076923076923077
 40
0.3076923076923077
 40
0.3333333333333334
 40
0.3333333333333334
 40
0.3333333333333334
 40
0.3333333333333334
 40
0.358974358974359
 40
0.358974358974359
 40
0.358974358974359
 40
0.358974358974359
 40
0.3846153846153847
 40
0.3846153846153847
 40
0.3846153846153847
 40
0.3846153846153847
 40
0.4102564102564104
 40
0.4102564102564104
 40
0.4102564102564104
 40
0.4102564102564104
 40
0.435897435897436
 40
0.435897435897436
 40
0.435897435897436
 40
0.435897435897436
 40
0.4615384615384617
 40
0.4615384615384617
 40
0.4615384615384617
 40
0.4615384615384617
 40
0.4871794871794873
 40
0.4871794871794873
 40
0.4871794871794873
 40
0.4871794871794873
 40
0.512820512820513
 40
0.512820512820513
 40
0.512820512820513
 40
0.512820512820513
 40
0.5384615384615387
 40
0.5384615384615387
 40
0.5384615384615387
 40
0.5384615384615387
 40
0.5641025641025643
 40
0.5641025641025643
 40
0.5641025641025643
 40
0.5641025641025643
 40
0.58974358974359
 40
0.58974358974359
 40
0.58974358974359
 40
0.58974358974359
 40
0.6153846153846156
 40
0.6153846153846156
 40
0.6153846153846156
 40
0.6153846153846156
 40
0.6410256410256413
 40
0.6410256410256413
 40
0.6410256410256413
 40
0.6410256410256413
 40
0.666666666666667
 40
0.666666666666667
 40
0.666666666666667
 40
0.666666666666667
 40
0.6923076923076926
 40
0.6923076923076926
 40
0.6923076923076926
 40
0.6923076923076926
 40
0.7179487179487183
 40
0.7179487179487183
 40
0.7179487179487183
 40
0.7179487179487183
 40
0.743589743589744
 40
0.743589743589744
 40
0.743589743589744
 40
0.743589743589744
 40
0.7692307692307696
 40
0.7692307692307696
 40
0.7692307692307696
 40
0.7692307692307696
 40
0.7948717948717953
 40
0.7948717948717953
 40
0.7948717948717953
 40
0.7948717948717953
 40
0.8205128205128209
 40
0.8205128205128209
 40
0.8205128205128209
 40
0.8205128205128209
 40
0.8461538461538466
 40
0.8461538461538466
 40
0.8461538461538466
 40
0.8461538461538466
 40
0.8717948717948723
 40
0.8717948717948723
 40
0.8717948717948723
 40
0.8717948717948723
 40
0.8974358974358979
 40
0.8974358974358979
 40
0.8974358974358979
 40
0.8974358974358979
 40
0.9230769230769236
 40
0.9230769230769236
 40
0.9230769230769236
 40
0.9230769230769236
 40
0.9487179487179492
 40
0.9487179487179492
 40
0.9487179487179492
 40
0.9487179487179492
 40
0.9743589743589749
 40
0.9743589743589749
 40
0.9743589743589749
 40
0.9743589743589749
 40
1.0
 40
1.0
 40
1.0
 40
1.0
 10
2.1921600000000003
 20
4.6755700000000004
 30
0.0
 10
2.1921600000000003
 20
4.6755700000000004
 30
0.0
 10
2.4055200000000001
 20
4.4037900000000008
 30
0.0
 10
2.4055200000000001
 20
4.4037900000000008
 30
0.0
 10
2.4055200000000001
 20
4.4037900000000008
 30
0.0
 10
3.3224600000000004
 20
3.9262700000000001
 30
0.0
 10
3.3148400000000002
 20
2.8289900000000001
 30
0.0
 10
3.3529400000000003
 20
1.9374500000000001
 30
0.0
 10
3.3529400000000003
 20
1.9374500000000001
 30
0.0
 10
3.1573600000000002
 20
1.7621900000000001
 30
0.0
 10
2.9236800000000001
 20
1.5869300000000002
 30
0.0
 10
2.6595200000000001
 20
1.6656700000000002
 30
0.0
 10
2.6595200000000001
 20
1.6656700000000002
 30
0.0
 10
2.6290400000000003
 20
1.6021700000000001
 30
0.0
 10
2.6061800000000002
 20
1.5386700000000002
 30
0.0
 10
2.6087200000000004
 20
1.4599300000000002
 30
0.0
 10
2.6087200000000004
 20
1.4599300000000002
 30
0.0
 10
2.8043
 20
1.57169
 30
0.0
 10
2.8449400000000002
 20
1.2516500000000002
 30
0.0
 10
2.9313000000000002
 20
1.0459100000000001
 30
0.0
 10
2.9313000000000002
 20
1.0459100000000001
 30
0.0
 10
2.9592400000000003
 20
0.9493900000000001
 30
0.0
 10
3.1294200000000001
 20
0.8858900000000001
 30
0.0
 10
3.0379800000000001
 20
1.03067
 30
0.0
 10
3.0379800000000001
 20
1.03067
 30
0.0
 10
3.0379800000000001
 20
1.03067
 30
0.0
 10
2.9668600000000001
 20
1.1652900000000002
 30
0.0
 10
2.9668600000000001
 20
1.1652900000000002
 30
0.0
 10
2.9668600000000001
 20
1.1652900000000002
 30
0.0
 10
2.9668600000000001
 20
1.1652900000000002
 30
0.0
 10
2.9948000000000001
 20
1.2694300000000001
 30
0.0
 10
2.9948000000000001
 20
1.2694300000000001
 30
0.0
 10
2.9948000000000001
 20
1.2694300000000001
 30
0.0
 10
3.0583000000000005
 20
0.93415
 30
0.0
 10
3.4113600000000002
 20
0.9824100000000001
 30
0.0
 10
3.4316800000000001
 20
1.2516500000000002
 30
0.0
 10
3.4316800000000001
 20
1.2516500000000002
 30
0.0
 10
3.5053400000000003
 20
1.2922900000000002
 30
0.0
 10
3.4342200000000003
 20
0.9189100000000001
 30
0.0
 10
3.4088200000000004
 20
0.7538100000000001
 30
0.0
 10
3.4088200000000004
 20
0.7538100000000001
 30
0.0
 10
3.3910400000000003
 20
0.64205
 30
0.0
 10
3.4012000000000002
 20
0.5277500000000001
 30
0.0
 10
3.2767400000000002
 20
0.48711
 30
0.0
 10
3.2767400000000002
 20
0.48711
 30
0.0
 10
3.3783400000000001
 20
0.16961
 30
0.0
 10
3.2437200000000002
 20
-0.1301
 30
0.0
 10
3.0837000000000003
 20
-0.4171200000000001
 30
0.0
 10
3.0837000000000003
 20
-0.4171200000000001
 30
0.0
 10
3.0887800000000003
 20
-0.4476000000000001
 30
0.0
 10
3.0710000000000002
 20
-0.4806200000000001
 30
0.0
 10
3.1065600000000004
 20
-0.5111
 30
0.0
 10
3.1065600000000004
 20
-0.5111
 30
0.0
 10
3.1700600000000003
 20
-0.46538
 30
0.0
 10
3.1472000000000002
 20
-0.33584
 30
0.0
 10
3.2411800000000004
 20
-0.28758
 30
0.0
 10
3.2411800000000004
 20
-0.28758
 30
0.0
 10
3.2742000000000004
 20
-0.6228600000000001
 30
0.0
 10
3.1167200000000004
 20
-0.8768600000000001
 30
0.0
 10
2.9567000000000001
 20
-1.1156200000000001
 30
0.0
 10
2.9567000000000001
 20
-1.1156200000000001
 30
0.0
 10
2.9567000000000001
 20
-1.1156200000000001
 30
0.0
 10
2.9160600000000003
 20
-0.9733800000000001
 30
0.0
 10
2.9160600000000003
 20
-0.9733800000000001
 30
0.0
 10
2.9160600000000003
 20
-0.9733800000000001
 30
0.0
 10
2.8754200000000001
 20
-0.8413000000000001
 30
0.0
 10
2.84748
 20
-1.0064000000000002
 30
0.0
 10
2.8551000000000002
 20
-1.0292600000000001
 30
0.0
 10
2.8551000000000002
 20
-1.0292600000000001
 30
0.0
 10
2.9414600000000002
 20
-1.2858000000000001
 30
0.0
 10
2.7204800000000002
 20
-1.0902200000000002
 30
0.0
 10
2.6239600000000003
 20
-1.3086600000000002
 30
0.0
 10
2.6239600000000003
 20
-1.3086600000000002
 30
0.0
 10
2.6239600000000003
 20
-1.3086600000000002
 30
0.0
 10
2.6214200000000001
 20
-1.08514
 30
0.0
 10
2.6214200000000001
 20
-1.08514
 30
0.0
 10
2.6214200000000001
 20
-1.08514
 30
0.0
 10
2.5579200000000002
 20
-0.9733800000000001
 30
0.0
 10
2.5757000000000003
 20
-1.1994400000000001
 30
0.0
 10
2.5325200000000003
 20
-1.20706
 30
0.0
 10
2.5325200000000003
 20
-1.20706
 30
0.0
 10
2.4385400000000002
 20
-1.2223000000000002
 30
0.0
 10
2.29122
 20
-1.1410200000000001
 30
0.0
 10
2.1997800000000001
 20
-1.37216
 30
0.0
 10
2.1997800000000001
 20
-1.37216
 30
0.0
 10
2.1794600000000002
 20
-1.2426200000000001
 30
0.0
 10
2.2861400000000001
 20
-0.8286000000000001
 30
0.0
 10
2.1921600000000003
 20
-0.9251200000000001
 30
0.0
 10
2.1921600000000003
 20
-0.9251200000000001
 30
0.0
 10
2.1845400000000001
 20
-1.1461000000000001
 30
0.0
 10
2.0778600000000003
 20
-1.3950200000000001
 30
0.0
 10
1.9991200000000002
 20
-1.1003800000000001
 30
0.0
 10
1.9991200000000002
 20
-1.1003800000000001
 30
0.0
 10
1.8391000000000002
 20
-1.54488
 30
0.0
 10
1.6740000000000002
 20
-0.65588
 30
0.0
 10
1.6841600000000001
 20
-0.8616200000000001
 30
0.0
 10
1.6841600000000001
 20
-0.8616200000000001
 30
0.0
 10
1.6867000000000001
 20
-0.9733800000000001
 30
0.0
 10
1.7298800000000001
 20
-1.1003800000000001
 30
0.0
 10
1.6816200000000001
 20
-1.21214
 30
0.0
 10
1.6816200000000001
 20
-1.21214
 30
0.0
 10
1.5978000000000001
 20
-0.9683000000000001
 30
0.0
 10
1.5241400000000001
 20
-0.9962400000000001
 30
0.0
 10
1.4835
 20
-0.8108200000000001
 30
0.0
 10
1.4835
 20
-0.8108200000000001
 30
0.0
 10
1.4758800000000001
 20
-0.7778000000000001
 30
0.0
 10
1.5114400000000001
 20
-0.6457200000000001
 30
0.0
 10
1.4352400000000001
 20
-0.71938
 30
0.0
 10
1.4352400000000001
 20
-0.71938
 30
0.0
 10
1.4631800000000001
 20
-1.1969000000000001
 30
0.0
 10
1.2472800000000002
 20
-0.6228600000000001
 30
0.0
 10
1.3234800000000002
 20
-0.4171200000000001
 30
0.0
 10
1.3234800000000002
 20
-0.4171200000000001
 30
0.0
 10
1.35904
 20
-0.46538
 30
0.0
 10
1.39714
 20
-0.71938
 30
0.0
 10
1.44286
 20
-0.6076200000000001
 30
0.0
 10
1.44286
 20
-0.6076200000000001
 30
0.0
 10
1.2828400000000002
 20
-0.09708
 30
0.0
 10
1.7857600000000002
 20
-0.52634
 30
0.0
 10
1.8441800000000002
 20
-0.5441200000000001
 30
0.0
 10
1.8441800000000002
 20
-0.5441200000000001
 30
0.0
 10
1.7451200000000002
 20
-0.28758
 30
0.0
 10
1.4200000000000002
 20
-0.2571
 30
0.0
 10
1.3793600000000001
 20
0.01213
 30
0.0
 10
1.3793600000000001
 20
0.01213
 30
0.0
 10
1.2523600000000001
 20
-0.33584
 30
0.0
 10
0.25922
 20
-0.39934
 30
0.0
 10
0.3278
 20
0.18739
 30
0.0
 10
0.3278
 20
0.18739
 30
0.0
 10
0.05094
 20
-0.08184
 30
0.0
 10
-0.20051
 20
0.60141
 30
0.0
 10
-0.5840500000000001
 20
0.5201300000000001
 30
0.0
 10
-0.5840500000000001
 20
0.5201300000000001
 30
0.0
 10
-0.5840500000000001
 20
0.5201300000000001
 30
0.0
 10
-0.65263
 20
0.6471300000000001
 30
0.0
 10
-0.65263
 20
0.6471300000000001
 30
0.0
 10
-0.65263
 20
0.6471300000000001
 30
0.0
 10
-0.68057
 20
0.7741300000000001
 30
0.0
 10
-0.63739
 20
0.9036700000000001
 30
0.0
 10
-0.61707
 20
1.0459100000000001
 30
0.0
 10
-0.61707
 20
1.0459100000000001
 30
0.0
 10
0.38368
 20
1.8409300000000002
 30
0.0
 10
-0.9167900000000001
 20
2.7807300000000001
 30
0.0
 10
-0.47737
 20
3.7027500000000004
 30
0.0
 10
-0.47737
 20
3.7027500000000004
 30
0.0
 10
-0.44435
 20
3.8780100000000002
 30
0.0
 10
-0.43419
 20
4.0685100000000007
 30
0.0
 10
-0.33005
 20
4.2285300000000001
 30
0.0
 10
-0.33005
 20
4.2285300000000001
 30
0.0
 10
0.2389
 20
4.8660700000000006
 30
0.0
 10
1.1812400000000001
 20
4.4190300000000002
 30
0.0
 10
1.8594200000000001
 20
4.3555300000000008
 30
0.0
 10
1.8594200000000001
 20
4.3555300000000008
 30
0.0
 10
1.8594200000000001
 20
4.3555300000000008
 30
0.0
 10
2.1921600000000003
 20
4.6755700000000004
 30
0.0
 10
2.1921600000000003
 20
4.6755700000000004
 30
0.0
  0
SPLINE
  5
2B
100
AcDbEntity
  8
Ebene 1
 62
     7
100
AcDbSpline
210
0.0
220
0.0
230
1.0
 70
     1
 71
     3
 72
    12
 73
     8
 74
     0
 42
0.0000000001
 43
0.0000000001
 40
0.0
 40
0.0
 40
0.0
 40
0.0
 40
0.5
 40
0.5
 40
0.5
 40
0.5
 40
1.0
 40
1.0
 40
1.0
 40
1.0
 10
2.9592400000000003
 20
4.33521
 30
0.0
 10
3.1091000000000002
 20
4.1650300000000007
 30
0.0
 10
3.2767400000000002
 20
3.8449900000000001
 30
0.0
 10
3.2640400000000001
 20
3.6036900000000003
 30
0.0
 10
3.2640400000000001
 20
3.6036900000000003
 30
0.0
 10
3.1624400000000001
 20
3.8424500000000004
 30
0.0
 10
3.01004
 20
4.0812100000000004
 30
0.0
 10
2.9592400000000003
 20
4.33521
 30
0.0
  0
SPLINE
  5
2C
100
AcDbEntity
  8
Ebene 1
100
AcDbSpline
210
0.0
220
0.0
230
1.0
 70
     1
 71
     3
 72
    20
 73
    16
 74
     0
 42
0.0000000001
 43
0.0000000001
 40
0.0
 40
0.0
 40
0.0
 40
0.0
 40
0.25
 40
0.25
 40
0.25
 40
0.25
 40
0.5
 40
0.5
 40
0.5
 40
0.5
 40
0.75
 40
0.75
 40
0.75
 40
0.75
 40
1.0
 40
1.0
 40
1.0
 40
1.0
 10
0.8408800000000001
 20
3.6392500000000001
 30
0.0
 10
0.8662800000000001
 20
3.6240100000000002
 30
0.0
 10
0.89168
 20
3.6087700000000003
 30
0.0
 10
0.9043800000000001
 20
3.5757500000000002
 30
0.0
 10
0.9043800000000001
 20
3.5757500000000002
 30
0.0
 10
0.7951600000000001
 20
3.0525100000000003
 30
0.0
 10
1.4631800000000001
 20
3.0194900000000002
 30
0.0
 10
1.6181200000000002
 20
2.6537300000000004
 30
0.0
 10
1.6181200000000002
 20
2.6537300000000004
 30
0.0
 10
1.6181200000000002
 20
2.6537300000000004
 30
0.0
 10
0.82818
 20
3.0829900000000001
 30
0.0
 10
0.82818
 20
3.0829900000000001
 30
0.0
 10
0.82818
 20
3.0829900000000001
 30
0.0
 10
0.82818
 20
3.0829900000000001
 30
0.0
 10
0.8408800000000001
 20
3.6392500000000001
 30
0.0
 10
0.8408800000000001
 20
3.6392500000000001
 30
0.0
  0
SPLINE
  5
2D
100
AcDbEntity
  8
Ebene 1
100
AcDbSpline
210
0.0
220
0.0
230
1.0
 70
     1
 71
     3
 72
    24
 73
    20
 74
     0
 42
0.0000000001
 43
0.0000000001
 40
0.0
 40
0.0
 40
0.0
 40
0.0
 40
0.2
 40
0.2
 40
0.2
 40
0.2
 40
0.4
 40
0.4
 40
0.4
 40
0.4
 40
0.6000000000000001
 40
0.6000000000000001
 40
0.6000000000000001
 40
0.6000000000000001
 40
0.8
 40
0.8
 40
0.8
 40
0.8
 40
1.0
 40
1.0
 40
1.0
 40
1.0
 10
2.84748
 20
3.4182700000000001
 30
0.0
 10
2.84748
 20
3.4182700000000001
 30
0.0
 10
2.8906600000000005
 20
3.4182700000000001
 30
0.0
 10
2.8906600000000005
 20
3.4182700000000001
 30
0.0
 10
2.8906600000000005
 20
3.4182700000000001
 30
0.0
 10
2.9059000000000004
 20
3.09823
 30
0.0
 10
2.8805000000000001
 20
2.7654900000000002
 30
0.0
 10
2.6138000000000003
 20
2.5572100000000004
 30
0.0
 10
2.6138000000000003
 20
2.5572100000000004
 30
0.0
 10
2.6138000000000003
 20
2.5572100000000004
 30
0.0
 10
2.6087200000000004
 20
2.6537300000000004
 30
0.0
 10
2.6087200000000004
 20
2.6537300000000004
 30
0.0
 10
2.6087200000000004
 20
2.6537300000000004
 30
0.0
 10
2.7484200000000003
 20
2.84423
 30
0.0
 10
2.8424
 20
3.09823
 30
0.0
 10
2.79922
 20
3.3369900000000001
 30
0.0
 10
2.79922
 20
3.3369900000000001
 30
0.0
 10
2.79922
 20
3.3369900000000001
 30
0.0
 10
2.84748
 20
3.4182700000000001
 30
0.0
 10
2.84748
 20
3.4182700000000001
 30
0.0
  0
SPLINE
  5
2E
100
AcDbEntity
  8
Ebene 1
100
AcDbSpline
210
0.0
220
0.0
230
1.0
 70
     1
 71
     3
 72
    36
 73
    32
 74
     0
 42
0.0000000001
 43
0.0000000001
 40
0.0
 40
0.0
 40
0.0
 40
0.0
 40
0.125
 40
0.125
 40
0.125
 40
0.125
 40
0.25
 40
0.25
 40
0.25
 40
0.25
 40
0.375
 40
0.375
 40
0.375
 40
0.375
 40
0.5
 40
0.5
 40
0.5
 40
0.5
 40
0.625
 40
0.625
 40
0.625
 40
0.625
 40
0.75
 40
0.75
 40
0.75
 40
0.75
 40
0.875
 40
0.875
 40
0.875
 40
0.875
 40
1.0
 40
1.0
 40
1.0
 40
1.0
 10
-1.5594100000000002
 20
2.59023
 30
0.0
 10
-1.5136900000000002
 20
2.6054700000000004
 30
0.0
 10
-1.50607
 20
2.5419700000000001
 30
0.0
 10
-1.5136900000000002
 20
2.50895
 30
0.0
 10
-1.5136900000000002
 20
2.50895
 30
0.0
 10
-1.8921500000000002
 20
1.5869300000000002
 30
0.0
 10
-2.4966700000000004
 20
0.5836300000000001
 30
0.0
 10
-2.1283700000000003
 20
-0.46538
 30
0.0
 10
-2.1283700000000003
 20
-0.46538
 30
0.0
 10
-2.0445500000000001
 20
-0.46538
 30
0.0
 10
-2.1004300000000002
 20
-0.2571
 30
0.0
 10
-2.02169
 20
-0.30536
 30
0.0
 10
-2.02169
 20
-0.30536
 30
0.0
 10
-2.1918700000000002
 20
-1.00386
 30
0.0
 10
-1.8362700000000001
 20
-1.7049000000000001
 30
0.0
 10
-1.4679700000000002
 20
-2.2459200000000004
 30
0.0
 10
-1.4679700000000002
 20
-2.2459200000000004
 30
0.0
 10
-1.9505700000000001
 20
-1.8319000000000001
 30
0.0
 10
-2.0572500000000002
 20
-1.16388
 30
0.0
 10
-2.2604500000000001
 20
-0.6076200000000001
 30
0.0
 10
-2.2604500000000001
 20
-0.6076200000000001
 30
0.0
 10
-2.3061700000000003
 20
-0.6406400000000001
 30
0.0
 10
-2.23759
 20
-0.8286000000000001
 30
0.0
 10
-2.3239500000000004
 20
-0.78288
 30
0.0
 10
-2.3239500000000004
 20
-0.78288
 30
0.0
 10
-2.31379
 20
-0.14534
 30
0.0
 10
-2.3366500000000001
 20
0.5201300000000001
 30
0.0
 10
-2.2604500000000001
 20
1.1576700000000002
 30
0.0
 10
-2.2604500000000001
 20
1.1576700000000002
 30
0.0
 10
-2.2604500000000001
 20
1.1576700000000002
 30
0.0
 10
-1.5594100000000002
 20
2.59023
 30
0.0
 10
-1.5594100000000002
 20
2.59023
 30
0.0
  0
SPLINE
  5
2F
100
AcDbEntity
  8
Ebene 1
100
AcDbSpline
210
0.0
220
0.0
230
1.0
 70
     1
 71
     3
 72
    28
 73
    24
 74
     0
 42
0.0000000001
 43
0.0000000001
 40
0.0
 40
0.0
 40
0.0
 40
0.0
 40
0.1666666666666667
 40
0.1666666666666667
 40
0.1666666666666667
 40
0.1666666666666667
 40
0.3333333333333333
 40
0.3333333333333333
 40
0.3333333333333333
 40
0.3333333333333333
 40
0.5
 40
0.5
 40
0.5
 40
0.5
 40
0.6666666666666666
 40
0.6666666666666666
 40
0.6666666666666666
 40
0.6666666666666666
 40
0.8333333333333333
 40
0.8333333333333333
 40
0.8333333333333333
 40
0.8333333333333333
 40
1.0
 40
1.0
 40
1.0
 40
1.0
 10
2.5426800000000003
 20
2.30321
 30
0.0
 10
2.5553800000000004
 20
2.30321
 30
0.0
 10
2.5782400000000001
 20
2.30321
 30
0.0
 10
2.5757000000000003
 20
2.2879700000000001
 30
0.0
 10
2.5757000000000003
 20
2.2879700000000001
 30
0.0
 10
2.5757000000000003
 20
2.2879700000000001
 30
0.0
 10
2.5757000000000003
 20
2.1914500000000001
 30
0.0
 10
2.5757000000000003
 20
2.1914500000000001
 30
0.0
 10
2.5757000000000003
 20
2.1914500000000001
 30
0.0
 10
2.4715600000000002
 20
2.0796900000000003
 30
0.0
 10
2.6011000000000002
 20
1.7774300000000001
 30
0.0
 10
2.7662000000000004
 20
1.8739500000000002
 30
0.0
 10
2.7662000000000004
 20
1.8739500000000002
 30
0.0
 10
2.7662000000000004
 20
1.8739500000000002
 30
0.0
 10
2.8297000000000003
 20
1.8587100000000001
 30
0.0
 10
2.8297000000000003
 20
1.8587100000000001
 30
0.0
 10
2.8297000000000003
 20
1.8587100000000001
 30
0.0
 10
2.8297000000000003
 20
1.8587100000000001
 30
0.0
 10
2.5909400000000002
 20
1.69869
 30
0.0
 10
2.5909400000000002
 20
1.69869
 30
0.0
 10
2.5909400000000002
 20
1.69869
 30
0.0
 10
2.3725000000000001
 20
1.8409300000000002
 30
0.0
 10
2.3852000000000002
 20
2.1279500000000002
 30
0.0
 10
2.5426800000000003
 20
2.30321
 30
0.0
  0
SPLINE
  5
30
100
AcDbEntity
  8
Ebene 1
100
AcDbSpline
210
0.0
220
0.0
230
1.0
 70
     1
 71
     3
 72
    60
 73
    56
 74
     0
 42
0.0000000001
 43
0.0000000001
 40
0.0
 40
0.0
 40
0.0
 40
0.0
 40
0.0714285714285714
 40
0.0714285714285714
 40
0.0714285714285714
 40
0.0714285714285714
 40
0.1428571428571429
 40
0.1428571428571429
 40
0.1428571428571429
 40
0.1428571428571429
 40
0.2142857142857143
 40
0.2142857142857143
 40
0.2142857142857143
 40
0.2142857142857143
 40
0.2857142857142857
 40
0.2857142857142857
 40
0.2857142857142857
 40
0.2857142857142857
 40
0.3571428571428571
 40
0.3571428571428571
 40
0.3571428571428571
 40
0.3571428571428571
 40
0.4285714285714285
 40
0.4285714285714285
 40
0.4285714285714285
 40
0.4285714285714285
 40
0.4999999999999999
 40
0.4999999999999999
 40
0.4999999999999999
 40
0.4999999999999999
 40
0.5714285714285713
 40
0.5714285714285713
 40
0.5714285714285713
 40
0.5714285714285713
 40
0.6428571428571427
 40
0.6428571428571427
 40
0.6428571428571427
 40
0.6428571428571427
 40
0.7142857142857141
 40
0.7142857142857141
 40
0.7142857142857141
 40
0.7142857142857141
 40
0.7857142857142855
 40
0.7857142857142855
 40
0.7857142857142855
 40
0.7857142857142855
 40
0.8571428571428569
 40
0.8571428571428569
 40
0.8571428571428569
 40
0.8571428571428569
 40
0.9285714285714283
 40
0.9285714285714283
 40
0.9285714285714283
 40
0.9285714285714283
 40
1.0
 40
1.0
 40
1.0
 40
1.0
 10
1.9864200000000001
 20
2.2701900000000004
 30
0.0
 10
2.16168
 20
2.1381100000000002
 30
0.0
 10
2.1921600000000003
 20
1.8206100000000001
 30
0.0
 10
2.0321400000000001
 20
1.6809100000000001
 30
0.0
 10
2.0321400000000001
 20
1.6809100000000001
 30
0.0
 10
1.9305400000000001
 20
1.5920100000000001
 30
0.0
 10
1.9483200000000001
 20
1.5894700000000002
 30
0.0
 10
2.0727800000000003
 20
1.6072500000000001
 30
0.0
 10
2.0727800000000003
 20
1.6072500000000001
 30
0.0
 10
2.1743800000000002
 20
1.6224900000000002
 30
0.0
 10
2.20486
 20
1.53105
 30
0.0
 10
2.2378800000000001
 20
1.4116700000000002
 30
0.0
 10
2.2378800000000001
 20
1.4116700000000002
 30
0.0
 10
2.17184
 20
1.3964300000000001
 30
0.0
 10
2.1058000000000003
 20
1.5234300000000001
 30
0.0
 10
2.0194400000000003
 20
1.5234300000000001
 30
0.0
 10
2.0194400000000003
 20
1.5234300000000001
 30
0.0
 10
1.5774800000000002
 20
1.2211700000000001
 30
0.0
 10
1.5368400000000002
 20
0.60141
 30
0.0
 10
1.1583800000000002
 20
0.26613
 30
0.0
 10
1.1583800000000002
 20
0.26613
 30
0.0
 10
1.2015600000000002
 20
0.45663
 30
0.0
 10
1.3387200000000001
 20
0.6953900000000001
 30
0.0
 10
1.4758800000000001
 20
0.87065
 30
0.0
 10
1.4758800000000001
 20
0.87065
 30
0.0
 10
1.4758800000000001
 20
0.87065
 30
0.0
 10
1.6359000000000001
 20
1.3329300000000002
 30
0.0
 10
1.6359000000000001
 20
1.3329300000000002
 30
0.0
 10
1.6359000000000001
 20
1.3329300000000002
 30
0.0
 10
1.3895200000000001
 20
1.1246500000000001
 30
0.0
 10
1.2422000000000002
 20
0.6953900000000001
 30
0.0
 10
0.8408800000000001
 20
0.7588900000000001
 30
0.0
 10
0.8408800000000001
 20
0.7588900000000001
 30
0.0
 10
0.5665600000000001
 20
0.93415
 30
0.0
 10
0.19572
 20
1.10941
 30
0.0
 10
0.07634
 20
1.44469
 30
0.0
 10
0.07634
 20
1.44469
 30
0.0
 10
0.23128
 20
1.7621900000000001
 30
0.0
 10
-0.16241
 20
1.36341
 30
0.0
 10
-0.21829
 20
1.2694300000000001
 30
0.0
 10
-0.21829
 20
1.2694300000000001
 30
0.0
 10
-0.25385
 20
1.4751700000000001
 30
0.0
 10
0.06872
 20
1.6351900000000001
 30
0.0
 10
0.19318
 20
1.8104500000000001
 30
0.0
 10
0.19318
 20
1.8104500000000001
 30
0.0
 10
0.7138800000000001
 20
2.3514700000000004
 30
0.0
 10
1.1279000000000001
 20
1.4269100000000001
 30
0.0
 10
1.6689200000000002
 20
1.4599300000000002
 30
0.0
 10
1.6689200000000002
 20
1.4599300000000002
 30
0.0
 10
1.8162400000000001
 20
1.5539100000000001
 30
0.0
 10
1.9508600000000003
 20
1.5869300000000002
 30
0.0
 10
1.7527400000000002
 20
1.6504300000000001
 30
0.0
 10
1.7527400000000002
 20
1.6504300000000001
 30
0.0
 10
1.9788000000000001
 20
1.7926700000000002
 30
0.0
 10
2.0169000000000001
 20
2.0644500000000003
 30
0.0
 10
1.9864200000000001
 20
2.2701900000000004
 30
0.0
  0
SPLINE
  5
31
100
AcDbEntity
  8
Ebene 1
 62
     7
100
AcDbSpline
210
0.0
220
0.0
230
1.0
 70
     1
 71
     3
 72
    12
 73
     8
 74
     0
 42
0.0000000001
 43
0.0000000001
 40
0.0
 40
0.0
 40
0.0
 40
0.0
 40
0.5
 40
0.5
 40
0.5
 40
0.5
 40
1.0
 40
1.0
 40
1.0
 40
1.0
 10
3.3707200000000004
 20
1.8891900000000001
 30
0.0
 10
3.4850200000000005
 20
1.7621900000000001
 30
0.0
 10
3.4189800000000004
 20
1.5056500000000002
 30
0.0
 10
3.4164400000000001
 20
1.31769
 30
0.0
 10
3.4164400000000001
 20
1.31769
 30
0.0
 10
3.3300800000000002
 20
1.4751700000000001
 30
0.0
 10
3.3199200000000002
 20
1.7139300000000002
 30
0.0
 10
3.3707200000000004
 20
1.8891900000000001
 30
0.0
  0
SPLINE
  5
32
100
AcDbEntity
  8
Ebene 1
100
AcDbSpline
210
0.0
220
0.0
230
1.0
 70
     1
 71
     3
 72
    32
 73
    28
 74
     0
 42
0.0000000001
 43
0.0000000001
 40
0.0
 40
0.0
 40
0.0
 40
0.0
 40
0.1428571428571429
 40
0.1428571428571429
 40
0.1428571428571429
 40
0.1428571428571429
 40
0.2857142857142857
 40
0.2857142857142857
 40
0.2857142857142857
 40
0.2857142857142857
 40
0.4285714285714286
 40
0.4285714285714286
 40
0.4285714285714286
 40
0.4285714285714286
 40
0.5714285714285714
 40
0.5714285714285714
 40
0.5714285714285714
 40
0.5714285714285714
 40
0.7142857142857142
 40
0.7142857142857142
 40
0.7142857142857142
 40
0.7142857142857142
 40
0.857142857142857
 40
0.857142857142857
 40
0.857142857142857
 40
0.857142857142857
 40
1.0
 40
1.0
 40
1.0
 40
1.0
 10
-2.8192500000000003
 20
1.7469500000000002
 30
0.0
 10
-2.8675100000000002
 20
1.3329300000000002
 30
0.0
 10
-2.9640300000000002
 20
0.8376300000000001
 30
0.0
 10
-2.8802100000000004
 20
0.39313
 30
0.0
 10
-2.8802100000000004
 20
0.39313
 30
0.0
 10
-2.7455900000000004
 20
-0.0031
 30
0.0
 10
-2.4560300000000002
 20
-0.36886
 30
0.0
 10
-2.4230100000000001
 20
-0.78288
 30
0.0
 10
-2.4230100000000001
 20
-0.78288
 30
0.0
 10
-2.5601700000000003
 20
-0.6863600000000001
 30
0.0
 10
-2.5804900000000002
 20
-0.43236
 30
0.0
 10
-2.6693900000000004
 20
-0.27234
 30
0.0
 10
-2.6693900000000004
 20
-0.27234
 30
0.0
 10
-2.6693900000000004
 20
-0.27234
 30
0.0
 10
-2.7582900000000001
 20
-0.08184
 30
0.0
 10
-2.7582900000000001
 20
-0.08184
 30
0.0
 10
-2.7582900000000001
 20
-0.08184
 30
0.0
 10
-2.7582900000000001
 20
-0.08184
 30
0.0
 10
-2.8929100000000001
 20
0.02737
 30
0.0
 10
-2.8929100000000001
 20
0.02737
 30
0.0
 10
-2.8929100000000001
 20
0.02737
 30
0.0
 10
-2.9233900000000004
 20
-0.03358
 30
0.0
 10
-2.8319500000000004
 20
-0.1301
 30
0.0
 10
-2.9132300000000004
 20
-0.17836
 30
0.0
 10
-2.9132300000000004
 20
-0.17836
 30
0.0
 10
-3.1392900000000004
 20
0.42615
 30
0.0
 10
-3.0402300000000002
 20
1.1424300000000001
 30
0.0
 10
-2.8192500000000003
 20
1.7469500000000002
 30
0.0
  0
SPLINE
  5
33
100
AcDbEntity
  8
Ebene 1
100
AcDbSpline
210
0.0
220
0.0
230
1.0
 70
     1
 71
     3
 72
    20
 73
    16
 74
     0
 42
0.0000000001
 43
0.0000000001
 40
0.0
 40
0.0
 40
0.0
 40
0.0
 40
0.25
 40
0.25
 40
0.25
 40
0.25
 40
0.5
 40
0.5
 40
0.5
 40
0.5
 40
0.75
 40
0.75
 40
0.75
 40
0.75
 40
1.0
 40
1.0
 40
1.0
 40
1.0
 10
3.0049600000000001
 20
0.8376300000000001
 30
0.0
 10
3.1014800000000005
 20
0.80715
 30
0.0
 10
3.2107000000000001
 20
0.7106300000000001
 30
0.0
 10
3.2411800000000004
 20
0.61665
 30
0.0
 10
3.2411800000000004
 20
0.61665
 30
0.0
 10
3.2411800000000004
 20
0.61665
 30
0.0
 10
3.1853000000000002
 20
0.61665
 30
0.0
 10
3.1853000000000002
 20
0.61665
 30
0.0
 10
3.1853000000000002
 20
0.61665
 30
0.0
 10
3.0862400000000001
 20
0.7741300000000001
 30
0.0
 10
2.9389200000000004
 20
0.66237
 30
0.0
 10
2.8195400000000004
 20
0.6318900000000001
 30
0.0
 10
2.8195400000000004
 20
0.6318900000000001
 30
0.0
 10
2.76112
 20
0.74365
 30
0.0
 10
2.9490800000000004
 20
0.78937
 30
0.0
 10
3.0049600000000001
 20
0.8376300000000001
 30
0.0
  0
SPLINE
  5
34
100
AcDbEntity
  8
Ebene 1
100
AcDbSpline
210
0.0
220
0.0
230
1.0
 70
     1
 71
     3
 72
    24
 73
    20
 74
     0
 42
0.0000000001
 43
0.0000000001
 40
0.0
 40
0.0
 40
0.0
 40
0.0
 40
0.2
 40
0.2
 40
0.2
 40
0.2
 40
0.4
 40
0.4
 40
0.4
 40
0.4
 40
0.6000000000000001
 40
0.6000000000000001
 40
0.6000000000000001
 40
0.6000000000000001
 40
0.8
 40
0.8
 40
0.8
 40
0.8
 40
1.0
 40
1.0
 40
1.0
 40
1.0
 10
1.9864200000000001
 20
0.7741300000000001
 30
0.0
 10
2.0651600000000001
 20
0.7741300000000001
 30
0.0
 10
2.1185
 20
0.7106300000000001
 30
0.0
 10
2.1820000000000004
 20
0.68015
 30
0.0
 10
2.1820000000000004
 20
0.68015
 30
0.0
 10
2.1820000000000004
 20
0.68015
 30
0.0
 10
2.2861400000000001
 20
0.53537
 30
0.0
 10
2.2861400000000001
 20
0.53537
 30
0.0
 10
2.2861400000000001
 20
0.53537
 30
0.0
 10
2.2861400000000001
 20
0.53537
 30
0.0
 10
2.21502
 20
0.53537
 30
0.0
 10
2.21502
 20
0.53537
 30
0.0
 10
2.21502
 20
0.53537
 30
0.0
 10
2.1185
 20
0.6953900000000001
 30
0.0
 10
1.9102200000000003
 20
0.7284100000000001
 30
0.0
 10
1.7959200000000002
 20
0.5836300000000001
 30
0.0
 10
1.7959200000000002
 20
0.5836300000000001
 30
0.0
 10
1.7095600000000002
 20
0.68015
 30
0.0
 10
1.9178400000000002
 20
0.7741300000000001
 30
0.0
 10
1.9864200000000001
 20
0.7741300000000001
 30
0.0
  0
SPLINE
  5
35
100
AcDbEntity
  8
Ebene 1
100
AcDbSpline
210
0.0
220
0.0
230
1.0
 70
     1
 71
     3
 72
    20
 73
    16
 74
     0
 42
0.0000000001
 43
0.0000000001
 40
0.0
 40
0.0
 40
0.0
 40
0.0
 40
0.25
 40
0.25
 40
0.25
 40
0.25
 40
0.5
 40
0.5
 40
0.5
 40
0.5
 40
0.75
 40
0.75
 40
0.75
 40
0.75
 40
1.0
 40
1.0
 40
1.0
 40
1.0
 10
3.1497400000000004
 20
0.34487
 30
0.0
 10
3.2513400000000003
 20
0.32963
 30
0.0
 10
3.1903800000000002
 20
0.18739
 30
0.0
 10
3.2564200000000003
 20
0.13913
 30
0.0
 10
3.2564200000000003
 20
0.13913
 30
0.0
 10
3.0633800000000004
 20
0.04261
 30
0.0
 10
2.9897200000000002
 20
-0.17836
 30
0.0
 10
2.9414600000000002
 20
-0.3536200000000001
 30
0.0
 10
2.9414600000000002
 20
-0.3536200000000001
 30
0.0
 10
2.9262200000000003
 20
-0.3536200000000001
 30
0.0
 10
2.9135200000000001
 20
-0.33584
 30
0.0
 10
2.9084400000000001
 20
-0.3206000000000001
 30
0.0
 10
2.9084400000000001
 20
-0.3206000000000001
 30
0.0
 10
2.9541600000000003
 20
-0.08184
 30
0.0
 10
2.92876
 20
0.20263
 30
0.0
 10
3.1497400000000004
 20
0.34487
 30
0.0
  0
SPLINE
  5
36
100
AcDbEntity
  8
Ebene 1
 62
     7
100
AcDbSpline
210
0.0
220
0.0
230
1.0
 70
     1
 71
     3
 72
    12
 73
     8
 74
     0
 42
0.0000000001
 43
0.0000000001
 40
0.0
 40
0.0
 40
0.0
 40
0.0
 40
0.5
 40
0.5
 40
0.5
 40
0.5
 40
1.0
 40
1.0
 40
1.0
 40
1.0
 10
-0.58913
 20
0.26613
 30
0.0
 10
-0.44689
 20
0.15437
 30
0.0
 10
-0.53579
 20
-0.0666
 30
0.0
 10
-0.49769
 20
-0.22662
 30
0.0
 10
-0.49769
 20
-0.22662
 30
0.0
 10
-0.6018300000000001
 20
-0.09708
 30
0.0
 10
-0.67803
 20
0.10611
 30
0.0
 10
-0.58913
 20
0.26613
 30
0.0
  0
SPLINE
  5
37
100
AcDbEntity
  8
Ebene 1
100
AcDbSpline
210
0.0
220
0.0
230
1.0
 70
     1
 71
     3
 72
    20
 73
    16
 74
     0
 42
0.0000000001
 43
0.0000000001
 40
0.0
 40
0.0
 40
0.0
 40
0.0
 40
0.25
 40
0.25
 40
0.25
 40
0.25
 40
0.5
 40
0.5
 40
0.5
 40
0.5
 40
0.75
 40
0.75
 40
0.75
 40
0.75
 40
1.0
 40
1.0
 40
1.0
 40
1.0
 10
1.5901800000000001
 20
0.26613
 30
0.0
 10
1.9915000000000003
 20
0.26613
 30
0.0
 10
2.1134200000000001
 20
-0.20884
 30
0.0
 10
2.2226400000000002
 20
-0.5111
 30
0.0
 10
2.2226400000000002
 20
-0.5111
 30
0.0
 10
2.2226400000000002
 20
-0.5111
 30
0.0
 10
2.1515200000000001
 20
-0.46538
 30
0.0
 10
2.1515200000000001
 20
-0.46538
 30
0.0
 10
2.1515200000000001
 20
-0.46538
 30
0.0
 10
2.0753200000000001
 20
-0.14534
 30
0.0
 10
1.7375
 20
-0.0031
 30
0.0
 10
1.4657200000000001
 20
0.07309
 30
0.0
 10
1.4657200000000001
 20
0.07309
 30
0.0
 10
1.4301600000000001
 20
0.16961
 30
0.0
 10
1.5470000000000002
 20
0.20263
 30
0.0
 10
1.5901800000000001
 20
0.26613
 30
0.0
  0
SPLINE
  5
38
100
AcDbEntity
  8
Ebene 1
 62
     7
100
AcDbSpline
210
0.0
220
0.0
230
1.0
 70
     1
 71
     3
 72
    12
 73
     8
 74
     0
 42
0.0000000001
 43
0.0000000001
 40
0.0
 40
0.0
 40
0.0
 40
0.0
 40
0.5
 40
0.5
 40
0.5
 40
0.5
 40
1.0
 40
1.0
 40
1.0
 40
1.0
 10
1.1583800000000002
 20
-0.33584
 30
0.0
 10
1.2625200000000001
 20
-0.4171200000000001
 30
0.0
 10
1.2523600000000001
 20
-0.5593600000000001
 30
0.0
 10
1.2676000000000001
 20
-0.6711200000000001
 30
0.0
 10
1.2676000000000001
 20
-0.6711200000000001
 30
0.0
 10
1.1787000000000001
 20
-0.59238
 30
0.0
 10
1.18886
 20
-0.4476000000000001
 30
0.0
 10
1.1583800000000002
 20
-0.33584
 30
0.0
  0
SPLINE
  5
39
100
AcDbEntity
  8
Ebene 1
 62
     7
100
AcDbSpline
210
0.0
220
0.0
230
1.0
 70
     1
 71
     3
 72
    12
 73
     8
 74
     0
 42
0.0000000001
 43
0.0000000001
 40
0.0
 40
0.0
 40
0.0
 40
0.0
 40
0.5
 40
0.5
 40
0.5
 40
0.5
 40
1.0
 40
1.0
 40
1.0
 40
1.0
 10
0.7291200000000001
 20
-0.5111
 30
0.0
 10
0.7392800000000001
 20
-0.46538
 30
0.0
 10
0.7342000000000001
 20
-0.4171200000000001
 30
0.0
 10
0.7596000000000001
 20
-0.3841000000000001
 30
0.0
 10
0.7596000000000001
 20
-0.3841000000000001
 30
0.0
 10
0.8002400000000001
 20
-0.4171200000000001
 30
0.0
 10
0.7697600000000001
 20
-0.49586
 30
0.0
 10
0.7291200000000001
 20
-0.5111
 30
0.0
  0
SPLINE
  5
3A
100
AcDbEntity
  8
Ebene 1
 62
     7
100
AcDbSpline
210
0.0
220
0.0
230
1.0
 70
     1
 71
     3
 72
    12
 73
     8
 74
     0
 42
0.0000000001
 43
0.0000000001
 40
0.0
 40
0.0
 40
0.0
 40
0.0
 40
0.5
 40
0.5
 40
0.5
 40
0.5
 40
1.0
 40
1.0
 40
1.0
 40
1.0
 10
1.0313800000000002
 20
-0.3841000000000001
 30
0.0
 10
1.0821800000000001
 20
-0.4171200000000001
 30
0.0
 10
1.0745600000000002
 20
-0.49586
 30
0.0
 10
1.0745600000000002
 20
-0.5593600000000001
 30
0.0
 10
1.0745600000000002
 20
-0.5593600000000001
 30
0.0
 10
1.0085200000000001
 20
-0.52634
 30
0.0
 10
0.9678800000000001
 20
-0.43236
 30
0.0
 10
1.0313800000000002
 20
-0.3841000000000001
 30
0.0
  0
SPLINE
  5
3B
100
AcDbEntity
  8
Ebene 1
 62
     7
100
AcDbSpline
210
0.0
220
0.0
230
1.0
 70
     1
 71
     3
 72
    12
 73
     8
 74
     0
 42
0.0000000001
 43
0.0000000001
 40
0.0
 40
0.0
 40
0.0
 40
0.0
 40
0.5
 40
0.5
 40
0.5
 40
0.5
 40
1.0
 40
1.0
 40
1.0
 40
1.0
 10
0.8408800000000001
 20
-0.4476000000000001
 30
0.0
 10
0.9297800000000001
 20
-0.4806200000000001
 30
0.0
 10
0.8408800000000001
 20
-0.6406400000000001
 30
0.0
 10
0.7977000000000001
 20
-0.6863600000000001
 30
0.0
 10
0.7977000000000001
 20
-0.6863600000000001
 30
0.0
 10
0.7977000000000001
 20
-0.6863600000000001
 30
0.0
 10
0.8408800000000001
 20
-0.4476000000000001
 30
0.0
 10
0.8408800000000001
 20
-0.4476000000000001
 30
0.0
  0
SPLINE
  5
3C
100
AcDbEntity
  8
Ebene 1
 62
     7
100
AcDbSpline
210
0.0
220
0.0
230
1.0
 70
     1
 71
     3
 72
    12
 73
     8
 74
     0
 42
0.0000000001
 43
0.0000000001
 40
0.0
 40
0.0
 40
0.0
 40
0.0
 40
0.5
 40
0.5
 40
0.5
 40
0.5
 40
1.0
 40
1.0
 40
1.0
 40
1.0
 10
1.0009000000000001
 20
-0.59238
 30
0.0
 10
1.10758
 20
-0.6406400000000001
 30
0.0
 10
0.9932800000000001
 20
-0.84638
 30
0.0
 10
0.9247000000000001
 20
-0.8946400000000001
 30
0.0
 10
0.9247000000000001
 20
-0.8946400000000001
 30
0.0
 10
0.9247000000000001
 20
-0.8946400000000001
 30
0.0
 10
1.0009000000000001
 20
-0.59238
 30
0.0
 10
1.0009000000000001
 20
-0.59238
 30
0.0
  0
SPLINE
  5
3D
100
AcDbEntity
  8
Ebene 1
 62
     7
100
AcDbSpline
210
0.0
220
0.0
230
1.0
 70
     1
 71
     3
 72
    16
 73
    12
 74
     0
 42
0.0000000001
 43
0.0000000001
 40
0.0
 40
0.0
 40
0.0
 40
0.0
 40
0.3333333333333333
 40
0.3333333333333333
 40
0.3333333333333333
 40
0.3333333333333333
 40
0.6666666666666666
 40
0.6666666666666666
 40
0.6666666666666666
 40
0.6666666666666666
 40
1.0
 40
1.0
 40
1.0
 40
1.0
 10
3.2437200000000002
 20
-0.59238
 30
0.0
 10
3.2437200000000002
 20
-0.59238
 30
0.0
 10
3.2716600000000002
 20
-0.59238
 30
0.0
 10
3.2716600000000002
 20
-0.59238
 30
0.0
 10
3.2716600000000002
 20
-0.59238
 30
0.0
 10
3.2716600000000002
 20
-0.59238
 30
0.0
 10
3.3046800000000003
 20
-1.00386
 30
0.0
 10
3.3046800000000003
 20
-1.00386
 30
0.0
 10
3.3046800000000003
 20
-1.00386
 30
0.0
 10
3.2310200000000004
 20
-0.8946400000000001
 30
0.0
 10
3.1827600000000005
 20
-0.71938
 30
0.0
 10
3.2437200000000002
 20
-0.59238
 30
0.0
  0
SPLINE
  5
3E
100
AcDbEntity
  8
Ebene 1
 62
     7
100
AcDbSpline
210
0.0
220
0.0
230
1.0
 70
     1
 71
     3
 72
    12
 73
     8
 74
     0
 42
0.0000000001
 43
0.0000000001
 40
0.0
 40
0.0
 40
0.0
 40
0.0
 40
0.5
 40
0.5
 40
0.5
 40
0.5
 40
1.0
 40
1.0
 40
1.0
 40
1.0
 10
1.1583800000000002
 20
-0.6711200000000001
 30
0.0
 10
1.3260200000000002
 20
-0.7981200000000001
 30
0.0
 10
1.2218800000000001
 20
-1.1334000000000002
 30
0.0
 10
1.02122
 20
-1.1969000000000001
 30
0.0
 10
1.02122
 20
-1.1969000000000001
 30
0.0
 10
1.02122
 20
-1.1969000000000001
 30
0.0
 10
1.1583800000000002
 20
-0.6711200000000001
 30
0.0
 10
1.1583800000000002
 20
-0.6711200000000001
 30
0.0
  0
SPLINE
  5
3F
100
AcDbEntity
  8
Ebene 1
 62
     7
100
AcDbSpline
210
0.0
220
0.0
230
1.0
 70
     1
 71
     3
 72
    12
 73
     8
 74
     0
 42
0.0000000001
 43
0.0000000001
 40
0.0
 40
0.0
 40
0.0
 40
0.0
 40
0.5
 40
0.5
 40
0.5
 40
0.5
 40
1.0
 40
1.0
 40
1.0
 40
1.0
 10
1.3184
 20
-0.8946400000000001
 30
0.0
 10
1.4631800000000001
 20
-1.0699000000000001
 30
0.0
 10
1.3768200000000002
 20
-1.41788
 30
0.0
 10
1.1329800000000001
 20
-1.49916
 30
0.0
 10
1.1329800000000001
 20
-1.49916
 30
0.0
 10
1.1329800000000001
 20
-1.49916
 30
0.0
 10
1.3184
 20
-0.8946400000000001
 30
0.0
 10
1.3184
 20
-0.8946400000000001
 30
0.0
  0
SPLINE
  5
40
100
AcDbEntity
  8
Ebene 1
 62
     7
100
AcDbSpline
210
0.0
220
0.0
230
1.0
 70
     1
 71
     3
 72
    16
 73
    12
 74
     0
 42
0.0000000001
 43
0.0000000001
 40
0.0
 40
0.0
 40
0.0
 40
0.0
 40
0.3333333333333333
 40
0.3333333333333333
 40
0.3333333333333333
 40
0.3333333333333333
 40
0.6666666666666666
 40
0.6666666666666666
 40
0.6666666666666666
 40
0.6666666666666666
 40
1.0
 40
1.0
 40
1.0
 40
1.0
 10
3.1014800000000005
 20
-0.9733800000000001
 30
0.0
 10
3.1192600000000001
 20
-0.9733800000000001
 30
0.0
 10
3.1345000000000001
 20
-0.9733800000000001
 30
0.0
 10
3.1446600000000005
 20
-0.9886200000000001
 30
0.0
 10
3.1446600000000005
 20
-0.9886200000000001
 30
0.0
 10
3.1319600000000003
 20
-1.1791200000000002
 30
0.0
 10
3.1243400000000001
 20
-1.3874000000000002
 30
0.0
 10
3.0684600000000004
 20
-1.5626600000000002
 30
0.0
 10
3.0684600000000004
 20
-1.5626600000000002
 30
0.0
 10
2.9617800000000001
 20
-1.3874000000000002
 30
0.0
 10
2.9617800000000001
 20
-1.1486400000000001
 30
0.0
 10
3.1014800000000005
 20
-0.9733800000000001
 30
0.0
  0
SPLINE
  5
41
100
AcDbEntity
  8
Ebene 1
 62
     7
100
AcDbSpline
210
0.0
220
0.0
230
1.0
 70
     1
 71
     3
 72
    12
 73
     8
 74
     0
 42
0.0000000001
 43
0.0000000001
 40
0.0
 40
0.0
 40
0.0
 40
0.0
 40
0.5
 40
0.5
 40
0.5
 40
0.5
 40
1.0
 40
1.0
 40
1.0
 40
1.0
 10
1.5419200000000002
 20
-1.0699000000000001
 30
0.0
 10
1.7349600000000001
 20
-1.2426200000000001
 30
0.0
 10
1.6308200000000002
 20
-1.6109200000000001
 30
0.0
 10
1.40222
 20
-1.7379200000000001
 30
0.0
 10
1.40222
 20
-1.7379200000000001
 30
0.0
 10
1.4581000000000002
 20
-1.5144000000000002
 30
0.0
 10
1.39714
 20
-1.2604000000000002
 30
0.0
 10
1.5419200000000002
 20
-1.0699000000000001
 30
0.0
  0
SPLINE
  5
42
100
AcDbEntity
  8
Ebene 1
 62
     7
100
AcDbSpline
210
0.0
220
0.0
230
1.0
 70
     1
 71
     3
 72
    12
 73
     8
 74
     0
 42
0.0000000001
 43
0.0000000001
 40
0.0
 40
0.0
 40
0.0
 40
0.0
 40
0.5
 40
0.5
 40
0.5
 40
0.5
 40
1.0
 40
1.0
 40
1.0
 40
1.0
 10
1.8111600000000001
 20
-1.1791200000000002
 30
0.0
 10
1.9457800000000001
 20
-1.37216
 30
0.0
 10
1.8746600000000002
 20
-1.7049000000000001
 30
0.0
 10
1.6740000000000002
 20
-1.8319000000000001
 30
0.0
 10
1.6740000000000002
 20
-1.8319000000000001
 30
0.0
 10
1.6638400000000002
 20
-1.6109200000000001
 30
0.0
 10
1.6867000000000001
 20
-1.3569200000000001
 30
0.0
 10
1.8111600000000001
 20
-1.1791200000000002
 30
0.0
  0
SPLINE
  5
43
100
AcDbEntity
  8
Ebene 1
 62
     7
100
AcDbSpline
210
0.0
220
0.0
230
1.0
 70
     1
 71
     3
 72
    12
 73
     8
 74
     0
 42
0.0000000001
 43
0.0000000001
 40
0.0
 40
0.0
 40
0.0
 40
0.0
 40
0.5
 40
0.5
 40
0.5
 40
0.5
 40
1.0
 40
1.0
 40
1.0
 40
1.0
 10
2.7662000000000004
 20
-1.21214
 30
0.0
 10
2.9821000000000004
 20
-1.3391400000000002
 30
0.0
 10
2.7966800000000003
 20
-1.6744200000000002
 30
0.0
 10
2.7789000000000001
 20
-1.8801600000000001
 30
0.0
 10
2.7789000000000001
 20
-1.8801600000000001
 30
0.0
 10
2.7408000000000001
 20
-1.6744200000000002
 30
0.0
 10
2.5655400000000004
 20
-1.3874000000000002
 30
0.0
 10
2.7662000000000004
 20
-1.21214
 30
0.0
  0
SPLINE
  5
44
100
AcDbEntity
  8
Ebene 1
 62
     7
100
AcDbSpline
210
0.0
220
0.0
230
1.0
 70
     1
 71
     3
 72
    16
 73
    12
 74
     0
 42
0.0000000001
 43
0.0000000001
 40
0.0
 40
0.0
 40
0.0
 40
0.0
 40
0.3333333333333333
 40
0.3333333333333333
 40
0.3333333333333333
 40
0.3333333333333333
 40
0.6666666666666666
 40
0.6666666666666666
 40
0.6666666666666666
 40
0.6666666666666666
 40
1.0
 40
1.0
 40
1.0
 40
1.0
 10
2.4487000000000001
 20
-1.2426200000000001
 30
0.0
 10
2.67984
 20
-1.4661400000000002
 30
0.0
 10
2.38266
 20
-1.8166600000000002
 30
0.0
 10
2.3420200000000002
 20
-2.0732000000000004
 30
0.0
 10
2.3420200000000002
 20
-2.0732000000000004
 30
0.0
 10
2.3064600000000004
 20
-1.9131800000000001
 30
0.0
 10
2.2785200000000003
 20
-1.7531600000000001
 30
0.0
 10
2.2886800000000003
 20
-1.5779000000000001
 30
0.0
 10
2.2886800000000003
 20
-1.5779000000000001
 30
0.0
 10
2.2124800000000002
 20
-1.4509000000000001
 30
0.0
 10
2.2886800000000003
 20
-1.2426200000000001
 30
0.0
 10
2.4487000000000001
 20
-1.2426200000000001
 30
0.0
  0
SPLINE
  5
45
100
AcDbEntity
  8
Ebene 1
 62
     7
100
AcDbSpline
210
0.0
220
0.0
230
1.0
 70
     1
 71
     3
 72
    12
 73
     8
 74
     0
 42
0.0000000001
 43
0.0000000001
 40
0.0
 40
0.0
 40
0.0
 40
0.0
 40
0.5
 40
0.5
 40
0.5
 40
0.5
 40
1.0
 40
1.0
 40
1.0
 40
1.0
 10
2.0499200000000002
 20
-1.2604000000000002
 30
0.0
 10
2.2582
 20
-1.4661400000000002
 30
0.0
 10
2.1870800000000004
 20
-1.8166600000000002
 30
0.0
 10
2.0042
 20
-2.02494
 30
0.0
 10
2.0042
 20
-2.02494
 30
0.0
 10
1.9457800000000001
 20
-1.8014200000000002
 30
0.0
 10
1.9407000000000001
 20
-1.4661400000000002
 30
0.0
 10
2.0499200000000002
 20
-1.2604000000000002
 30
0.0
  0
ENDSEC
  0
SECTION
  2
OBJECTS
  0
DICTIONARY
  5
19
100
AcDbDictionary
280
     0
281
     1
  3
ACAD_GROUP
350
1A
  3
ACAD_MLINESTYLE
350
1B
  3
ACAD_LAYOUT
350
1E
  3
ACAD_PLOTSETTINGS
350
22
  3
ACAD_PLOTSTYLENAME
350
1F
  3
ACAD_WIPEOUT_VARS
350
23
  0
DICTIONARY
  5
1A
102
{ACAD_REACTORS
330
19
102
}
100
AcDbDictionary
280
     0
281
     1
  0
DICTIONARY
  5
1B
102
{ACAD_REACTORS
330
19
102
}
100
AcDbDictionary
280
     0
281
     1
  3
Standard
350
1C
  0
MLINESTYLE
  5
1C
102
{ACAD_REACTORS
330
1B
102
}
100
AcDbMlineStyle
  2
Standard
 70
     0
  3

 62
     0
 51
90.0
 52
90.0
 71
     2
 49
0.5
 62
   256
  6
BYLAYER
 49
-0.5
 62
   256
  6
BYLAYER
  0
ACDBDICTIONARYWDFLT
  5
1F
102
{ACAD_REACTORS
330
19
102
}
100
AcDbDictionary
281
     1
  3
Normal
350
1D
100
AcDbDictionaryWithDefault
340
1D
  0
ACDBPLACEHOLDER
  5
1D
102
{ACAD_REACTORS
330
1F
102
}
  0
LAYOUT
  5
20
102
{ACAD_REACTORS
330
1E
102
}
100
AcDbPlotSettings
  1

  2

  4

  6

 40
0.0
 41
0.0
 42
0.0
 43
0.0
 44
0.0
 45
0.0
 46
0.0
 47
0.0
 48
0.0
 49
0.0
140
0.0
141
0.0
142
1.0
143
1.0
 70
  1024
 72
     0
 73
     0
 74
     0
  7

 75
     0
147
1.0
148
0.0
149
0.0
100
AcDbLayout
  1
Model
 70
     0
 71
     0
 10
0.0
 20
0.0
 11
0.0
 21
0.0
 12
0.0
 22
0.0
 32
0.0
 14
0.0
 24
0.0
 34
0.0
 15
0.0
 25
0.0
 35
0.0
146
0.0
 13
0.0
 23
0.0
 33
0.0
 16
0.0
 26
0.0
 36
0.0
 17
0.0
 27
0.0
 37
0.0
 76
     0
330
A
331
0
345
0
346
0
  0
LAYOUT
  5
21
102
{ACAD_REACTORS
330
1E
102
}
100
AcDbPlotSettings
  1

  2

  4

  6

 40
0.0
 41
0.0
 42
0.0
 43
0.0
 44
0.0
 45
0.0
 46
0.0
 47
0.0
 48
0.0
 49
0.0
140
0.0
141
0.0
142
1.0
143
1.0
 70
     0
 72
     0
 73
     0
 74
     0
  7

 75
     0
147
1.0
148
0.0
149
0.0
100
AcDbLayout
  1
Layout1
 70
     0
 71
     0
 10
0.0
 20
0.0
 11
0.0
 21
0.0
 12
0.0
 22
0.0
 32
0.0
 14
0.0
 24
0.0
 34
0.0
 15
0.0
 25
0.0
 35
0.0
146
0.0
 13
0.0
 23
0.0
 33
0.0
 16
0.0
 26
0.0
 36
0.0
 17
0.0
 27
0.0
 37
0.0
 76
     0
330
B
331
0
345
0
346
0
  0
DICTIONARY
  5
1E
102
{ACAD_REACTORS
330
19
102
}
100
AcDbDictionary
280
     0
281
     1
  3
Layout1
350
21
  3
Model
350
20
  0
DICTIONARY
  5
22
102
{ACAD_REACTORS
330
19
102
}
100
AcDbDictionary
280
     0
281
     1
  0
WIPEOUTVARIABLES
  5
23
100
AcDbWipeoutVariables
 70
     1
  0
ENDSEC
  0
EOF
