  0
SECTION
  2
HEADER
  9
$ACADVER
  1
AC1015
  9
$ACADMAINTVER
 70
     6
  9
$DWGCODEPAGE
  3
DOS850
  9
$INSBASE
 10
0.0
 20
0.0
 30
0.0
  9
$EXTMIN
 10
-4.52076
 20
-5.63428
 30
1.000000E+20
  9
$EXTMAX
 10
4.52642
 20
5.62807
 30
-1.000000E+20
  9
$LIMMIN
 10
0.0
 20
0.0
  9
$LIMMAX
 10
0.0
 20
0.0
  9
$ORTHOMODE
 70
     0
  9
$REGENMODE
 70
     1
  9
$FILLMODE
 70
     1
  9
$QTEXTMODE
 70
     0
  9
$MIRRTEXT
 70
     1
  9
$LTSCALE
 40
1.0
  9
$ATTMODE
 70
     1
  9
$TEXTSIZE
 40
0.2
  9
$TRACEWID
 40
0.05
  9
$TEXTSTYLE
  7
Standard
  9
$CLAYER
  8
0
  9
$CELTYPE
  6
Continuous
  9
$CECOLOR
 62
   256
  9
$CELTSCALE
 40
1.0
  9
$DISPSILH
 70
     0
  9
$DIMSCALE
 40
1.0
  9
$DIMASZ
 40
0.18
  9
$DIMEXO
 40
0.0625
  9
$DIMDLI
 40
0.38
  9
$DIMRND
 40
0.0
  9
$DIMDLE
 40
0.0
  9
$DIMEXE
 40
0.18
  9
$DIMTP
 40
0.0
  9
$DIMTM
 40
0.0
  9
$DIMTXT
 40
0.18
  9
$DIMCEN
 40
0.09
  9
$DIMTSZ
 40
0.0
  9
$DIMTOL
 70
     0
  9
$DIMLIM
 70
     0
  9
$DIMTIH
 70
     1
  9
$DIMTOH
 70
     1
  9
$DIMSE1
 70
     0
  9
$DIMSE2
 70
     0
  9
$DIMTAD
 70
     0
  9
$DIMZIN
 70
     0
  9
$DIMBLK
  1

  9
$DIMASO
 70
     1
  9
$DIMSHO
 70
     1
  9
$DIMPOST
  1

  9
$DIMAPOST
  1

  9
$DIMALT
 70
     0
  9
$DIMALTD
 70
     2
  9
$DIMALTF
 40
25.4
  9
$DIMLFAC
 40
1.0
  9
$DIMTOFL
 70
     0
  9
$DIMTVP
 40
0.0
  9
$DIMTIX
 70
     0
  9
$DIMSOXD
 70
     0
  9
$DIMSAH
 70
     0
  9
$DIMBLK1
  1

  9
$DIMBLK2
  1

  9
$DIMSTYLE
  2
Standard
  9
$DIMCLRD
 70
     0
  9
$DIMCLRE
 70
     0
  9
$DIMCLRT
 70
     0
  9
$DIMTFAC
 40
1.0
  9
$DIMGAP
 40
0.09
  9
$DIMJUST
 70
     0
  9
$DIMSD1
 70
     0
  9
$DIMSD2
 70
     0
  9
$DIMTOLJ
 70
     1
  9
$DIMTZIN
 70
     0
  9
$DIMALTZ
 70
     0
  9
$DIMALTTZ
 70
     0
  9
$DIMUPT
 70
     0
  9
$DIMDEC
 70
     4
  9
$DIMTDEC
 70
     4
  9
$DIMALTU
 70
     2
  9
$DIMALTTD
 70
     2
  9
$DIMTXSTY
  7
Standard
  9
$DIMAUNIT
 70
     0
  9
$DIMADEC
 70
     0
  9
$DIMALTRND
 40
0.0
  9
$DIMAZIN
 70
     0
  9
$DIMDSEP
 70
     0
  9
$DIMATFIT
 70
     3
  9
$DIMFRAC
 70
     0
  9
$DIMLDRBLK
  1

  9
$DIMLUNIT
 70
     2
  9
$DIMLWD
 70
     0
  9
$DIMLWE
 70
     0
  9
$DIMTMOVE
 70
     0
  9
$LUNITS
 70
     2
  9
$LUPREC
 70
     4
  9
$SKETCHINC
 40
0.1
  9
$FILLETRAD
 40
0.0
  9
$AUNITS
 70
     0
  9
$AUPREC
 70
     0
  9
$MENU
  1
acad
  9
$ELEVATION
 40
0.0
  9
$PELEVATION
 40
0.0
  9
$THICKNESS
 40
0.0
  9
$LIMCHECK
 70
     0
  9
$CHAMFERA
 40
0.0
  9
$CHAMFERB
 40
0.0
  9
$CHAMFERC
 40
0.0
  9
$CHAMFERD
 40
0.0
  9
$SKPOLY
 70
     0
  9
$TDCREATE
 40
0.000000000
  9
$TDUCREATE
 40
0.000000000
  9
$TDUPDATE
 40
0.000000000
  9
$TDUUPDATE
 40
0.000000000
  9
$TDINDWG
 40
0.0000000000
  9
$TDUSRTIMER
 40
0.0000000000
  9
$USRTIMER
 70
     1
  9
$ANGBASE
 50
0.0
  9
$ANGDIR
 70
     0
  9
$PDMODE
 70
     0
  9
$PDSIZE
 40
0.0
  9
$PLINEWID
 40
0.0
  9
$SPLFRAME
 70
     0
  9
$SPLINETYPE
 70
     6
  9
$SPLINESEGS
 70
     8
  9
$HANDSEED
  5
44
  9
$SURFTAB1
 70
     6
  9
$SURFTAB2
 70
     6
  9
$SURFTYPE
 70
     6
  9
$SURFU
 70
     6
  9
$SURFV
 70
     6
  9
$UCSBASE
  2

  9
$UCSNAME
  2

  9
$UCSORG
 10
0.0
 20
0.0
 30
0.0
  9
$UCSXDIR
 10
1.0
 20
0.0
 30
0.0
  9
$UCSYDIR
 10
0.0
 20
1.0
 30
0.0
  9
$UCSORTHOREF
  2

  9
$UCSORTHOVIEW
 70
     0
  9
$UCSORGTOP
 10
0.0
 20
0.0
 30
0.0
  9
$UCSORGBOTTOM
 10
0.0
 20
0.0
 30
0.0
  9
$UCSORGLEFT
 10
0.0
 20
0.0
 30
0.0
  9
$UCSORGRIGHT
 10
0.0
 20
0.0
 30
0.0
  9
$UCSORGFRONT
 10
0.0
 20
0.0
 30
0.0
  9
$UCSORGBACK
 10
0.0
 20
0.0
 30
0.0
  9
$PUCSBASE
  2

  9
$PUCSNAME
  2

  9
$PUCSORG
 10
0.0
 20
0.0
 30
0.0
  9
$PUCSXDIR
 10
1.0
 20
0.0
 30
0.0
  9
$PUCSYDIR
 10
0.0
 20
1.0
 30
0.0
  9
$PUCSORTHOREF
  2

  9
$PUCSORTHOVIEW
 70
     0
  9
$PUCSORGTOP
 10
0.0
 20
0.0
 30
0.0
  9
$PUCSORGBOTTOM
 10
0.0
 20
0.0
 30
0.0
  9
$PUCSORGLEFT
 10
0.0
 20
0.0
 30
0.0
  9
$PUCSORGRIGHT
 10
0.0
 20
0.0
 30
0.0
  9
$PUCSORGFRONT
 10
0.0
 20
0.0
 30
0.0
  9
$PUCSORGBACK
 10
0.0
 20
0.0
 30
0.0
  9
$USERI1
 70
     0
  9
$USERI2
 70
     0
  9
$USERI3
 70
     0
  9
$USERI4
 70
     0
  9
$USERI5
 70
     0
  9
$USERR1
 40
0.0
  9
$USERR2
 40
0.0
  9
$USERR3
 40
0.0
  9
$USERR4
 40
0.0
  9
$USERR5
 40
0.0
  9
$WORLDVIEW
 70
     1
  9
$SHADEDGE
 70
     3
  9
$SHADEDIF
 70
    70
  9
$TILEMODE
 70
     1
  9
$MAXACTVP
 70
    16
  9
$PINSBASE
 10
0.0
 20
0.0
 30
0.0
  9
$PLIMCHECK
 70
     0
  9
$PEXTMIN
 10
1.000000E+20
 20
1.000000E+20
 30
1.000000E+20
  9
$PEXTMAX
 10
-1.000000E+20
 20
-1.000000E+20
 30
-1.000000E+20
  9
$PLIMMIN
 10
0.0
 20
0.0
  9
$PLIMMAX
 10
12.0
 20
9.0
  9
$UNITMODE
 70
     0
  9
$VISRETAIN
 70
     0
  9
$PLINEGEN
 70
     1
  9
$PSLTSCALE
 70
     0
  9
$TREEDEPTH
 70
  3020
  9
$CMLSTYLE
  2
Standard
  9
$CMLJUST
 70
     0
  9
$CMLSCALE
 40
1.0
  9
$PROXYGRAPHICS
 70
     0
  9
$MEASUREMENT
 70
     0
  9
$CELWEIGHT
370
     0
  9
$ENDCAPS
280
     0
  9
$JOINSTYLE
280
     0
  9
$LWDISPLAY
290
     0
  9
$INSUNITS
 70
     5
  9
$HYPERLINKBASE
  1

  9
$XEDIT
290
     1
  9
$CEPSNTYPE
380
     0
  9
$PSTYLEMODE
290
     1
  9
$FINGERPRINTGUID
  2

  9
$VERSIONGUID
  2

  9
$EXTNAMES
290
     1
  9
$PSVPSCALE
 40
0.0
  0
ENDSEC
  0
SECTION
  2
CLASSES
  0
CLASS
  1
LWPOLYLINE
  2
AcDbPolyline
  3
AutoCAD 2000
 90
    32768
280
     0
281
     1
  0
CLASS
  1
IMAGE
  2
AcDbRasterImage
  3
ISM
 90
    32895
280
     0
281
     1
  0
CLASS
  1
OLE2FRAME
  2
AcDbOle2Frame
  3
AutoCAD 2000
 90
    32768
280
     0
281
     1
  0
CLASS
  1
HATCH
  2
AcDbHatch
  3
AutoCAD 2000
 90
    32768
280
     0
281
     1
  0
CLASS
  1
DICTIONARYVAR
  2
AcDbDictionaryVar
  3
AutoCAD 2000
 90
    32768
280
     0
281
     0
  0
CLASS
  1
RASTERVARIABLES
  2
AcDbRasterVariables
  3
ISM
 90
    32768
280
     0
281
     0
  0
CLASS
  1
IMAGEDEF
  2
AcDbRasterImageDef
  3
ISM
 90
    32768
280
     0
281
     0
  0
CLASS
  1
IMAGEDEF_REACTOR
  2
AcDbRasterImageDefReactor
  3
ISM
 90
    32769
280
     0
281
     0
  0
CLASS
  1
IDBUFFER
  2
AcDbIdBuffer
  3
AutoCAD 2000
 90
    32768
280
     0
281
     0
  0
CLASS
  1
SPATIAL_FILTER
  2
AcDbSpatialFilter
  3
AutoCAD 2000
 90
    32768
280
     0
281
     0
  0
CLASS
  1
XRECORD
  2
AcDbXrecord
  3
AutoCAD 2000
 90
    32768
280
     0
281
     0
  0
CLASS
  1
SORTENTSTABLE
  2
AcDbSortentsTable
  3
AutoCAD 2000
 90
    32768
280
     0
281
     0
  0
CLASS
  1
LAYER_INDEX
  2
AcDbLayerIndex
  3
AutoCAD 2000
 90
    32768
280
     0
281
     0
  0
CLASS
  1
SPATIAL_INDEX
  2
AcDbSpatialIndex
  3
AutoCAD 2000
 90
    32768
280
     0
281
     0
  0
CLASS
  1
OBJECT_PTR
  2
CAseDLPNTableRecord
  3
"ASE-LPNTableRecord"
 90
    32769
280
     0
281
     0
  0
CLASS
  1
LAYOUT
  2
AcDbLayout
  3
AutoCAD 2000
 90
        0
280
     0
281
     0
  0
CLASS
  1
PLOTSETTINGS
  2
AcDbPlotSettings
  3
AutoCAD 2000
 90
    32768
280
     0
281
     0
  0
CLASS
  1
ACDBDICTIONARYWDFLT
  2
AcDbDictionaryWithDefault
  3
AutoCAD 2000
 90
        0
280
     0
281
     0
  0
CLASS
  1
ACDBPLACEHOLDER
  2
AcDbPlaceHolder
  3
AutoCAD 2000
 90
        0
280
     0
281
     0
  0
CLASS
  1
VBA_PROJECT
  2
AcDbVbaProject
  3
acadvba
 90
    32768
280
     0
281
     0
  0
CLASS
  1
WIPEOUT
  2
AcDbWipeout
  3
WipeOut|AutoCAD Express Tool|expresstools@autodesk.com
 90
    32895
280
     0
281
     1
  0
CLASS
  1
WIPEOUTVARIABLES
  2
AcDbWipeoutVariables
  3
WipeOut|AutoCAD Express Tool|expresstools@autodesk.com
 90
        0
280
     0
281
     0
  0
CLASS
  1
RTEXT
  2
RText
  3
RText|AutoCAD Express Tool|expresstools@autodesk.com
 90
    32768
280
     0
281
     1
  0
CLASS
  1
ARCALIGNEDTEXT
  2
AcDbArcAlignedText
  3
ATEXT|AutoCAD Express Tool|expresstools@autodesk.com
 90
    32768
280
     0
281
     1
  0
ENDSEC
  0
SECTION
  2
TABLES
  0
TABLE
  2
VPORT
  5
7
100
AcDbSymbolTable
 70
     1
  0
VPORT
  5
15
100
AcDbSymbolTableRecord
100
AcDbViewportTableRecord
  2
*ACTIVE
 70
     0
 10
0.0
 20
0.0
 11
1.0
 21
1.0
 12
6.591288
 22
4.579184
 13
0.0
 23
0.0
 14
1.0
 24
1.0
 15
0.0
 25
0.0
 16
0.0
 26
0.0
 36
1.0
 17
0.0
 27
0.0
 37
0.0
 40
9.158369
 41
0.688564
 42
50.0
 43
0.0
 44
0.0
 50
0.0
 51
0.0
 71
     0
 72
   100
 73
     1
 74
     1
 75
     0
 76
     0
 77
     0
 78
     0
281
     0
 65
     0
110
0.0
120
0.0
130
0.0
111
1.0
121
0.0
131
0.0
112
0.0
122
1.0
132
0.0
345
0
346
0
 79
     0
146
0.0
  0
ENDTAB
  0
TABLE
  2
LTYPE
  5
4
100
AcDbSymbolTable
 70
     3
  0
LTYPE
  5
11
100
AcDbSymbolTableRecord
100
AcDbLinetypeTableRecord
  2
ByBlock
 70
    64
  3

 72
    65
 73
     0
 40
0.0
  0
LTYPE
  5
12
100
AcDbSymbolTableRecord
100
AcDbLinetypeTableRecord
  2
ByLayer
 70
    64
  3

 72
    65
 73
     0
 40
0.0
  0
LTYPE
  5
13
100
AcDbSymbolTableRecord
100
AcDbLinetypeTableRecord
  2
Continuous
 70
    64
  3
Solid line
 72
    65
 73
     0
 40
0.0
  0
ENDTAB
  0
TABLE
  2
LAYER
  5
2
100
AcDbSymbolTable
 70
     2
  0
LAYER
  5
14
100
AcDbSymbolTableRecord
100
AcDbLayerTableRecord
  2
0
 70
     0
 62
     7
  6
Continuous
290
     1
370
    -3
390
1D
  0
LAYER
  5
24
100
AcDbSymbolTableRecord
100
AcDbLayerTableRecord
  2
Ebene 1
 70
     0
 62
     7
  6
Continuous
290
     1
370
    -3
390
1F
  0
ENDTAB
  0
TABLE
  2
STYLE
  5
3
100
AcDbSymbolTable
 70
     1
  0
STYLE
  5
17
100
AcDbSymbolTableRecord
100
AcDbTextStyleTableRecord
  2
Standard
 70
     0
 40
0.0
 41
1.0
 50
0.0
 71
     0
 42
0.0
  3
txt
  4

  0
ENDTAB
  0
TABLE
  2
VIEW
  5
5
100
AcDbSymbolTable
 70
     0
  0
ENDTAB
  0
TABLE
  2
UCS
  5
6
100
AcDbSymbolTable
 70
     0
  0
ENDTAB
  0
TABLE
  2
APPID
  5
8
100
AcDbSymbolTable
 70
     1
  0
APPID
  5
16
100
AcDbSymbolTableRecord
100
AcDbRegAppTableRecord
  2
ACAD
 70
     0
  0
ENDTAB
  0
TABLE
  2
DIMSTYLE
  5
9
100
AcDbSymbolTable
 70
     1
100
AcDbDimStyleTable
 71
     0
  0
DIMSTYLE
105
18
100
AcDbSymbolTableRecord
100
AcDbDimStyleTableRecord
  2
Standard
 70
     0
  3

  4

 40
1.0
 41
0.18
 42
0.0625
 43
0.38
 44
0.18
 45
0.0
 46
0.0
 47
0.0
 48
0.0
 71
     0
 72
     0
 73
     1
 74
     1
 75
     0
 76
     0
 77
     0
 78
     0
 79
     0
140
0.18
141
0.09
142
0.0
143
25.4
144
1.0
145
0.0
146
1.0
147
0.09
148
0.0
170
     0
171
     2
172
     0
173
     0
174
     0
175
     0
176
     0
177
     0
178
     0
179
     0
271
     4
272
     4
273
     2
274
     2
275
     0
276
     0
277
     2
278
    46
279
     0
280
     0
281
     0
282
     0
283
     1
284
     0
285
     0
286
     0
288
     0
340
17
341
0
342
0
343
0
344
0
371
    -2
372
    -2
  0
ENDTAB
  0
TABLE
  2
BLOCK_RECORD
  5
1
100
AcDbSymbolTable
 70
     0
  0
BLOCK_RECORD
  5
A
100
AcDbSymbolTableRecord
100
AcDbBlockTableRecord
  2
*MODEL_SPACE
340
20
  0
BLOCK_RECORD
  5
B
100
AcDbSymbolTableRecord
100
AcDbBlockTableRecord
  2
*PAPER_SPACE
340
21
  0
ENDTAB
  0
ENDSEC
  0
SECTION
  2
BLOCKS
  0
BLOCK
  5
D
100
AcDbEntity
  8
0
100
AcDbBlockBegin
  2
*MODEL_SPACE
 70
     0
 10
0.0
 20
0.0
 30
0.0
  3
*MODEL_SPACE
  1

  0
ENDBLK
  5
E
100
AcDbEntity
  8
0
100
AcDbBlockEnd
  0
BLOCK
  5
F
100
AcDbEntity
 67
     1
  8
0
100
AcDbBlockBegin
  2
*PAPER_SPACE
 70
     0
 10
0.0
 20
0.0
 30
0.0
  3
*PAPER_SPACE
  1

  0
ENDBLK
  5
10
100
AcDbEntity
 67
     1
  8
0
100
AcDbBlockEnd
  0
ENDSEC
  0
SECTION
  2
ENTITIES
  0
SPLINE
  5
25
100
AcDbEntity
  8
Ebene 1
100
AcDbSpline
210
0.0
220
0.0
230
1.0
 70
     1
 71
     3
 72
   140
 73
   136
 74
     0
 42
0.0000000001
 43
0.0000000001
 40
0.0
 40
0.0
 40
0.0
 40
0.0
 40
0.0294117647058824
 40
0.0294117647058824
 40
0.0294117647058824
 40
0.0294117647058824
 40
0.0588235294117647
 40
0.0588235294117647
 40
0.0588235294117647
 40
0.0588235294117647
 40
0.0882352941176471
 40
0.0882352941176471
 40
0.0882352941176471
 40
0.0882352941176471
 40
0.1176470588235294
 40
0.1176470588235294
 40
0.1176470588235294
 40
0.1176470588235294
 40
0.1470588235294118
 40
0.1470588235294118
 40
0.1470588235294118
 40
0.1470588235294118
 40
0.1764705882352941
 40
0.1764705882352941
 40
0.1764705882352941
 40
0.1764705882352941
 40
0.2058823529411765
 40
0.2058823529411765
 40
0.2058823529411765
 40
0.2058823529411765
 40
0.2352941176470589
 40
0.2352941176470589
 40
0.2352941176470589
 40
0.2352941176470589
 40
0.2647058823529412
 40
0.2647058823529412
 40
0.2647058823529412
 40
0.2647058823529412
 40
0.2941176470588235
 40
0.2941176470588235
 40
0.2941176470588235
 40
0.2941176470588235
 40
0.3235294117647059
 40
0.3235294117647059
 40
0.3235294117647059
 40
0.3235294117647059
 40
0.3529411764705883
 40
0.3529411764705883
 40
0.3529411764705883
 40
0.3529411764705883
 40
0.3823529411764706
 40
0.3823529411764706
 40
0.3823529411764706
 40
0.3823529411764706
 40
0.411764705882353
 40
0.411764705882353
 40
0.411764705882353
 40
0.411764705882353
 40
0.4411764705882353
 40
0.4411764705882353
 40
0.4411764705882353
 40
0.4411764705882353
 40
0.4705882352941177
 40
0.4705882352941177
 40
0.4705882352941177
 40
0.4705882352941177
 40
0.5
 40
0.5
 40
0.5
 40
0.5
 40
0.5294117647058824
 40
0.5294117647058824
 40
0.5294117647058824
 40
0.5294117647058824
 40
0.5588235294117647
 40
0.5588235294117647
 40
0.5588235294117647
 40
0.5588235294117647
 40
0.5882352941176471
 40
0.5882352941176471
 40
0.5882352941176471
 40
0.5882352941176471
 40
0.6176470588235294
 40
0.6176470588235294
 40
0.6176470588235294
 40
0.6176470588235294
 40
0.6470588235294118
 40
0.6470588235294118
 40
0.6470588235294118
 40
0.6470588235294118
 40
0.6764705882352942
 40
0.6764705882352942
 40
0.6764705882352942
 40
0.6764705882352942
 40
0.7058823529411765
 40
0.7058823529411765
 40
0.7058823529411765
 40
0.7058823529411765
 40
0.7352941176470589
 40
0.7352941176470589
 40
0.7352941176470589
 40
0.7352941176470589
 40
0.7647058823529412
 40
0.7647058823529412
 40
0.7647058823529412
 40
0.7647058823529412
 40
0.7941176470588236
 40
0.7941176470588236
 40
0.7941176470588236
 40
0.7941176470588236
 40
0.823529411764706
 40
0.823529411764706
 40
0.823529411764706
 40
0.823529411764706
 40
0.8529411764705883
 40
0.8529411764705883
 40
0.8529411764705883
 40
0.8529411764705883
 40
0.8823529411764707
 40
0.8823529411764707
 40
0.8823529411764707
 40
0.8823529411764707
 40
0.911764705882353
 40
0.911764705882353
 40
0.911764705882353
 40
0.911764705882353
 40
0.9411764705882354
 40
0.9411764705882354
 40
0.9411764705882354
 40
0.9411764705882354
 40
0.9705882352941178
 40
0.9705882352941178
 40
0.9705882352941178
 40
0.9705882352941178
 40
1.0
 40
1.0
 40
1.0
 40
1.0
 10
-1.58989
 20
-4.4506399999999999
 30
0.0
 10
-1.58989
 20
-4.4506399999999999
 30
0.0
 10
-1.54925
 20
-4.52684
 30
0.0
 10
-1.54925
 20
-4.52684
 30
0.0
 10
-1.54925
 20
-4.52684
 30
0.0
 10
-1.6940300000000001
 20
-4.4735000000000005
 30
0.0
 10
-1.8540500000000002
 20
-4.2372800000000002
 30
0.0
 10
-2.0343900000000001
 20
-4.1814
 30
0.0
 10
-2.0343900000000001
 20
-4.1814
 30
0.0
 10
-1.9734300000000002
 20
-4.5624000000000002
 30
0.0
 10
-2.2045700000000004
 20
-5.4641000000000002
 30
0.0
 10
-2.2604500000000001
 20
-4.6360600000000005
 30
0.0
 10
-2.2604500000000001
 20
-4.6360600000000005
 30
0.0
 10
-2.31887
 20
-4.5014400000000006
 30
0.0
 10
-2.4128500000000002
 20
-4.3820600000000001
 30
0.0
 10
-2.5093700000000001
 20
-4.26776
 30
0.0
 10
-2.5093700000000001
 20
-4.26776
 30
0.0
 10
-2.4636500000000003
 20
-5.0069000000000008
 30
0.0
 10
-2.7913100000000002
 20
-4.1001200000000004
 30
0.0
 10
-3.1265900000000002
 20
-3.8715200000000003
 30
0.0
 10
-3.1265900000000002
 20
-3.8715200000000003
 30
0.0
 10
-3.1291300000000004
 20
-4.1128200000000001
 30
0.0
 10
-3.0478500000000004
 20
-4.6182800000000004
 30
0.0
 10
-3.1621500000000005
 20
-4.9205400000000008
 30
0.0
 10
-3.1621500000000005
 20
-4.9205400000000008
 30
0.0
 10
-3.1697700000000002
 20
-3.9655000000000005
 30
0.0
 10
-4.3711900000000004
 20
-3.5083000000000002
 30
0.0
 10
-4.2264100000000004
 20
-2.5202400000000003
 30
0.0
 10
-4.2264100000000004
 20
-2.5202400000000003
 30
0.0
 10
-4.4524699999999999
 20
-2.5989800000000001
 30
0.0
 10
-4.3280099999999999
 20
-3.2771600000000003
 30
0.0
 10
-4.4600900000000001
 20
-3.1171400000000005
 30
0.0
 10
-4.4600900000000001
 20
-3.1171400000000005
 30
0.0
 10
-4.6836100000000007
 20
-2.3322800000000004
 30
0.0
 10
-4.2441900000000006
 20
-1.6083800000000001
 30
0.0
 10
-3.8784300000000003
 20
-0.9454400000000001
 30
0.0
 10
-3.8784300000000003
 20
-0.9454400000000001
 30
0.0
 10
-3.9851100000000002
 20
-0.95052
 30
0.0
 10
-4.1095700000000006
 20
-1.1537200000000001
 30
0.0
 10
-4.2340300000000006
 20
-1.1029200000000001
 30
0.0
 10
-4.2340300000000006
 20
-1.1029200000000001
 30
0.0
 10
-3.9647900000000003
 20
-0.7778000000000001
 30
0.0
 10
-3.8708100000000005
 20
-0.3841000000000001
 30
0.0
 10
-3.8123900000000002
 20
-0.0031
 30
0.0
 10
-3.8123900000000002
 20
-0.0031
 30
0.0
 10
-3.7641300000000002
 20
0.4109100000000001
 30
0.0
 10
-3.8936700000000002
 20
0.7817500000000001
 30
0.0
 10
-3.8606500000000001
 20
1.2008500000000002
 30
0.0
 10
-3.8606500000000001
 20
1.2008500000000002
 30
0.0
 10
-4.14513
 20
3.1083900000000004
 30
0.0
 10
-2.61097
 20
5.0210100000000004
 30
0.0
 10
-0.7567700000000001
 20
5.3461300000000005
 30
0.0
 10
-0.7567700000000001
 20
5.3461300000000005
 30
0.0
 10
-0.7567700000000001
 20
5.3461300000000005
 30
0.0
 10
-0.67803
 20
5.3918500000000007
 30
0.0
 10
-0.67803
 20
5.3918500000000007
 30
0.0
 10
-0.67803
 20
5.3918500000000007
 30
0.0
 10
-0.7339100000000001
 20
5.4731300000000003
 30
0.0
 10
-0.8507500000000001
 20
5.3766100000000003
 30
0.0
 10
-0.91171
 20
5.4299500000000007
 30
0.0
 10
-0.91171
 20
5.4299500000000007
 30
0.0
 10
-0.3757700000000001
 20
5.7423700000000002
 30
0.0
 10
-0.18781
 20
5.4172500000000001
 30
0.0
 10
0.29986
 20
5.6280700000000001
 30
0.0
 10
0.29986
 20
5.6280700000000001
 30
0.0
 10
0.3151000000000001
 20
5.5467900000000006
 30
0.0
 10
0.20588
 20
5.5518700000000001
 30
0.0
 10
0.17286
 20
5.5010700000000003
 30
0.0
 10
0.17286
 20
5.5010700000000003
 30
0.0
 10
0.26684
 20
5.5036100000000001
 30
0.0
 10
0.59958
 20
5.5899700000000001
 30
0.0
 10
0.42686
 20
5.4578900000000008
 30
0.0
 10
0.42686
 20
5.4578900000000008
 30
0.0
 10
0.42686
 20
5.4578900000000008
 30
0.0
 10
0.45734
 20
5.4578900000000008
 30
0.0
 10
0.45734
 20
5.4578900000000008
 30
0.0
 10
0.45734
 20
5.4578900000000008
 30
0.0
 10
0.45734
 20
5.4578900000000008
 30
0.0
 10
0.5386200000000001
 20
5.4248700000000003
 30
0.0
 10
0.5386200000000001
 20
5.4248700000000003
 30
0.0
 10
0.5386200000000001
 20
5.4248700000000003
 30
0.0
 10
1.18632
 20
5.43757
 30
0.0
 10
1.7552800000000002
 20
5.1835700000000005
 30
0.0
 10
2.24804
 20
4.7720900000000004
 30
0.0
 10
2.24804
 20
4.7720900000000004
 30
0.0
 10
3.0379800000000001
 20
3.9669100000000004
 30
0.0
 10
3.4799400000000005
 20
2.9509100000000004
 30
0.0
 10
3.8457000000000003
 20
1.9272900000000002
 30
0.0
 10
3.8457000000000003
 20
1.9272900000000002
 30
0.0
 10
3.7339400000000005
 20
0.64205
 30
0.0
 10
3.6552000000000002
 20
-0.7295400000000001
 30
0.0
 10
4.5264200000000008
 20
-1.7887200000000001
 30
0.0
 10
4.5264200000000008
 20
-1.7887200000000001
 30
0.0
 10
4.3511600000000001
 20
-1.8471400000000002
 30
0.0
 10
4.20892
 20
-1.6185400000000001
 30
0.0
 10
4.0514400000000004
 20
-1.5702800000000001
 30
0.0
 10
4.0514400000000004
 20
-1.5702800000000001
 30
0.0
 10
4.1784400000000002
 20
-1.8979400000000002
 30
0.0
 10
3.9574600000000002
 20
-3.0409400000000004
 30
0.0
 10
3.7822000000000005
 20
-2.5837400000000001
 30
0.0
 10
3.7822000000000005
 20
-2.5837400000000001
 30
0.0
 10
3.5764600000000004
 20
-3.1908000000000003
 30
0.0
 10
2.9109800000000003
 20
-3.5768800000000005
 30
0.0
 10
2.8322400000000001
 20
-4.2372800000000002
 30
0.0
 10
2.8322400000000001
 20
-4.2372800000000002
 30
0.0
 10
2.7052400000000003
 20
-4.0340800000000003
 30
0.0
 10
2.8322400000000001
 20
-3.7038800000000003
 30
0.0
 10
2.9262200000000003
 20
-3.4854400000000001
 30
0.0
 10
2.9262200000000003
 20
-3.4854400000000001
 30
0.0
 10
2.67476
 20
-3.6378400000000002
 30
0.0
 10
2.5630000000000002
 20
-3.9401000000000002
 30
0.0
 10
2.4360000000000004
 20
-4.1890200000000002
 30
0.0
 10
2.4360000000000004
 20
-4.1890200000000002
 30
0.0
 10
2.3572600000000001
 20
-3.6226000000000003
 30
0.0
 10
2.16676
 20
-4.3134800000000002
 30
0.0
 10
2.0727800000000003
 20
-4.5573200000000007
 30
0.0
 10
2.0727800000000003
 20
-4.5573200000000007
 30
0.0
 10
1.9610200000000002
 20
-4.4201600000000001
 30
0.0
 10
2.0727800000000003
 20
-4.1280600000000005
 30
0.0
 10
2.00928
 20
-4.0061400000000003
 30
0.0
 10
2.00928
 20
-4.0061400000000003
 30
0.0
 10
1.6613000000000002
 20
-4.48874
 30
0.0
 10
1.5343000000000002
 20
-5.0856400000000006
 30
0.0
 10
1.0923400000000001
 20
-5.5022000000000002
 30
0.0
 10
1.0923400000000001
 20
-5.5022000000000002
 30
0.0
 10
0.55386
 20
-5.5098200000000004
 30
0.0
 10
-0.03033
 20
-5.4971200000000007
 30
0.0
 10
-0.56881
 20
-5.6342800000000004
 30
0.0
 10
-0.56881
 20
-5.6342800000000004
 30
0.0
 10
-1.0514100000000002
 20
-5.3955200000000003
 30
0.0
 10
-1.2444500000000001
 20
-4.8545000000000007
 30
0.0
 10
-1.5162300000000002
 20
-4.4252400000000005
 30
0.0
 10
-1.5162300000000002
 20
-4.4252400000000005
 30
0.0
 10
-1.5949700000000002
 20
-4.3033200000000003
 30
0.0
 10
-1.5619500000000002
 20
-4.3363400000000007
 30
0.0
 10
-1.58989
 20
-4.4506399999999999
 30
0.0
  0
SPLINE
  5
26
100
AcDbEntity
  8
Ebene 1
 62
     7
100
AcDbSpline
210
0.0
220
0.0
230
1.0
 70
     1
 71
     3
 72
   440
 73
   436
 74
     0
 42
0.0000000001
 43
0.0000000001
 40
0.0
 40
0.0
 40
0.0
 40
0.0
 40
0.0091743119266055
 40
0.0091743119266055
 40
0.0091743119266055
 40
0.0091743119266055
 40
0.018348623853211
 40
0.018348623853211
 40
0.018348623853211
 40
0.018348623853211
 40
0.0275229357798165
 40
0.0275229357798165
 40
0.0275229357798165
 40
0.0275229357798165
 40
0.036697247706422
 40
0.036697247706422
 40
0.036697247706422
 40
0.036697247706422
 40
0.0458715596330275
 40
0.0458715596330275
 40
0.0458715596330275
 40
0.0458715596330275
 40
0.055045871559633
 40
0.055045871559633
 40
0.055045871559633
 40
0.055045871559633
 40
0.0642201834862385
 40
0.0642201834862385
 40
0.0642201834862385
 40
0.0642201834862385
 40
0.073394495412844
 40
0.073394495412844
 40
0.073394495412844
 40
0.073394495412844
 40
0.0825688073394495
 40
0.0825688073394495
 40
0.0825688073394495
 40
0.0825688073394495
 40
0.0917431192660551
 40
0.0917431192660551
 40
0.0917431192660551
 40
0.0917431192660551
 40
0.1009174311926606
 40
0.1009174311926606
 40
0.1009174311926606
 40
0.1009174311926606
 40
0.1100917431192661
 40
0.1100917431192661
 40
0.1100917431192661
 40
0.1100917431192661
 40
0.1192660550458716
 40
0.1192660550458716
 40
0.1192660550458716
 40
0.1192660550458716
 40
0.1284403669724771
 40
0.1284403669724771
 40
0.1284403669724771
 40
0.1284403669724771
 40
0.1376146788990826
 40
0.1376146788990826
 40
0.1376146788990826
 40
0.1376146788990826
 40
0.1467889908256881
 40
0.1467889908256881
 40
0.1467889908256881
 40
0.1467889908256881
 40
0.1559633027522936
 40
0.1559633027522936
 40
0.1559633027522936
 40
0.1559633027522936
 40
0.1651376146788991
 40
0.1651376146788991
 40
0.1651376146788991
 40
0.1651376146788991
 40
0.1743119266055046
 40
0.1743119266055046
 40
0.1743119266055046
 40
0.1743119266055046
 40
0.1834862385321101
 40
0.1834862385321101
 40
0.1834862385321101
 40
0.1834862385321101
 40
0.1926605504587156
 40
0.1926605504587156
 40
0.1926605504587156
 40
0.1926605504587156
 40
0.2018348623853211
 40
0.2018348623853211
 40
0.2018348623853211
 40
0.2018348623853211
 40
0.2110091743119266
 40
0.2110091743119266
 40
0.2110091743119266
 40
0.2110091743119266
 40
0.2201834862385321
 40
0.2201834862385321
 40
0.2201834862385321
 40
0.2201834862385321
 40
0.2293577981651376
 40
0.2293577981651376
 40
0.2293577981651376
 40
0.2293577981651376
 40
0.2385321100917431
 40
0.2385321100917431
 40
0.2385321100917431
 40
0.2385321100917431
 40
0.2477064220183486
 40
0.2477064220183486
 40
0.2477064220183486
 40
0.2477064220183486
 40
0.2568807339449541
 40
0.2568807339449541
 40
0.2568807339449541
 40
0.2568807339449541
 40
0.2660550458715597
 40
0.2660550458715597
 40
0.2660550458715597
 40
0.2660550458715597
 40
0.2752293577981652
 40
0.2752293577981652
 40
0.2752293577981652
 40
0.2752293577981652
 40
0.2844036697247707
 40
0.2844036697247707
 40
0.2844036697247707
 40
0.2844036697247707
 40
0.2935779816513762
 40
0.2935779816513762
 40
0.2935779816513762
 40
0.2935779816513762
 40
0.3027522935779817
 40
0.3027522935779817
 40
0.3027522935779817
 40
0.3027522935779817
 40
0.3119266055045872
 40
0.3119266055045872
 40
0.3119266055045872
 40
0.3119266055045872
 40
0.3211009174311927
 40
0.3211009174311927
 40
0.3211009174311927
 40
0.3211009174311927
 40
0.3302752293577982
 40
0.3302752293577982
 40
0.3302752293577982
 40
0.3302752293577982
 40
0.3394495412844037
 40
0.3394495412844037
 40
0.3394495412844037
 40
0.3394495412844037
 40
0.3486238532110092
 40
0.3486238532110092
 40
0.3486238532110092
 40
0.3486238532110092
 40
0.3577981651376147
 40
0.3577981651376147
 40
0.3577981651376147
 40
0.3577981651376147
 40
0.3669724770642202
 40
0.3669724770642202
 40
0.3669724770642202
 40
0.3669724770642202
 40
0.3761467889908257
 40
0.3761467889908257
 40
0.3761467889908257
 40
0.3761467889908257
 40
0.3853211009174312
 40
0.3853211009174312
 40
0.3853211009174312
 40
0.3853211009174312
 40
0.3944954128440367
 40
0.3944954128440367
 40
0.3944954128440367
 40
0.3944954128440367
 40
0.4036697247706422
 40
0.4036697247706422
 40
0.4036697247706422
 40
0.4036697247706422
 40
0.4128440366972477
 40
0.4128440366972477
 40
0.4128440366972477
 40
0.4128440366972477
 40
0.4220183486238532
 40
0.4220183486238532
 40
0.4220183486238532
 40
0.4220183486238532
 40
0.4311926605504587
 40
0.4311926605504587
 40
0.4311926605504587
 40
0.4311926605504587
 40
0.4403669724770642
 40
0.4403669724770642
 40
0.4403669724770642
 40
0.4403669724770642
 40
0.4495412844036698
 40
0.4495412844036698
 40
0.4495412844036698
 40
0.4495412844036698
 40
0.4587155963302753
 40
0.4587155963302753
 40
0.4587155963302753
 40
0.4587155963302753
 40
0.4678899082568808
 40
0.4678899082568808
 40
0.4678899082568808
 40
0.4678899082568808
 40
0.4770642201834863
 40
0.4770642201834863
 40
0.4770642201834863
 40
0.4770642201834863
 40
0.4862385321100918
 40
0.4862385321100918
 40
0.4862385321100918
 40
0.4862385321100918
 40
0.4954128440366973
 40
0.4954128440366973
 40
0.4954128440366973
 40
0.4954128440366973
 40
0.5045871559633028
 40
0.5045871559633028
 40
0.5045871559633028
 40
0.5045871559633028
 40
0.5137614678899083
 40
0.5137614678899083
 40
0.5137614678899083
 40
0.5137614678899083
 40
0.5229357798165137
 40
0.5229357798165137
 40
0.5229357798165137
 40
0.5229357798165137
 40
0.5321100917431192
 40
0.5321100917431192
 40
0.5321100917431192
 40
0.5321100917431192
 40
0.5412844036697246
 40
0.5412844036697246
 40
0.5412844036697246
 40
0.5412844036697246
 40
0.5504587155963301
 40
0.5504587155963301
 40
0.5504587155963301
 40
0.5504587155963301
 40
0.5596330275229355
 40
0.5596330275229355
 40
0.5596330275229355
 40
0.5596330275229355
 40
0.568807339449541
 40
0.568807339449541
 40
0.568807339449541
 40
0.568807339449541
 40
0.5779816513761464
 40
0.5779816513761464
 40
0.5779816513761464
 40
0.5779816513761464
 40
0.5871559633027519
 40
0.5871559633027519
 40
0.5871559633027519
 40
0.5871559633027519
 40
0.5963302752293573
 40
0.5963302752293573
 40
0.5963302752293573
 40
0.5963302752293573
 40
0.6055045871559628
 40
0.6055045871559628
 40
0.6055045871559628
 40
0.6055045871559628
 40
0.6146788990825682
 40
0.6146788990825682
 40
0.6146788990825682
 40
0.6146788990825682
 40
0.6238532110091737
 40
0.6238532110091737
 40
0.6238532110091737
 40
0.6238532110091737
 40
0.6330275229357791
 40
0.6330275229357791
 40
0.6330275229357791
 40
0.6330275229357791
 40
0.6422018348623846
 40
0.6422018348623846
 40
0.6422018348623846
 40
0.6422018348623846
 40
0.65137614678899
 40
0.65137614678899
 40
0.65137614678899
 40
0.65137614678899
 40
0.6605504587155955
 40
0.6605504587155955
 40
0.6605504587155955
 40
0.6605504587155955
 40
0.6697247706422009
 40
0.6697247706422009
 40
0.6697247706422009
 40
0.6697247706422009
 40
0.6788990825688064
 40
0.6788990825688064
 40
0.6788990825688064
 40
0.6788990825688064
 40
0.6880733944954118
 40
0.6880733944954118
 40
0.6880733944954118
 40
0.6880733944954118
 40
0.6972477064220173
 40
0.6972477064220173
 40
0.6972477064220173
 40
0.6972477064220173
 40
0.7064220183486227
 40
0.7064220183486227
 40
0.7064220183486227
 40
0.7064220183486227
 40
0.7155963302752282
 40
0.7155963302752282
 40
0.7155963302752282
 40
0.7155963302752282
 40
0.7247706422018336
 40
0.7247706422018336
 40
0.7247706422018336
 40
0.7247706422018336
 40
0.7339449541284391
 40
0.7339449541284391
 40
0.7339449541284391
 40
0.7339449541284391
 40
0.7431192660550445
 40
0.7431192660550445
 40
0.7431192660550445
 40
0.7431192660550445
 40
0.75229357798165
 40
0.75229357798165
 40
0.75229357798165
 40
0.75229357798165
 40
0.7614678899082554
 40
0.7614678899082554
 40
0.7614678899082554
 40
0.7614678899082554
 40
0.7706422018348609
 40
0.7706422018348609
 40
0.7706422018348609
 40
0.7706422018348609
 40
0.7798165137614663
 40
0.7798165137614663
 40
0.7798165137614663
 40
0.7798165137614663
 40
0.7889908256880718
 40
0.7889908256880718
 40
0.7889908256880718
 40
0.7889908256880718
 40
0.7981651376146772
 40
0.7981651376146772
 40
0.7981651376146772
 40
0.7981651376146772
 40
0.8073394495412827
 40
0.8073394495412827
 40
0.8073394495412827
 40
0.8073394495412827
 40
0.8165137614678881
 40
0.8165137614678881
 40
0.8165137614678881
 40
0.8165137614678881
 40
0.8256880733944936
 40
0.8256880733944936
 40
0.8256880733944936
 40
0.8256880733944936
 40
0.834862385321099
 40
0.834862385321099
 40
0.834862385321099
 40
0.834862385321099
 40
0.8440366972477045
 40
0.8440366972477045
 40
0.8440366972477045
 40
0.8440366972477045
 40
0.8532110091743099
 40
0.8532110091743099
 40
0.8532110091743099
 40
0.8532110091743099
 40
0.8623853211009154
 40
0.8623853211009154
 40
0.8623853211009154
 40
0.8623853211009154
 40
0.8715596330275208
 40
0.8715596330275208
 40
0.8715596330275208
 40
0.8715596330275208
 40
0.8807339449541263
 40
0.8807339449541263
 40
0.8807339449541263
 40
0.8807339449541263
 40
0.8899082568807317
 40
0.8899082568807317
 40
0.8899082568807317
 40
0.8899082568807317
 40
0.8990825688073372
 40
0.8990825688073372
 40
0.8990825688073372
 40
0.8990825688073372
 40
0.9082568807339426
 40
0.9082568807339426
 40
0.9082568807339426
 40
0.9082568807339426
 40
0.9174311926605481
 40
0.9174311926605481
 40
0.9174311926605481
 40
0.9174311926605481
 40
0.9266055045871535
 40
0.9266055045871535
 40
0.9266055045871535
 40
0.9266055045871535
 40
0.935779816513759
 40
0.935779816513759
 40
0.935779816513759
 40
0.935779816513759
 40
0.9449541284403644
 40
0.9449541284403644
 40
0.9449541284403644
 40
0.9449541284403644
 40
0.9541284403669699
 40
0.9541284403669699
 40
0.9541284403669699
 40
0.9541284403669699
 40
0.9633027522935753
 40
0.9633027522935753
 40
0.9633027522935753
 40
0.9633027522935753
 40
0.9724770642201808
 40
0.9724770642201808
 40
0.9724770642201808
 40
0.9724770642201808
 40
0.9816513761467862
 40
0.9816513761467862
 40
0.9816513761467862
 40
0.9816513761467862
 40
0.9908256880733917
 40
0.9908256880733917
 40
0.9908256880733917
 40
0.9908256880733917
 40
1.0
 40
1.0
 40
1.0
 40
1.0
 10
-3.0199100000000003
 20
1.3253100000000002
 30
0.0
 10
-2.6516100000000002
 20
2.2346300000000001
 30
0.0
 10
-2.2172700000000001
 20
2.8315300000000003
 30
0.0
 10
-2.1690100000000001
 20
3.7611700000000003
 30
0.0
 10
-2.1690100000000001
 20
3.7611700000000003
 30
0.0
 10
-2.3671300000000004
 20
3.0601300000000005
 30
0.0
 10
-2.5271500000000002
 20
2.3235300000000003
 30
0.0
 10
-3.0072100000000002
 20
1.7266300000000001
 30
0.0
 10
-3.0072100000000002
 20
1.7266300000000001
 30
0.0
 10
-3.1824700000000004
 20
1.4142100000000002
 30
0.0
 10
-3.2688300000000003
 20
1.0332100000000002
 30
0.0
 10
-3.2256500000000004
 20
0.6776100000000001
 30
0.0
 10
-3.2256500000000004
 20
0.6776100000000001
 30
0.0
 10
-3.1291300000000004
 20
0.78937
 30
0.0
 10
-3.1545300000000003
 20
1.0560700000000001
 30
0.0
 10
-3.0224500000000001
 20
1.10941
 30
0.0
 10
-3.0224500000000001
 20
1.10941
 30
0.0
 10
-3.1697700000000002
 20
0.63951
 30
0.0
 10
-3.2383500000000001
 20
0.09341
 30
0.0
 10
-3.1316700000000002
 20
-0.3968
 30
0.0
 10
-3.1316700000000002
 20
-0.3968
 30
0.0
 10
-3.0757900000000005
 20
-0.5415800000000001
 30
0.0
 10
-3.0046700000000004
 20
-0.6889000000000001
 30
0.0
 10
-2.8929100000000001
 20
-0.8082800000000001
 30
0.0
 10
-2.8929100000000001
 20
-0.8082800000000001
 30
0.0
 10
-3.0656300000000001
 20
-0.76002
 30
0.0
 10
-3.1697700000000002
 20
-0.6000000000000001
 30
0.0
 10
-3.2586700000000004
 20
-0.42982
 30
0.0
 10
-3.2586700000000004
 20
-0.42982
 30
0.0
 10
-3.2993100000000002
 20
-0.35108
 30
0.0
 10
-3.3551900000000003
 20
-0.25964
 30
0.0
 10
-3.3805900000000002
 20
-0.1936
 30
0.0
 10
-3.3805900000000002
 20
-0.1936
 30
0.0
 10
-3.4161500000000005
 20
-0.24948
 30
0.0
 10
-3.3755100000000002
 20
-0.35616
 30
0.0
 10
-3.3628100000000001
 20
-0.4984000000000001
 30
0.0
 10
-3.3628100000000001
 20
-0.4984000000000001
 30
0.0
 10
-3.3043900000000002
 20
-1.1105400000000001
 30
0.0
 10
-3.7920700000000003
 20
-1.9563600000000001
 30
0.0
 10
-3.5075900000000004
 20
-2.7640800000000003
 30
0.0
 10
-3.5075900000000004
 20
-2.7640800000000003
 30
0.0
 10
-3.5050500000000002
 20
-2.3221200000000004
 30
0.0
 10
-3.6472900000000004
 20
-1.4432800000000001
 30
0.0
 10
-3.0072100000000002
 20
-1.3010400000000002
 30
0.0
 10
-3.0072100000000002
 20
-1.3010400000000002
 30
0.0
 10
-2.6846300000000003
 20
-1.7201400000000002
 30
0.0
 10
-3.1113500000000003
 20
-2.2078200000000003
 30
0.0
 10
-3.0783300000000002
 20
-2.6548600000000002
 30
0.0
 10
-3.0783300000000002
 20
-2.6548600000000002
 30
0.0
 10
-2.9335500000000003
 20
-2.5989800000000001
 30
0.0
 10
-2.8878300000000001
 20
-2.3246600000000002
 30
0.0
 10
-2.73543
 20
-2.31196
 30
0.0
 10
-2.73543
 20
-2.31196
 30
0.0
 10
-3.1240500000000004
 20
-3.3101800000000003
 30
0.0
 10
-1.7524500000000001
 20
-3.5083000000000002
 30
0.0
 10
-1.6483100000000002
 20
-4.3465000000000007
 30
0.0
 10
-1.6483100000000002
 20
-4.3465000000000007
 30
0.0
 10
-1.8235700000000001
 20
-4.2423600000000006
 30
0.0
 10
-1.9607300000000001
 20
-4.05694
 30
0.0
 10
-2.10297
 20
-3.9096200000000003
 30
0.0
 10
-2.10297
 20
-3.9096200000000003
 30
0.0
 10
-2.1791700000000001
 20
-4.0493200000000007
 30
0.0
 10
-2.1207500000000001
 20
-4.26776
 30
0.0
 10
-2.1817100000000003
 20
-4.4150800000000006
 30
0.0
 10
-2.1817100000000003
 20
-4.4150800000000006
 30
0.0
 10
-2.4204700000000003
 20
-4.1280600000000005
 30
0.0
 10
-2.6998700000000002
 20
-3.8562800000000004
 30
0.0
 10
-2.8319500000000004
 20
-3.4981400000000002
 30
0.0
 10
-2.8319500000000004
 20
-3.4981400000000002
 30
0.0
 10
-2.8319500000000004
 20
-3.4981400000000002
 30
0.0
 10
-2.9843500000000001
 20
-3.1679400000000002
 30
0.0
 10
-2.9843500000000001
 20
-3.1679400000000002
 30
0.0
 10
-2.9843500000000001
 20
-3.1679400000000002
 30
0.0
 10
-3.0021300000000002
 20
-3.3711400000000005
 30
0.0
 10
-2.8776700000000002
 20
-3.5387800000000005
 30
0.0
 10
-2.8141700000000003
 20
-3.7191200000000002
 30
0.0
 10
-2.8141700000000003
 20
-3.7191200000000002
 30
0.0
 10
-2.7176500000000003
 20
-3.9197800000000003
 30
0.0
 10
-2.6770100000000001
 20
-4.1382200000000005
 30
0.0
 10
-2.6287500000000001
 20
-4.3465000000000007
 30
0.0
 10
-2.6287500000000001
 20
-4.3465000000000007
 30
0.0
 10
-2.85989
 20
-3.9350200000000002
 30
0.0
 10
-3.3272500000000003
 20
-3.5641800000000003
 30
0.0
 10
-3.2434300000000005
 20
-3.0384000000000002
 30
0.0
 10
-3.2434300000000005
 20
-3.0384000000000002
 30
0.0
 10
-3.2205700000000004
 20
-2.8707600000000002
 30
0.0
 10
-3.3348700000000004
 20
-2.8860000000000001
 30
0.0
 10
-3.3221700000000003
 20
-3.0536400000000001
 30
0.0
 10
-3.3221700000000003
 20
-3.0536400000000001
 30
0.0
 10
-3.3653500000000003
 20
-3.2746200000000001
 30
0.0
 10
-3.2764500000000001
 20
-3.5032200000000002
 30
0.0
 10
-3.2891500000000002
 20
-3.7038800000000003
 30
0.0
 10
-3.2891500000000002
 20
-3.7038800000000003
 30
0.0
 10
-3.3907500000000002
 20
-3.5641800000000003
 30
0.0
 10
-3.5990300000000004
 20
-3.1781000000000001
 30
0.0
 10
-3.6955500000000003
 20
-2.8225000000000002
 30
0.0
 10
-3.6955500000000003
 20
-2.8225000000000002
 30
0.0
 10
-3.8250900000000003
 20
-2.3576800000000002
 30
0.0
 10
-3.8377900000000005
 20
-1.9538200000000001
 30
0.0
 10
-3.8885900000000002
 20
-2.30688
 30
0.0
 10
-3.8885900000000002
 20
-2.30688
 30
0.0
 10
-3.9647900000000003
 20
-2.8555200000000003
 30
0.0
 10
-3.5101300000000002
 20
-3.3787600000000002
 30
0.0
 10
-3.3882100000000004
 20
-3.9045400000000003
 30
0.0
 10
-3.3882100000000004
 20
-3.9045400000000003
 30
0.0
 10
-4.2467300000000003
 20
-3.4041600000000001
 30
0.0
 10
-4.3661099999999999
 20
-2.23068
 30
0.0
 10
-3.7209500000000002
 20
-1.49916
 30
0.0
 10
-3.7209500000000002
 20
-1.49916
 30
0.0
 10
-3.6498300000000001
 20
-1.4382000000000001
 30
0.0
 10
-3.6803100000000004
 20
-1.2705600000000001
 30
0.0
 10
-3.7514300000000005
 20
-1.4051800000000001
 30
0.0
 10
-3.7514300000000005
 20
-1.4051800000000001
 30
0.0
 10
-4.0155900000000004
 20
-1.7404600000000001
 30
0.0
 10
-4.1959300000000006
 20
-2.13924
 30
0.0
 10
-4.39405
 20
-2.4948400000000004
 30
0.0
 10
-4.39405
 20
-2.4948400000000004
 30
0.0
 10
-4.35595
 20
-1.7480800000000001
 30
0.0
 10
-3.7514300000000005
 20
-1.20706
 30
0.0
 10
-3.5761700000000003
 20
-0.50602
 30
0.0
 10
-3.5761700000000003
 20
-0.50602
 30
0.0
 10
-3.6091900000000003
 20
-0.4095
 30
0.0
 10
-3.6879300000000002
 20
-0.5822200000000001
 30
0.0
 10
-3.7285700000000004
 20
-0.5796800000000001
 30
0.0
 10
-3.7285700000000004
 20
-0.5796800000000001
 30
0.0
 10
-3.6498300000000001
 20
-0.08184
 30
0.0
 10
-3.3907500000000002
 20
0.37281
 30
0.0
 10
-3.3323300000000002
 20
0.8782700000000001
 30
0.0
 10
-3.3323300000000002
 20
0.8782700000000001
 30
0.0
 10
-3.2866100000000005
 20
1.3024500000000001
 30
0.0
 10
-3.3323300000000002
 20
1.1246500000000001
 30
0.0
 10
-3.3958300000000001
 20
0.8350900000000001
 30
0.0
 10
-3.3958300000000001
 20
0.8350900000000001
 30
0.0
 10
-3.3958300000000001
 20
0.8350900000000001
 30
0.0
 10
-3.4313900000000004
 20
0.6776100000000001
 30
0.0
 10
-3.4313900000000004
 20
0.6776100000000001
 30
0.0
 10
-3.4313900000000004
 20
0.6776100000000001
 30
0.0
 10
-3.5126700000000004
 20
1.2084700000000002
 30
0.0
 10
-3.5101300000000002
 20
1.8333100000000002
 30
0.0
 10
-3.3856700000000002
 20
2.3565500000000004
 30
0.0
 10
-3.3856700000000002
 20
2.3565500000000004
 30
0.0
 10
-3.3856700000000002
 20
2.3565500000000004
 30
0.0
 10
-3.2916900000000004
 20
2.7477100000000001
 30
0.0
 10
-3.2916900000000004
 20
2.7477100000000001
 30
0.0
 10
-3.2916900000000004
 20
2.7477100000000001
 30
0.0
 10
-3.5202900000000001
 20
2.3641700000000001
 30
0.0
 10
-3.6218900000000005
 20
1.8612500000000001
 30
0.0
 10
-3.6879300000000002
 20
1.3938900000000001
 30
0.0
 10
-3.6879300000000002
 20
1.3938900000000001
 30
0.0
 10
-3.6879300000000002
 20
1.3938900000000001
 30
0.0
 10
-3.7311100000000001
 20
1.7063100000000002
 30
0.0
 10
-3.7311100000000001
 20
1.7063100000000002
 30
0.0
 10
-3.7311100000000001
 20
1.7063100000000002
 30
0.0
 10
-3.7920700000000003
 20
3.0728300000000002
 30
0.0
 10
-2.9386300000000003
 20
4.5206300000000006
 30
0.0
 10
-1.5670300000000001
 20
4.8990900000000002
 30
0.0
 10
-1.5670300000000001
 20
4.8990900000000002
 30
0.0
 10
-1.7219700000000002
 20
4.6984300000000001
 30
0.0
 10
-1.8896100000000002
 20
4.4926900000000005
 30
0.0
 10
-2.0191500000000002
 20
4.2691699999999999
 30
0.0
 10
-2.0191500000000002
 20
4.2691699999999999
 30
0.0
 10
-2.2452100000000002
 20
3.8856300000000004
 30
0.0
 10
-2.1207500000000001
 20
3.9923100000000002
 30
0.0
 10
-1.9099300000000001
 20
4.2844100000000003
 30
0.0
 10
-1.9099300000000001
 20
4.2844100000000003
 30
0.0
 10
-1.6051300000000002
 20
4.7035100000000005
 30
0.0
 10
-1.3104900000000002
 20
5.17849
 30
0.0
 10
-0.7770900000000001
 20
5.1835700000000005
 30
0.0
 10
-0.7770900000000001
 20
5.1835700000000005
 30
0.0
 10
-0.94981
 20
5.01593
 30
0.0
 10
-1.2266700000000001
 20
4.8711500000000001
 30
0.0
 10
-1.37907
 20
4.6374700000000004
 30
0.0
 10
-1.37907
 20
4.6374700000000004
 30
0.0
 10
-1.3917700000000002
 20
4.6171500000000005
 30
0.0
 10
-1.4273300000000002
 20
4.5688900000000006
 30
0.0
 10
-1.3917700000000002
 20
4.5536500000000002
 30
0.0
 10
-1.3917700000000002
 20
4.5536500000000002
 30
0.0
 10
-1.04633
 20
4.9524300000000006
 30
0.0
 10
-0.5611900000000001
 20
5.2165900000000001
 30
0.0
 10
-0.07605
 20
5.2191300000000007
 30
0.0
 10
-0.07605
 20
5.2191300000000007
 30
0.0
 10
0.20334
 20
4.9905300000000006
 30
0.0
 10
0.15508
 20
4.5663500000000008
 30
0.0
 10
0.18048
 20
4.2056700000000005
 30
0.0
 10
0.18048
 20
4.2056700000000005
 30
0.0
 10
0.18556
 20
4.1218500000000002
 30
0.0
 10
0.18302
 20
3.8246700000000002
 30
0.0
 10
0.25414
 20
3.9897700000000005
 30
0.0
 10
0.25414
 20
3.9897700000000005
 30
0.0
 10
0.25414
 20
4.3860100000000006
 30
0.0
 10
0.3151000000000001
 20
4.7720900000000004
 30
0.0
 10
0.17286
 20
5.1378500000000003
 30
0.0
 10
0.17286
 20
5.1378500000000003
 30
0.0
 10
0.17286
 20
5.1378500000000003
 30
0.0
 10
0.3786000000000001
 20
4.9854500000000002
 30
0.0
 10
0.3786000000000001
 20
4.9854500000000002
 30
0.0
 10
0.3786000000000001
 20
4.9854500000000002
 30
0.0
 10
0.47512
 20
4.8965500000000004
 30
0.0
 10
0.5208400000000001
 20
4.7771700000000008
 30
0.0
 10
0.5843400000000001
 20
4.6654100000000005
 30
0.0
 10
0.5843400000000001
 20
4.6654100000000005
 30
0.0
 10
0.63768
 20
4.5384100000000007
 30
0.0
 10
0.63768
 20
4.3047300000000002
 30
0.0
 10
0.6757800000000001
 20
4.1751900000000006
 30
0.0
 10
0.6757800000000001
 20
4.1751900000000006
 30
0.0
 10
0.6961000000000001
 20
4.1091500000000005
 30
0.0
 10
0.7494400000000001
 20
3.9542100000000002
 30
0.0
 10
0.7748400000000001
 20
4.0837500000000002
 30
0.0
 10
0.7748400000000001
 20
4.0837500000000002
 30
0.0
 10
0.7596000000000001
 20
4.4952300000000003
 30
0.0
 10
0.5640200000000001
 20
4.9524300000000006
 30
0.0
 10
0.23382
 20
5.1861100000000002
 30
0.0
 10
0.23382
 20
5.1861100000000002
 30
0.0
 10
0.14238
 20
5.2496100000000006
 30
0.0
 10
0.06872
 20
5.2673900000000007
 30
0.0
 10
0.21096
 20
5.3308900000000001
 30
0.0
 10
0.21096
 20
5.3308900000000001
 30
0.0
 10
0.48782
 20
5.4477300000000008
 30
0.0
 10
1.3107800000000001
 20
5.3080300000000005
 30
0.0
 10
1.6765400000000001
 20
5.1200700000000001
 30
0.0
 10
1.6765400000000001
 20
5.1200700000000001
 30
0.0
 10
2.6925400000000002
 20
4.46983
 30
0.0
 10
3.3631000000000002
 20
3.3090500000000005
 30
0.0
 10
3.6450400000000003
 20
2.16351
 30
0.0
 10
3.6450400000000003
 20
2.16351
 30
0.0
 10
3.6780600000000003
 20
2.0365100000000003
 30
0.0
 10
3.6450400000000003
 20
1.9374500000000001
 30
0.0
 10
3.6552000000000002
 20
1.82315
 30
0.0
 10
3.6552000000000002
 20
1.82315
 30
0.0
 10
3.5434400000000004
 20
2.4302100000000002
 30
0.0
 10
2.9897200000000002
 20
2.8924900000000004
 30
0.0
 10
2.84748
 20
3.5249500000000005
 30
0.0
 10
2.84748
 20
3.5249500000000005
 30
0.0
 10
2.8170000000000002
 20
3.6341700000000001
 30
0.0
 10
2.8017600000000003
 20
3.7637100000000001
 30
0.0
 10
2.7382600000000004
 20
3.8551500000000005
 30
0.0
 10
2.7382600000000004
 20
3.8551500000000005
 30
0.0
 10
2.7687400000000002
 20
3.0525100000000003
 30
0.0
 10
3.4647000000000001
 20
2.46577
 30
0.0
 10
3.5434400000000004
 20
1.6910700000000001
 30
0.0
 10
3.5434400000000004
 20
1.6910700000000001
 30
0.0
 10
3.5586800000000003
 20
1.1602100000000002
 30
0.0
 10
3.3554800000000005
 20
1.11195
 30
0.0
 10
3.2919800000000001
 20
1.6428100000000001
 30
0.0
 10
3.2919800000000001
 20
1.6428100000000001
 30
0.0
 10
3.2132400000000003
 20
1.8028300000000002
 30
0.0
 10
3.2284800000000002
 20
2.04413
 30
0.0
 10
3.1014800000000005
 20
2.1609700000000003
 30
0.0
 10
3.1014800000000005
 20
2.1609700000000003
 30
0.0
 10
3.4164400000000001
 20
1.3024500000000001
 30
0.0
 10
3.1954600000000002
 20
0.24073
 30
0.0
 10
3.6247200000000004
 20
-0.5873
 30
0.0
 10
3.6247200000000004
 20
-0.5873
 30
0.0
 10
3.6069400000000003
 20
-0.34346
 30
0.0
 10
3.4647000000000001
 20
-0.07422
 30
0.0
 10
3.4977200000000002
 20
0.20263
 30
0.0
 10
3.4977200000000002
 20
0.20263
 30
0.0
 10
3.5129600000000001
 20
0.34995
 30
0.0
 10
3.5129600000000001
 20
0.51505
 30
0.0
 10
3.5586800000000003
 20
0.6471300000000001
 30
0.0
 10
3.5586800000000003
 20
0.6471300000000001
 30
0.0
 10
3.6069400000000003
 20
-0.07422
 30
0.0
 10
3.7669600000000001
 20
-0.7752600000000001
 30
0.0
 10
4.1124000000000001
 20
-1.4255000000000002
 30
0.0
 10
4.1124000000000001
 20
-1.4255000000000002
 30
0.0
 10
3.4342200000000003
 20
-0.86416
 30
0.0
 10
4.2241600000000004
 20
-1.9182600000000001
 30
0.0
 10
3.8914200000000001
 20
-2.3373600000000003
 30
0.0
 10
3.8914200000000001
 20
-2.3373600000000003
 30
0.0
 10
3.8279200000000002
 20
-2.2967200000000001
 30
0.0
 10
3.7187000000000001
 20
-1.8547600000000002
 30
0.0
 10
3.6704400000000001
 20
-2.05288
 30
0.0
 10
3.6704400000000001
 20
-2.05288
 30
0.0
 10
3.7009200000000004
 20
-2.4313400000000001
 30
0.0
 10
3.6247200000000004
 20
-2.8377400000000002
 30
0.0
 10
3.3377000000000003
 20
-3.1146000000000003
 30
0.0
 10
3.3377000000000003
 20
-3.1146000000000003
 30
0.0
 10
3.3707200000000004
 20
-2.8783800000000004
 30
0.0
 10
3.4164400000000001
 20
-2.6015200000000003
 30
0.0
 10
3.3377000000000003
 20
-2.3729200000000001
 30
0.0
 10
3.3377000000000003
 20
-2.3729200000000001
 30
0.0
 10
3.3377000000000003
 20
-2.3729200000000001
 30
0.0
 10
3.4164400000000001
 20
-1.7531600000000001
 30
0.0
 10
3.4164400000000001
 20
-1.7531600000000001
 30
0.0
 10
3.4164400000000001
 20
-1.7531600000000001
 30
0.0
 10
3.5586800000000003
 20
-1.1486400000000001
 30
0.0
 10
3.4494600000000002
 20
-1.0597400000000001
 30
0.0
 10
3.3554800000000005
 20
-1.7099800000000001
 30
0.0
 10
3.3554800000000005
 20
-1.7099800000000001
 30
0.0
 10
3.1954600000000002
 20
-3.1806400000000004
 30
0.0
 10
3.1014800000000005
 20
-3.1679400000000002
 30
0.0
 10
2.42076
 20
-3.5718000000000001
 30
0.0
 10
2.42076
 20
-3.5718000000000001
 30
0.0
 10
2.4995000000000003
 20
-3.2441400000000002
 30
0.0
 10
2.8627200000000004
 20
-3.0561800000000003
 30
0.0
 10
2.9744800000000002
 20
-2.7336
 30
0.0
 10
2.9744800000000002
 20
-2.7336
 30
0.0
 10
3.1649800000000003
 20
-2.2941800000000003
 30
0.0
 10
2.7382600000000004
 20
-1.8039600000000002
 30
0.0
 10
2.9744800000000002
 20
-1.12832
 30
0.0
 10
2.9744800000000002
 20
-1.12832
 30
0.0
 10
3.0710000000000002
 20
-1.3061200000000002
 30
0.0
 10
3.0227400000000002
 20
-1.6947400000000001
 30
0.0
 10
3.1167200000000004
 20
-1.7734800000000002
 30
0.0
 10
3.1167200000000004
 20
-1.7734800000000002
 30
0.0
 10
3.05322
 20
-1.2273800000000001
 30
0.0
 10
3.05322
 20
-0.6406400000000001
 30
0.0
 10
3.2437200000000002
 20
-0.1301
 30
0.0
 10
3.2437200000000002
 20
-0.1301
 30
0.0
 10
3.1472000000000002
 20
-0.13518
 30
0.0
 10
3.1167200000000004
 20
-0.4222
 30
0.0
 10
2.9897200000000002
 20
-0.41204
 30
0.0
 10
2.9897200000000002
 20
-0.41204
 30
0.0
 10
3.6552000000000002
 20
0.66237
 30
0.0
 10
2.5325200000000003
 20
1.61487
 30
0.0
 10
2.4842600000000004
 20
2.6867500000000004
 30
0.0
 10
2.4842600000000004
 20
2.6867500000000004
 30
0.0
 10
2.4487000000000001
 20
3.01187
 30
0.0
 10
2.4614000000000003
 20
3.3090500000000005
 30
0.0
 10
2.41568
 20
3.6316300000000004
 30
0.0
 10
2.41568
 20
3.6316300000000004
 30
0.0
 10
2.4004400000000001
 20
3.7408500000000005
 30
0.0
 10
2.3801200000000002
 20
3.9923100000000002
 30
0.0
 10
2.3267800000000003
 20
3.9846900000000005
 30
0.0
 10
2.3267800000000003
 20
3.9846900000000005
 30
0.0
 10
2.3267800000000003
 20
3.9846900000000005
 30
0.0
 10
2.3572600000000001
 20
2.2752700000000003
 30
0.0
 10
2.3572600000000001
 20
2.2752700000000003
 30
0.0
 10
2.3572600000000001
 20
2.2752700000000003
 30
0.0
 10
2.3572600000000001
 20
2.2752700000000003
 30
0.0
 10
2.4055200000000001
 20
1.7113900000000002
 30
0.0
 10
2.4055200000000001
 20
1.7113900000000002
 30
0.0
 10
2.4055200000000001
 20
1.7113900000000002
 30
0.0
 10
2.0245200000000003
 20
2.0746100000000003
 30
0.0
 10
1.9610200000000002
 20
2.67659
 30
0.0
 10
1.8340200000000002
 20
3.1464900000000005
 30
0.0
 10
1.8340200000000002
 20
3.1464900000000005
 30
0.0
 10
1.7552800000000002
 20
3.0931500000000001
 30
0.0
 10
1.8518000000000001
 20
2.9864700000000002
 30
0.0
 10
1.8187800000000001
 20
2.9102700000000001
 30
0.0
 10
1.8187800000000001
 20
2.9102700000000001
 30
0.0
 10
1.8670400000000003
 20
2.7781900000000004
 30
0.0
 10
1.7730600000000001
 20
2.6689700000000003
 30
0.0
 10
1.7883000000000002
 20
2.5572100000000004
 30
0.0
 10
1.7883000000000002
 20
2.5572100000000004
 30
0.0
 10
1.7883000000000002
 20
2.5572100000000004
 30
0.0
 10
1.6917800000000001
 20
2.08223
 30
0.0
 10
1.6917800000000001
 20
2.08223
 30
0.0
 10
1.6917800000000001
 20
2.08223
 30
0.0
 10
1.6917800000000001
 20
1.6021700000000001
 30
0.0
 10
1.5495400000000001
 20
2.33623
 30
0.0
 10
1.44032
 20
2.4784700000000002
 30
0.0
 10
1.44032
 20
2.4784700000000002
 30
0.0
 10
1.2803000000000002
 20
2.8188300000000002
 30
0.0
 10
1.2193400000000001
 20
3.1668100000000003
 30
0.0
 10
1.23458
 20
3.5528900000000001
 30
0.0
 10
1.23458
 20
3.5528900000000001
 30
0.0
 10
1.2803000000000002
 20
3.7764100000000003
 30
0.0
 10
1.2193400000000001
 20
4.0050100000000004
 30
0.0
 10
1.2193400000000001
 20
4.2361500000000003
 30
0.0
 10
1.2193400000000001
 20
4.2361500000000003
 30
0.0
 10
1.0542400000000001
 20
3.8043500000000003
 30
0.0
 10
1.1558400000000002
 20
3.0194900000000002
 30
0.0
 10
1.2498200000000002
 20
2.4505300000000001
 30
0.0
 10
1.2498200000000002
 20
2.4505300000000001
 30
0.0
 10
1.2879200000000002
 20
2.21685
 30
0.0
 10
1.2218800000000001
 20
2.01111
 30
0.0
 10
1.1710800000000001
 20
1.9476100000000001
 30
0.0
 10
1.1710800000000001
 20
1.9476100000000001
 30
0.0
 10
1.2803000000000002
 20
2.6232500000000001
 30
0.0
 10
0.7900800000000001
 20
3.2074500000000001
 30
0.0
 10
0.7900800000000001
 20
3.8551500000000005
 30
0.0
 10
0.7900800000000001
 20
3.8551500000000005
 30
0.0
 10
0.7138800000000001
 20
3.9364300000000005
 30
0.0
 10
0.7367400000000001
 20
3.7306900000000005
 30
0.0
 10
0.71896
 20
3.6341700000000001
 30
0.0
 10
0.71896
 20
3.6341700000000001
 30
0.0
 10
0.6224400000000001
 20
3.1261700000000001
 30
0.0
 10
0.4395600000000001
 20
2.16351
 30
0.0
 10
0.33288
 20
2.8137500000000002
 30
0.0
 10
0.33288
 20
2.8137500000000002
 30
0.0
 10
0.36336
 20
3.2988900000000001
 30
0.0
 10
0.4421000000000001
 20
3.8145100000000003
 30
0.0
 10
0.33288
 20
4.2818700000000005
 30
0.0
 10
0.33288
 20
4.2818700000000005
 30
0.0
 10
0.3786000000000001
 20
3.6824300000000001
 30
0.0
 10
0.1246
 20
3.1109300000000002
 30
0.0
 10
0.1246
 20
2.4987900000000001
 30
0.0
 10
0.1246
 20
2.4987900000000001
 30
0.0
 10
0.1246
 20
2.4987900000000001
 30
0.0
 10
0.1246
 20
2.3565500000000004
 30
0.0
 10
0.1246
 20
2.3565500000000004
 30
0.0
 10
0.1246
 20
2.3565500000000004
 30
0.0
 10
-0.4265700000000001
 20
2.7096100000000001
 30
0.0
 10
-0.27417
 20
3.4385900000000005
 30
0.0
 10
-0.38847
 20
3.9821500000000003
 30
0.0
 10
-0.38847
 20
3.9821500000000003
 30
0.0
 10
-0.43419
 20
3.4538300000000004
 30
0.0
 10
-0.22337
 20
2.8645500000000004
 30
0.0
 10
-0.5611900000000001
 20
2.42259
 30
0.0
 10
-0.5611900000000001
 20
2.42259
 30
0.0
 10
-0.5383300000000001
 20
2.5724500000000003
 30
0.0
 10
-0.55611
 20
2.7400900000000004
 30
0.0
 10
-0.56881
 20
2.8924900000000004
 30
0.0
 10
-0.56881
 20
2.8924900000000004
 30
0.0
 10
-0.76439
 20
3.4970100000000004
 30
0.0
 10
-0.7313700000000001
 20
4.2183700000000002
 30
0.0
 10
-0.47483
 20
4.7720900000000004
 30
0.0
 10
-0.47483
 20
4.7720900000000004
 30
0.0
 10
-0.9701300000000001
 20
4.3961700000000006
 30
0.0
 10
-0.7110500000000001
 20
3.6011500000000001
 30
0.0
 10
-0.7897900000000001
 20
3.0525100000000003
 30
0.0
 10
-0.7897900000000001
 20
3.0525100000000003
 30
0.0
 10
-0.8939300000000001
 20
2.5572100000000004
 30
0.0
 10
-0.82281
 20
3.2633300000000003
 30
0.0
 10
-0.9269500000000001
 20
3.4106500000000004
 30
0.0
 10
-0.9269500000000001
 20
3.4106500000000004
 30
0.0
 10
-0.91171
 20
3.0271100000000004
 30
0.0
 10
-1.1453900000000001
 20
2.68167
 30
0.0
 10
-1.1377700000000002
 20
2.3235300000000003
 30
0.0
 10
-1.1377700000000002
 20
2.3235300000000003
 30
0.0
 10
-1.37653
 20
2.4886300000000001
 30
0.0
 10
-1.24953
 20
3.6824300000000001
 30
0.0
 10
-1.3435100000000002
 20
3.2252300000000003
 30
0.0
 10
-1.3435100000000002
 20
3.2252300000000003
 30
0.0
 10
-1.3155700000000001
 20
2.6562700000000001
 30
0.0
 10
-1.8718300000000001
 20
2.3006700000000002
 30
0.0
 10
-1.9861300000000002
 20
1.7901300000000002
 30
0.0
 10
-1.9861300000000002
 20
1.7901300000000002
 30
0.0
 10
-2.0750300000000004
 20
2.2346300000000001
 30
0.0
 10
-1.7702300000000002
 20
2.67659
 30
0.0
 10
-1.8692900000000001
 20
3.14141
 30
0.0
 10
-1.8692900000000001
 20
3.14141
 30
0.0
 10
-1.8997700000000002
 20
2.3667100000000003
 30
0.0
 10
-2.5017500000000004
 20
1.8383900000000002
 30
0.0
 10
-3.0199100000000003
 20
1.3253100000000002
 30
0.0
  0
SPLINE
  5
27
100
AcDbEntity
  8
Ebene 1
100
AcDbSpline
210
0.0
220
0.0
230
1.0
 70
     1
 71
     3
 72
    44
 73
    40
 74
     0
 42
0.0000000001
 43
0.0000000001
 40
0.0
 40
0.0
 40
0.0
 40
0.0
 40
0.1
 40
0.1
 40
0.1
 40
0.1
 40
0.2
 40
0.2
 40
0.2
 40
0.2
 40
0.3
 40
0.3
 40
0.3
 40
0.3
 40
0.4
 40
0.4
 40
0.4
 40
0.4
 40
0.5
 40
0.5
 40
0.5
 40
0.5
 40
0.6
 40
0.6
 40
0.6
 40
0.6
 40
0.7
 40
0.7
 40
0.7
 40
0.7
 40
0.7999999999999999
 40
0.7999999999999999
 40
0.7999999999999999
 40
0.7999999999999999
 40
0.8999999999999999
 40
0.8999999999999999
 40
0.8999999999999999
 40
0.8999999999999999
 40
1.0
 40
1.0
 40
1.0
 40
1.0
 10
2.3572600000000001
 20
4.1421700000000001
 30
0.0
 10
2.3572600000000001
 20
4.1421700000000001
 30
0.0
 10
2.2124800000000002
 20
4.2259900000000004
 30
0.0
 10
2.2124800000000002
 20
4.2259900000000004
 30
0.0
 10
2.2124800000000002
 20
4.2259900000000004
 30
0.0
 10
1.9915000000000003
 20
4.3555300000000008
 30
0.0
 10
1.8670400000000003
 20
4.6273100000000005
 30
0.0
 10
1.61304
 20
4.6933500000000006
 30
0.0
 10
1.61304
 20
4.6933500000000006
 30
0.0
 10
1.61304
 20
4.6933500000000006
 30
0.0
 10
1.9508600000000003
 20
4.2564700000000002
 30
0.0
 10
1.9508600000000003
 20
4.2564700000000002
 30
0.0
 10
1.9508600000000003
 20
4.2564700000000002
 30
0.0
 10
2.0753200000000001
 20
4.1040700000000001
 30
0.0
 10
2.1185
 20
3.9135700000000004
 30
0.0
 10
2.13374
 20
3.7256100000000001
 30
0.0
 10
2.13374
 20
3.7256100000000001
 30
0.0
 10
2.1820000000000004
 20
3.4919300000000004
 30
0.0
 10
2.0727800000000003
 20
3.5503500000000003
 30
0.0
 10
2.0727800000000003
 20
3.7433900000000002
 30
0.0
 10
2.0727800000000003
 20
3.7433900000000002
 30
0.0
 10
1.9153000000000002
 20
4.4088700000000003
 30
0.0
 10
1.2980800000000001
 20
4.9117900000000008
 30
0.0
 10
0.7113400000000001
 20
5.1937300000000004
 30
0.0
 10
0.7113400000000001
 20
5.1937300000000004
 30
0.0
 10
0.7113400000000001
 20
5.1937300000000004
 30
0.0
 10
0.7265800000000001
 20
5.2953300000000008
 30
0.0
 10
0.7265800000000001
 20
5.2953300000000008
 30
0.0
 10
0.7265800000000001
 20
5.2953300000000008
 30
0.0
 10
0.7265800000000001
 20
5.2953300000000008
 30
0.0
 10
1.1228200000000002
 20
5.1607100000000008
 30
0.0
 10
1.1228200000000002
 20
5.1607100000000008
 30
0.0
 10
1.1228200000000002
 20
5.1607100000000008
 30
0.0
 10
1.31332
 20
5.05403
 30
0.0
 10
1.5038200000000002
 20
4.9727500000000004
 30
0.0
 10
1.6613000000000002
 20
4.8279700000000005
 30
0.0
 10
1.6613000000000002
 20
4.8279700000000005
 30
0.0
 10
1.9153000000000002
 20
4.6273100000000005
 30
0.0
 10
2.1845400000000001
 20
4.4037900000000008
 30
0.0
 10
2.3572600000000001
 20
4.1421700000000001
 30
0.0
  0
SPLINE
  5
28
100
AcDbEntity
  8
Ebene 1
100
AcDbSpline
210
0.0
220
0.0
230
1.0
 70
     1
 71
     3
 72
    20
 73
    16
 74
     0
 42
0.0000000001
 43
0.0000000001
 40
0.0
 40
0.0
 40
0.0
 40
0.0
 40
0.25
 40
0.25
 40
0.25
 40
0.25
 40
0.5
 40
0.5
 40
0.5
 40
0.5
 40
0.75
 40
0.75
 40
0.75
 40
0.75
 40
1.0
 40
1.0
 40
1.0
 40
1.0
 10
-1.1530100000000001
 20
4.6501700000000001
 30
0.0
 10
-1.1022100000000001
 20
4.6577900000000003
 30
0.0
 10
-1.13015
 20
4.6146100000000008
 30
0.0
 10
-1.1403100000000002
 20
4.5917500000000002
 30
0.0
 10
-1.1403100000000002
 20
4.5917500000000002
 30
0.0
 10
-1.5111500000000002
 20
4.2132900000000006
 30
0.0
 10
-1.6102100000000001
 20
3.6748100000000004
 30
0.0
 10
-1.6864100000000002
 20
3.1972900000000002
 30
0.0
 10
-1.6864100000000002
 20
3.1972900000000002
 30
0.0
 10
-1.7168900000000002
 20
3.1769700000000003
 30
0.0
 10
-1.7118100000000001
 20
3.3903300000000001
 30
0.0
 10
-1.7016500000000001
 20
3.4792300000000003
 30
0.0
 10
-1.7016500000000001
 20
3.4792300000000003
 30
0.0
 10
-1.6533900000000001
 20
3.9161100000000002
 30
0.0
 10
-1.46289
 20
4.3225100000000003
 30
0.0
 10
-1.1530100000000001
 20
4.6501700000000001
 30
0.0
  0
SPLINE
  5
29
100
AcDbEntity
  8
Ebene 1
100
AcDbSpline
210
0.0
220
0.0
230
1.0
 70
     1
 71
     3
 72
    20
 73
    16
 74
     0
 42
0.0000000001
 43
0.0000000001
 40
0.0
 40
0.0
 40
0.0
 40
0.0
 40
0.25
 40
0.25
 40
0.25
 40
0.25
 40
0.5
 40
0.5
 40
0.5
 40
0.5
 40
0.75
 40
0.75
 40
0.75
 40
0.75
 40
1.0
 40
1.0
 40
1.0
 40
1.0
 10
-2.4509500000000002
 20
4.04819
 30
0.0
 10
-2.40523
 20
4.0608900000000006
 30
0.0
 10
-2.4179300000000001
 20
3.9999300000000004
 30
0.0
 10
-2.4230100000000001
 20
3.9745300000000001
 30
0.0
 10
-2.4230100000000001
 20
3.9745300000000001
 30
0.0
 10
-2.8294100000000002
 20
3.5452700000000004
 30
0.0
 10
-3.0834100000000002
 20
3.0321900000000004
 30
0.0
 10
-3.2205700000000004
 20
2.4733900000000002
 30
0.0
 10
-3.2205700000000004
 20
2.4733900000000002
 30
0.0
 10
-3.2993100000000002
 20
2.1508100000000003
 30
0.0
 10
-3.3145500000000001
 20
2.3489300000000002
 30
0.0
 10
-3.2789900000000003
 20
2.5267300000000001
 30
0.0
 10
-3.2789900000000003
 20
2.5267300000000001
 30
0.0
 10
-3.1723100000000004
 20
3.0931500000000001
 30
0.0
 10
-2.8548100000000001
 20
3.6189300000000002
 30
0.0
 10
-2.4509500000000002
 20
4.04819
 30
0.0
  0
SPLINE
  5
2A
100
AcDbEntity
  8
Ebene 1
 62
     7
100
AcDbSpline
210
0.0
220
0.0
230
1.0
 70
     1
 71
     3
 72
   276
 73
   272
 74
     0
 42
0.0000000001
 43
0.0000000001
 40
0.0
 40
0.0
 40
0.0
 40
0.0
 40
0.0147058823529412
 40
0.0147058823529412
 40
0.0147058823529412
 40
0.0147058823529412
 40
0.0294117647058824
 40
0.0294117647058824
 40
0.0294117647058824
 40
0.0294117647058824
 40
0.0441176470588235
 40
0.0441176470588235
 40
0.0441176470588235
 40
0.0441176470588235
 40
0.0588235294117647
 40
0.0588235294117647
 40
0.0588235294117647
 40
0.0588235294117647
 40
0.0735294117647059
 40
0.0735294117647059
 40
0.0735294117647059
 40
0.0735294117647059
 40
0.0882352941176471
 40
0.0882352941176471
 40
0.0882352941176471
 40
0.0882352941176471
 40
0.1029411764705882
 40
0.1029411764705882
 40
0.1029411764705882
 40
0.1029411764705882
 40
0.1176470588235294
 40
0.1176470588235294
 40
0.1176470588235294
 40
0.1176470588235294
 40
0.1323529411764706
 40
0.1323529411764706
 40
0.1323529411764706
 40
0.1323529411764706
 40
0.1470588235294118
 40
0.1470588235294118
 40
0.1470588235294118
 40
0.1470588235294118
 40
0.161764705882353
 40
0.161764705882353
 40
0.161764705882353
 40
0.161764705882353
 40
0.1764705882352941
 40
0.1764705882352941
 40
0.1764705882352941
 40
0.1764705882352941
 40
0.1911764705882353
 40
0.1911764705882353
 40
0.1911764705882353
 40
0.1911764705882353
 40
0.2058823529411765
 40
0.2058823529411765
 40
0.2058823529411765
 40
0.2058823529411765
 40
0.2205882352941177
 40
0.2205882352941177
 40
0.2205882352941177
 40
0.2205882352941177
 40
0.2352941176470589
 40
0.2352941176470589
 40
0.2352941176470589
 40
0.2352941176470589
 40
0.25
 40
0.25
 40
0.25
 40
0.25
 40
0.2647058823529412
 40
0.2647058823529412
 40
0.2647058823529412
 40
0.2647058823529412
 40
0.2794117647058824
 40
0.2794117647058824
 40
0.2794117647058824
 40
0.2794117647058824
 40
0.2941176470588235
 40
0.2941176470588235
 40
0.2941176470588235
 40
0.2941176470588235
 40
0.3088235294117647
 40
0.3088235294117647
 40
0.3088235294117647
 40
0.3088235294117647
 40
0.3235294117647059
 40
0.3235294117647059
 40
0.3235294117647059
 40
0.3235294117647059
 40
0.3382352941176471
 40
0.3382352941176471
 40
0.3382352941176471
 40
0.3382352941176471
 40
0.3529411764705883
 40
0.3529411764705883
 40
0.3529411764705883
 40
0.3529411764705883
 40
0.3676470588235294
 40
0.3676470588235294
 40
0.3676470588235294
 40
0.3676470588235294
 40
0.3823529411764706
 40
0.3823529411764706
 40
0.3823529411764706
 40
0.3823529411764706
 40
0.3970588235294118
 40
0.3970588235294118
 40
0.3970588235294118
 40
0.3970588235294118
 40
0.411764705882353
 40
0.411764705882353
 40
0.411764705882353
 40
0.411764705882353
 40
0.4264705882352942
 40
0.4264705882352942
 40
0.4264705882352942
 40
0.4264705882352942
 40
0.4411764705882353
 40
0.4411764705882353
 40
0.4411764705882353
 40
0.4411764705882353
 40
0.4558823529411765
 40
0.4558823529411765
 40
0.4558823529411765
 40
0.4558823529411765
 40
0.4705882352941177
 40
0.4705882352941177
 40
0.4705882352941177
 40
0.4705882352941177
 40
0.4852941176470589
 40
0.4852941176470589
 40
0.4852941176470589
 40
0.4852941176470589
 40
0.5
 40
0.5
 40
0.5
 40
0.5
 40
0.5147058823529411
 40
0.5147058823529411
 40
0.5147058823529411
 40
0.5147058823529411
 40
0.5294117647058823
 40
0.5294117647058823
 40
0.5294117647058823
 40
0.5294117647058823
 40
0.5441176470588234
 40
0.5441176470588234
 40
0.5441176470588234
 40
0.5441176470588234
 40
0.5588235294117645
 40
0.5588235294117645
 40
0.5588235294117645
 40
0.5588235294117645
 40
0.5735294117647056
 40
0.5735294117647056
 40
0.5735294117647056
 40
0.5735294117647056
 40
0.5882352941176468
 40
0.5882352941176468
 40
0.5882352941176468
 40
0.5882352941176468
 40
0.6029411764705879
 40
0.6029411764705879
 40
0.6029411764705879
 40
0.6029411764705879
 40
0.617647058823529
 40
0.617647058823529
 40
0.617647058823529
 40
0.617647058823529
 40
0.6323529411764701
 40
0.6323529411764701
 40
0.6323529411764701
 40
0.6323529411764701
 40
0.6470588235294112
 40
0.6470588235294112
 40
0.6470588235294112
 40
0.6470588235294112
 40
0.6617647058823524
 40
0.6617647058823524
 40
0.6617647058823524
 40
0.6617647058823524
 40
0.6764705882352935
 40
0.6764705882352935
 40
0.6764705882352935
 40
0.6764705882352935
 40
0.6911764705882346
 40
0.6911764705882346
 40
0.6911764705882346
 40
0.6911764705882346
 40
0.7058823529411757
 40
0.7058823529411757
 40
0.7058823529411757
 40
0.7058823529411757
 40
0.7205882352941169
 40
0.7205882352941169
 40
0.7205882352941169
 40
0.7205882352941169
 40
0.735294117647058
 40
0.735294117647058
 40
0.735294117647058
 40
0.735294117647058
 40
0.7499999999999991
 40
0.7499999999999991
 40
0.7499999999999991
 40
0.7499999999999991
 40
0.7647058823529402
 40
0.7647058823529402
 40
0.7647058823529402
 40
0.7647058823529402
 40
0.7794117647058814
 40
0.7794117647058814
 40
0.7794117647058814
 40
0.7794117647058814
 40
0.7941176470588225
 40
0.7941176470588225
 40
0.7941176470588225
 40
0.7941176470588225
 40
0.8088235294117636
 40
0.8088235294117636
 40
0.8088235294117636
 40
0.8088235294117636
 40
0.8235294117647047
 40
0.8235294117647047
 40
0.8235294117647047
 40
0.8235294117647047
 40
0.8382352941176459
 40
0.8382352941176459
 40
0.8382352941176459
 40
0.8382352941176459
 40
0.852941176470587
 40
0.852941176470587
 40
0.852941176470587
 40
0.852941176470587
 40
0.8676470588235281
 40
0.8676470588235281
 40
0.8676470588235281
 40
0.8676470588235281
 40
0.8823529411764692
 40
0.8823529411764692
 40
0.8823529411764692
 40
0.8823529411764692
 40
0.8970588235294104
 40
0.8970588235294104
 40
0.8970588235294104
 40
0.8970588235294104
 40
0.9117647058823515
 40
0.9117647058823515
 40
0.9117647058823515
 40
0.9117647058823515
 40
0.9264705882352926
 40
0.9264705882352926
 40
0.9264705882352926
 40
0.9264705882352926
 40
0.9411764705882337
 40
0.9411764705882337
 40
0.9411764705882337
 40
0.9411764705882337
 40
0.9558823529411749
 40
0.9558823529411749
 40
0.9558823529411749
 40
0.9558823529411749
 40
0.970588235294116
 40
0.970588235294116
 40
0.970588235294116
 40
0.970588235294116
 40
0.9852941176470571
 40
0.9852941176470571
 40
0.9852941176470571
 40
0.9852941176470571
 40
1.0
 40
1.0
 40
1.0
 40
1.0
 10
0.2643
 20
-1.9944600000000001
 30
0.0
 10
0.34304
 20
-1.9411200000000002
 30
0.0
 10
0.31256
 20
-1.62616
 30
0.0
 10
0.22112
 20
-1.7277600000000002
 30
0.0
 10
0.22112
 20
-1.7277600000000002
 30
0.0
 10
0.23636
 20
-1.8242800000000001
 30
0.0
 10
0.23636
 20
-1.9030200000000002
 30
0.0
 10
0.20588
 20
-1.9944600000000001
 30
0.0
 10
0.20588
 20
-1.9944600000000001
 30
0.0
 10
0.20588
 20
-1.9944600000000001
 30
0.0
 10
0.13476
 20
-2.1900400000000002
 30
0.0
 10
0.13476
 20
-2.1900400000000002
 30
0.0
 10
0.13476
 20
-2.1900400000000002
 30
0.0
 10
0.13476
 20
-2.2459200000000004
 30
0.0
 10
0.20588
 20
-2.3729200000000001
 30
0.0
 10
0.1119
 20
-2.3576800000000002
 30
0.0
 10
0.1119
 20
-2.3576800000000002
 30
0.0
 10
0.04332
 20
-2.4059400000000002
 30
0.0
 10
0.05094
 20
-2.19258
 30
0.0
 10
0.03062
 20
-2.02494
 30
0.0
 10
0.03062
 20
-2.02494
 30
0.0
 10
0.00268
 20
-1.8369800000000001
 30
0.0
 10
-0.04557
 20
-1.7049000000000001
 30
0.0
 10
-0.06335
 20
-1.9538200000000001
 30
0.0
 10
-0.06335
 20
-1.9538200000000001
 30
0.0
 10
-0.06335
 20
-1.9538200000000001
 30
0.0
 10
-0.06843
 20
-2.1849600000000002
 30
0.0
 10
-0.06843
 20
-2.1849600000000002
 30
0.0
 10
-0.06843
 20
-2.1849600000000002
 30
0.0
 10
-0.06843
 20
-2.2459200000000004
 30
0.0
 10
0.01538
 20
-2.4465800000000004
 30
0.0
 10
-0.07605
 20
-2.3297400000000001
 30
0.0
 10
-0.07605
 20
-2.3297400000000001
 30
0.0
 10
-0.31989
 20
-2.4313400000000001
 30
0.0
 10
-0.29957
 20
-2.2027400000000004
 30
0.0
 10
-0.29703
 20
-2.0605000000000002
 30
0.0
 10
-0.29703
 20
-2.0605000000000002
 30
0.0
 10
-0.29449
 20
-1.9512800000000001
 30
0.0
 10
-0.31989
 20
-1.8928600000000002
 30
0.0
 10
-0.37831
 20
-2.0732000000000004
 30
0.0
 10
-0.37831
 20
-2.0732000000000004
 30
0.0
 10
-0.38339
 20
-2.0884400000000003
 30
0.0
 10
-0.35545
 20
-2.1316200000000003
 30
0.0
 10
-0.36307
 20
-2.1519400000000002
 30
0.0
 10
-0.36307
 20
-2.1519400000000002
 30
0.0
 10
-0.35799
 20
-2.4872200000000002
 30
0.0
 10
-0.5611900000000001
 20
-2.3322800000000004
 30
0.0
 10
-0.49515
 20
-2.0732000000000004
 30
0.0
 10
-0.49515
 20
-2.0732000000000004
 30
0.0
 10
-0.49515
 20
-2.0732000000000004
 30
0.0
 10
-0.5408700000000001
 20
-1.9182600000000001
 30
0.0
 10
-0.5408700000000001
 20
-1.9182600000000001
 30
0.0
 10
-0.5408700000000001
 20
-1.9182600000000001
 30
0.0
 10
-0.6831100000000001
 20
-1.7582400000000002
 30
0.0
 10
-0.4367300000000001
 20
-2.3094200000000003
 30
0.0
 10
-0.6272300000000001
 20
-2.3526000000000002
 30
0.0
 10
-0.6272300000000001
 20
-2.3526000000000002
 30
0.0
 10
-0.9269500000000001
 20
-2.18242
 30
0.0
 10
-0.92949
 20
-2.1341600000000001
 30
0.0
 10
-0.7897900000000001
 20
-1.7734800000000002
 30
0.0
 10
-0.7897900000000001
 20
-1.7734800000000002
 30
0.0
 10
-0.8609100000000001
 20
-1.7480800000000001
 30
0.0
 10
-0.8786900000000001
 20
-1.92334
 30
0.0
 10
-0.9421900000000001
 20
-1.9589000000000001
 30
0.0
 10
-0.9421900000000001
 20
-1.9589000000000001
 30
0.0
 10
-0.9421900000000001
 20
-1.9589000000000001
 30
0.0
 10
-0.9828300000000001
 20
-1.2223000000000002
 30
0.0
 10
-0.9828300000000001
 20
-1.2223000000000002
 30
0.0
 10
-0.9828300000000001
 20
-1.2223000000000002
 30
0.0
 10
-0.67803
 20
-1.5601200000000002
 30
0.0
 10
-0.8761500000000001
 20
-1.0953000000000002
 30
0.0
 10
-1.1047500000000001
 20
-1.0292600000000001
 30
0.0
 10
-1.1047500000000001
 20
-1.0292600000000001
 30
0.0
 10
-1.7295900000000002
 20
-1.6363200000000002
 30
0.0
 10
-2.6770100000000001
 20
-1.5652000000000001
 30
0.0
 10
-3.1265900000000002
 20
-0.8108200000000001
 30
0.0
 10
-3.1265900000000002
 20
-0.8108200000000001
 30
0.0
 10
-2.9843500000000001
 20
-0.8159000000000001
 30
0.0
 10
-2.7659100000000003
 20
-1.0064000000000002
 30
0.0
 10
-2.6084300000000002
 20
-0.9175000000000001
 30
0.0
 10
-2.6084300000000002
 20
-0.9175000000000001
 30
0.0
 10
-2.7506700000000004
 20
-0.80574
 30
0.0
 10
-3.1240500000000004
 20
-0.36886
 30
0.0
 10
-2.7506700000000004
 20
-0.50602
 30
0.0
 10
-2.7506700000000004
 20
-0.50602
 30
0.0
 10
-2.9005300000000003
 20
-0.35616
 30
0.0
 10
-3.0224500000000001
 20
-0.16566
 30
0.0
 10
-3.0351500000000002
 20
0.04515
 30
0.0
 10
-3.0351500000000002
 20
0.04515
 30
0.0
 10
-2.9995900000000004
 20
0.09341
 30
0.0
 10
-2.9538700000000002
 20
0.14675
 30
0.0
 10
-2.8929100000000001
 20
0.17215
 30
0.0
 10
-2.8929100000000001
 20
0.17215
 30
0.0
 10
-2.7862300000000002
 20
-0.0539
 30
0.0
 10
-2.56271
 20
-0.22662
 30
0.0
 10
-2.3442700000000003
 20
-0.35108
 30
0.0
 10
-2.3442700000000003
 20
-0.35108
 30
0.0
 10
-2.3442700000000003
 20
-0.35108
 30
0.0
 10
-2.2452100000000002
 20
-0.44506
 30
0.0
 10
-2.2452100000000002
 20
-0.44506
 30
0.0
 10
-2.2452100000000002
 20
-0.44506
 30
0.0
 10
-2.27569
 20
-0.5238
 30
0.0
 10
-2.40523
 20
-0.5441200000000001
 30
0.0
 10
-2.40015
 20
-0.6279400000000001
 30
0.0
 10
-2.40015
 20
-0.6279400000000001
 30
0.0
 10
-2.40015
 20
-0.6279400000000001
 30
0.0
 10
-0.88631
 20
-0.08184
 30
0.0
 10
-0.88631
 20
-0.08184
 30
0.0
 10
-0.88631
 20
-0.08184
 30
0.0
 10
-0.9066300000000001
 20
-0.17836
 30
0.0
 10
-1.1098300000000001
 20
-0.4247400000000001
 30
0.0
 10
-0.94981
 20
-0.4222
 30
0.0
 10
-0.94981
 20
-0.4222
 30
0.0
 10
-0.82535
 20
-0.18598
 30
0.0
 10
-0.6932700000000001
 20
0.16199
 30
0.0
 10
-0.3960900000000001
 20
0.17469
 30
0.0
 10
-0.3960900000000001
 20
0.17469
 30
0.0
 10
-1.03363
 20
0.32963
 30
0.0
 10
-0.06081
 20
0.45917
 30
0.0
 10
-0.21829
 20
0.85033
 30
0.0
 10
-0.21829
 20
0.85033
 30
0.0
 10
-0.7872500000000001
 20
-0.20122
 30
0.0
 10
-2.2121900000000001
 20
1.5920100000000001
 30
0.0
 10
-2.9360900000000001
 20
0.5252100000000001
 30
0.0
 10
-2.9360900000000001
 20
0.5252100000000001
 30
0.0
 10
-2.7811500000000002
 20
0.55569
 30
0.0
 10
-2.6414500000000003
 20
0.6877700000000001
 30
0.0
 10
-2.4661900000000001
 20
0.6776100000000001
 30
0.0
 10
-2.4661900000000001
 20
0.6776100000000001
 30
0.0
 10
-2.3899900000000001
 20
0.5861700000000001
 30
0.0
 10
-2.9106900000000002
 20
0.32963
 30
0.0
 10
-3.0478500000000004
 20
0.12897
 30
0.0
 10
-3.0478500000000004
 20
0.12897
 30
0.0
 10
-3.1367500000000001
 20
0.8833500000000001
 30
0.0
 10
-2.7709900000000003
 20
1.5843900000000002
 30
0.0
 10
-2.1055100000000002
 20
1.9577700000000002
 30
0.0
 10
-2.1055100000000002
 20
1.9577700000000002
 30
0.0
 10
-2.0902700000000003
 20
1.7012300000000002
 30
0.0
 10
-2.0343900000000001
 20
1.3532500000000001
 30
0.0
 10
-1.8057900000000002
 20
1.18815
 30
0.0
 10
-1.8057900000000002
 20
1.18815
 30
0.0
 10
-1.9683500000000003
 20
1.6936100000000001
 30
0.0
 10
-1.7626100000000002
 20
2.2397100000000001
 30
0.0
 10
-1.42225
 20
2.6232500000000001
 30
0.0
 10
-1.42225
 20
2.6232500000000001
 30
0.0
 10
-1.38161
 20
2.4098900000000003
 30
0.0
 10
-1.20381
 20
2.21177
 30
0.0
 10
-1.0285500000000001
 20
2.0898500000000002
 30
0.0
 10
-1.0285500000000001
 20
2.0898500000000002
 30
0.0
 10
-1.1149100000000001
 20
2.3667100000000003
 30
0.0
 10
-0.99299
 20
3.0347300000000001
 30
0.0
 10
-0.8380500000000001
 20
2.6080100000000002
 30
0.0
 10
-0.8380500000000001
 20
2.6080100000000002
 30
0.0
 10
-0.67803
 20
3.3750900000000001
 30
0.0
 10
-0.55103
 20
2.4860900000000004
 30
0.0
 10
-0.74153
 20
2.1660500000000003
 30
0.0
 10
-0.74153
 20
2.1660500000000003
 30
0.0
 10
-0.8710700000000001
 20
1.8460100000000002
 30
0.0
 10
-0.7974100000000001
 20
1.7418700000000003
 30
0.0
 10
-0.6272300000000001
 20
2.08223
 30
0.0
 10
-0.6272300000000001
 20
2.08223
 30
0.0
 10
-0.6272300000000001
 20
2.08223
 30
0.0
 10
-0.34529
 20
2.6232500000000001
 30
0.0
 10
-0.34529
 20
2.6232500000000001
 30
0.0
 10
-0.34529
 20
2.6232500000000001
 30
0.0
 10
-0.20305
 20
2.4505300000000001
 30
0.0
 10
-0.07605
 20
2.25495
 30
0.0
 10
0.09412
 20
2.1000100000000002
 30
0.0
 10
0.09412
 20
2.1000100000000002
 30
0.0
 10
0.22112
 20
2.01111
 30
0.0
 10
0.33288
 20
1.8612500000000001
 30
0.0
 10
0.5056000000000001
 20
1.8688700000000003
 30
0.0
 10
0.5056000000000001
 20
1.8688700000000003
 30
0.0
 10
0.42686
 20
2.0669900000000001
 30
0.0
 10
0.25414
 20
2.2346300000000001
 30
0.0
 10
0.26684
 20
2.46577
 30
0.0
 10
0.26684
 20
2.46577
 30
0.0
 10
0.36336
 20
2.30321
 30
0.0
 10
0.5208400000000001
 20
2.1533500000000001
 30
0.0
 10
0.6961000000000001
 20
2.0593700000000004
 30
0.0
 10
0.6961000000000001
 20
2.0593700000000004
 30
0.0
 10
0.5843400000000001
 20
2.3540100000000002
 30
0.0
 10
0.5056000000000001
 20
2.7756500000000002
 30
0.0
 10
0.7265800000000001
 20
3.0677500000000002
 30
0.0
 10
0.7265800000000001
 20
3.0677500000000002
 30
0.0
 10
1.1533
 20
2.5800700000000001
 30
0.0
 10
1.1380600000000001
 20
1.8460100000000002
 30
0.0
 10
0.9501000000000001
 20
1.2694300000000001
 30
0.0
 10
0.9501000000000001
 20
1.2694300000000001
 30
0.0
 10
0.9805800000000001
 20
1.23895
 30
0.0
 10
1.0110600000000001
 20
1.2186300000000001
 30
0.0
 10
1.0440800000000001
 20
1.23641
 30
0.0
 10
1.0440800000000001
 20
1.23641
 30
0.0
 10
1.1533
 20
1.5869300000000002
 30
0.0
 10
1.3768200000000002
 20
1.9018900000000001
 30
0.0
 10
1.3768200000000002
 20
2.2879700000000001
 30
0.0
 10
1.3768200000000002
 20
2.2879700000000001
 30
0.0
 10
1.5825600000000002
 20
2.0619100000000001
 30
0.0
 10
1.5495400000000001
 20
1.5996300000000001
 30
0.0
 10
1.7730600000000001
 20
1.4573900000000002
 30
0.0
 10
1.7730600000000001
 20
1.4573900000000002
 30
0.0
 10
1.7730600000000001
 20
1.4573900000000002
 30
0.0
 10
1.7552800000000002
 20
1.5640700000000001
 30
0.0
 10
1.7552800000000002
 20
1.5640700000000001
 30
0.0
 10
1.7552800000000002
 20
1.5640700000000001
 30
0.0
 10
1.7883000000000002
 20
1.7901300000000002
 30
0.0
 10
1.8340200000000002
 20
2.0263500000000003
 30
0.0
 10
1.9305400000000001
 20
2.2295500000000001
 30
0.0
 10
1.9305400000000001
 20
2.2295500000000001
 30
0.0
 10
2.0245200000000003
 20
1.9653900000000002
 30
0.0
 10
2.2607400000000002
 20
1.7621900000000001
 30
0.0
 10
2.42076
 20
1.5361300000000002
 30
0.0
 10
2.42076
 20
1.5361300000000002
 30
0.0
 10
2.4512400000000003
 20
1.4675500000000001
 30
0.0
 10
2.59348
 20
1.4396100000000001
 30
0.0
 10
2.5782400000000001
 20
1.5462900000000002
 30
0.0
 10
2.5782400000000001
 20
1.5462900000000002
 30
0.0
 10
2.4995000000000003
 20
1.6529700000000001
 30
0.0
 10
2.46902
 20
1.78251
 30
0.0
 10
2.4512400000000003
 20
1.9095100000000003
 30
0.0
 10
2.4512400000000003
 20
1.9095100000000003
 30
0.0
 10
3.0710000000000002
 20
1.1703700000000001
 30
0.0
 10
3.4799400000000005
 20
-0.0666
 30
0.0
 10
2.5325200000000003
 20
-0.7473200000000001
 30
0.0
 10
2.5325200000000003
 20
-0.7473200000000001
 30
0.0
 10
2.6900000000000004
 20
-0.8768600000000001
 30
0.0
 10
2.8957400000000004
 20
-0.5644400000000001
 30
0.0
 10
3.05322
 20
-0.5111
 30
0.0
 10
3.05322
 20
-0.5111
 30
0.0
 10
2.8627200000000004
 20
-1.4966200000000001
 30
0.0
 10
1.8035400000000001
 20
-1.2146800000000002
 30
0.0
 10
1.1380600000000001
 20
-0.9657600000000001
 30
0.0
 10
1.1380600000000001
 20
-0.9657600000000001
 30
0.0
 10
1.05932
 20
-0.99116
 30
0.0
 10
1.0110600000000001
 20
-1.0546600000000002
 30
0.0
 10
0.9501000000000001
 20
-1.1105400000000001
 30
0.0
 10
0.9501000000000001
 20
-1.1105400000000001
 30
0.0
 10
1.2498200000000002
 20
-1.0292600000000001
 30
0.0
 10
1.1380600000000001
 20
-1.1486400000000001
 30
0.0
 10
1.1228200000000002
 20
-1.37216
 30
0.0
 10
1.1228200000000002
 20
-1.37216
 30
0.0
 10
1.2015600000000002
 20
-1.2985000000000002
 30
0.0
 10
1.2498200000000002
 20
-1.1816600000000002
 30
0.0
 10
1.36158
 20
-1.1562600000000001
 30
0.0
 10
1.36158
 20
-1.1562600000000001
 30
0.0
 10
1.48604
 20
-1.5067800000000002
 30
0.0
 10
1.5343000000000002
 20
-2.2281400000000002
 30
0.0
 10
0.9501000000000001
 20
-2.1519400000000002
 30
0.0
 10
0.9501000000000001
 20
-2.1519400000000002
 30
0.0
 10
0.9501000000000001
 20
-2.1519400000000002
 30
0.0
 10
0.8231000000000001
 20
-2.2433800000000002
 30
0.0
 10
0.8231000000000001
 20
-2.2433800000000002
 30
0.0
 10
0.8231000000000001
 20
-2.2433800000000002
 30
0.0
 10
0.7900800000000001
 20
-2.1697200000000003
 30
0.0
 10
0.9018400000000001
 20
-1.9309600000000002
 30
0.0
 10
0.8231000000000001
 20
-1.9817600000000002
 30
0.0
 10
0.8231000000000001
 20
-1.9817600000000002
 30
0.0
 10
0.70118
 20
-2.0859000000000001
 30
0.0
 10
0.80532
 20
-2.3297400000000001
 30
0.0
 10
0.61736
 20
-2.2891000000000004
 30
0.0
 10
0.61736
 20
-2.2891000000000004
 30
0.0
 10
0.6326000000000001
 20
-2.1544800000000004
 30
0.0
 10
0.5691000000000001
 20
-1.9970000000000001
 30
0.0
 10
0.5208400000000001
 20
-1.8700000000000001
 30
0.0
 10
0.5208400000000001
 20
-1.8700000000000001
 30
0.0
 10
0.4624200000000001
 20
-2.01478
 30
0.0
 10
0.5868800000000001
 20
-2.1798800000000003
 30
0.0
 10
0.5386200000000001
 20
-2.3526000000000002
 30
0.0
 10
0.5386200000000001
 20
-2.3526000000000002
 30
0.0
 10
0.26684
 20
-2.2891000000000004
 30
0.0
 10
0.2008
 20
-2.3703800000000004
 30
0.0
 10
0.2643
 20
-1.9944600000000001
 30
0.0
  0
SPLINE
  5
2B
100
AcDbEntity
  8
Ebene 1
100
AcDbSpline
210
0.0
220
0.0
230
1.0
 70
     1
 71
     3
 72
    32
 73
    28
 74
     0
 42
0.0000000001
 43
0.0000000001
 40
0.0
 40
0.0
 40
0.0
 40
0.0
 40
0.1428571428571429
 40
0.1428571428571429
 40
0.1428571428571429
 40
0.1428571428571429
 40
0.2857142857142857
 40
0.2857142857142857
 40
0.2857142857142857
 40
0.2857142857142857
 40
0.4285714285714286
 40
0.4285714285714286
 40
0.4285714285714286
 40
0.4285714285714286
 40
0.5714285714285714
 40
0.5714285714285714
 40
0.5714285714285714
 40
0.5714285714285714
 40
0.7142857142857142
 40
0.7142857142857142
 40
0.7142857142857142
 40
0.7142857142857142
 40
0.857142857142857
 40
0.857142857142857
 40
0.857142857142857
 40
0.857142857142857
 40
1.0
 40
1.0
 40
1.0
 40
1.0
 10
-0.5205500000000001
 20
1.7063100000000002
 30
0.0
 10
-0.4062500000000001
 20
1.6682100000000002
 30
0.0
 10
-0.6881900000000001
 20
1.5056500000000002
 30
0.0
 10
-0.6094500000000001
 20
1.4116700000000002
 30
0.0
 10
-0.6094500000000001
 20
1.4116700000000002
 30
0.0
 10
-0.6094500000000001
 20
1.4116700000000002
 30
0.0
 10
-0.4595900000000001
 20
1.2821300000000002
 30
0.0
 10
-0.4595900000000001
 20
1.2821300000000002
 30
0.0
 10
-0.4595900000000001
 20
1.2821300000000002
 30
0.0
 10
-0.4595900000000001
 20
1.2821300000000002
 30
0.0
 10
-1.46543
 20
1.5920100000000001
 30
0.0
 10
-1.46543
 20
1.5920100000000001
 30
0.0
 10
-1.46543
 20
1.5920100000000001
 30
0.0
 10
-1.4070100000000001
 20
1.6377300000000001
 30
0.0
 10
-1.3257300000000001
 20
1.5920100000000001
 30
0.0
 10
-1.2647700000000002
 20
1.5793100000000002
 30
0.0
 10
-1.2647700000000002
 20
1.5793100000000002
 30
0.0
 10
-1.2647700000000002
 20
1.5793100000000002
 30
0.0
 10
-1.04125
 20
1.5462900000000002
 30
0.0
 10
-1.04125
 20
1.5462900000000002
 30
0.0
 10
-1.04125
 20
1.5462900000000002
 30
0.0
 10
-1.04125
 20
1.5462900000000002
 30
0.0
 10
-0.76185
 20
1.4726300000000001
 30
0.0
 10
-0.76185
 20
1.4726300000000001
 30
0.0
 10
-0.76185
 20
1.4726300000000001
 30
0.0
 10
-0.76185
 20
1.4726300000000001
 30
0.0
 10
-0.5205500000000001
 20
1.7063100000000002
 30
0.0
 10
-0.5205500000000001
 20
1.7063100000000002
 30
0.0
  0
SPLINE
  5
2C
100
AcDbEntity
  8
Ebene 1
100
AcDbSpline
210
0.0
220
0.0
230
1.0
 70
     1
 71
     3
 72
    24
 73
    20
 74
     0
 42
0.0000000001
 43
0.0000000001
 40
0.0
 40
0.0
 40
0.0
 40
0.0
 40
0.2
 40
0.2
 40
0.2
 40
0.2
 40
0.4
 40
0.4
 40
0.4
 40
0.4
 40
0.6000000000000001
 40
0.6000000000000001
 40
0.6000000000000001
 40
0.6000000000000001
 40
0.8
 40
0.8
 40
0.8
 40
0.8
 40
1.0
 40
1.0
 40
1.0
 40
1.0
 10
0.8535800000000001
 20
1.6428100000000001
 30
0.0
 10
0.8535800000000001
 20
1.6428100000000001
 30
0.0
 10
0.9170800000000001
 20
1.6402700000000001
 30
0.0
 10
0.9170800000000001
 20
1.6402700000000001
 30
0.0
 10
0.9170800000000001
 20
1.6402700000000001
 30
0.0
 10
0.9018400000000001
 20
1.4599300000000002
 30
0.0
 10
0.6326000000000001
 20
1.44469
 30
0.0
 10
0.5208400000000001
 20
1.3100700000000001
 30
0.0
 10
0.5208400000000001
 20
1.3100700000000001
 30
0.0
 10
0.4421000000000001
 20
1.3684900000000002
 30
0.0
 10
0.59958
 20
1.40405
 30
0.0
 10
0.61736
 20
1.4726300000000001
 30
0.0
 10
0.61736
 20
1.4726300000000001
 30
0.0
 10
0.59958
 20
1.5539100000000001
 30
0.0
 10
0.6326000000000001
 20
1.6682100000000002
 30
0.0
 10
0.68086
 20
1.5462900000000002
 30
0.0
 10
0.68086
 20
1.5462900000000002
 30
0.0
 10
0.74182
 20
1.5589900000000001
 30
0.0
 10
0.80786
 20
1.6072500000000001
 30
0.0
 10
0.8535800000000001
 20
1.6428100000000001
 30
0.0
  0
SPLINE
  5
2D
100
AcDbEntity
  8
Ebene 1
100
AcDbSpline
210
0.0
220
0.0
230
1.0
 70
     1
 71
     3
 72
    56
 73
    52
 74
     0
 42
0.0000000001
 43
0.0000000001
 40
0.0
 40
0.0
 40
0.0
 40
0.0
 40
0.0769230769230769
 40
0.0769230769230769
 40
0.0769230769230769
 40
0.0769230769230769
 40
0.1538461538461539
 40
0.1538461538461539
 40
0.1538461538461539
 40
0.1538461538461539
 40
0.2307692307692308
 40
0.2307692307692308
 40
0.2307692307692308
 40
0.2307692307692308
 40
0.3076923076923077
 40
0.3076923076923077
 40
0.3076923076923077
 40
0.3076923076923077
 40
0.3846153846153846
 40
0.3846153846153846
 40
0.3846153846153846
 40
0.3846153846153846
 40
0.4615384615384616
 40
0.4615384615384616
 40
0.4615384615384616
 40
0.4615384615384616
 40
0.5384615384615386
 40
0.5384615384615386
 40
0.5384615384615386
 40
0.5384615384615386
 40
0.6153846153846154
 40
0.6153846153846154
 40
0.6153846153846154
 40
0.6153846153846154
 40
0.6923076923076923
 40
0.6923076923076923
 40
0.6923076923076923
 40
0.6923076923076923
 40
0.7692307692307692
 40
0.7692307692307692
 40
0.7692307692307692
 40
0.7692307692307692
 40
0.846153846153846
 40
0.846153846153846
 40
0.846153846153846
 40
0.846153846153846
 40
0.9230769230769229
 40
0.9230769230769229
 40
0.9230769230769229
 40
0.9230769230769229
 40
1.0
 40
1.0
 40
1.0
 40
1.0
 10
2.00928
 20
1.0408300000000001
 30
0.0
 10
2.3090000000000002
 20
1.01797
 30
0.0
 10
2.5782400000000001
 20
0.8020700000000001
 30
0.0
 10
2.8322400000000001
 20
0.66237
 30
0.0
 10
2.8322400000000001
 20
0.66237
 30
0.0
 10
2.7204800000000002
 20
0.6064900000000001
 30
0.0
 10
2.5477600000000002
 20
0.7334900000000001
 30
0.0
 10
2.4512400000000003
 20
0.7411100000000001
 30
0.0
 10
2.4512400000000003
 20
0.7411100000000001
 30
0.0
 10
2.4512400000000003
 20
0.7411100000000001
 30
0.0
 10
2.5477600000000002
 20
0.6293500000000001
 30
0.0
 10
2.5477600000000002
 20
0.6293500000000001
 30
0.0
 10
2.5477600000000002
 20
0.6293500000000001
 30
0.0
 10
2.7052400000000003
 20
0.47695
 30
0.0
 10
2.8322400000000001
 20
0.30931
 30
0.0
 10
2.9440000000000004
 20
0.12897
 30
0.0
 10
2.9440000000000004
 20
0.12897
 30
0.0
 10
2.8322400000000001
 20
0.13405
 30
0.0
 10
2.7687400000000002
 20
0.26613
 30
0.0
 10
2.6595200000000001
 20
0.29407
 30
0.0
 10
2.6595200000000001
 20
0.29407
 30
0.0
 10
2.5325200000000003
 20
0.13405
 30
0.0
 10
2.3725000000000001
 20
0.00451
 30
0.0
 10
2.21502
 20
-0.1301
 30
0.0
 10
2.21502
 20
-0.1301
 30
0.0
 10
2.24804
 20
-0.24948
 30
0.0
 10
2.4360000000000004
 20
-0.20122
 30
0.0
 10
2.4842600000000004
 20
-0.2952
 30
0.0
 10
2.4842600000000004
 20
-0.2952
 30
0.0
 10
2.4842600000000004
 20
-0.2952
 30
0.0
 10
1.1710800000000001
 20
-0.05136
 30
0.0
 10
1.1710800000000001
 20
-0.05136
 30
0.0
 10
1.1710800000000001
 20
-0.05136
 30
0.0
 10
1.2015600000000002
 20
-0.12756
 30
0.0
 10
1.2980800000000001
 20
-0.22408
 30
0.0
 10
1.2193400000000001
 20
-0.3002800000000001
 30
0.0
 10
1.2193400000000001
 20
-0.3002800000000001
 30
0.0
 10
1.0440800000000001
 20
-0.0666
 30
0.0
 10
0.7900800000000001
 20
0.28899
 30
0.0
 10
0.49036
 20
0.10611
 30
0.0
 10
0.49036
 20
0.10611
 30
0.0
 10
0.5386200000000001
 20
0.26105
 30
0.0
 10
0.80786
 20
0.24835
 30
0.0
 10
0.7748400000000001
 20
0.43631
 30
0.0
 10
0.7748400000000001
 20
0.43631
 30
0.0
 10
0.5691000000000001
 20
0.45917
 30
0.0
 10
0.36336
 20
0.5861700000000001
 30
0.0
 10
0.3786000000000001
 20
0.8173100000000001
 30
0.0
 10
0.3786000000000001
 20
0.8173100000000001
 30
0.0
 10
0.80786
 20
0.20771
 30
0.0
 10
1.4708000000000001
 20
0.97733
 30
0.0
 10
2.00928
 20
1.0408300000000001
 30
0.0
  0
SPLINE
  5
2E
100
AcDbEntity
  8
Ebene 1
 62
     7
100
AcDbSpline
210
0.0
220
0.0
230
1.0
 70
     1
 71
     3
 72
    16
 73
    12
 74
     0
 42
0.0000000001
 43
0.0000000001
 40
0.0
 40
0.0
 40
0.0
 40
0.0
 40
0.3333333333333333
 40
0.3333333333333333
 40
0.3333333333333333
 40
0.3333333333333333
 40
0.6666666666666666
 40
0.6666666666666666
 40
0.6666666666666666
 40
0.6666666666666666
 40
1.0
 40
1.0
 40
1.0
 40
1.0
 10
1.8035400000000001
 20
0.48711
 30
0.0
 10
1.8035400000000001
 20
0.4845700000000001
 30
0.0
 10
1.8340200000000002
 20
0.49219
 30
0.0
 10
1.8340200000000002
 20
0.47695
 30
0.0
 10
1.8340200000000002
 20
0.47695
 30
0.0
 10
1.6765400000000001
 20
0.40329
 30
0.0
 10
1.5190600000000001
 20
0.34995
 30
0.0
 10
1.3285600000000002
 20
0.38297
 30
0.0
 10
1.3285600000000002
 20
0.38297
 30
0.0
 10
1.44032
 20
0.5252100000000001
 30
0.0
 10
1.6613000000000002
 20
0.41853
 30
0.0
 10
1.8035400000000001
 20
0.48711
 30
0.0
  0
SPLINE
  5
2F
100
AcDbEntity
  8
Ebene 1
 62
     7
100
AcDbSpline
210
0.0
220
0.0
230
1.0
 70
     1
 71
     3
 72
    24
 73
    20
 74
     0
 42
0.0000000001
 43
0.0000000001
 40
0.0
 40
0.0
 40
0.0
 40
0.0
 40
0.2
 40
0.2
 40
0.2
 40
0.2
 40
0.4
 40
0.4
 40
0.4
 40
0.4
 40
0.6000000000000001
 40
0.6000000000000001
 40
0.6000000000000001
 40
0.6000000000000001
 40
0.8
 40
0.8
 40
0.8
 40
0.8
 40
1.0
 40
1.0
 40
1.0
 40
1.0
 10
-1.7245100000000002
 20
0.32963
 30
0.0
 10
-1.7245100000000002
 20
0.32963
 30
0.0
 10
-1.5162300000000002
 20
0.28137
 30
0.0
 10
-1.5162300000000002
 20
0.28137
 30
0.0
 10
-1.5162300000000002
 20
0.28137
 30
0.0
 10
-1.4984500000000001
 20
0.28645
 30
0.0
 10
-1.4832100000000001
 20
0.27629
 30
0.0
 10
-1.4730500000000002
 20
0.2635900000000001
 30
0.0
 10
-1.4730500000000002
 20
0.2635900000000001
 30
0.0
 10
-1.58735
 20
0.17469
 30
0.0
 10
-1.7803900000000001
 20
0.24327
 30
0.0
 10
-1.8921500000000002
 20
0.29407
 30
0.0
 10
-1.8921500000000002
 20
0.29407
 30
0.0
 10
-1.8921500000000002
 20
0.29407
 30
0.0
 10
-1.8210300000000001
 20
0.30169
 30
0.0
 10
-1.8210300000000001
 20
0.30169
 30
0.0
 10
-1.8210300000000001
 20
0.30169
 30
0.0
 10
-1.8210300000000001
 20
0.30169
 30
0.0
 10
-1.7245100000000002
 20
0.32963
 30
0.0
 10
-1.7245100000000002
 20
0.32963
 30
0.0
  0
SPLINE
  5
30
100
AcDbEntity
  8
Ebene 1
100
AcDbSpline
210
0.0
220
0.0
230
1.0
 70
     1
 71
     3
 72
    16
 73
    12
 74
     0
 42
0.0000000001
 43
0.0000000001
 40
0.0
 40
0.0
 40
0.0
 40
0.0
 40
0.3333333333333333
 40
0.3333333333333333
 40
0.3333333333333333
 40
0.3333333333333333
 40
0.6666666666666666
 40
0.6666666666666666
 40
0.6666666666666666
 40
0.6666666666666666
 40
1.0
 40
1.0
 40
1.0
 40
1.0
 10
-0.12431
 20
0.17215
 30
0.0
 10
-0.12431
 20
0.17215
 30
0.0
 10
0.17286
 20
0.13913
 30
0.0
 10
0.17286
 20
0.13913
 30
0.0
 10
0.17286
 20
0.13913
 30
0.0
 10
0.03062
 20
0.16199
 30
0.0
 10
0.1119
 20
0.00705
 30
0.0
 10
0.07888
 20
-0.07422
 30
0.0
 10
0.07888
 20
-0.07422
 30
0.0
 10
0.04586
 20
0.03245
 30
0.0
 10
-0.09383
 20
0.07309
 30
0.0
 10
-0.12431
 20
0.17215
 30
0.0
  0
SPLINE
  5
31
100
AcDbEntity
  8
Ebene 1
100
AcDbSpline
210
0.0
220
0.0
230
1.0
 70
     1
 71
     3
 72
    28
 73
    24
 74
     0
 42
0.0000000001
 43
0.0000000001
 40
0.0
 40
0.0
 40
0.0
 40
0.0
 40
0.1666666666666667
 40
0.1666666666666667
 40
0.1666666666666667
 40
0.1666666666666667
 40
0.3333333333333333
 40
0.3333333333333333
 40
0.3333333333333333
 40
0.3333333333333333
 40
0.5
 40
0.5
 40
0.5
 40
0.5
 40
0.6666666666666666
 40
0.6666666666666666
 40
0.6666666666666666
 40
0.6666666666666666
 40
0.8333333333333333
 40
0.8333333333333333
 40
0.8333333333333333
 40
0.8333333333333333
 40
1.0
 40
1.0
 40
1.0
 40
1.0
 10
0.49036
 20
-0.06406
 30
0.0
 10
0.7265800000000001
 20
-0.01072
 30
0.0
 10
0.9170800000000001
 20
-0.23678
 30
0.0
 10
0.9653400000000001
 20
-0.4374400000000001
 30
0.0
 10
0.9653400000000001
 20
-0.4374400000000001
 30
0.0
 10
0.9653400000000001
 20
-0.4374400000000001
 30
0.0
 10
0.8231000000000001
 20
-0.2571
 30
0.0
 10
0.8231000000000001
 20
-0.2571
 30
0.0
 10
0.8231000000000001
 20
-0.2571
 30
0.0
 10
0.8231000000000001
 20
-0.2571
 30
0.0
 10
0.80786
 20
-0.3333
 30
0.0
 10
0.80786
 20
-0.3333
 30
0.0
 10
0.80786
 20
-0.3333
 30
0.0
 10
0.7748400000000001
 20
-0.7117600000000001
 30
0.0
 10
0.5691000000000001
 20
-1.0622800000000001
 30
0.0
 10
0.34812
 20
-1.3620000000000001
 30
0.0
 10
0.34812
 20
-1.3620000000000001
 30
0.0
 10
0.28462
 20
-1.3823200000000002
 30
0.0
 10
0.26684
 20
-1.3213600000000001
 30
0.0
 10
0.23636
 20
-1.2781800000000001
 30
0.0
 10
0.23636
 20
-1.2781800000000001
 30
0.0
 10
0.25414
 20
-0.8565400000000001
 30
0.0
 10
0.15762
 20
-0.36886
 30
0.0
 10
0.49036
 20
-0.06406
 30
0.0
  0
SPLINE
  5
32
100
AcDbEntity
  8
Ebene 1
100
AcDbSpline
210
0.0
220
0.0
230
1.0
 70
     1
 71
     3
 72
    36
 73
    32
 74
     0
 42
0.0000000001
 43
0.0000000001
 40
0.0
 40
0.0
 40
0.0
 40
0.0
 40
0.125
 40
0.125
 40
0.125
 40
0.125
 40
0.25
 40
0.25
 40
0.25
 40
0.25
 40
0.375
 40
0.375
 40
0.375
 40
0.375
 40
0.5
 40
0.5
 40
0.5
 40
0.5
 40
0.625
 40
0.625
 40
0.625
 40
0.625
 40
0.75
 40
0.75
 40
0.75
 40
0.75
 40
0.875
 40
0.875
 40
0.875
 40
0.875
 40
1.0
 40
1.0
 40
1.0
 40
1.0
 10
-0.33005
 20
-0.09454
 30
0.0
 10
-0.33005
 20
-0.09454
 30
0.0
 10
-0.27163
 20
-0.09962
 30
0.0
 10
-0.27163
 20
-0.09962
 30
0.0
 10
-0.27163
 20
-0.09962
 30
0.0
 10
-0.01509
 20
-0.46538
 30
0.0
 10
-0.06081
 20
-0.9124200000000001
 30
0.0
 10
-0.01509
 20
-1.3442200000000002
 30
0.0
 10
-0.01509
 20
-1.3442200000000002
 30
0.0
 10
-0.03033
 20
-1.3645400000000001
 30
0.0
 10
-0.03033
 20
-1.4026400000000001
 30
0.0
 10
-0.06081
 20
-1.4102600000000001
 30
0.0
 10
-0.06081
 20
-1.4102600000000001
 30
0.0
 10
-0.06081
 20
-1.4102600000000001
 30
0.0
 10
-0.14209
 20
-1.4051800000000001
 30
0.0
 10
-0.14209
 20
-1.4051800000000001
 30
0.0
 10
-0.14209
 20
-1.4051800000000001
 30
0.0
 10
-0.3656100000000001
 20
-1.1461000000000001
 30
0.0
 10
-0.5205500000000001
 20
-0.82606
 30
0.0
 10
-0.56881
 20
-0.4907800000000001
 30
0.0
 10
-0.56881
 20
-0.4907800000000001
 30
0.0
 10
-0.5815100000000001
 20
-0.47554
 30
0.0
 10
-0.5815100000000001
 20
-0.43236
 30
0.0
 10
-0.6094500000000001
 20
-0.44506
 30
0.0
 10
-0.6094500000000001
 20
-0.44506
 30
0.0
 10
-0.6094500000000001
 20
-0.44506
 30
0.0
 10
-0.7516900000000001
 20
-0.56698
 30
0.0
 10
-0.7516900000000001
 20
-0.56698
 30
0.0
 10
-0.7516900000000001
 20
-0.56698
 30
0.0
 10
-0.73899
 20
-0.34854
 30
0.0
 10
-0.53579
 20
-0.12756
 30
0.0
 10
-0.33005
 20
-0.09454
 30
0.0
  0
SPLINE
  5
33
100
AcDbEntity
  8
Ebene 1
100
AcDbSpline
210
0.0
220
0.0
230
1.0
 70
     1
 71
     3
 72
    12
 73
     8
 74
     0
 42
0.0000000001
 43
0.0000000001
 40
0.0
 40
0.0
 40
0.0
 40
0.0
 40
0.5
 40
0.5
 40
0.5
 40
0.5
 40
1.0
 40
1.0
 40
1.0
 40
1.0
 10
0.09412
 20
-0.9022600000000001
 30
0.0
 10
0.16524
 20
-1.1410200000000001
 30
0.0
 10
0.21604
 20
-1.4077200000000001
 30
0.0
 10
0.07888
 20
-1.42042
 30
0.0
 10
0.07888
 20
-1.42042
 30
0.0
 10
0.07888
 20
-1.25024
 30
0.0
 10
0.07888
 20
-1.0673600000000001
 30
0.0
 10
0.09412
 20
-0.9022600000000001
 30
0.0
  0
SPLINE
  5
34
100
AcDbEntity
  8
Ebene 1
 62
     7
100
AcDbSpline
210
0.0
220
0.0
230
1.0
 70
     1
 71
     3
 72
   144
 73
   140
 74
     0
 42
0.0000000001
 43
0.0000000001
 40
0.0
 40
0.0
 40
0.0
 40
0.0
 40
0.0285714285714286
 40
0.0285714285714286
 40
0.0285714285714286
 40
0.0285714285714286
 40
0.0571428571428571
 40
0.0571428571428571
 40
0.0571428571428571
 40
0.0571428571428571
 40
0.0857142857142857
 40
0.0857142857142857
 40
0.0857142857142857
 40
0.0857142857142857
 40
0.1142857142857143
 40
0.1142857142857143
 40
0.1142857142857143
 40
0.1142857142857143
 40
0.1428571428571429
 40
0.1428571428571429
 40
0.1428571428571429
 40
0.1428571428571429
 40
0.1714285714285714
 40
0.1714285714285714
 40
0.1714285714285714
 40
0.1714285714285714
 40
0.2
 40
0.2
 40
0.2
 40
0.2
 40
0.2285714285714286
 40
0.2285714285714286
 40
0.2285714285714286
 40
0.2285714285714286
 40
0.2571428571428572
 40
0.2571428571428572
 40
0.2571428571428572
 40
0.2571428571428572
 40
0.2857142857142858
 40
0.2857142857142858
 40
0.2857142857142858
 40
0.2857142857142858
 40
0.3142857142857143
 40
0.3142857142857143
 40
0.3142857142857143
 40
0.3142857142857143
 40
0.3428571428571429
 40
0.3428571428571429
 40
0.3428571428571429
 40
0.3428571428571429
 40
0.3714285714285715
 40
0.3714285714285715
 40
0.3714285714285715
 40
0.3714285714285715
 40
0.4000000000000001
 40
0.4000000000000001
 40
0.4000000000000001
 40
0.4000000000000001
 40
0.4285714285714287
 40
0.4285714285714287
 40
0.4285714285714287
 40
0.4285714285714287
 40
0.4571428571428572
 40
0.4571428571428572
 40
0.4571428571428572
 40
0.4571428571428572
 40
0.4857142857142858
 40
0.4857142857142858
 40
0.4857142857142858
 40
0.4857142857142858
 40
0.5142857142857144
 40
0.5142857142857144
 40
0.5142857142857144
 40
0.5142857142857144
 40
0.5428571428571429
 40
0.5428571428571429
 40
0.5428571428571429
 40
0.5428571428571429
 40
0.5714285714285715
 40
0.5714285714285715
 40
0.5714285714285715
 40
0.5714285714285715
 40
0.6000000000000001
 40
0.6000000000000001
 40
0.6000000000000001
 40
0.6000000000000001
 40
0.6285714285714287
 40
0.6285714285714287
 40
0.6285714285714287
 40
0.6285714285714287
 40
0.6571428571428573
 40
0.6571428571428573
 40
0.6571428571428573
 40
0.6571428571428573
 40
0.6857142857142858
 40
0.6857142857142858
 40
0.6857142857142858
 40
0.6857142857142858
 40
0.7142857142857144
 40
0.7142857142857144
 40
0.7142857142857144
 40
0.7142857142857144
 40
0.742857142857143
 40
0.742857142857143
 40
0.742857142857143
 40
0.742857142857143
 40
0.7714285714285716
 40
0.7714285714285716
 40
0.7714285714285716
 40
0.7714285714285716
 40
0.8000000000000002
 40
0.8000000000000002
 40
0.8000000000000002
 40
0.8000000000000002
 40
0.8285714285714287
 40
0.8285714285714287
 40
0.8285714285714287
 40
0.8285714285714287
 40
0.8571428571428573
 40
0.8571428571428573
 40
0.8571428571428573
 40
0.8571428571428573
 40
0.8857142857142859
 40
0.8857142857142859
 40
0.8857142857142859
 40
0.8857142857142859
 40
0.9142857142857145
 40
0.9142857142857145
 40
0.9142857142857145
 40
0.9142857142857145
 40
0.9428571428571431
 40
0.9428571428571431
 40
0.9428571428571431
 40
0.9428571428571431
 40
0.9714285714285716
 40
0.9714285714285716
 40
0.9714285714285716
 40
0.9714285714285716
 40
1.0
 40
1.0
 40
1.0
 40
1.0
 10
2.6265000000000001
 20
-1.1867400000000001
 30
0.0
 10
2.5782400000000001
 20
-1.63124
 30
0.0
 10
2.4995000000000003
 20
-2.3043400000000003
 30
0.0
 10
2.6265000000000001
 20
-2.8326600000000002
 30
0.0
 10
2.6265000000000001
 20
-2.8326600000000002
 30
0.0
 10
1.9457800000000001
 20
-3.5921200000000004
 30
0.0
 10
1.7400400000000003
 20
-4.8316400000000002
 30
0.0
 10
0.9018400000000001
 20
-5.3802800000000008
 30
0.0
 10
0.9018400000000001
 20
-5.3802800000000008
 30
0.0
 10
0.8383400000000001
 20
-5.2939200000000008
 30
0.0
 10
0.9501000000000001
 20
-5.1059600000000005
 30
0.0
 10
0.8866000000000001
 20
-5.0526200000000001
 30
0.0
 10
0.8866000000000001
 20
-5.0526200000000001
 30
0.0
 10
0.7545200000000001
 20
-5.5860200000000004
 30
0.0
 10
0.45988
 20
-5.2405800000000005
 30
0.0
 10
0.17286
 20
-5.2710600000000003
 30
0.0
 10
0.17286
 20
-5.2710600000000003
 30
0.0
 10
-0.3325900000000001
 20
-5.3294800000000002
 30
0.0
 10
-0.10907
 20
-5.5149000000000008
 30
0.0
 10
-0.50531
 20
-5.5225200000000001
 30
0.0
 10
-0.50531
 20
-5.5225200000000001
 30
0.0
 10
-1.4324100000000002
 20
-5.0221400000000003
 30
0.0
 10
-1.5390900000000001
 20
-3.7978600000000005
 30
0.0
 10
-2.2299700000000002
 20
-3.1019000000000001
 30
0.0
 10
-2.2299700000000002
 20
-3.1019000000000001
 30
0.0
 10
-2.1359900000000001
 20
-2.5558000000000001
 30
0.0
 10
-2.43825
 20
-1.9995400000000001
 30
0.0
 10
-2.35189
 20
-1.5067800000000002
 30
0.0
 10
-2.35189
 20
-1.5067800000000002
 30
0.0
 10
-2.0902700000000003
 20
-1.7226800000000002
 30
0.0
 10
-2.0953500000000003
 20
-2.1951200000000002
 30
0.0
 10
-2.0013700000000001
 20
-2.52786
 30
0.0
 10
-2.0013700000000001
 20
-2.52786
 30
0.0
 10
-2.0064500000000001
 20
-2.6878800000000003
 30
0.0
 10
-1.8108700000000002
 20
-2.7971000000000004
 30
0.0
 10
-1.7702300000000002
 20
-2.5964400000000003
 30
0.0
 10
-1.7702300000000002
 20
-2.5964400000000003
 30
0.0
 10
-1.6584700000000001
 20
-2.2230600000000003
 30
0.0
 10
-2.0953500000000003
 20
-1.6896600000000002
 30
0.0
 10
-1.6914900000000002
 20
-1.4102600000000001
 30
0.0
 10
-1.6914900000000002
 20
-1.4102600000000001
 30
0.0
 10
-1.4247900000000002
 20
-2.1240000000000001
 30
0.0
 10
-1.6838700000000002
 20
-2.9520400000000002
 30
0.0
 10
-1.33081
 20
-3.6200600000000005
 30
0.0
 10
-1.33081
 20
-3.6200600000000005
 30
0.0
 10
-1.3206500000000001
 20
-3.5616400000000001
 30
0.0
 10
-1.3943100000000002
 20
-3.3101800000000003
 30
0.0
 10
-1.2825500000000001
 20
-3.3914600000000004
 30
0.0
 10
-1.2825500000000001
 20
-3.3914600000000004
 30
0.0
 10
-1.3257300000000001
 20
-3.6149800000000001
 30
0.0
 10
-0.9701300000000001
 20
-4.1356800000000007
 30
0.0
 10
-1.1885700000000001
 20
-3.6276800000000002
 30
0.0
 10
-1.1885700000000001
 20
-3.6276800000000002
 30
0.0
 10
-1.2571500000000002
 20
-3.4956000000000005
 30
0.0
 10
-1.17079
 20
-3.5616400000000001
 30
0.0
 10
-1.1174500000000001
 20
-3.6353000000000004
 30
0.0
 10
-1.1174500000000001
 20
-3.6353000000000004
 30
0.0
 10
-0.99299
 20
-3.6149800000000001
 30
0.0
 10
-0.9879100000000001
 20
-3.8080200000000004
 30
0.0
 10
-0.9650500000000001
 20
-3.9756600000000004
 30
0.0
 10
-0.9650500000000001
 20
-3.9756600000000004
 30
0.0
 10
-0.9396500000000001
 20
-4.1788600000000002
 30
0.0
 10
-0.90917
 20
-4.3414200000000003
 30
0.0
 10
-0.8761500000000001
 20
-4.0493200000000007
 30
0.0
 10
-0.8761500000000001
 20
-4.0493200000000007
 30
0.0
 10
-0.8939300000000001
 20
-3.9629600000000003
 30
0.0
 10
-0.9396500000000001
 20
-3.7750000000000004
 30
0.0
 10
-0.88631
 20
-3.7216600000000004
 30
0.0
 10
-0.88631
 20
-3.7216600000000004
 30
0.0
 10
-0.6907300000000001
 20
-3.9477200000000003
 30
0.0
 10
-0.8075700000000001
 20
-4.2652200000000002
 30
0.0
 10
-0.6094500000000001
 20
-4.5065200000000001
 30
0.0
 10
-0.6094500000000001
 20
-4.5065200000000001
 30
0.0
 10
-0.5459500000000001
 20
-4.3490400000000005
 30
0.0
 10
-0.6907300000000001
 20
-4.3007800000000005
 30
0.0
 10
-0.65771
 20
-4.13314
 30
0.0
 10
-0.65771
 20
-4.13314
 30
0.0
 10
-0.4265700000000001
 20
-4.5217600000000004
 30
0.0
 10
-0.4595900000000001
 20
-3.8639000000000001
 30
0.0
 10
-0.26147
 20
-4.4277800000000003
 30
0.0
 10
-0.26147
 20
-4.4277800000000003
 30
0.0
 10
-0.25131
 20
-4.4557200000000003
 30
0.0
 10
-0.23861
 20
-4.5928800000000001
 30
0.0
 10
-0.18781
 20
-4.48874
 30
0.0
 10
-0.18781
 20
-4.48874
 30
0.0
 10
-0.17257
 20
-4.2347400000000004
 30
0.0
 10
-0.21829
 20
-3.9502600000000001
 30
0.0
 10
-0.01509
 20
-4.31602
 30
0.0
 10
-0.01509
 20
-4.31602
 30
0.0
 10
0.33288
 20
-4.0010600000000007
 30
0.0
 10
0.15762
 20
-4.5039800000000003
 30
0.0
 10
0.26684
 20
-4.77576
 30
0.0
 10
0.26684
 20
-4.77576
 30
0.0
 10
0.37606
 20
-4.8595800000000002
 30
0.0
 10
0.2617600000000001
 20
-4.4811200000000007
 30
0.0
 10
0.28716
 20
-4.3566600000000006
 30
0.0
 10
0.28716
 20
-4.3566600000000006
 30
0.0
 10
0.34812
 20
-4.05694
 30
0.0
 10
0.4802
 20
-3.9223200000000005
 30
0.0
 10
0.59196
 20
-4.3033200000000003
 30
0.0
 10
0.59196
 20
-4.3033200000000003
 30
0.0
 10
0.6656200000000001
 20
-4.5497000000000005
 30
0.0
 10
0.6732400000000001
 20
-4.3947600000000007
 30
0.0
 10
0.68086
 20
-4.4252400000000005
 30
0.0
 10
0.68086
 20
-4.4252400000000005
 30
0.0
 10
0.68086
 20
-4.1788600000000002
 30
0.0
 10
0.4522600000000001
 20
-3.8816800000000002
 30
0.0
 10
0.8154800000000001
 20
-4.0645600000000002
 30
0.0
 10
0.8154800000000001
 20
-4.0645600000000002
 30
0.0
 10
1.0847200000000001
 20
-3.6530800000000001
 30
0.0
 10
1.02884
 20
-4.0391600000000007
 30
0.0
 10
1.0110600000000001
 20
-4.3007800000000005
 30
0.0
 10
1.0110600000000001
 20
-4.3007800000000005
 30
0.0
 10
1.0110600000000001
 20
-4.3007800000000005
 30
0.0
 10
1.0771000000000002
 20
-4.1763200000000005
 30
0.0
 10
1.0771000000000002
 20
-4.1763200000000005
 30
0.0
 10
1.0771000000000002
 20
-4.1763200000000005
 30
0.0
 10
1.0771000000000002
 20
-4.1763200000000005
 30
0.0
 10
1.10758
 20
-3.7699200000000004
 30
0.0
 10
1.10758
 20
-3.7699200000000004
 30
0.0
 10
1.10758
 20
-3.7699200000000004
 30
0.0
 10
1.2650600000000001
 20
-3.6378400000000002
 30
0.0
 10
1.5825600000000002
 20
-3.6784800000000004
 30
0.0
 10
1.5343000000000002
 20
-3.3584400000000003
 30
0.0
 10
1.5343000000000002
 20
-3.3584400000000003
 30
0.0
 10
2.3090000000000002
 20
-3.0079200000000004
 30
0.0
 10
1.6613000000000002
 20
-1.9462000000000002
 30
0.0
 10
2.00928
 20
-1.3010400000000002
 30
0.0
 10
2.00928
 20
-1.3010400000000002
 30
0.0
 10
2.0575400000000004
 20
-1.28834
 30
0.0
 10
2.1515200000000001
 20
-1.3137400000000001
 30
0.0
 10
2.21502
 20
-1.33152
 30
0.0
 10
2.21502
 20
-1.33152
 30
0.0
 10
2.00928
 20
-1.7506200000000001
 30
0.0
 10
1.9762600000000001
 20
-2.2637
 30
0.0
 10
2.1515200000000001
 20
-2.69042
 30
0.0
 10
2.1515200000000001
 20
-2.69042
 30
0.0
 10
2.5325200000000003
 20
-2.3094200000000003
 30
0.0
 10
2.1515200000000001
 20
-1.5702800000000001
 30
0.0
 10
2.6265000000000001
 20
-1.1867400000000001
 30
0.0
  0
SPLINE
  5
35
100
AcDbEntity
  8
Ebene 1
 62
     7
100
AcDbSpline
210
0.0
220
0.0
230
1.0
 70
     1
 71
     3
 72
    24
 73
    20
 74
     0
 42
0.0000000001
 43
0.0000000001
 40
0.0
 40
0.0
 40
0.0
 40
0.0
 40
0.2
 40
0.2
 40
0.2
 40
0.2
 40
0.4
 40
0.4
 40
0.4
 40
0.4
 40
0.6000000000000001
 40
0.6000000000000001
 40
0.6000000000000001
 40
0.6000000000000001
 40
0.8
 40
0.8
 40
0.8
 40
0.8
 40
1.0
 40
1.0
 40
1.0
 40
1.0
 10
1.6460600000000001
 20
-1.20198
 30
0.0
 10
1.6613000000000002
 20
-1.20198
 30
0.0
 10
1.6917800000000001
 20
-1.20198
 30
0.0
 10
1.7070200000000002
 20
-1.2223000000000002
 30
0.0
 10
1.7070200000000002
 20
-1.2223000000000002
 30
0.0
 10
1.6282800000000002
 20
-1.4102600000000001
 30
0.0
 10
1.7552800000000002
 20
-1.6820400000000002
 30
0.0
 10
1.5647800000000001
 20
-1.8242800000000001
 30
0.0
 10
1.5647800000000001
 20
-1.8242800000000001
 30
0.0
 10
1.5647800000000001
 20
-1.8471400000000002
 30
0.0
 10
1.5825600000000002
 20
-1.8928600000000002
 30
0.0
 10
1.5343000000000002
 20
-1.8954000000000002
 30
0.0
 10
1.5343000000000002
 20
-1.8954000000000002
 30
0.0
 10
1.5343000000000002
 20
-1.8954000000000002
 30
0.0
 10
1.5038200000000002
 20
-1.8090400000000002
 30
0.0
 10
1.5038200000000002
 20
-1.8090400000000002
 30
0.0
 10
1.5038200000000002
 20
-1.8090400000000002
 30
0.0
 10
1.6460600000000001
 20
-1.6337800000000002
 30
0.0
 10
1.4708000000000001
 20
-1.3569200000000001
 30
0.0
 10
1.6460600000000001
 20
-1.20198
 30
0.0
  0
SPLINE
  5
36
100
AcDbEntity
  8
Ebene 1
 62
     7
100
AcDbSpline
210
0.0
220
0.0
230
1.0
 70
     1
 71
     3
 72
    40
 73
    36
 74
     0
 42
0.0000000001
 43
0.0000000001
 40
0.0
 40
0.0
 40
0.0
 40
0.0
 40
0.1111111111111111
 40
0.1111111111111111
 40
0.1111111111111111
 40
0.1111111111111111
 40
0.2222222222222222
 40
0.2222222222222222
 40
0.2222222222222222
 40
0.2222222222222222
 40
0.3333333333333333
 40
0.3333333333333333
 40
0.3333333333333333
 40
0.3333333333333333
 40
0.4444444444444444
 40
0.4444444444444444
 40
0.4444444444444444
 40
0.4444444444444444
 40
0.5555555555555556
 40
0.5555555555555556
 40
0.5555555555555556
 40
0.5555555555555556
 40
0.6666666666666667
 40
0.6666666666666667
 40
0.6666666666666667
 40
0.6666666666666667
 40
0.7777777777777779
 40
0.7777777777777779
 40
0.7777777777777779
 40
0.7777777777777779
 40
0.8888888888888891
 40
0.8888888888888891
 40
0.8888888888888891
 40
0.8888888888888891
 40
1.0
 40
1.0
 40
1.0
 40
1.0
 10
-1.16825
 20
-1.3289800000000001
 30
0.0
 10
-1.03617
 20
-1.3848600000000002
 30
0.0
 10
-1.0082300000000002
 20
-1.58806
 30
0.0
 10
-0.99553
 20
-1.7252200000000002
 30
0.0
 10
-0.99553
 20
-1.7252200000000002
 30
0.0
 10
-1.03871
 20
-1.8903200000000002
 30
0.0
 10
-0.9040900000000001
 20
-1.9919200000000001
 30
0.0
 10
-1.0107700000000002
 20
-2.1214600000000003
 30
0.0
 10
-1.0107700000000002
 20
-2.1214600000000003
 30
0.0
 10
-1.04633
 20
-2.2230600000000003
 30
0.0
 10
-1.2012700000000001
 20
-2.1468600000000002
 30
0.0
 10
-1.2749300000000001
 20
-2.2103600000000001
 30
0.0
 10
-1.2749300000000001
 20
-2.2103600000000001
 30
0.0
 10
-1.2825500000000001
 20
-2.10114
 30
0.0
 10
-1.29017
 20
-1.9843000000000002
 30
0.0
 10
-1.3714500000000001
 20
-1.9030200000000002
 30
0.0
 10
-1.3714500000000001
 20
-1.9030200000000002
 30
0.0
 10
-1.3104900000000002
 20
-1.7404600000000001
 30
0.0
 10
-1.24953
 20
-1.5601200000000002
 30
0.0
 10
-1.29017
 20
-1.37978
 30
0.0
 10
-1.29017
 20
-1.37978
 30
0.0
 10
-1.20635
 20
-1.4432800000000001
 30
0.0
 10
-1.1504700000000001
 20
-1.5525000000000002
 30
0.0
 10
-1.16825
 20
-1.6617200000000001
 30
0.0
 10
-1.16825
 20
-1.6617200000000001
 30
0.0
 10
-1.1479300000000001
 20
-1.7455400000000001
 30
0.0
 10
-1.2368300000000001
 20
-1.8852400000000002
 30
0.0
 10
-1.1530100000000001
 20
-1.9309600000000002
 30
0.0
 10
-1.1530100000000001
 20
-1.9309600000000002
 30
0.0
 10
-1.1530100000000001
 20
-1.9309600000000002
 30
0.0
 10
-1.12253
 20
-1.6464800000000002
 30
0.0
 10
-1.12253
 20
-1.6464800000000002
 30
0.0
 10
-1.12253
 20
-1.6464800000000002
 30
0.0
 10
-1.1149100000000001
 20
-1.5347200000000001
 30
0.0
 10
-1.12253
 20
-1.4255000000000002
 30
0.0
 10
-1.16825
 20
-1.3289800000000001
 30
0.0
  0
SPLINE
  5
37
100
AcDbEntity
  8
Ebene 1
 62
     7
100
AcDbSpline
210
0.0
220
0.0
230
1.0
 70
     1
 71
     3
 72
    12
 73
     8
 74
     0
 42
0.0000000001
 43
0.0000000001
 40
0.0
 40
0.0
 40
0.0
 40
0.0
 40
0.5
 40
0.5
 40
0.5
 40
0.5
 40
1.0
 40
1.0
 40
1.0
 40
1.0
 10
1.6460600000000001
 20
-1.8192000000000002
 30
0.0
 10
1.7400400000000003
 20
-1.8192000000000002
 30
0.0
 10
1.6917800000000001
 20
-1.9970000000000001
 30
0.0
 10
1.6613000000000002
 20
-2.0401800000000003
 30
0.0
 10
1.6613000000000002
 20
-2.0401800000000003
 30
0.0
 10
1.5647800000000001
 20
-1.9970000000000001
 30
0.0
 10
1.5978000000000001
 20
-1.8852400000000002
 30
0.0
 10
1.6460600000000001
 20
-1.8192000000000002
 30
0.0
  0
SPLINE
  5
38
100
AcDbEntity
  8
Ebene 1
 62
     7
100
AcDbSpline
210
0.0
220
0.0
230
1.0
 70
     1
 71
     3
 72
    12
 73
     8
 74
     0
 42
0.0000000001
 43
0.0000000001
 40
0.0
 40
0.0
 40
0.0
 40
0.0
 40
0.5
 40
0.5
 40
0.5
 40
0.5
 40
1.0
 40
1.0
 40
1.0
 40
1.0
 10
1.4555600000000002
 20
-1.8852400000000002
 30
0.0
 10
1.5978000000000001
 20
-2.01986
 30
0.0
 10
1.5495400000000001
 20
-2.2459200000000004
 30
0.0
 10
1.5038200000000002
 20
-2.4059400000000002
 30
0.0
 10
1.5038200000000002
 20
-2.4059400000000002
 30
0.0
 10
1.4555600000000002
 20
-2.2433800000000002
 30
0.0
 10
1.31332
 20
-2.05288
 30
0.0
 10
1.4555600000000002
 20
-1.8852400000000002
 30
0.0
  0
SPLINE
  5
39
100
AcDbEntity
  8
Ebene 1
 62
     7
100
AcDbSpline
210
0.0
220
0.0
230
1.0
 70
     1
 71
     3
 72
    12
 73
     8
 74
     0
 42
0.0000000001
 43
0.0000000001
 40
0.0
 40
0.0
 40
0.0
 40
0.0
 40
0.5
 40
0.5
 40
0.5
 40
0.5
 40
1.0
 40
1.0
 40
1.0
 40
1.0
 10
-1.3917700000000002
 20
-1.9944600000000001
 30
0.0
 10
-1.2368300000000001
 20
-2.1519400000000002
 30
0.0
 10
-1.38161
 20
-2.4059400000000002
 30
0.0
 10
-1.5136900000000002
 20
-2.5126200000000001
 30
0.0
 10
-1.5136900000000002
 20
-2.5126200000000001
 30
0.0
 10
-1.50353
 20
-2.3348200000000001
 30
0.0
 10
-1.46289
 20
-2.1570200000000002
 30
0.0
 10
-1.3917700000000002
 20
-1.9944600000000001
 30
0.0
  0
SPLINE
  5
3A
100
AcDbEntity
  8
Ebene 1
 62
     7
100
AcDbSpline
210
0.0
220
0.0
230
1.0
 70
     1
 71
     3
 72
    12
 73
     8
 74
     0
 42
0.0000000001
 43
0.0000000001
 40
0.0
 40
0.0
 40
0.0
 40
0.0
 40
0.5
 40
0.5
 40
0.5
 40
0.5
 40
1.0
 40
1.0
 40
1.0
 40
1.0
 10
0.9805800000000001
 20
-2.2002000000000002
 30
0.0
 10
1.2193400000000001
 20
-2.2510000000000003
 30
0.0
 10
0.99582
 20
-2.5837400000000001
 30
0.0
 10
0.99582
 20
-2.73868
 30
0.0
 10
0.99582
 20
-2.73868
 30
0.0
 10
0.9805800000000001
 20
-2.5735800000000002
 30
0.0
 10
0.7748400000000001
 20
-2.30688
 30
0.0
 10
0.9805800000000001
 20
-2.2002000000000002
 30
0.0
  0
SPLINE
  5
3B
100
AcDbEntity
  8
Ebene 1
 62
     7
100
AcDbSpline
210
0.0
220
0.0
230
1.0
 70
     1
 71
     3
 72
    16
 73
    12
 74
     0
 42
0.0000000001
 43
0.0000000001
 40
0.0
 40
0.0
 40
0.0
 40
0.0
 40
0.3333333333333333
 40
0.3333333333333333
 40
0.3333333333333333
 40
0.3333333333333333
 40
0.6666666666666666
 40
0.6666666666666666
 40
0.6666666666666666
 40
0.6666666666666666
 40
1.0
 40
1.0
 40
1.0
 40
1.0
 10
-0.8355100000000001
 20
-2.31196
 30
0.0
 10
-0.73899
 20
-2.3399000000000001
 30
0.0
 10
-0.6704100000000001
 20
-2.3627600000000002
 30
0.0
 10
-0.6500900000000001
 20
-2.4491200000000002
 30
0.0
 10
-0.6500900000000001
 20
-2.4491200000000002
 30
0.0
 10
-0.7872500000000001
 20
-2.5888200000000001
 30
0.0
 10
-0.7491500000000001
 20
-2.81488
 30
0.0
 10
-0.8634500000000001
 20
-2.9545800000000004
 30
0.0
 10
-0.8634500000000001
 20
-2.9545800000000004
 30
0.0
 10
-0.8558300000000001
 20
-2.7259800000000003
 30
0.0
 10
-1.04633
 20
-2.4821400000000002
 30
0.0
 10
-0.8355100000000001
 20
-2.31196
 30
0.0
  0
SPLINE
  5
3C
100
AcDbEntity
  8
Ebene 1
 62
     7
100
AcDbSpline
210
0.0
220
0.0
230
1.0
 70
     1
 71
     3
 72
    16
 73
    12
 74
     0
 42
0.0000000001
 43
0.0000000001
 40
0.0
 40
0.0
 40
0.0
 40
0.0
 40
0.3333333333333333
 40
0.3333333333333333
 40
0.3333333333333333
 40
0.3333333333333333
 40
0.6666666666666666
 40
0.6666666666666666
 40
0.6666666666666666
 40
0.6666666666666666
 40
1.0
 40
1.0
 40
1.0
 40
1.0
 10
0.33288
 20
-2.3627600000000002
 30
0.0
 10
0.68086
 20
-2.4262600000000001
 30
0.0
 10
0.3786000000000001
 20
-2.8606000000000003
 30
0.0
 10
0.34812
 20
-3.0714200000000003
 30
0.0
 10
0.34812
 20
-3.0714200000000003
 30
0.0
 10
0.33288
 20
-3.0663400000000003
 30
0.0
 10
0.3151000000000001
 20
-3.0536400000000001
 30
0.0
 10
0.3151000000000001
 20
-3.0384000000000002
 30
0.0
 10
0.3151000000000001
 20
-3.0384000000000002
 30
0.0
 10
0.3151000000000001
 20
-2.8123400000000003
 30
0.0
 10
0.1246
 20
-2.5253200000000002
 30
0.0
 10
0.33288
 20
-2.3627600000000002
 30
0.0
  0
SPLINE
  5
3D
100
AcDbEntity
  8
Ebene 1
 62
     7
100
AcDbSpline
210
0.0
220
0.0
230
1.0
 70
     1
 71
     3
 72
    24
 73
    20
 74
     0
 42
0.0000000001
 43
0.0000000001
 40
0.0
 40
0.0
 40
0.0
 40
0.0
 40
0.2
 40
0.2
 40
0.2
 40
0.2
 40
0.4
 40
0.4
 40
0.4
 40
0.4
 40
0.6000000000000001
 40
0.6000000000000001
 40
0.6000000000000001
 40
0.6000000000000001
 40
0.8
 40
0.8
 40
0.8
 40
0.8
 40
1.0
 40
1.0
 40
1.0
 40
1.0
 10
-0.25131
 20
-2.39832
 30
0.0
 10
-0.25131
 20
-2.39832
 30
0.0
 10
-0.10907
 20
-2.4161000000000001
 30
0.0
 10
-0.10907
 20
-2.4161000000000001
 30
0.0
 10
-0.10907
 20
-2.4161000000000001
 30
0.0
 10
-0.07605
 20
-2.4465800000000004
 30
0.0
 10
-0.06081
 20
-2.4872200000000002
 30
0.0
 10
-0.04557
 20
-2.52278
 30
0.0
 10
-0.04557
 20
-2.52278
 30
0.0
 10
-0.10907
 20
-2.73868
 30
0.0
 10
-0.17257
 20
-2.9215600000000004
 30
0.0
 10
-0.25385
 20
-3.1298400000000002
 30
0.0
 10
-0.25385
 20
-3.1298400000000002
 30
0.0
 10
-0.31989
 20
-2.9190200000000002
 30
0.0
 10
-0.3325900000000001
 20
-2.6777200000000003
 30
0.0
 10
-0.30973
 20
-2.4491200000000002
 30
0.0
 10
-0.30973
 20
-2.4491200000000002
 30
0.0
 10
-0.30973
 20
-2.4491200000000002
 30
0.0
 10
-0.25131
 20
-2.39832
 30
0.0
 10
-0.25131
 20
-2.39832
 30
0.0
  0
SPLINE
  5
3E
100
AcDbEntity
  8
Ebene 1
 62
     7
100
AcDbSpline
210
0.0
220
0.0
230
1.0
 70
     1
 71
     3
 72
    12
 73
     8
 74
     0
 42
0.0000000001
 43
0.0000000001
 40
0.0
 40
0.0
 40
0.0
 40
0.0
 40
0.5
 40
0.5
 40
0.5
 40
0.5
 40
1.0
 40
1.0
 40
1.0
 40
1.0
 10
1.31332
 20
-2.9114000000000004
 30
0.0
 10
1.4073000000000002
 20
-3.1069800000000001
 30
0.0
 10
1.61304
 20
-3.5743400000000003
 30
0.0
 10
1.2650600000000001
 20
-3.6353000000000004
 30
0.0
 10
1.2650600000000001
 20
-3.6353000000000004
 30
0.0
 10
1.2193400000000001
 20
-3.3965400000000003
 30
0.0
 10
1.2803000000000002
 20
-3.1476200000000003
 30
0.0
 10
1.31332
 20
-2.9114000000000004
 30
0.0
  0
SPLINE
  5
3F
100
AcDbEntity
  8
Ebene 1
 62
     7
100
AcDbSpline
210
0.0
220
0.0
230
1.0
 70
     1
 71
     3
 72
    12
 73
     8
 74
     0
 42
0.0000000001
 43
0.0000000001
 40
0.0
 40
0.0
 40
0.0
 40
0.0
 40
0.5
 40
0.5
 40
0.5
 40
0.5
 40
1.0
 40
1.0
 40
1.0
 40
1.0
 10
1.6282800000000002
 20
-2.9266400000000004
 30
0.0
 10
1.6917800000000001
 20
-3.0206200000000001
 30
0.0
 10
1.7883000000000002
 20
-3.2035000000000005
 30
0.0
 10
1.6282800000000002
 20
-3.2771600000000003
 30
0.0
 10
1.6282800000000002
 20
-3.2771600000000003
 30
0.0
 10
1.5825600000000002
 20
-3.1755600000000004
 30
0.0
 10
1.6282800000000002
 20
-3.0384000000000002
 30
0.0
 10
1.6282800000000002
 20
-2.9266400000000004
 30
0.0
  0
SPLINE
  5
40
100
AcDbEntity
  8
Ebene 1
 62
     7
100
AcDbSpline
210
0.0
220
0.0
230
1.0
 70
     1
 71
     3
 72
    12
 73
     8
 74
     0
 42
0.0000000001
 43
0.0000000001
 40
0.0
 40
0.0
 40
0.0
 40
0.0
 40
0.5
 40
0.5
 40
0.5
 40
0.5
 40
1.0
 40
1.0
 40
1.0
 40
1.0
 10
-1.08951
 20
-2.9749000000000003
 30
0.0
 10
-1.0209300000000001
 20
-3.1628600000000002
 30
0.0
 10
-0.9599700000000001
 20
-3.3863800000000004
 30
0.0
 10
-0.9675900000000001
 20
-3.6022800000000004
 30
0.0
 10
-0.9675900000000001
 20
-3.6022800000000004
 30
0.0
 10
-1.29017
 20
-3.6480000000000001
 30
0.0
 10
-1.0945900000000002
 20
-3.1628600000000002
 30
0.0
 10
-1.08951
 20
-2.9749000000000003
 30
0.0
  0
SPLINE
  5
41
100
AcDbEntity
  8
Ebene 1
 62
     7
100
AcDbSpline
210
0.0
220
0.0
230
1.0
 70
     1
 71
     3
 72
    16
 73
    12
 74
     0
 42
0.0000000001
 43
0.0000000001
 40
0.0
 40
0.0
 40
0.0
 40
0.0
 40
0.3333333333333333
 40
0.3333333333333333
 40
0.3333333333333333
 40
0.3333333333333333
 40
0.6666666666666666
 40
0.6666666666666666
 40
0.6666666666666666
 40
0.6666666666666666
 40
1.0
 40
1.0
 40
1.0
 40
1.0
 10
0.74182
 20
-3.1654000000000004
 30
0.0
 10
0.8535800000000001
 20
-3.3863800000000004
 30
0.0
 10
1.0440800000000001
 20
-3.8004000000000002
 30
0.0
 10
0.74182
 20
-3.9680400000000002
 30
0.0
 10
0.74182
 20
-3.9680400000000002
 30
0.0
 10
0.74182
 20
-3.9680400000000002
 30
0.0
 10
0.6478400000000001
 20
-3.9045400000000003
 30
0.0
 10
0.6478400000000001
 20
-3.9045400000000003
 30
0.0
 10
0.6478400000000001
 20
-3.9045400000000003
 30
0.0
 10
0.68086
 20
-3.6632400000000005
 30
0.0
 10
0.74182
 20
-3.4194000000000004
 30
0.0
 10
0.74182
 20
-3.1654000000000004
 30
0.0
  0
SPLINE
  5
42
100
AcDbEntity
  8
Ebene 1
 62
     7
100
AcDbSpline
210
0.0
220
0.0
230
1.0
 70
     1
 71
     3
 72
    16
 73
    12
 74
     0
 42
0.0000000001
 43
0.0000000001
 40
0.0
 40
0.0
 40
0.0
 40
0.0
 40
0.3333333333333333
 40
0.3333333333333333
 40
0.3333333333333333
 40
0.3333333333333333
 40
0.6666666666666666
 40
0.6666666666666666
 40
0.6666666666666666
 40
0.6666666666666666
 40
1.0
 40
1.0
 40
1.0
 40
1.0
 10
0.00268
 20
-3.2924000000000002
 30
0.0
 10
0.08396
 20
-3.6302200000000004
 30
0.0
 10
0.11698
 20
-3.9020000000000001
 30
0.0
 10
0.10174
 20
-4.0340800000000003
 30
0.0
 10
0.10174
 20
-4.0340800000000003
 30
0.0
 10
0.08142
 20
-4.2144200000000005
 30
0.0
 10
-0.06843
 20
-4.1864800000000004
 30
0.0
 10
-0.10907
 20
-4.00868
 30
0.0
 10
-0.10907
 20
-4.00868
 30
0.0
 10
-0.14717
 20
-3.8537400000000002
 30
0.0
 10
-0.06843
 20
-3.6276800000000002
 30
0.0
 10
0.00268
 20
-3.2924000000000002
 30
0.0
  0
SPLINE
  5
43
100
AcDbEntity
  8
Ebene 1
 62
     7
100
AcDbSpline
210
0.0
220
0.0
230
1.0
 70
     1
 71
     3
 72
    20
 73
    16
 74
     0
 42
0.0000000001
 43
0.0000000001
 40
0.0
 40
0.0
 40
0.0
 40
0.0
 40
0.25
 40
0.25
 40
0.25
 40
0.25
 40
0.5
 40
0.5
 40
0.5
 40
0.5
 40
0.75
 40
0.75
 40
0.75
 40
0.75
 40
1.0
 40
1.0
 40
1.0
 40
1.0
 10
-0.61453
 20
-3.3228800000000001
 30
0.0
 10
-0.51039
 20
-3.5235400000000001
 30
0.0
 10
-0.57389
 20
-3.8385000000000002
 30
0.0
 10
-0.47229
 20
-4.0670999999999999
 30
0.0
 10
-0.47229
 20
-4.0670999999999999
 30
0.0
 10
-0.47229
 20
-4.0670999999999999
 30
0.0
 10
-0.55103
 20
-4.1636200000000008
 30
0.0
 10
-0.55103
 20
-4.1636200000000008
 30
0.0
 10
-0.55103
 20
-4.1636200000000008
 30
0.0
 10
-0.55103
 20
-4.1636200000000008
 30
0.0
 10
-0.6272300000000001
 20
-4.1255200000000007
 30
0.0
 10
-0.6272300000000001
 20
-4.1255200000000007
 30
0.0
 10
-0.6272300000000001
 20
-4.1255200000000007
 30
0.0
 10
-0.71867
 20
-3.8715200000000003
 30
0.0
 10
-0.67549
 20
-3.5819600000000005
 30
0.0
 10
-0.61453
 20
-3.3228800000000001
 30
0.0
  0
ENDSEC
  0
SECTION
  2
OBJECTS
  0
DICTIONARY
  5
19
100
AcDbDictionary
280
     0
281
     1
  3
ACAD_GROUP
350
1A
  3
ACAD_MLINESTYLE
350
1B
  3
ACAD_LAYOUT
350
1E
  3
ACAD_PLOTSETTINGS
350
22
  3
ACAD_PLOTSTYLENAME
350
1F
  3
ACAD_WIPEOUT_VARS
350
23
  0
DICTIONARY
  5
1A
102
{ACAD_REACTORS
330
19
102
}
100
AcDbDictionary
280
     0
281
     1
  0
DICTIONARY
  5
1B
102
{ACAD_REACTORS
330
19
102
}
100
AcDbDictionary
280
     0
281
     1
  3
Standard
350
1C
  0
MLINESTYLE
  5
1C
102
{ACAD_REACTORS
330
1B
102
}
100
AcDbMlineStyle
  2
Standard
 70
     0
  3

 62
     0
 51
90.0
 52
90.0
 71
     2
 49
0.5
 62
   256
  6
BYLAYER
 49
-0.5
 62
   256
  6
BYLAYER
  0
ACDBDICTIONARYWDFLT
  5
1F
102
{ACAD_REACTORS
330
19
102
}
100
AcDbDictionary
281
     1
  3
Normal
350
1D
100
AcDbDictionaryWithDefault
340
1D
  0
ACDBPLACEHOLDER
  5
1D
102
{ACAD_REACTORS
330
1F
102
}
  0
LAYOUT
  5
20
102
{ACAD_REACTORS
330
1E
102
}
100
AcDbPlotSettings
  1

  2

  4

  6

 40
0.0
 41
0.0
 42
0.0
 43
0.0
 44
0.0
 45
0.0
 46
0.0
 47
0.0
 48
0.0
 49
0.0
140
0.0
141
0.0
142
1.0
143
1.0
 70
  1024
 72
     0
 73
     0
 74
     0
  7

 75
     0
147
1.0
148
0.0
149
0.0
100
AcDbLayout
  1
Model
 70
     0
 71
     0
 10
0.0
 20
0.0
 11
0.0
 21
0.0
 12
0.0
 22
0.0
 32
0.0
 14
0.0
 24
0.0
 34
0.0
 15
0.0
 25
0.0
 35
0.0
146
0.0
 13
0.0
 23
0.0
 33
0.0
 16
0.0
 26
0.0
 36
0.0
 17
0.0
 27
0.0
 37
0.0
 76
     0
330
A
331
0
345
0
346
0
  0
LAYOUT
  5
21
102
{ACAD_REACTORS
330
1E
102
}
100
AcDbPlotSettings
  1

  2

  4

  6

 40
0.0
 41
0.0
 42
0.0
 43
0.0
 44
0.0
 45
0.0
 46
0.0
 47
0.0
 48
0.0
 49
0.0
140
0.0
141
0.0
142
1.0
143
1.0
 70
     0
 72
     0
 73
     0
 74
     0
  7

 75
     0
147
1.0
148
0.0
149
0.0
100
AcDbLayout
  1
Layout1
 70
     0
 71
     0
 10
0.0
 20
0.0
 11
0.0
 21
0.0
 12
0.0
 22
0.0
 32
0.0
 14
0.0
 24
0.0
 34
0.0
 15
0.0
 25
0.0
 35
0.0
146
0.0
 13
0.0
 23
0.0
 33
0.0
 16
0.0
 26
0.0
 36
0.0
 17
0.0
 27
0.0
 37
0.0
 76
     0
330
B
331
0
345
0
346
0
  0
DICTIONARY
  5
1E
102
{ACAD_REACTORS
330
19
102
}
100
AcDbDictionary
280
     0
281
     1
  3
Layout1
350
21
  3
Model
350
20
  0
DICTIONARY
  5
22
102
{ACAD_REACTORS
330
19
102
}
100
AcDbDictionary
280
     0
281
     1
  0
WIPEOUTVARIABLES
  5
23
100
AcDbWipeoutVariables
 70
     1
  0
ENDSEC
  0
EOF
