  0
SECTION
  2
HEADER
  9
$ACADVER
  1
AC1015
  9
$ACADMAINTVER
 70
     6
  9
$DWGCODEPAGE
  3
DOS850
  9
$INSBASE
 10
0.0
 20
0.0
 30
0.0
  9
$EXTMIN
 10
-4.07909
 20
-6.73918
 30
1.000000E+20
  9
$EXTMAX
 10
4.08458
 20
6.73297
 30
-1.000000E+20
  9
$LIMMIN
 10
0.0
 20
0.0
  9
$LIMMAX
 10
0.0
 20
0.0
  9
$ORTHOMODE
 70
     0
  9
$REGENMODE
 70
     1
  9
$FILLMODE
 70
     1
  9
$QTEXTMODE
 70
     0
  9
$MIRRTEXT
 70
     1
  9
$LTSCALE
 40
1.0
  9
$ATTMODE
 70
     1
  9
$TEXTSIZE
 40
0.2
  9
$TRACEWID
 40
0.05
  9
$TEXTSTYLE
  7
Standard
  9
$CLAYER
  8
0
  9
$CELTYPE
  6
Continuous
  9
$CECOLOR
 62
   256
  9
$CELTSCALE
 40
1.0
  9
$DISPSILH
 70
     0
  9
$DIMSCALE
 40
1.0
  9
$DIMASZ
 40
0.18
  9
$DIMEXO
 40
0.0625
  9
$DIMDLI
 40
0.38
  9
$DIMRND
 40
0.0
  9
$DIMDLE
 40
0.0
  9
$DIMEXE
 40
0.18
  9
$DIMTP
 40
0.0
  9
$DIMTM
 40
0.0
  9
$DIMTXT
 40
0.18
  9
$DIMCEN
 40
0.09
  9
$DIMTSZ
 40
0.0
  9
$DIMTOL
 70
     0
  9
$DIMLIM
 70
     0
  9
$DIMTIH
 70
     1
  9
$DIMTOH
 70
     1
  9
$DIMSE1
 70
     0
  9
$DIMSE2
 70
     0
  9
$DIMTAD
 70
     0
  9
$DIMZIN
 70
     0
  9
$DIMBLK
  1

  9
$DIMASO
 70
     1
  9
$DIMSHO
 70
     1
  9
$DIMPOST
  1

  9
$DIMAPOST
  1

  9
$DIMALT
 70
     0
  9
$DIMALTD
 70
     2
  9
$DIMALTF
 40
25.4
  9
$DIMLFAC
 40
1.0
  9
$DIMTOFL
 70
     0
  9
$DIMTVP
 40
0.0
  9
$DIMTIX
 70
     0
  9
$DIMSOXD
 70
     0
  9
$DIMSAH
 70
     0
  9
$DIMBLK1
  1

  9
$DIMBLK2
  1

  9
$DIMSTYLE
  2
Standard
  9
$DIMCLRD
 70
     0
  9
$DIMCLRE
 70
     0
  9
$DIMCLRT
 70
     0
  9
$DIMTFAC
 40
1.0
  9
$DIMGAP
 40
0.09
  9
$DIMJUST
 70
     0
  9
$DIMSD1
 70
     0
  9
$DIMSD2
 70
     0
  9
$DIMTOLJ
 70
     1
  9
$DIMTZIN
 70
     0
  9
$DIMALTZ
 70
     0
  9
$DIMALTTZ
 70
     0
  9
$DIMUPT
 70
     0
  9
$DIMDEC
 70
     4
  9
$DIMTDEC
 70
     4
  9
$DIMALTU
 70
     2
  9
$DIMALTTD
 70
     2
  9
$DIMTXSTY
  7
Standard
  9
$DIMAUNIT
 70
     0
  9
$DIMADEC
 70
     0
  9
$DIMALTRND
 40
0.0
  9
$DIMAZIN
 70
     0
  9
$DIMDSEP
 70
     0
  9
$DIMATFIT
 70
     3
  9
$DIMFRAC
 70
     0
  9
$DIMLDRBLK
  1

  9
$DIMLUNIT
 70
     2
  9
$DIMLWD
 70
     0
  9
$DIMLWE
 70
     0
  9
$DIMTMOVE
 70
     0
  9
$LUNITS
 70
     2
  9
$LUPREC
 70
     4
  9
$SKETCHINC
 40
0.1
  9
$FILLETRAD
 40
0.0
  9
$AUNITS
 70
     0
  9
$AUPREC
 70
     0
  9
$MENU
  1
acad
  9
$ELEVATION
 40
0.0
  9
$PELEVATION
 40
0.0
  9
$THICKNESS
 40
0.0
  9
$LIMCHECK
 70
     0
  9
$CHAMFERA
 40
0.0
  9
$CHAMFERB
 40
0.0
  9
$CHAMFERC
 40
0.0
  9
$CHAMFERD
 40
0.0
  9
$SKPOLY
 70
     0
  9
$TDCREATE
 40
0.000000000
  9
$TDUCREATE
 40
0.000000000
  9
$TDUPDATE
 40
0.000000000
  9
$TDUUPDATE
 40
0.000000000
  9
$TDINDWG
 40
0.0000000000
  9
$TDUSRTIMER
 40
0.0000000000
  9
$USRTIMER
 70
     1
  9
$ANGBASE
 50
0.0
  9
$ANGDIR
 70
     0
  9
$PDMODE
 70
     0
  9
$PDSIZE
 40
0.0
  9
$PLINEWID
 40
0.0
  9
$SPLFRAME
 70
     0
  9
$SPLINETYPE
 70
     6
  9
$SPLINESEGS
 70
     8
  9
$HANDSEED
  5
52
  9
$SURFTAB1
 70
     6
  9
$SURFTAB2
 70
     6
  9
$SURFTYPE
 70
     6
  9
$SURFU
 70
     6
  9
$SURFV
 70
     6
  9
$UCSBASE
  2

  9
$UCSNAME
  2

  9
$UCSORG
 10
0.0
 20
0.0
 30
0.0
  9
$UCSXDIR
 10
1.0
 20
0.0
 30
0.0
  9
$UCSYDIR
 10
0.0
 20
1.0
 30
0.0
  9
$UCSORTHOREF
  2

  9
$UCSORTHOVIEW
 70
     0
  9
$UCSORGTOP
 10
0.0
 20
0.0
 30
0.0
  9
$UCSORGBOTTOM
 10
0.0
 20
0.0
 30
0.0
  9
$UCSORGLEFT
 10
0.0
 20
0.0
 30
0.0
  9
$UCSORGRIGHT
 10
0.0
 20
0.0
 30
0.0
  9
$UCSORGFRONT
 10
0.0
 20
0.0
 30
0.0
  9
$UCSORGBACK
 10
0.0
 20
0.0
 30
0.0
  9
$PUCSBASE
  2

  9
$PUCSNAME
  2

  9
$PUCSORG
 10
0.0
 20
0.0
 30
0.0
  9
$PUCSXDIR
 10
1.0
 20
0.0
 30
0.0
  9
$PUCSYDIR
 10
0.0
 20
1.0
 30
0.0
  9
$PUCSORTHOREF
  2

  9
$PUCSORTHOVIEW
 70
     0
  9
$PUCSORGTOP
 10
0.0
 20
0.0
 30
0.0
  9
$PUCSORGBOTTOM
 10
0.0
 20
0.0
 30
0.0
  9
$PUCSORGLEFT
 10
0.0
 20
0.0
 30
0.0
  9
$PUCSORGRIGHT
 10
0.0
 20
0.0
 30
0.0
  9
$PUCSORGFRONT
 10
0.0
 20
0.0
 30
0.0
  9
$PUCSORGBACK
 10
0.0
 20
0.0
 30
0.0
  9
$USERI1
 70
     0
  9
$USERI2
 70
     0
  9
$USERI3
 70
     0
  9
$USERI4
 70
     0
  9
$USERI5
 70
     0
  9
$USERR1
 40
0.0
  9
$USERR2
 40
0.0
  9
$USERR3
 40
0.0
  9
$USERR4
 40
0.0
  9
$USERR5
 40
0.0
  9
$WORLDVIEW
 70
     1
  9
$SHADEDGE
 70
     3
  9
$SHADEDIF
 70
    70
  9
$TILEMODE
 70
     1
  9
$MAXACTVP
 70
    16
  9
$PINSBASE
 10
0.0
 20
0.0
 30
0.0
  9
$PLIMCHECK
 70
     0
  9
$PEXTMIN
 10
1.000000E+20
 20
1.000000E+20
 30
1.000000E+20
  9
$PEXTMAX
 10
-1.000000E+20
 20
-1.000000E+20
 30
-1.000000E+20
  9
$PLIMMIN
 10
0.0
 20
0.0
  9
$PLIMMAX
 10
12.0
 20
9.0
  9
$UNITMODE
 70
     0
  9
$VISRETAIN
 70
     0
  9
$PLINEGEN
 70
     1
  9
$PSLTSCALE
 70
     0
  9
$TREEDEPTH
 70
  3020
  9
$CMLSTYLE
  2
Standard
  9
$CMLJUST
 70
     0
  9
$CMLSCALE
 40
1.0
  9
$PROXYGRAPHICS
 70
     0
  9
$MEASUREMENT
 70
     0
  9
$CELWEIGHT
370
     0
  9
$ENDCAPS
280
     0
  9
$JOINSTYLE
280
     0
  9
$LWDISPLAY
290
     0
  9
$INSUNITS
 70
     5
  9
$HYPERLINKBASE
  1

  9
$XEDIT
290
     1
  9
$CEPSNTYPE
380
     0
  9
$PSTYLEMODE
290
     1
  9
$FINGERPRINTGUID
  2

  9
$VERSIONGUID
  2

  9
$EXTNAMES
290
     1
  9
$PSVPSCALE
 40
0.0
  0
ENDSEC
  0
SECTION
  2
CLASSES
  0
CLASS
  1
LWPOLYLINE
  2
AcDbPolyline
  3
AutoCAD 2000
 90
    32768
280
     0
281
     1
  0
CLASS
  1
IMAGE
  2
AcDbRasterImage
  3
ISM
 90
    32895
280
     0
281
     1
  0
CLASS
  1
OLE2FRAME
  2
AcDbOle2Frame
  3
AutoCAD 2000
 90
    32768
280
     0
281
     1
  0
CLASS
  1
HATCH
  2
AcDbHatch
  3
AutoCAD 2000
 90
    32768
280
     0
281
     1
  0
CLASS
  1
DICTIONARYVAR
  2
AcDbDictionaryVar
  3
AutoCAD 2000
 90
    32768
280
     0
281
     0
  0
CLASS
  1
RASTERVARIABLES
  2
AcDbRasterVariables
  3
ISM
 90
    32768
280
     0
281
     0
  0
CLASS
  1
IMAGEDEF
  2
AcDbRasterImageDef
  3
ISM
 90
    32768
280
     0
281
     0
  0
CLASS
  1
IMAGEDEF_REACTOR
  2
AcDbRasterImageDefReactor
  3
ISM
 90
    32769
280
     0
281
     0
  0
CLASS
  1
IDBUFFER
  2
AcDbIdBuffer
  3
AutoCAD 2000
 90
    32768
280
     0
281
     0
  0
CLASS
  1
SPATIAL_FILTER
  2
AcDbSpatialFilter
  3
AutoCAD 2000
 90
    32768
280
     0
281
     0
  0
CLASS
  1
XRECORD
  2
AcDbXrecord
  3
AutoCAD 2000
 90
    32768
280
     0
281
     0
  0
CLASS
  1
SORTENTSTABLE
  2
AcDbSortentsTable
  3
AutoCAD 2000
 90
    32768
280
     0
281
     0
  0
CLASS
  1
LAYER_INDEX
  2
AcDbLayerIndex
  3
AutoCAD 2000
 90
    32768
280
     0
281
     0
  0
CLASS
  1
SPATIAL_INDEX
  2
AcDbSpatialIndex
  3
AutoCAD 2000
 90
    32768
280
     0
281
     0
  0
CLASS
  1
OBJECT_PTR
  2
CAseDLPNTableRecord
  3
"ASE-LPNTableRecord"
 90
    32769
280
     0
281
     0
  0
CLASS
  1
LAYOUT
  2
AcDbLayout
  3
AutoCAD 2000
 90
        0
280
     0
281
     0
  0
CLASS
  1
PLOTSETTINGS
  2
AcDbPlotSettings
  3
AutoCAD 2000
 90
    32768
280
     0
281
     0
  0
CLASS
  1
ACDBDICTIONARYWDFLT
  2
AcDbDictionaryWithDefault
  3
AutoCAD 2000
 90
        0
280
     0
281
     0
  0
CLASS
  1
ACDBPLACEHOLDER
  2
AcDbPlaceHolder
  3
AutoCAD 2000
 90
        0
280
     0
281
     0
  0
CLASS
  1
VBA_PROJECT
  2
AcDbVbaProject
  3
acadvba
 90
    32768
280
     0
281
     0
  0
CLASS
  1
WIPEOUT
  2
AcDbWipeout
  3
WipeOut|AutoCAD Express Tool|expresstools@autodesk.com
 90
    32895
280
     0
281
     1
  0
CLASS
  1
WIPEOUTVARIABLES
  2
AcDbWipeoutVariables
  3
WipeOut|AutoCAD Express Tool|expresstools@autodesk.com
 90
        0
280
     0
281
     0
  0
CLASS
  1
RTEXT
  2
RText
  3
RText|AutoCAD Express Tool|expresstools@autodesk.com
 90
    32768
280
     0
281
     1
  0
CLASS
  1
ARCALIGNEDTEXT
  2
AcDbArcAlignedText
  3
ATEXT|AutoCAD Express Tool|expresstools@autodesk.com
 90
    32768
280
     0
281
     1
  0
ENDSEC
  0
SECTION
  2
TABLES
  0
TABLE
  2
VPORT
  5
7
100
AcDbSymbolTable
 70
     1
  0
VPORT
  5
15
100
AcDbSymbolTableRecord
100
AcDbViewportTableRecord
  2
*ACTIVE
 70
     0
 10
0.0
 20
0.0
 11
1.0
 21
1.0
 12
6.591288
 22
4.579184
 13
0.0
 23
0.0
 14
1.0
 24
1.0
 15
0.0
 25
0.0
 16
0.0
 26
0.0
 36
1.0
 17
0.0
 27
0.0
 37
0.0
 40
9.158369
 41
0.688564
 42
50.0
 43
0.0
 44
0.0
 50
0.0
 51
0.0
 71
     0
 72
   100
 73
     1
 74
     1
 75
     0
 76
     0
 77
     0
 78
     0
281
     0
 65
     0
110
0.0
120
0.0
130
0.0
111
1.0
121
0.0
131
0.0
112
0.0
122
1.0
132
0.0
345
0
346
0
 79
     0
146
0.0
  0
ENDTAB
  0
TABLE
  2
LTYPE
  5
4
100
AcDbSymbolTable
 70
     3
  0
LTYPE
  5
11
100
AcDbSymbolTableRecord
100
AcDbLinetypeTableRecord
  2
ByBlock
 70
    64
  3

 72
    65
 73
     0
 40
0.0
  0
LTYPE
  5
12
100
AcDbSymbolTableRecord
100
AcDbLinetypeTableRecord
  2
ByLayer
 70
    64
  3

 72
    65
 73
     0
 40
0.0
  0
LTYPE
  5
13
100
AcDbSymbolTableRecord
100
AcDbLinetypeTableRecord
  2
Continuous
 70
    64
  3
Solid line
 72
    65
 73
     0
 40
0.0
  0
ENDTAB
  0
TABLE
  2
LAYER
  5
2
100
AcDbSymbolTable
 70
     2
  0
LAYER
  5
14
100
AcDbSymbolTableRecord
100
AcDbLayerTableRecord
  2
0
 70
     0
 62
     7
  6
Continuous
290
     1
370
    -3
390
1D
  0
LAYER
  5
24
100
AcDbSymbolTableRecord
100
AcDbLayerTableRecord
  2
Ebene 1
 70
     0
 62
     7
  6
Continuous
290
     1
370
    -3
390
1F
  0
ENDTAB
  0
TABLE
  2
STYLE
  5
3
100
AcDbSymbolTable
 70
     1
  0
STYLE
  5
17
100
AcDbSymbolTableRecord
100
AcDbTextStyleTableRecord
  2
Standard
 70
     0
 40
0.0
 41
1.0
 50
0.0
 71
     0
 42
0.0
  3
txt
  4

  0
ENDTAB
  0
TABLE
  2
VIEW
  5
5
100
AcDbSymbolTable
 70
     0
  0
ENDTAB
  0
TABLE
  2
UCS
  5
6
100
AcDbSymbolTable
 70
     0
  0
ENDTAB
  0
TABLE
  2
APPID
  5
8
100
AcDbSymbolTable
 70
     1
  0
APPID
  5
16
100
AcDbSymbolTableRecord
100
AcDbRegAppTableRecord
  2
ACAD
 70
     0
  0
ENDTAB
  0
TABLE
  2
DIMSTYLE
  5
9
100
AcDbSymbolTable
 70
     1
100
AcDbDimStyleTable
 71
     0
  0
DIMSTYLE
105
18
100
AcDbSymbolTableRecord
100
AcDbDimStyleTableRecord
  2
Standard
 70
     0
  3

  4

 40
1.0
 41
0.18
 42
0.0625
 43
0.38
 44
0.18
 45
0.0
 46
0.0
 47
0.0
 48
0.0
 71
     0
 72
     0
 73
     1
 74
     1
 75
     0
 76
     0
 77
     0
 78
     0
 79
     0
140
0.18
141
0.09
142
0.0
143
25.4
144
1.0
145
0.0
146
1.0
147
0.09
148
0.0
170
     0
171
     2
172
     0
173
     0
174
     0
175
     0
176
     0
177
     0
178
     0
179
     0
271
     4
272
     4
273
     2
274
     2
275
     0
276
     0
277
     2
278
    46
279
     0
280
     0
281
     0
282
     0
283
     1
284
     0
285
     0
286
     0
288
     0
340
17
341
0
342
0
343
0
344
0
371
    -2
372
    -2
  0
ENDTAB
  0
TABLE
  2
BLOCK_RECORD
  5
1
100
AcDbSymbolTable
 70
     0
  0
BLOCK_RECORD
  5
A
100
AcDbSymbolTableRecord
100
AcDbBlockTableRecord
  2
*MODEL_SPACE
340
20
  0
BLOCK_RECORD
  5
B
100
AcDbSymbolTableRecord
100
AcDbBlockTableRecord
  2
*PAPER_SPACE
340
21
  0
ENDTAB
  0
ENDSEC
  0
SECTION
  2
BLOCKS
  0
BLOCK
  5
D
100
AcDbEntity
  8
0
100
AcDbBlockBegin
  2
*MODEL_SPACE
 70
     0
 10
0.0
 20
0.0
 30
0.0
  3
*MODEL_SPACE
  1

  0
ENDBLK
  5
E
100
AcDbEntity
  8
0
100
AcDbBlockEnd
  0
BLOCK
  5
F
100
AcDbEntity
 67
     1
  8
0
100
AcDbBlockBegin
  2
*PAPER_SPACE
 70
     0
 10
0.0
 20
0.0
 30
0.0
  3
*PAPER_SPACE
  1

  0
ENDBLK
  5
10
100
AcDbEntity
 67
     1
  8
0
100
AcDbBlockEnd
  0
ENDSEC
  0
SECTION
  2
ENTITIES
  0
SPLINE
  5
25
100
AcDbEntity
  8
Ebene 1
100
AcDbSpline
210
0.0
220
0.0
230
1.0
 70
     1
 71
     3
 72
   132
 73
   128
 74
     0
 42
0.0000000001
 43
0.0000000001
 40
0.0
 40
0.0
 40
0.0
 40
0.0
 40
0.03125
 40
0.03125
 40
0.03125
 40
0.03125
 40
0.0625
 40
0.0625
 40
0.0625
 40
0.0625
 40
0.09375
 40
0.09375
 40
0.09375
 40
0.09375
 40
0.125
 40
0.125
 40
0.125
 40
0.125
 40
0.15625
 40
0.15625
 40
0.15625
 40
0.15625
 40
0.1875
 40
0.1875
 40
0.1875
 40
0.1875
 40
0.21875
 40
0.21875
 40
0.21875
 40
0.21875
 40
0.25
 40
0.25
 40
0.25
 40
0.25
 40
0.28125
 40
0.28125
 40
0.28125
 40
0.28125
 40
0.3125
 40
0.3125
 40
0.3125
 40
0.3125
 40
0.34375
 40
0.34375
 40
0.34375
 40
0.34375
 40
0.375
 40
0.375
 40
0.375
 40
0.375
 40
0.40625
 40
0.40625
 40
0.40625
 40
0.40625
 40
0.4375
 40
0.4375
 40
0.4375
 40
0.4375
 40
0.46875
 40
0.46875
 40
0.46875
 40
0.46875
 40
0.5
 40
0.5
 40
0.5
 40
0.5
 40
0.53125
 40
0.53125
 40
0.53125
 40
0.53125
 40
0.5625
 40
0.5625
 40
0.5625
 40
0.5625
 40
0.59375
 40
0.59375
 40
0.59375
 40
0.59375
 40
0.625
 40
0.625
 40
0.625
 40
0.625
 40
0.65625
 40
0.65625
 40
0.65625
 40
0.65625
 40
0.6875
 40
0.6875
 40
0.6875
 40
0.6875
 40
0.71875
 40
0.71875
 40
0.71875
 40
0.71875
 40
0.75
 40
0.75
 40
0.75
 40
0.75
 40
0.78125
 40
0.78125
 40
0.78125
 40
0.78125
 40
0.8125
 40
0.8125
 40
0.8125
 40
0.8125
 40
0.84375
 40
0.84375
 40
0.84375
 40
0.84375
 40
0.875
 40
0.875
 40
0.875
 40
0.875
 40
0.90625
 40
0.90625
 40
0.90625
 40
0.90625
 40
0.9375
 40
0.9375
 40
0.9375
 40
0.9375
 40
0.96875
 40
0.96875
 40
0.96875
 40
0.96875
 40
1.0
 40
1.0
 40
1.0
 40
1.0
 10
0.10428
 20
6.7329700000000008
 30
0.0
 10
1.5800200000000002
 20
6.7583700000000002
 30
0.0
 10
3.0379800000000001
 20
5.6814100000000005
 30
0.0
 10
3.4901000000000004
 20
4.2894900000000007
 30
0.0
 10
3.4901000000000004
 20
4.2894900000000007
 30
0.0
 10
3.7847400000000002
 20
4.3682300000000005
 30
0.0
 10
3.9244400000000002
 20
3.9389700000000003
 30
0.0
 10
4.0108000000000006
 20
3.7103700000000002
 30
0.0
 10
4.0108000000000006
 20
3.7103700000000002
 30
0.0
 10
4.2724200000000003
 20
2.1584300000000001
 30
0.0
 10
3.8888800000000003
 20
-0.25964
 30
0.0
 10
2.0499200000000002
 20
-0.59492
 30
0.0
 10
2.0499200000000002
 20
-0.59492
 30
0.0
 10
2.0499200000000002
 20
-0.59492
 30
0.0
 10
1.9432400000000001
 20
-1.7861800000000001
 30
0.0
 10
1.9432400000000001
 20
-1.7861800000000001
 30
0.0
 10
1.9432400000000001
 20
-1.7861800000000001
 30
0.0
 10
1.8213200000000001
 20
-1.3848600000000002
 30
0.0
 10
2.0651600000000001
 20
-0.6889000000000001
 30
0.0
 10
1.6155800000000002
 20
-0.5746
 30
0.0
 10
1.6155800000000002
 20
-0.5746
 30
0.0
 10
1.2142600000000001
 20
-0.49586
 30
0.0
 10
0.7799200000000001
 20
-0.4603
 30
0.0
 10
0.3989200000000001
 20
-0.6482600000000001
 30
0.0
 10
0.3989200000000001
 20
-0.6482600000000001
 30
0.0
 10
0.3989200000000001
 20
-1.6972800000000001
 30
0.0
 10
0.31256
 20
-2.4567400000000004
 30
0.0
 10
0.19064
 20
-3.5794200000000003
 30
0.0
 10
0.19064
 20
-3.5794200000000003
 30
0.0
 10
0.12206
 20
-3.2720800000000003
 30
0.0
 10
0.15508
 20
-2.1773400000000001
 30
0.0
 10
-0.34529
 20
-2.60914
 30
0.0
 10
-0.34529
 20
-2.60914
 30
0.0
 10
-0.65771
 20
-3.9731200000000002
 30
0.0
 10
-0.11923
 20
-5.4006000000000007
 30
0.0
 10
-0.36307
 20
-6.7391800000000002
 30
0.0
 10
-0.36307
 20
-6.7391800000000002
 30
0.0
 10
-0.5205500000000001
 20
-5.4387000000000008
 30
0.0
 10
-0.43165
 20
-3.9223200000000005
 30
0.0
 10
-0.6043700000000001
 20
-2.5735800000000002
 30
0.0
 10
-0.6043700000000001
 20
-2.5735800000000002
 30
0.0
 10
-0.95235
 20
-2.6548600000000002
 30
0.0
 10
-1.0920500000000002
 20
-2.8860000000000001
 30
0.0
 10
-1.0564900000000002
 20
-3.2492200000000002
 30
0.0
 10
-1.0564900000000002
 20
-3.2492200000000002
 30
0.0
 10
-1.1961900000000001
 20
-3.3787600000000002
 30
0.0
 10
-1.16317
 20
-2.8479000000000001
 30
0.0
 10
-1.1961900000000001
 20
-2.7336
 30
0.0
 10
-1.1961900000000001
 20
-2.7336
 30
0.0
 10
-1.54417
 20
-2.6701000000000001
 30
0.0
 10
-1.8388100000000001
 20
-2.4084800000000004
 30
0.0
 10
-1.9937500000000001
 20
-2.10622
 30
0.0
 10
-1.9937500000000001
 20
-2.10622
 30
0.0
 10
-1.9759700000000002
 20
-2.6777200000000003
 30
0.0
 10
-1.9937500000000001
 20
-3.2924000000000002
 30
0.0
 10
-1.9429500000000002
 20
-3.8588200000000001
 30
0.0
 10
-1.9429500000000002
 20
-3.8588200000000001
 30
0.0
 10
-2.06487
 20
-4.2525200000000005
 30
0.0
 10
-1.6813300000000002
 20
-4.7122600000000006
 30
0.0
 10
-1.8921500000000002
 20
-5.0907200000000001
 30
0.0
 10
-1.8921500000000002
 20
-5.0907200000000001
 30
0.0
 10
-2.1004300000000002
 20
-3.9934400000000005
 30
0.0
 10
-1.9607300000000001
 20
-2.4669000000000003
 30
0.0
 10
-2.3239500000000004
 20
-1.5677400000000001
 30
0.0
 10
-2.3239500000000004
 20
-1.5677400000000001
 30
0.0
 10
-2.3239500000000004
 20
-1.5677400000000001
 30
0.0
 10
-2.3595100000000002
 20
-2.2560800000000003
 30
0.0
 10
-2.3595100000000002
 20
-2.2560800000000003
 30
0.0
 10
-2.3595100000000002
 20
-2.2560800000000003
 30
0.0
 10
-2.6820900000000001
 20
-2.2967200000000001
 30
0.0
 10
-2.7049500000000002
 20
-1.9741400000000002
 30
0.0
 10
-2.6719300000000001
 20
-1.7201400000000002
 30
0.0
 10
-2.6719300000000001
 20
-1.7201400000000002
 30
0.0
 10
-2.6744700000000003
 20
-1.5906000000000002
 30
0.0
 10
-2.6719300000000001
 20
-1.4077200000000001
 30
0.0
 10
-2.7760700000000003
 20
-1.3391400000000002
 30
0.0
 10
-2.7760700000000003
 20
-1.3391400000000002
 30
0.0
 10
-3.1723100000000004
 20
-1.5702800000000001
 30
0.0
 10
-2.6871700000000001
 20
-2.3449800000000001
 30
0.0
 10
-2.9284700000000004
 20
-2.7412200000000002
 30
0.0
 10
-2.9284700000000004
 20
-2.7412200000000002
 30
0.0
 10
-2.9284700000000004
 20
-2.7412200000000002
 30
0.0
 10
-2.9665700000000004
 20
-2.3627600000000002
 30
0.0
 10
-2.9665700000000004
 20
-2.3627600000000002
 30
0.0
 10
-2.9665700000000004
 20
-2.3627600000000002
 30
0.0
 10
-2.9665700000000004
 20
-2.3627600000000002
 30
0.0
 10
-3.0402300000000002
 20
-1.8293600000000001
 30
0.0
 10
-3.0402300000000002
 20
-1.8293600000000001
 30
0.0
 10
-3.0402300000000002
 20
-1.8293600000000001
 30
0.0
 10
-3.0554700000000001
 20
-1.9741400000000002
 30
0.0
 10
-3.1596100000000003
 20
-2.2637
 30
0.0
 10
-3.3374100000000002
 20
-2.0020800000000003
 30
0.0
 10
-3.3374100000000002
 20
-2.0020800000000003
 30
0.0
 10
-3.4237700000000002
 20
-1.2781800000000001
 30
0.0
 10
-3.2434300000000005
 20
-0.56698
 30
0.0
 10
-3.1926300000000003
 20
0.15183
 30
0.0
 10
-3.1926300000000003
 20
0.15183
 30
0.0
 10
-3.2459700000000002
 20
0.43631
 30
0.0
 10
-3.6015700000000002
 20
0.45663
 30
0.0
 10
-3.7082500000000005
 20
0.7131700000000001
 30
0.0
 10
-3.7082500000000005
 20
0.7131700000000001
 30
0.0
 10
-3.6599900000000005
 20
1.3761100000000002
 30
0.0
 10
-3.7336500000000004
 20
2.0187300000000001
 30
0.0
 10
-4.0790900000000008
 20
2.5826100000000003
 30
0.0
 10
-4.0790900000000008
 20
2.5826100000000003
 30
0.0
 10
-3.9520900000000001
 20
3.0880700000000001
 30
0.0
 10
-3.7717500000000004
 20
3.5503500000000003
 30
0.0
 10
-3.7971500000000002
 20
4.1091500000000005
 30
0.0
 10
-3.7971500000000002
 20
4.1091500000000005
 30
0.0
 10
-3.7971500000000002
 20
4.1091500000000005
 30
0.0
 10
-3.4390100000000001
 20
4.2386900000000001
 30
0.0
 10
-3.4390100000000001
 20
4.2386900000000001
 30
0.0
 10
-3.4390100000000001
 20
4.2386900000000001
 30
0.0
 10
-3.1469100000000001
 20
4.7822500000000003
 30
0.0
 10
-2.9640300000000002
 20
5.6026700000000007
 30
0.0
 10
-2.23759
 20
5.7652300000000007
 30
0.0
 10
-2.23759
 20
5.7652300000000007
 30
0.0
 10
-2.1334500000000003
 20
6.1132100000000005
 30
0.0
 10
-1.7346700000000002
 20
6.3799100000000006
 30
0.0
 10
-1.3689100000000001
 20
6.3392700000000008
 30
0.0
 10
-1.3689100000000001
 20
6.3392700000000008
 30
0.0
 10
-1.1098300000000001
 20
6.7126500000000009
 30
0.0
 10
-0.48499
 20
6.7177300000000004
 30
0.0
 10
-0.08621
 20
6.6110500000000005
 30
0.0
 10
-0.08621
 20
6.6110500000000005
 30
0.0
 10
-0.08621
 20
6.6110500000000005
 30
0.0
 10
0.10428
 20
6.7329700000000008
 30
0.0
 10
0.10428
 20
6.7329700000000008
 30
0.0
  0
SPLINE
  5
26
100
AcDbEntity
  8
Ebene 1
 62
     7
100
AcDbSpline
210
0.0
220
0.0
230
1.0
 70
     1
 71
     3
 72
    44
 73
    40
 74
     0
 42
0.0000000001
 43
0.0000000001
 40
0.0
 40
0.0
 40
0.0
 40
0.0
 40
0.1
 40
0.1
 40
0.1
 40
0.1
 40
0.2
 40
0.2
 40
0.2
 40
0.2
 40
0.3
 40
0.3
 40
0.3
 40
0.3
 40
0.4
 40
0.4
 40
0.4
 40
0.4
 40
0.5
 40
0.5
 40
0.5
 40
0.5
 40
0.6
 40
0.6
 40
0.6
 40
0.6
 40
0.7
 40
0.7
 40
0.7
 40
0.7
 40
0.7999999999999999
 40
0.7999999999999999
 40
0.7999999999999999
 40
0.7999999999999999
 40
0.8999999999999999
 40
0.8999999999999999
 40
0.8999999999999999
 40
0.8999999999999999
 40
1.0
 40
1.0
 40
1.0
 40
1.0
 10
-0.48499
 20
6.5932700000000004
 30
0.0
 10
-0.48499
 20
6.5932700000000004
 30
0.0
 10
-0.41387
 20
6.5907300000000006
 30
0.0
 10
-0.41387
 20
6.5907300000000006
 30
0.0
 10
-0.41387
 20
6.5907300000000006
 30
0.0
 10
-0.4494300000000001
 20
6.4002300000000005
 30
0.0
 10
-0.6932700000000001
 20
6.3316500000000007
 30
0.0
 10
-0.8151900000000001
 20
6.4357900000000008
 30
0.0
 10
-0.8151900000000001
 20
6.4357900000000008
 30
0.0
 10
-0.8151900000000001
 20
6.4357900000000008
 30
0.0
 10
-0.8151900000000001
 20
6.3570500000000001
 30
0.0
 10
-0.8151900000000001
 20
6.3570500000000001
 30
0.0
 10
-0.8151900000000001
 20
6.3570500000000001
 30
0.0
 10
-0.8837700000000001
 20
6.3697500000000007
 30
0.0
 10
-0.9193300000000001
 20
6.3672100000000009
 30
0.0
 10
-0.9015500000000001
 20
6.2884700000000002
 30
0.0
 10
-0.9015500000000001
 20
6.2884700000000002
 30
0.0
 10
-1.0234700000000001
 20
6.2859300000000005
 30
0.0
 10
-1.1098300000000001
 20
6.0852700000000004
 30
0.0
 10
-1.2317500000000001
 20
6.1767100000000008
 30
0.0
 10
-1.2317500000000001
 20
6.1767100000000008
 30
0.0
 10
-1.2317500000000001
 20
6.1767100000000008
 30
0.0
 10
-1.16317
 20
6.2249700000000008
 30
0.0
 10
-1.16317
 20
6.2249700000000008
 30
0.0
 10
-1.16317
 20
6.2249700000000008
 30
0.0
 10
-1.0920500000000002
 20
6.2021100000000002
 30
0.0
 10
-0.9879100000000001
 20
6.2935500000000006
 30
0.0
 10
-1.0742700000000001
 20
6.3341900000000004
 30
0.0
 10
-1.0742700000000001
 20
6.3341900000000004
 30
0.0
 10
-1.1098300000000001
 20
6.3265700000000002
 30
0.0
 10
-1.1453900000000001
 20
6.3367300000000002
 30
0.0
 10
-1.1784100000000002
 20
6.3748300000000002
 30
0.0
 10
-1.1784100000000002
 20
6.3748300000000002
 30
0.0
 10
-1.0920500000000002
 20
6.5704100000000007
 30
0.0
 10
-0.84821
 20
6.5373900000000003
 30
0.0
 10
-0.6932700000000001
 20
6.4561100000000007
 30
0.0
 10
-0.6932700000000001
 20
6.4561100000000007
 30
0.0
 10
-0.6932700000000001
 20
6.4561100000000007
 30
0.0
 10
-0.48499
 20
6.5932700000000004
 30
0.0
 10
-0.48499
 20
6.5932700000000004
 30
0.0
  0
SPLINE
  5
27
100
AcDbEntity
  8
Ebene 1
 62
     7
100
AcDbSpline
210
0.0
220
0.0
230
1.0
 70
     1
 71
     3
 72
   288
 73
   284
 74
     0
 42
0.0000000001
 43
0.0000000001
 40
0.0
 40
0.0
 40
0.0
 40
0.0
 40
0.0140845070422535
 40
0.0140845070422535
 40
0.0140845070422535
 40
0.0140845070422535
 40
0.028169014084507
 40
0.028169014084507
 40
0.028169014084507
 40
0.028169014084507
 40
0.0422535211267606
 40
0.0422535211267606
 40
0.0422535211267606
 40
0.0422535211267606
 40
0.0563380281690141
 40
0.0563380281690141
 40
0.0563380281690141
 40
0.0563380281690141
 40
0.0704225352112676
 40
0.0704225352112676
 40
0.0704225352112676
 40
0.0704225352112676
 40
0.0845070422535211
 40
0.0845070422535211
 40
0.0845070422535211
 40
0.0845070422535211
 40
0.0985915492957746
 40
0.0985915492957746
 40
0.0985915492957746
 40
0.0985915492957746
 40
0.1126760563380282
 40
0.1126760563380282
 40
0.1126760563380282
 40
0.1126760563380282
 40
0.1267605633802817
 40
0.1267605633802817
 40
0.1267605633802817
 40
0.1267605633802817
 40
0.1408450704225352
 40
0.1408450704225352
 40
0.1408450704225352
 40
0.1408450704225352
 40
0.1549295774647888
 40
0.1549295774647888
 40
0.1549295774647888
 40
0.1549295774647888
 40
0.1690140845070423
 40
0.1690140845070423
 40
0.1690140845070423
 40
0.1690140845070423
 40
0.1830985915492958
 40
0.1830985915492958
 40
0.1830985915492958
 40
0.1830985915492958
 40
0.1971830985915493
 40
0.1971830985915493
 40
0.1971830985915493
 40
0.1971830985915493
 40
0.2112676056338029
 40
0.2112676056338029
 40
0.2112676056338029
 40
0.2112676056338029
 40
0.2253521126760564
 40
0.2253521126760564
 40
0.2253521126760564
 40
0.2253521126760564
 40
0.2394366197183099
 40
0.2394366197183099
 40
0.2394366197183099
 40
0.2394366197183099
 40
0.2535211267605634
 40
0.2535211267605634
 40
0.2535211267605634
 40
0.2535211267605634
 40
0.2676056338028169
 40
0.2676056338028169
 40
0.2676056338028169
 40
0.2676056338028169
 40
0.2816901408450704
 40
0.2816901408450704
 40
0.2816901408450704
 40
0.2816901408450704
 40
0.2957746478873239
 40
0.2957746478873239
 40
0.2957746478873239
 40
0.2957746478873239
 40
0.3098591549295774
 40
0.3098591549295774
 40
0.3098591549295774
 40
0.3098591549295774
 40
0.3239436619718309
 40
0.3239436619718309
 40
0.3239436619718309
 40
0.3239436619718309
 40
0.3380281690140845
 40
0.3380281690140845
 40
0.3380281690140845
 40
0.3380281690140845
 40
0.352112676056338
 40
0.352112676056338
 40
0.352112676056338
 40
0.352112676056338
 40
0.3661971830985915
 40
0.3661971830985915
 40
0.3661971830985915
 40
0.3661971830985915
 40
0.380281690140845
 40
0.380281690140845
 40
0.380281690140845
 40
0.380281690140845
 40
0.3943661971830985
 40
0.3943661971830985
 40
0.3943661971830985
 40
0.3943661971830985
 40
0.408450704225352
 40
0.408450704225352
 40
0.408450704225352
 40
0.408450704225352
 40
0.4225352112676055
 40
0.4225352112676055
 40
0.4225352112676055
 40
0.4225352112676055
 40
0.436619718309859
 40
0.436619718309859
 40
0.436619718309859
 40
0.436619718309859
 40
0.4507042253521125
 40
0.4507042253521125
 40
0.4507042253521125
 40
0.4507042253521125
 40
0.464788732394366
 40
0.464788732394366
 40
0.464788732394366
 40
0.464788732394366
 40
0.4788732394366195
 40
0.4788732394366195
 40
0.4788732394366195
 40
0.4788732394366195
 40
0.492957746478873
 40
0.492957746478873
 40
0.492957746478873
 40
0.492957746478873
 40
0.5070422535211265
 40
0.5070422535211265
 40
0.5070422535211265
 40
0.5070422535211265
 40
0.52112676056338
 40
0.52112676056338
 40
0.52112676056338
 40
0.52112676056338
 40
0.5352112676056335
 40
0.5352112676056335
 40
0.5352112676056335
 40
0.5352112676056335
 40
0.549295774647887
 40
0.549295774647887
 40
0.549295774647887
 40
0.549295774647887
 40
0.5633802816901405
 40
0.5633802816901405
 40
0.5633802816901405
 40
0.5633802816901405
 40
0.577464788732394
 40
0.577464788732394
 40
0.577464788732394
 40
0.577464788732394
 40
0.5915492957746475
 40
0.5915492957746475
 40
0.5915492957746475
 40
0.5915492957746475
 40
0.6056338028169011
 40
0.6056338028169011
 40
0.6056338028169011
 40
0.6056338028169011
 40
0.6197183098591546
 40
0.6197183098591546
 40
0.6197183098591546
 40
0.6197183098591546
 40
0.6338028169014081
 40
0.6338028169014081
 40
0.6338028169014081
 40
0.6338028169014081
 40
0.6478873239436616
 40
0.6478873239436616
 40
0.6478873239436616
 40
0.6478873239436616
 40
0.6619718309859151
 40
0.6619718309859151
 40
0.6619718309859151
 40
0.6619718309859151
 40
0.6760563380281686
 40
0.6760563380281686
 40
0.6760563380281686
 40
0.6760563380281686
 40
0.6901408450704221
 40
0.6901408450704221
 40
0.6901408450704221
 40
0.6901408450704221
 40
0.7042253521126756
 40
0.7042253521126756
 40
0.7042253521126756
 40
0.7042253521126756
 40
0.7183098591549291
 40
0.7183098591549291
 40
0.7183098591549291
 40
0.7183098591549291
 40
0.7323943661971826
 40
0.7323943661971826
 40
0.7323943661971826
 40
0.7323943661971826
 40
0.7464788732394361
 40
0.7464788732394361
 40
0.7464788732394361
 40
0.7464788732394361
 40
0.7605633802816896
 40
0.7605633802816896
 40
0.7605633802816896
 40
0.7605633802816896
 40
0.7746478873239431
 40
0.7746478873239431
 40
0.7746478873239431
 40
0.7746478873239431
 40
0.7887323943661966
 40
0.7887323943661966
 40
0.7887323943661966
 40
0.7887323943661966
 40
0.8028169014084501
 40
0.8028169014084501
 40
0.8028169014084501
 40
0.8028169014084501
 40
0.8169014084507036
 40
0.8169014084507036
 40
0.8169014084507036
 40
0.8169014084507036
 40
0.8309859154929571
 40
0.8309859154929571
 40
0.8309859154929571
 40
0.8309859154929571
 40
0.8450704225352106
 40
0.8450704225352106
 40
0.8450704225352106
 40
0.8450704225352106
 40
0.8591549295774641
 40
0.8591549295774641
 40
0.8591549295774641
 40
0.8591549295774641
 40
0.8732394366197176
 40
0.8732394366197176
 40
0.8732394366197176
 40
0.8732394366197176
 40
0.8873239436619711
 40
0.8873239436619711
 40
0.8873239436619711
 40
0.8873239436619711
 40
0.9014084507042246
 40
0.9014084507042246
 40
0.9014084507042246
 40
0.9014084507042246
 40
0.9154929577464781
 40
0.9154929577464781
 40
0.9154929577464781
 40
0.9154929577464781
 40
0.9295774647887316
 40
0.9295774647887316
 40
0.9295774647887316
 40
0.9295774647887316
 40
0.9436619718309851
 40
0.9436619718309851
 40
0.9436619718309851
 40
0.9436619718309851
 40
0.9577464788732386
 40
0.9577464788732386
 40
0.9577464788732386
 40
0.9577464788732386
 40
0.9718309859154921
 40
0.9718309859154921
 40
0.9718309859154921
 40
0.9718309859154921
 40
0.9859154929577456
 40
0.9859154929577456
 40
0.9859154929577456
 40
0.9859154929577456
 40
1.0
 40
1.0
 40
1.0
 40
1.0
 10
0.10428
 20
6.5602500000000008
 30
0.0
 10
0.7977000000000001
 20
6.7253500000000006
 30
0.0
 10
0.4675
 20
6.0090700000000004
 30
0.0
 10
1.0059800000000001
 20
5.9176300000000008
 30
0.0
 10
1.0059800000000001
 20
5.9176300000000008
 30
0.0
 10
0.76468
 20
6.0243100000000007
 30
0.0
 10
0.7799200000000001
 20
6.5653300000000003
 30
0.0
 10
1.14568
 20
6.3037100000000006
 30
0.0
 10
1.14568
 20
6.3037100000000006
 30
0.0
 10
0.9374000000000001
 20
6.6872500000000006
 30
0.0
 10
1.4225400000000001
 20
6.4078500000000007
 30
0.0
 10
1.3361800000000001
 20
6.1132100000000005
 30
0.0
 10
1.3361800000000001
 20
6.1132100000000005
 30
0.0
 10
1.39968
 20
5.9760500000000008
 30
0.0
 10
1.40222
 20
6.2173500000000006
 30
0.0
 10
1.4250800000000001
 20
6.2503700000000002
 30
0.0
 10
1.4250800000000001
 20
6.2503700000000002
 30
0.0
 10
1.6054200000000001
 20
6.5323100000000007
 30
0.0
 10
2.03722
 20
5.8185700000000002
 30
0.0
 10
1.6486000000000001
 20
5.9404900000000005
 30
0.0
 10
1.6486000000000001
 20
5.9404900000000005
 30
0.0
 10
1.7197200000000001
 20
6.0700300000000009
 30
0.0
 10
1.5622400000000001
 20
6.0827300000000006
 30
0.0
 10
1.52668
 20
5.9658900000000008
 30
0.0
 10
1.52668
 20
5.9658900000000008
 30
0.0
 10
1.5089000000000001
 20
5.8947700000000003
 30
0.0
 10
1.5089000000000001
 20
5.8185700000000002
 30
0.0
 10
1.5089000000000001
 20
5.7423700000000002
 30
0.0
 10
1.5089000000000001
 20
5.7423700000000002
 30
0.0
 10
1.7527400000000002
 20
5.5518700000000001
 30
0.0
 10
1.9102200000000003
 20
5.4248700000000003
 30
0.0
 10
1.7197200000000001
 20
5.14039
 30
0.0
 10
1.7197200000000001
 20
5.14039
 30
0.0
 10
1.9965800000000002
 20
5.2673900000000007
 30
0.0
 10
1.9280000000000002
 20
5.7195100000000005
 30
0.0
 10
2.29122
 20
5.7423700000000002
 30
0.0
 10
2.29122
 20
5.7423700000000002
 30
0.0
 10
2.1362800000000002
 20
5.8668300000000002
 30
0.0
 10
1.8568800000000001
 20
5.5798100000000002
 30
0.0
 10
1.7197200000000001
 20
5.7576100000000006
 30
0.0
 10
1.7197200000000001
 20
5.7576100000000006
 30
0.0
 10
1.9102200000000003
 20
5.7474500000000006
 30
0.0
 10
2.0143600000000004
 20
5.9938300000000009
 30
0.0
 10
2.20486
 20
5.9176300000000008
 30
0.0
 10
2.20486
 20
5.9176300000000008
 30
0.0
 10
2.29122
 20
5.8820700000000006
 30
0.0
 10
2.3801200000000002
 20
5.8363500000000004
 30
0.0
 10
2.3953600000000002
 20
5.7423700000000002
 30
0.0
 10
2.3953600000000002
 20
5.7423700000000002
 30
0.0
 10
1.8060800000000001
 20
5.6585500000000009
 30
0.0
 10
2.67476
 20
4.9575100000000001
 30
0.0
 10
2.4487000000000001
 20
5.3054900000000007
 30
0.0
 10
2.4487000000000001
 20
5.3054900000000007
 30
0.0
 10
2.3801200000000002
 20
5.3588300000000002
 30
0.0
 10
2.4131400000000003
 20
5.4959900000000008
 30
0.0
 10
2.5172800000000004
 20
5.4629700000000003
 30
0.0
 10
2.5172800000000004
 20
5.4629700000000003
 30
0.0
 10
2.8982800000000002
 20
5.1988100000000008
 30
0.0
 10
3.0379800000000001
 20
4.7797100000000006
 30
0.0
 10
3.2107000000000001
 20
4.4291900000000002
 30
0.0
 10
3.2107000000000001
 20
4.4291900000000002
 30
0.0
 10
2.9694000000000003
 20
4.6019100000000002
 30
0.0
 10
2.7941400000000001
 20
4.9702100000000007
 30
0.0
 10
2.67476
 20
5.2572300000000007
 30
0.0
 10
2.67476
 20
5.2572300000000007
 30
0.0
 10
2.67476
 20
5.1505500000000008
 30
0.0
 10
2.6950800000000004
 20
4.9422700000000006
 30
0.0
 10
2.5960200000000002
 20
4.80511
 30
0.0
 10
2.5960200000000002
 20
4.80511
 30
0.0
 10
2.5680800000000001
 20
4.7644700000000002
 30
0.0
 10
2.42584
 20
4.8330500000000001
 30
0.0
 10
2.4817200000000001
 20
4.7060500000000003
 30
0.0
 10
2.4817200000000001
 20
4.7060500000000003
 30
0.0
 10
2.6392000000000002
 20
4.92957
 30
0.0
 10
3.1776800000000001
 20
4.3148900000000001
 30
0.0
 10
2.7789000000000001
 20
4.5866700000000007
 30
0.0
 10
2.7789000000000001
 20
4.5866700000000007
 30
0.0
 10
2.7077800000000001
 20
4.6044500000000008
 30
0.0
 10
2.6392000000000002
 20
4.5917500000000002
 30
0.0
 10
2.6036400000000004
 20
4.50793
 30
0.0
 10
2.6036400000000004
 20
4.50793
 30
0.0
 10
2.8652600000000001
 20
3.8957900000000003
 30
0.0
 10
1.9788000000000001
 20
4.7162100000000002
 30
0.0
 10
2.3267800000000003
 20
5.0616500000000002
 30
0.0
 10
2.3267800000000003
 20
5.0616500000000002
 30
0.0
 10
2.3369400000000002
 20
5.1530900000000006
 30
0.0
 10
2.2277200000000001
 20
5.0565700000000007
 30
0.0
 10
2.1972400000000003
 20
5.0413300000000003
 30
0.0
 10
2.1972400000000003
 20
5.0413300000000003
 30
0.0
 10
2.1032600000000001
 20
4.9930700000000003
 30
0.0
 10
2.0397600000000002
 20
4.92957
 30
0.0
 10
2.0143600000000004
 20
5.0845100000000008
 30
0.0
 10
2.0143600000000004
 20
5.0845100000000008
 30
0.0
 10
2.1693000000000002
 20
5.3283500000000004
 30
0.0
 10
2.0499200000000002
 20
5.4426500000000004
 30
0.0
 10
1.9280000000000002
 20
5.1353100000000005
 30
0.0
 10
1.9280000000000002
 20
5.1353100000000005
 30
0.0
 10
2.0321400000000001
 20
4.8457500000000007
 30
0.0
 10
2.0321400000000001
 20
4.5688900000000006
 30
0.0
 10
2.3267800000000003
 20
4.4393500000000001
 30
0.0
 10
2.3267800000000003
 20
4.4393500000000001
 30
0.0
 10
2.1515200000000001
 20
4.1167700000000007
 30
0.0
 10
2.0651600000000001
 20
4.3860100000000006
 30
0.0
 10
1.6841600000000001
 20
4.3072699999999999
 30
0.0
 10
1.6841600000000001
 20
4.3072699999999999
 30
0.0
 10
1.7019400000000002
 20
4.3910900000000002
 30
0.0
 10
1.6841600000000001
 20
4.4799900000000008
 30
0.0
 10
1.7883000000000002
 20
4.50793
 30
0.0
 10
1.7883000000000002
 20
4.50793
 30
0.0
 10
1.7883000000000002
 20
4.50793
 30
0.0
 10
1.9432400000000001
 20
4.6196900000000003
 30
0.0
 10
1.9432400000000001
 20
4.6196900000000003
 30
0.0
 10
1.9432400000000001
 20
4.6196900000000003
 30
0.0
 10
2.0651600000000001
 20
4.8076500000000006
 30
0.0
 10
1.6486000000000001
 20
4.4444300000000005
 30
0.0
 10
1.5800200000000002
 20
4.6196900000000003
 30
0.0
 10
1.5800200000000002
 20
4.6196900000000003
 30
0.0
 10
1.9432400000000001
 20
5.1276900000000003
 30
0.0
 10
1.2676000000000001
 20
4.6603300000000001
 30
0.0
 10
1.52668
 20
4.29711
 30
0.0
 10
1.52668
 20
4.29711
 30
0.0
 10
0.5894200000000001
 20
4.3326700000000002
 30
0.0
 10
2.0321400000000001
 20
5.09213
 30
0.0
 10
1.4936600000000002
 20
5.2445300000000001
 30
0.0
 10
1.4936600000000002
 20
5.2445300000000001
 30
0.0
 10
1.6155800000000002
 20
5.1175300000000004
 30
0.0
 10
1.4758800000000001
 20
4.9270300000000002
 30
0.0
 10
1.3184
 20
4.9625900000000005
 30
0.0
 10
1.3184
 20
4.9625900000000005
 30
0.0
 10
1.05932
 20
5.0845100000000008
 30
0.0
 10
1.0923400000000001
 20
5.3689900000000002
 30
0.0
 10
1.3184
 20
5.4807500000000005
 30
0.0
 10
1.3184
 20
5.4807500000000005
 30
0.0
 10
1.0771000000000002
 20
5.5518700000000001
 30
0.0
 10
0.9729600000000001
 20
5.26485
 30
0.0
 10
0.76468
 20
5.4096300000000008
 30
0.0
 10
0.76468
 20
5.4096300000000008
 30
0.0
 10
0.9196200000000001
 20
5.2597700000000005
 30
0.0
 10
1.05932
 20
5.0641900000000009
 30
0.0
 10
1.14568
 20
4.8635300000000008
 30
0.0
 10
1.14568
 20
4.8635300000000008
 30
0.0
 10
0.85104
 20
4.2463100000000003
 30
0.0
 10
0.8840600000000001
 20
5.6204500000000008
 30
0.0
 10
0.3989200000000001
 20
5.1149900000000006
 30
0.0
 10
0.3989200000000001
 20
5.1149900000000006
 30
0.0
 10
0.33034
 20
5.0895900000000003
 30
0.0
 10
0.33034
 20
4.9575100000000001
 30
0.0
 10
0.4167
 20
5.0133900000000002
 30
0.0
 10
0.4167
 20
5.0133900000000002
 30
0.0
 10
0.64276
 20
5.22675
 30
0.0
 10
0.7799200000000001
 20
4.9041700000000006
 30
0.0
 10
0.6935600000000001
 20
4.7060500000000003
 30
0.0
 10
0.6935600000000001
 20
4.7060500000000003
 30
0.0
 10
1.0923400000000001
 20
4.6908100000000008
 30
0.0
 10
1.02376
 20
4.0939100000000002
 30
0.0
 10
0.7799200000000001
 20
4.4799900000000008
 30
0.0
 10
0.7799200000000001
 20
4.4799900000000008
 30
0.0
 10
0.6072000000000001
 20
4.2056700000000005
 30
0.0
 10
0.17286
 20
4.5612700000000004
 30
0.0
 10
0.48528
 20
4.7746300000000002
 30
0.0
 10
0.48528
 20
4.7746300000000002
 30
0.0
 10
0.64276
 20
4.9092500000000001
 30
0.0
 10
0.3659
 20
4.8838500000000007
 30
0.0
 10
0.31256
 20
4.76701
 30
0.0
 10
0.31256
 20
4.76701
 30
0.0
 10
-0.10145
 20
4.0786700000000007
 30
0.0
 10
0.15508
 20
4.8127300000000002
 30
0.0
 10
-0.01509
 20
5.0794300000000003
 30
0.0
 10
-0.01509
 20
5.0794300000000003
 30
0.0
 10
0.53608
 20
5.2902500000000003
 30
0.0
 10
0.1373
 20
5.9836700000000009
 30
0.0
 10
0.06872
 20
5.2445300000000001
 30
0.0
 10
0.06872
 20
5.2445300000000001
 30
0.0
 10
-0.6043700000000001
 20
4.9219500000000007
 30
0.0
 10
0.17286
 20
6.1106700000000007
 30
0.0
 10
-0.27671
 20
5.5315500000000002
 30
0.0
 10
-0.27671
 20
5.5315500000000002
 30
0.0
 10
-0.32751
 20
5.4883700000000006
 30
0.0
 10
-0.39863
 20
5.3816900000000008
 30
0.0
 10
-0.46721
 20
5.4096300000000008
 30
0.0
 10
-0.46721
 20
5.4096300000000008
 30
0.0
 10
-0.55357
 20
5.4883700000000006
 30
0.0
 10
-0.5205500000000001
 20
5.6407700000000007
 30
0.0
 10
-0.57135
 20
5.6915700000000005
 30
0.0
 10
-0.57135
 20
5.6915700000000005
 30
0.0
 10
-0.8151900000000001
 20
5.1810300000000007
 30
0.0
 10
0.17286
 20
5.0870500000000005
 30
0.0
 10
-0.11923
 20
4.7543100000000003
 30
0.0
 10
-0.11923
 20
4.7543100000000003
 30
0.0
 10
-0.15479
 20
4.4850700000000003
 30
0.0
 10
-0.38085
 20
4.8025700000000002
 30
0.0
 10
-0.27671
 20
4.9067100000000003
 30
0.0
 10
-0.27671
 20
4.9067100000000003
 30
0.0
 10
-0.29195
 20
5.0057700000000001
 30
0.0
 10
-0.41387
 20
4.8686100000000003
 30
0.0
 10
-0.39863
 20
4.80511
 30
0.0
 10
-0.39863
 20
4.80511
 30
0.0
 10
-0.4494300000000001
 20
4.59429
 30
0.0
 10
-0.25893
 20
4.4088700000000003
 30
0.0
 10
-0.58913
 20
4.5333300000000003
 30
0.0
 10
-0.58913
 20
4.5333300000000003
 30
0.0
 10
-0.34529
 20
5.0311700000000004
 30
0.0
 10
-1.42225
 20
5.5772700000000004
 30
0.0
 10
-0.7974100000000001
 20
4.9270300000000002
 30
0.0
 10
-0.7974100000000001
 20
4.9270300000000002
 30
0.0
 10
-0.4494300000000001
 20
4.8101900000000004
 30
0.0
 10
-1.0742700000000001
 20
4.3860100000000006
 30
0.0
 10
-1.0564900000000002
 20
4.8101900000000004
 30
0.0
 10
-1.0564900000000002
 20
4.8101900000000004
 30
0.0
 10
-1.1098300000000001
 20
4.8559100000000006
 30
0.0
 10
-1.1453900000000001
 20
4.7797100000000006
 30
0.0
 10
-1.12761
 20
4.7365300000000001
 30
0.0
 10
-1.12761
 20
4.7365300000000001
 30
0.0
 10
-0.74407
 20
4.3199700000000005
 30
0.0
 10
-1.9607300000000001
 20
4.59429
 30
0.0
 10
-1.6127500000000001
 20
4.9803700000000006
 30
0.0
 10
-1.6127500000000001
 20
4.9803700000000006
 30
0.0
 10
-1.6127500000000001
 20
4.9803700000000006
 30
0.0
 10
-1.7346700000000002
 20
4.9448100000000004
 30
0.0
 10
-1.7346700000000002
 20
4.9448100000000004
 30
0.0
 10
-1.7346700000000002
 20
4.9448100000000004
 30
0.0
 10
-1.8057900000000002
 20
4.5663500000000008
 30
0.0
 10
-1.6127500000000001
 20
4.37331
 30
0.0
 10
-2.2198100000000003
 20
4.4291900000000002
 30
0.0
 10
-2.2198100000000003
 20
4.4291900000000002
 30
0.0
 10
-2.2629900000000003
 20
4.7136700000000005
 30
0.0
 10
-2.0470900000000003
 20
5.1302300000000001
 30
0.0
 10
-1.7956300000000001
 20
5.1657900000000003
 30
0.0
 10
-1.7956300000000001
 20
5.1657900000000003
 30
0.0
 10
-1.7245100000000002
 20
5.1759500000000003
 30
0.0
 10
-1.5162300000000002
 20
4.9549700000000003
 30
0.0
 10
-1.54417
 20
5.1048300000000006
 30
0.0
 10
-1.54417
 20
5.1048300000000006
 30
0.0
 10
-1.9429500000000002
 20
5.3740700000000006
 30
0.0
 10
-1.2647700000000002
 20
6.1386100000000008
 30
0.0
 10
-0.9345700000000001
 20
5.6966500000000009
 30
0.0
 10
-0.9345700000000001
 20
5.6966500000000009
 30
0.0
 10
-0.9193300000000001
 20
5.4401100000000007
 30
0.0
 10
-1.5086100000000002
 20
5.6509300000000007
 30
0.0
 10
-1.33589
 20
5.4477300000000008
 30
0.0
 10
-1.33589
 20
5.4477300000000008
 30
0.0
 10
-1.33589
 20
5.3207300000000002
 30
0.0
 10
-1.33589
 20
5.0794300000000003
 30
0.0
 10
-1.1784100000000002
 20
5.0362500000000008
 30
0.0
 10
-1.1784100000000002
 20
5.0362500000000008
 30
0.0
 10
-1.1936500000000001
 20
5.3943900000000005
 30
0.0
 10
-0.7923300000000001
 20
5.64839
 30
0.0
 10
-0.5637300000000001
 20
5.7601500000000003
 30
0.0
 10
-0.5637300000000001
 20
5.7601500000000003
 30
0.0
 10
-0.52563
 20
5.7779300000000005
 30
0.0
 10
-0.3757700000000001
 20
5.7779300000000005
 30
0.0
 10
-0.48499
 20
5.8261900000000004
 30
0.0
 10
-0.48499
 20
5.8261900000000004
 30
0.0
 10
-1.3866900000000002
 20
5.7169700000000008
 30
0.0
 10
-0.48499
 20
6.7304300000000001
 30
0.0
 10
-0.5027700000000001
 20
6.0268500000000005
 30
0.0
 10
-0.5027700000000001
 20
6.0268500000000005
 30
0.0
 10
-0.4494300000000001
 20
5.9709700000000003
 30
0.0
 10
-0.39863
 20
5.9125500000000004
 30
0.0
 10
-0.32751
 20
5.8871500000000001
 30
0.0
 10
-0.32751
 20
5.8871500000000001
 30
0.0
 10
-0.29195
 20
5.8668300000000002
 30
0.0
 10
-0.19035
 20
5.8414300000000008
 30
0.0
 10
-0.22337
 20
5.8998500000000007
 30
0.0
 10
-0.22337
 20
5.8998500000000007
 30
0.0
 10
-0.6932700000000001
 20
6.1767100000000008
 30
0.0
 10
-0.15479
 20
6.6491500000000006
 30
0.0
 10
0.19064
 20
6.3468900000000001
 30
0.0
 10
0.19064
 20
6.3468900000000001
 30
0.0
 10
0.22366
 20
6.2808500000000009
 30
0.0
 10
0.24144
 20
6.2122700000000002
 30
0.0
 10
0.19064
 20
6.1487700000000007
 30
0.0
 10
0.19064
 20
6.1487700000000007
 30
0.0
 10
-0.43165
 20
6.0852700000000004
 30
0.0
 10
0.5894200000000001
 20
5.7118900000000004
 30
0.0
 10
0.64276
 20
5.3842300000000005
 30
0.0
 10
0.64276
 20
5.3842300000000005
 30
0.0
 10
0.7799200000000001
 20
5.7550700000000008
 30
0.0
 10
0.15508
 20
5.6915700000000005
 30
0.0
 10
0.33034
 20
6.0598700000000001
 30
0.0
 10
0.33034
 20
6.0598700000000001
 30
0.0
 10
0.66054
 20
6.2859300000000005
 30
0.0
 10
0.05094
 20
6.4662700000000006
 30
0.0
 10
0.10428
 20
6.5602500000000008
 30
0.0
  0
SPLINE
  5
28
100
AcDbEntity
  8
Ebene 1
 62
     7
100
AcDbSpline
210
0.0
220
0.0
230
1.0
 70
     1
 71
     3
 72
    72
 73
    68
 74
     0
 42
0.0000000001
 43
0.0000000001
 40
0.0
 40
0.0
 40
0.0
 40
0.0
 40
0.0588235294117647
 40
0.0588235294117647
 40
0.0588235294117647
 40
0.0588235294117647
 40
0.1176470588235294
 40
0.1176470588235294
 40
0.1176470588235294
 40
0.1176470588235294
 40
0.1764705882352941
 40
0.1764705882352941
 40
0.1764705882352941
 40
0.1764705882352941
 40
0.2352941176470588
 40
0.2352941176470588
 40
0.2352941176470588
 40
0.2352941176470588
 40
0.2941176470588235
 40
0.2941176470588235
 40
0.2941176470588235
 40
0.2941176470588235
 40
0.3529411764705883
 40
0.3529411764705883
 40
0.3529411764705883
 40
0.3529411764705883
 40
0.411764705882353
 40
0.411764705882353
 40
0.411764705882353
 40
0.411764705882353
 40
0.4705882352941177
 40
0.4705882352941177
 40
0.4705882352941177
 40
0.4705882352941177
 40
0.5294117647058824
 40
0.5294117647058824
 40
0.5294117647058824
 40
0.5294117647058824
 40
0.5882352941176471
 40
0.5882352941176471
 40
0.5882352941176471
 40
0.5882352941176471
 40
0.6470588235294118
 40
0.6470588235294118
 40
0.6470588235294118
 40
0.6470588235294118
 40
0.7058823529411765
 40
0.7058823529411765
 40
0.7058823529411765
 40
0.7058823529411765
 40
0.7647058823529412
 40
0.7647058823529412
 40
0.7647058823529412
 40
0.7647058823529412
 40
0.823529411764706
 40
0.823529411764706
 40
0.823529411764706
 40
0.823529411764706
 40
0.8823529411764707
 40
0.8823529411764707
 40
0.8823529411764707
 40
0.8823529411764707
 40
0.9411764705882354
 40
0.9411764705882354
 40
0.9411764705882354
 40
0.9411764705882354
 40
1.0
 40
1.0
 40
1.0
 40
1.0
 10
-2.2045700000000004
 20
5.6052100000000005
 30
0.0
 10
-2.2731500000000002
 20
5.9481100000000007
 30
0.0
 10
-1.42225
 20
5.7652300000000007
 30
0.0
 10
-1.6127500000000001
 20
6.0776500000000002
 30
0.0
 10
-1.6127500000000001
 20
6.0776500000000002
 30
0.0
 10
-1.6483100000000002
 20
5.9684300000000006
 30
0.0
 10
-1.8057900000000002
 20
5.9328700000000003
 30
0.0
 10
-1.8921500000000002
 20
5.9912900000000002
 30
0.0
 10
-1.8921500000000002
 20
5.9912900000000002
 30
0.0
 10
-1.8565900000000002
 20
6.1157500000000002
 30
0.0
 10
-1.7702300000000002
 20
6.1767100000000008
 30
0.0
 10
-1.6483100000000002
 20
6.1944900000000009
 30
0.0
 10
-1.6483100000000002
 20
6.1944900000000009
 30
0.0
 10
-1.5619500000000002
 20
6.2376700000000005
 30
0.0
 10
-1.4044700000000001
 20
6.2427500000000009
 30
0.0
 10
-1.3689100000000001
 20
6.1259100000000002
 30
0.0
 10
-1.3689100000000001
 20
6.1259100000000002
 30
0.0
 10
-1.6483100000000002
 20
5.8820700000000006
 30
0.0
 10
-1.7346700000000002
 20
5.4401100000000007
 30
0.0
 10
-2.0826500000000001
 20
5.2572300000000007
 30
0.0
 10
-2.0826500000000001
 20
5.2572300000000007
 30
0.0
 10
-2.0826500000000001
 20
5.2572300000000007
 30
0.0
 10
-2.1690100000000001
 20
5.3740700000000006
 30
0.0
 10
-2.1690100000000001
 20
5.3740700000000006
 30
0.0
 10
-2.1690100000000001
 20
5.3740700000000006
 30
0.0
 10
-2.1690100000000001
 20
5.3740700000000006
 30
0.0
 10
-2.2198100000000003
 20
5.3410500000000001
 30
0.0
 10
-2.2198100000000003
 20
5.3410500000000001
 30
0.0
 10
-2.2198100000000003
 20
5.3410500000000001
 30
0.0
 10
-1.9607300000000001
 20
5.0464100000000007
 30
0.0
 10
-2.7074900000000004
 20
3.9872300000000003
 30
0.0
 10
-2.8141700000000003
 20
4.7162100000000002
 30
0.0
 10
-2.8141700000000003
 20
4.7162100000000002
 30
0.0
 10
-2.86497
 20
4.7746300000000002
 30
0.0
 10
-2.9233900000000004
 20
4.6857300000000004
 30
0.0
 10
-2.9437100000000003
 20
4.6450900000000006
 30
0.0
 10
-2.9437100000000003
 20
4.6450900000000006
 30
0.0
 10
-2.9437100000000003
 20
4.6450900000000006
 30
0.0
 10
-3.0021300000000002
 20
4.4926900000000005
 30
0.0
 10
-3.0021300000000002
 20
4.4926900000000005
 30
0.0
 10
-3.0021300000000002
 20
4.4926900000000005
 30
0.0
 10
-3.0224500000000001
 20
4.4139500000000007
 30
0.0
 10
-2.9614900000000004
 20
4.3580700000000006
 30
0.0
 10
-2.9183100000000004
 20
4.3072699999999999
 30
0.0
 10
-2.9183100000000004
 20
4.3072699999999999
 30
0.0
 10
-3.2205700000000004
 20
4.1396300000000004
 30
0.0
 10
-3.2180300000000002
 20
4.5968300000000006
 30
0.0
 10
-3.0072100000000002
 20
4.7060500000000003
 30
0.0
 10
-3.0072100000000002
 20
4.7060500000000003
 30
0.0
 10
-3.0300700000000003
 20
5.0032300000000003
 30
0.0
 10
-2.2553700000000001
 20
5.1302300000000001
 30
0.0
 10
-2.56779
 20
4.7543100000000003
 30
0.0
 10
-2.56779
 20
4.7543100000000003
 30
0.0
 10
-2.56779
 20
4.7543100000000003
 30
0.0
 10
-2.5119100000000003
 20
4.6882700000000002
 30
0.0
 10
-2.5119100000000003
 20
4.6882700000000002
 30
0.0
 10
-2.5119100000000003
 20
4.6882700000000002
 30
0.0
 10
-2.2198100000000003
 20
4.7974900000000007
 30
0.0
 10
-2.3417300000000001
 20
5.2216700000000005
 30
0.0
 10
-2.6312900000000004
 20
5.1505500000000008
 30
0.0
 10
-2.6312900000000004
 20
5.1505500000000008
 30
0.0
 10
-2.5881100000000004
 20
5.4731300000000003
 30
0.0
 10
-1.9607300000000001
 20
5.3740700000000006
 30
0.0
 10
-2.06487
 20
5.7271300000000007
 30
0.0
 10
-2.06487
 20
5.7271300000000007
 30
0.0
 10
-2.06487
 20
5.7271300000000007
 30
0.0
 10
-2.2045700000000004
 20
5.6052100000000005
 30
0.0
 10
-2.2045700000000004
 20
5.6052100000000005
 30
0.0
  0
SPLINE
  5
29
100
AcDbEntity
  8
Ebene 1
100
AcDbSpline
210
0.0
220
0.0
230
1.0
 70
     1
 71
     3
 72
    36
 73
    32
 74
     0
 42
0.0000000001
 43
0.0000000001
 40
0.0
 40
0.0
 40
0.0
 40
0.0
 40
0.125
 40
0.125
 40
0.125
 40
0.125
 40
0.25
 40
0.25
 40
0.25
 40
0.25
 40
0.375
 40
0.375
 40
0.375
 40
0.375
 40
0.5
 40
0.5
 40
0.5
 40
0.5
 40
0.625
 40
0.625
 40
0.625
 40
0.625
 40
0.75
 40
0.75
 40
0.75
 40
0.75
 40
0.875
 40
0.875
 40
0.875
 40
0.875
 40
1.0
 40
1.0
 40
1.0
 40
1.0
 10
1.0771000000000002
 20
6.2122700000000002
 30
0.0
 10
1.2676000000000001
 20
6.2529100000000009
 30
0.0
 10
1.3361800000000001
 20
6.0090700000000004
 30
0.0
 10
1.3361800000000001
 20
5.8693700000000009
 30
0.0
 10
1.3361800000000001
 20
5.8693700000000009
 30
0.0
 10
1.3361800000000001
 20
5.8693700000000009
 30
0.0
 10
0.8840600000000001
 20
5.5696500000000002
 30
0.0
 10
0.8840600000000001
 20
5.5696500000000002
 30
0.0
 10
0.8840600000000001
 20
5.5696500000000002
 30
0.0
 10
0.8840600000000001
 20
5.5696500000000002
 30
0.0
 10
0.7977000000000001
 20
5.6458500000000003
 30
0.0
 10
0.7977000000000001
 20
5.6458500000000003
 30
0.0
 10
0.7977000000000001
 20
5.6458500000000003
 30
0.0
 10
0.8154800000000001
 20
5.8312700000000008
 30
0.0
 10
0.3659
 20
5.8617500000000007
 30
0.0
 10
0.5894200000000001
 20
6.0903500000000008
 30
0.0
 10
0.5894200000000001
 20
6.0903500000000008
 30
0.0
 10
0.5894200000000001
 20
6.0903500000000008
 30
0.0
 10
0.67832
 20
5.9862100000000007
 30
0.0
 10
0.67832
 20
5.9862100000000007
 30
0.0
 10
0.67832
 20
5.9862100000000007
 30
0.0
 10
0.76468
 20
5.7982500000000003
 30
0.0
 10
1.0415400000000001
 20
5.7423700000000002
 30
0.0
 10
1.19648
 20
5.8871500000000001
 30
0.0
 10
1.19648
 20
5.8871500000000001
 30
0.0
 10
1.2142600000000001
 20
5.9887500000000005
 30
0.0
 10
1.1787000000000001
 20
6.1589300000000007
 30
0.0
 10
1.0415400000000001
 20
6.1487700000000007
 30
0.0
 10
1.0415400000000001
 20
6.1487700000000007
 30
0.0
 10
1.0415400000000001
 20
6.1487700000000007
 30
0.0
 10
1.0771000000000002
 20
6.2122700000000002
 30
0.0
 10
1.0771000000000002
 20
6.2122700000000002
 30
0.0
  0
SPLINE
  5
2A
100
AcDbEntity
  8
Ebene 1
 62
     7
100
AcDbSpline
210
0.0
220
0.0
230
1.0
 70
     1
 71
     3
 72
    20
 73
    16
 74
     0
 42
0.0000000001
 43
0.0000000001
 40
0.0
 40
0.0
 40
0.0
 40
0.0
 40
0.25
 40
0.25
 40
0.25
 40
0.25
 40
0.5
 40
0.5
 40
0.5
 40
0.5
 40
0.75
 40
0.75
 40
0.75
 40
0.75
 40
1.0
 40
1.0
 40
1.0
 40
1.0
 10
-2.4636500000000003
 20
5.6052100000000005
 30
0.0
 10
-2.39507
 20
5.6306100000000008
 30
0.0
 10
-2.2909300000000004
 20
5.5747300000000006
 30
0.0
 10
-2.3595100000000002
 20
5.5061500000000008
 30
0.0
 10
-2.3595100000000002
 20
5.5061500000000008
 30
0.0
 10
-2.4458700000000002
 20
5.4807500000000005
 30
0.0
 10
-2.5347700000000004
 20
5.4553500000000001
 30
0.0
 10
-2.6033500000000003
 20
5.3969300000000002
 30
0.0
 10
-2.6033500000000003
 20
5.3969300000000002
 30
0.0
 10
-2.6363700000000003
 20
5.4121700000000006
 30
0.0
 10
-2.6287500000000001
 20
5.4934500000000002
 30
0.0
 10
-2.5855700000000001
 20
5.4985300000000006
 30
0.0
 10
-2.5855700000000001
 20
5.4985300000000006
 30
0.0
 10
-2.5855700000000001
 20
5.4985300000000006
 30
0.0
 10
-2.4636500000000003
 20
5.6052100000000005
 30
0.0
 10
-2.4636500000000003
 20
5.6052100000000005
 30
0.0
  0
SPLINE
  5
2B
100
AcDbEntity
  8
Ebene 1
 62
     7
100
AcDbSpline
210
0.0
220
0.0
230
1.0
 70
     1
 71
     3
 72
    16
 73
    12
 74
     0
 42
0.0000000001
 43
0.0000000001
 40
0.0
 40
0.0
 40
0.0
 40
0.0
 40
0.3333333333333333
 40
0.3333333333333333
 40
0.3333333333333333
 40
0.3333333333333333
 40
0.6666666666666666
 40
0.6666666666666666
 40
0.6666666666666666
 40
0.6666666666666666
 40
1.0
 40
1.0
 40
1.0
 40
1.0
 10
-2.7430500000000002
 20
5.2750100000000009
 30
0.0
 10
-2.7430500000000002
 20
5.2750100000000009
 30
0.0
 10
-2.7100300000000002
 20
5.2521500000000003
 30
0.0
 10
-2.7100300000000002
 20
5.2521500000000003
 30
0.0
 10
-2.7100300000000002
 20
5.2521500000000003
 30
0.0
 10
-2.7455900000000004
 20
5.1226100000000008
 30
0.0
 10
-2.8548100000000001
 20
5.0210100000000004
 30
0.0
 10
-2.9792700000000001
 20
5.0032300000000003
 30
0.0
 10
-2.9792700000000001
 20
5.0032300000000003
 30
0.0
 10
-2.9767300000000003
 20
5.1353100000000005
 30
0.0
 10
-2.8471900000000003
 20
5.2216700000000005
 30
0.0
 10
-2.7430500000000002
 20
5.2750100000000009
 30
0.0
  0
SPLINE
  5
2C
100
AcDbEntity
  8
Ebene 1
 62
     7
100
AcDbSpline
210
0.0
220
0.0
230
1.0
 70
     1
 71
     3
 72
   180
 73
   176
 74
     0
 42
0.0000000001
 43
0.0000000001
 40
0.0
 40
0.0
 40
0.0
 40
0.0
 40
0.0227272727272727
 40
0.0227272727272727
 40
0.0227272727272727
 40
0.0227272727272727
 40
0.0454545454545455
 40
0.0454545454545455
 40
0.0454545454545455
 40
0.0454545454545455
 40
0.0681818181818182
 40
0.0681818181818182
 40
0.0681818181818182
 40
0.0681818181818182
 40
0.0909090909090909
 40
0.0909090909090909
 40
0.0909090909090909
 40
0.0909090909090909
 40
0.1136363636363637
 40
0.1136363636363637
 40
0.1136363636363637
 40
0.1136363636363637
 40
0.1363636363636364
 40
0.1363636363636364
 40
0.1363636363636364
 40
0.1363636363636364
 40
0.1590909090909091
 40
0.1590909090909091
 40
0.1590909090909091
 40
0.1590909090909091
 40
0.1818181818181819
 40
0.1818181818181819
 40
0.1818181818181819
 40
0.1818181818181819
 40
0.2045454545454546
 40
0.2045454545454546
 40
0.2045454545454546
 40
0.2045454545454546
 40
0.2272727272727273
 40
0.2272727272727273
 40
0.2272727272727273
 40
0.2272727272727273
 40
0.2500000000000001
 40
0.2500000000000001
 40
0.2500000000000001
 40
0.2500000000000001
 40
0.2727272727272728
 40
0.2727272727272728
 40
0.2727272727272728
 40
0.2727272727272728
 40
0.2954545454545455
 40
0.2954545454545455
 40
0.2954545454545455
 40
0.2954545454545455
 40
0.3181818181818182
 40
0.3181818181818182
 40
0.3181818181818182
 40
0.3181818181818182
 40
0.3409090909090909
 40
0.3409090909090909
 40
0.3409090909090909
 40
0.3409090909090909
 40
0.3636363636363636
 40
0.3636363636363636
 40
0.3636363636363636
 40
0.3636363636363636
 40
0.3863636363636363
 40
0.3863636363636363
 40
0.3863636363636363
 40
0.3863636363636363
 40
0.409090909090909
 40
0.409090909090909
 40
0.409090909090909
 40
0.409090909090909
 40
0.4318181818181817
 40
0.4318181818181817
 40
0.4318181818181817
 40
0.4318181818181817
 40
0.4545454545454544
 40
0.4545454545454544
 40
0.4545454545454544
 40
0.4545454545454544
 40
0.4772727272727271
 40
0.4772727272727271
 40
0.4772727272727271
 40
0.4772727272727271
 40
0.4999999999999998
 40
0.4999999999999998
 40
0.4999999999999998
 40
0.4999999999999998
 40
0.5227272727272726
 40
0.5227272727272726
 40
0.5227272727272726
 40
0.5227272727272726
 40
0.5454545454545453
 40
0.5454545454545453
 40
0.5454545454545453
 40
0.5454545454545453
 40
0.568181818181818
 40
0.568181818181818
 40
0.568181818181818
 40
0.568181818181818
 40
0.5909090909090907
 40
0.5909090909090907
 40
0.5909090909090907
 40
0.5909090909090907
 40
0.6136363636363634
 40
0.6136363636363634
 40
0.6136363636363634
 40
0.6136363636363634
 40
0.6363636363636361
 40
0.6363636363636361
 40
0.6363636363636361
 40
0.6363636363636361
 40
0.6590909090909088
 40
0.6590909090909088
 40
0.6590909090909088
 40
0.6590909090909088
 40
0.6818181818181816
 40
0.6818181818181816
 40
0.6818181818181816
 40
0.6818181818181816
 40
0.7045454545454543
 40
0.7045454545454543
 40
0.7045454545454543
 40
0.7045454545454543
 40
0.727272727272727
 40
0.727272727272727
 40
0.727272727272727
 40
0.727272727272727
 40
0.7499999999999997
 40
0.7499999999999997
 40
0.7499999999999997
 40
0.7499999999999997
 40
0.7727272727272724
 40
0.7727272727272724
 40
0.7727272727272724
 40
0.7727272727272724
 40
0.7954545454545451
 40
0.7954545454545451
 40
0.7954545454545451
 40
0.7954545454545451
 40
0.8181818181818178
 40
0.8181818181818178
 40
0.8181818181818178
 40
0.8181818181818178
 40
0.8409090909090905
 40
0.8409090909090905
 40
0.8409090909090905
 40
0.8409090909090905
 40
0.8636363636363632
 40
0.8636363636363632
 40
0.8636363636363632
 40
0.8636363636363632
 40
0.8863636363636359
 40
0.8863636363636359
 40
0.8863636363636359
 40
0.8863636363636359
 40
0.9090909090909086
 40
0.9090909090909086
 40
0.9090909090909086
 40
0.9090909090909086
 40
0.9318181818181813
 40
0.9318181818181813
 40
0.9318181818181813
 40
0.9318181818181813
 40
0.954545454545454
 40
0.954545454545454
 40
0.954545454545454
 40
0.954545454545454
 40
0.9772727272727267
 40
0.9772727272727267
 40
0.9772727272727267
 40
0.9772727272727267
 40
1.0
 40
1.0
 40
1.0
 40
1.0
 10
-1.54417
 20
1.5920100000000001
 30
0.0
 10
-1.4781300000000002
 20
1.7240900000000001
 30
0.0
 10
-1.3892300000000002
 20
1.4345300000000001
 30
0.0
 10
-1.3155700000000001
 20
1.35833
 30
0.0
 10
-1.3155700000000001
 20
1.35833
 30
0.0
 10
-1.1758700000000002
 20
1.2110100000000001
 30
0.0
 10
-1.03617
 20
1.10179
 30
0.0
 10
-0.8329700000000001
 20
1.19069
 30
0.0
 10
-0.8329700000000001
 20
1.19069
 30
0.0
 10
-0.95235
 20
0.95701
 30
0.0
 10
-0.7796300000000001
 20
0.6979300000000001
 30
0.0
 10
-0.84821
 20
0.46933
 30
0.0
 10
-0.84821
 20
0.46933
 30
0.0
 10
-0.9879100000000001
 20
0.53029
 30
0.0
 10
-1.1784100000000002
 20
0.70555
 30
0.0
 10
-1.3003300000000002
 20
0.51251
 30
0.0
 10
-1.3003300000000002
 20
0.51251
 30
0.0
 10
-1.0742700000000001
 20
0.37535
 30
0.0
 10
-0.95235
 20
-0.17328
 30
0.0
 10
-1.03871
 20
-0.48316
 30
0.0
 10
-1.03871
 20
-0.48316
 30
0.0
 10
-1.2317500000000001
 20
-0.7549400000000001
 30
0.0
 10
-1.24699
 20
-0.56698
 30
0.0
 10
-1.2647700000000002
 20
-0.33584
 30
0.0
 10
-1.2647700000000002
 20
-0.33584
 30
0.0
 10
-1.2825500000000001
 20
-0.1936
 30
0.0
 10
-1.3866900000000002
 20
-0.11994
 30
0.0
 10
-1.3511300000000002
 20
-0.31552
 30
0.0
 10
-1.3511300000000002
 20
-0.31552
 30
0.0
 10
-1.3866900000000002
 20
-0.4857
 30
0.0
 10
-1.3689100000000001
 20
-0.67874
 30
0.0
 10
-1.4578100000000001
 20
-0.8311400000000001
 30
0.0
 10
-1.4578100000000001
 20
-0.8311400000000001
 30
0.0
 10
-1.4578100000000001
 20
-0.8311400000000001
 30
0.0
 10
-1.63053
 20
-0.4222
 30
0.0
 10
-1.63053
 20
-0.4222
 30
0.0
 10
-1.63053
 20
-0.4222
 30
0.0
 10
-1.7168900000000002
 20
-0.25964
 30
0.0
 10
-1.6635500000000001
 20
-0.4857
 30
0.0
 10
-1.7168900000000002
 20
-0.5441200000000001
 30
0.0
 10
-1.7168900000000002
 20
-0.5441200000000001
 30
0.0
 10
-1.63053
 20
-0.8311400000000001
 30
0.0
 10
-1.8210300000000001
 20
-1.1080000000000001
 30
0.0
 10
-1.9759700000000002
 20
-1.3391400000000002
 30
0.0
 10
-1.9759700000000002
 20
-1.3391400000000002
 30
0.0
 10
-2.06487
 20
-1.2324600000000001
 30
0.0
 10
-1.9607300000000001
 20
-0.9657600000000001
 30
0.0
 10
-2.0826500000000001
 20
-0.90734
 30
0.0
 10
-2.0826500000000001
 20
-0.90734
 30
0.0
 10
-1.9759700000000002
 20
-1.46106
 30
0.0
 10
-2.4636500000000003
 20
-1.12832
 30
0.0
 10
-2.3595100000000002
 20
-0.71938
 30
0.0
 10
-2.3595100000000002
 20
-0.71938
 30
0.0
 10
-2.4026900000000002
 20
-0.6406400000000001
 30
0.0
 10
-2.4712700000000001
 20
-0.8159000000000001
 30
0.0
 10
-2.4763500000000001
 20
-0.88956
 30
0.0
 10
-2.4763500000000001
 20
-0.88956
 30
0.0
 10
-2.4788900000000003
 20
-0.94798
 30
0.0
 10
-2.39507
 20
-1.0521200000000002
 30
0.0
 10
-2.39507
 20
-1.1130800000000001
 30
0.0
 10
-2.39507
 20
-1.1130800000000001
 30
0.0
 10
-2.5271500000000002
 20
-1.1740400000000002
 30
0.0
 10
-2.8294100000000002
 20
-1.3594600000000001
 30
0.0
 10
-2.8624300000000003
 20
-1.0622800000000001
 30
0.0
 10
-2.8624300000000003
 20
-1.0622800000000001
 30
0.0
 10
-2.8725900000000002
 20
-0.9352800000000001
 30
0.0
 10
-2.90307
 20
-0.53396
 30
0.0
 10
-2.9335500000000003
 20
-0.8717800000000001
 30
0.0
 10
-2.9335500000000003
 20
-0.8717800000000001
 30
0.0
 10
-2.9335500000000003
 20
-0.8717800000000001
 30
0.0
 10
-2.9335500000000003
 20
-1.0622800000000001
 30
0.0
 10
-2.9335500000000003
 20
-1.0622800000000001
 30
0.0
 10
-2.9335500000000003
 20
-1.0622800000000001
 30
0.0
 10
-3.0122900000000001
 20
-1.6845800000000002
 30
0.0
 10
-2.9233900000000004
 20
-0.19614
 30
0.0
 10
-3.0199100000000003
 20
-0.78288
 30
0.0
 10
-3.0199100000000003
 20
-0.78288
 30
0.0
 10
-3.0199100000000003
 20
-0.78288
 30
0.0
 10
-3.0376900000000004
 20
-0.9581400000000001
 30
0.0
 10
-3.0376900000000004
 20
-0.9581400000000001
 30
0.0
 10
-3.0376900000000004
 20
-0.9581400000000001
 30
0.0
 10
-3.0732500000000003
 20
-0.99116
 30
0.0
 10
-3.0224500000000001
 20
-1.1359400000000002
 30
0.0
 10
-3.0707100000000001
 20
-1.0445
 30
0.0
 10
-3.0707100000000001
 20
-1.0445
 30
0.0
 10
-3.0707100000000001
 20
-1.0445
 30
0.0
 10
-3.2281900000000001
 20
-0.8717800000000001
 30
0.0
 10
-3.2281900000000001
 20
-0.8717800000000001
 30
0.0
 10
-3.2281900000000001
 20
-0.8717800000000001
 30
0.0
 10
-3.1977100000000003
 20
0.17469
 30
0.0
 10
-2.9183100000000004
 20
1.1983100000000002
 30
0.0
 10
-2.6414500000000003
 20
2.17875
 30
0.0
 10
-2.6414500000000003
 20
2.17875
 30
0.0
 10
-2.6693900000000004
 20
2.2143100000000002
 30
0.0
 10
-2.6770100000000001
 20
2.2701900000000004
 30
0.0
 10
-2.7252700000000001
 20
2.2879700000000001
 30
0.0
 10
-2.7252700000000001
 20
2.2879700000000001
 30
0.0
 10
-3.1189700000000005
 20
2.0619100000000001
 30
0.0
 10
-3.4999700000000002
 20
2.9331300000000002
 30
0.0
 10
-3.7971500000000002
 20
2.3438500000000002
 30
0.0
 10
-3.7971500000000002
 20
2.3438500000000002
 30
0.0
 10
-4.0460700000000003
 20
2.6156300000000003
 30
0.0
 10
-3.9292300000000004
 20
2.9280500000000003
 30
0.0
 10
-3.6523700000000003
 20
3.0525100000000003
 30
0.0
 10
-3.6523700000000003
 20
3.0525100000000003
 30
0.0
 10
-3.5990300000000004
 20
3.0779100000000001
 30
0.0
 10
-3.3501100000000004
 20
3.0423500000000003
 30
0.0
 10
-3.4898100000000003
 20
3.1388700000000003
 30
0.0
 10
-3.4898100000000003
 20
3.1388700000000003
 30
0.0
 10
-4.2568900000000003
 20
3.0499700000000001
 30
0.0
 10
-3.3272500000000003
 20
4.7847900000000001
 30
0.0
 10
-3.1926300000000003
 20
3.7967300000000002
 30
0.0
 10
-3.1926300000000003
 20
3.7967300000000002
 30
0.0
 10
-3.0580100000000003
 20
3.8094300000000003
 30
0.0
 10
-3.0630900000000003
 20
3.6722700000000001
 30
0.0
 10
-3.0402300000000002
 20
3.5681300000000005
 30
0.0
 10
-3.0402300000000002
 20
3.5681300000000005
 30
0.0
 10
-3.0249900000000003
 20
3.4106500000000004
 30
0.0
 10
-3.0097500000000004
 20
3.2531700000000003
 30
0.0
 10
-3.0224500000000001
 20
3.0906100000000003
 30
0.0
 10
-3.0224500000000001
 20
3.0906100000000003
 30
0.0
 10
-3.1062700000000003
 20
3.1185500000000004
 30
0.0
 10
-3.4186900000000002
 20
3.2125300000000001
 30
0.0
 10
-3.2104100000000004
 20
3.0855300000000003
 30
0.0
 10
-3.2104100000000004
 20
3.0855300000000003
 30
0.0
 10
-2.52461
 20
2.7273900000000002
 30
0.0
 10
-3.3069300000000004
 20
4.20059
 30
0.0
 10
-2.7455900000000004
 20
4.21075
 30
0.0
 10
-2.7455900000000004
 20
4.21075
 30
0.0
 10
-2.7455900000000004
 20
4.21075
 30
0.0
 10
-2.6947900000000002
 20
3.9161100000000002
 30
0.0
 10
-2.6947900000000002
 20
3.9161100000000002
 30
0.0
 10
-2.6947900000000002
 20
3.9161100000000002
 30
0.0
 10
-2.6770100000000001
 20
3.8221300000000005
 30
0.0
 10
-2.7151100000000001
 20
3.6062300000000005
 30
0.0
 10
-2.6185900000000002
 20
3.6087700000000003
 30
0.0
 10
-2.6185900000000002
 20
3.6087700000000003
 30
0.0
 10
-2.8370300000000004
 20
4.2767900000000001
 30
0.0
 10
-2.2553700000000001
 20
4.37331
 30
0.0
 10
-1.7702300000000002
 20
4.3860100000000006
 30
0.0
 10
-1.7702300000000002
 20
4.3860100000000006
 30
0.0
 10
-1.6813300000000002
 20
4.1142300000000001
 30
0.0
 10
-1.5263900000000001
 20
3.9465900000000005
 30
0.0
 10
-1.5263900000000001
 20
3.6138500000000002
 30
0.0
 10
-1.5263900000000001
 20
3.6138500000000002
 30
0.0
 10
-1.4578100000000001
 20
3.6265500000000004
 30
0.0
 10
-1.4755900000000002
 20
3.7535500000000002
 30
0.0
 10
-1.4578100000000001
 20
3.8145100000000003
 30
0.0
 10
-1.4578100000000001
 20
3.8145100000000003
 30
0.0
 10
-1.6686300000000001
 20
4.4291900000000002
 30
0.0
 10
-1.1834900000000002
 20
4.4952300000000003
 30
0.0
 10
-1.0107700000000002
 20
4.2259900000000004
 30
0.0
 10
-1.0107700000000002
 20
4.2259900000000004
 30
0.0
 10
-0.9599700000000001
 20
4.1447100000000008
 30
0.0
 10
-1.0945900000000002
 20
3.8449900000000001
 30
0.0
 10
-0.9193300000000001
 20
3.9034100000000005
 30
0.0
 10
-0.9193300000000001
 20
3.9034100000000005
 30
0.0
 10
-0.95235
 20
4.3656900000000007
 30
0.0
 10
-0.6932700000000001
 20
4.5587300000000006
 30
0.0
 10
-0.24115
 20
4.4063300000000005
 30
0.0
 10
-0.24115
 20
4.4063300000000005
 30
0.0
 10
0.4497200000000001
 20
4.4749100000000004
 30
0.0
 10
0.19064
 20
3.5198700000000005
 30
0.0
 10
0.15508
 20
3.1083900000000004
 30
0.0
 10
0.15508
 20
3.1083900000000004
 30
0.0
 10
-0.7262900000000001
 20
3.3547700000000003
 30
0.0
 10
-1.16317
 20
2.3082900000000004
 30
0.0
 10
-1.9073900000000001
 20
2.3006700000000002
 30
0.0
 10
-1.9073900000000001
 20
2.3006700000000002
 30
0.0
 10
-1.6127500000000001
 20
2.1558900000000003
 30
0.0
 10
-1.7346700000000002
 20
1.6936100000000001
 30
0.0
 10
-1.5619500000000002
 20
1.4167500000000002
 30
0.0
 10
-1.5619500000000002
 20
1.4167500000000002
 30
0.0
 10
-1.2825500000000001
 20
0.9265300000000001
 30
0.0
 10
-1.3003300000000002
 20
1.2872100000000002
 30
0.0
 10
-1.54417
 20
1.5920100000000001
 30
0.0
  0
SPLINE
  5
2D
100
AcDbEntity
  8
Ebene 1
 62
     7
100
AcDbSpline
210
0.0
220
0.0
230
1.0
 70
     1
 71
     3
 72
   104
 73
   100
 74
     0
 42
0.0000000001
 43
0.0000000001
 40
0.0
 40
0.0
 40
0.0
 40
0.0
 40
0.04
 40
0.04
 40
0.04
 40
0.04
 40
0.08
 40
0.08
 40
0.08
 40
0.08
 40
0.12
 40
0.12
 40
0.12
 40
0.12
 40
0.16
 40
0.16
 40
0.16
 40
0.16
 40
0.2
 40
0.2
 40
0.2
 40
0.2
 40
0.24
 40
0.24
 40
0.24
 40
0.24
 40
0.28
 40
0.28
 40
0.28
 40
0.28
 40
0.32
 40
0.32
 40
0.32
 40
0.32
 40
0.36
 40
0.36
 40
0.36
 40
0.36
 40
0.4
 40
0.4
 40
0.4
 40
0.4
 40
0.44
 40
0.44
 40
0.44
 40
0.44
 40
0.4799999999999999
 40
0.4799999999999999
 40
0.4799999999999999
 40
0.4799999999999999
 40
0.5199999999999999
 40
0.5199999999999999
 40
0.5199999999999999
 40
0.5199999999999999
 40
0.5599999999999999
 40
0.5599999999999999
 40
0.5599999999999999
 40
0.5599999999999999
 40
0.6
 40
0.6
 40
0.6
 40
0.6
 40
0.64
 40
0.64
 40
0.64
 40
0.64
 40
0.6800000000000001
 40
0.6800000000000001
 40
0.6800000000000001
 40
0.6800000000000001
 40
0.7200000000000001
 40
0.7200000000000001
 40
0.7200000000000001
 40
0.7200000000000001
 40
0.7600000000000001
 40
0.7600000000000001
 40
0.7600000000000001
 40
0.7600000000000001
 40
0.8000000000000002
 40
0.8000000000000002
 40
0.8000000000000002
 40
0.8000000000000002
 40
0.8400000000000002
 40
0.8400000000000002
 40
0.8400000000000002
 40
0.8400000000000002
 40
0.8800000000000002
 40
0.8800000000000002
 40
0.8800000000000002
 40
0.8800000000000002
 40
0.9200000000000003
 40
0.9200000000000003
 40
0.9200000000000003
 40
0.9200000000000003
 40
0.9600000000000003
 40
0.9600000000000003
 40
0.9600000000000003
 40
0.9600000000000003
 40
1.0
 40
1.0
 40
1.0
 40
1.0
 10
0.48528
 20
4.3377500000000007
 30
0.0
 10
0.9907400000000001
 20
4.1802700000000002
 30
0.0
 10
1.52668
 20
4.2082100000000002
 30
0.0
 10
2.0321400000000001
 20
4.1091500000000005
 30
0.0
 10
2.0321400000000001
 20
4.1091500000000005
 30
0.0
 10
2.2734400000000003
 20
3.8907100000000003
 30
0.0
 10
2.1007200000000004
 20
3.4995500000000002
 30
0.0
 10
2.2226400000000002
 20
3.2430100000000004
 30
0.0
 10
2.2226400000000002
 20
3.2430100000000004
 30
0.0
 10
2.2404200000000003
 20
3.5427300000000002
 30
0.0
 10
2.20486
 20
3.8195900000000003
 30
0.0
 10
2.3623400000000001
 20
4.0913700000000004
 30
0.0
 10
2.3623400000000001
 20
4.0913700000000004
 30
0.0
 10
2.4664800000000002
 20
3.3827100000000003
 30
0.0
 10
2.5680800000000001
 20
2.6156300000000003
 30
0.0
 10
2.5350600000000001
 20
1.8536300000000001
 30
0.0
 10
2.5350600000000001
 20
1.8536300000000001
 30
0.0
 10
2.5680800000000001
 20
1.8942700000000001
 30
0.0
 10
2.5680800000000001
 20
1.9679300000000002
 30
0.0
 10
2.5680800000000001
 20
2.0263500000000003
 30
0.0
 10
2.5680800000000001
 20
2.0263500000000003
 30
0.0
 10
2.6569800000000003
 20
2.7172300000000003
 30
0.0
 10
2.5528400000000002
 20
3.4411300000000002
 30
0.0
 10
2.67476
 20
4.0913700000000004
 30
0.0
 10
2.67476
 20
4.0913700000000004
 30
0.0
 10
2.76112
 20
4.03803
 30
0.0
 10
2.6925400000000002
 20
3.7662500000000003
 30
0.0
 10
2.84748
 20
3.8322900000000004
 30
0.0
 10
2.84748
 20
3.8322900000000004
 30
0.0
 10
2.9871800000000004
 20
3.9288100000000004
 30
0.0
 10
2.7941400000000001
 20
3.1744300000000001
 30
0.0
 10
2.8805000000000001
 20
2.9661500000000003
 30
0.0
 10
2.8805000000000001
 20
2.9661500000000003
 30
0.0
 10
2.8805000000000001
 20
2.9661500000000003
 30
0.0
 10
3.0227400000000002
 20
3.5198700000000005
 30
0.0
 10
3.0227400000000002
 20
3.5198700000000005
 30
0.0
 10
3.0227400000000002
 20
3.5198700000000005
 30
0.0
 10
3.0379800000000001
 20
3.7129100000000004
 30
0.0
 10
3.0227400000000002
 20
3.9364300000000005
 30
0.0
 10
2.9871800000000004
 20
4.12439
 30
0.0
 10
2.9871800000000004
 20
4.12439
 30
0.0
 10
3.1929200000000004
 20
4.1320100000000002
 30
0.0
 10
3.4215200000000001
 20
4.2463100000000003
 30
0.0
 10
3.6298000000000004
 20
4.1777300000000004
 30
0.0
 10
3.6298000000000004
 20
4.1777300000000004
 30
0.0
 10
4.5315000000000003
 20
2.8543900000000004
 30
0.0
 10
3.9422200000000003
 20
0.6471300000000001
 30
0.0
 10
2.6036400000000004
 20
-0.13518
 30
0.0
 10
2.6036400000000004
 20
-0.13518
 30
0.0
 10
2.4131400000000003
 20
0.05023
 30
0.0
 10
2.5350600000000001
 20
0.30423
 30
0.0
 10
2.5680800000000001
 20
0.53283
 30
0.0
 10
2.5680800000000001
 20
0.53283
 30
0.0
 10
2.5680800000000001
 20
0.53283
 30
0.0
 10
2.6392000000000002
 20
1.4675500000000001
 30
0.0
 10
2.6392000000000002
 20
1.4675500000000001
 30
0.0
 10
2.6392000000000002
 20
1.4675500000000001
 30
0.0
 10
2.6392000000000002
 20
1.4675500000000001
 30
0.0
 10
2.4487000000000001
 20
0.39567
 30
0.0
 10
2.4487000000000001
 20
0.39567
 30
0.0
 10
2.4487000000000001
 20
0.39567
 30
0.0
 10
2.4487000000000001
 20
0.39567
 30
0.0
 10
2.4309200000000004
 20
0.18485
 30
0.0
 10
2.4309200000000004
 20
0.18485
 30
0.0
 10
2.4309200000000004
 20
0.18485
 30
0.0
 10
2.3623400000000001
 20
-0.5212600000000001
 30
0.0
 10
1.4225400000000001
 20
0.06039
 30
0.0
 10
1.8568800000000001
 20
0.53791
 30
0.0
 10
1.8568800000000001
 20
0.53791
 30
0.0
 10
1.8568800000000001
 20
0.53791
 30
0.0
 10
2.3090000000000002
 20
0.9468500000000001
 30
0.0
 10
2.3090000000000002
 20
0.9468500000000001
 30
0.0
 10
2.3090000000000002
 20
0.9468500000000001
 30
0.0
 10
2.1007200000000004
 20
0.91129
 30
0.0
 10
1.9610200000000002
 20
0.72333
 30
0.0
 10
1.7527400000000002
 20
0.68523
 30
0.0
 10
1.7527400000000002
 20
0.68523
 30
0.0
 10
1.6663800000000002
 20
0.8452500000000001
 30
0.0
 10
1.5089000000000001
 20
1.2160900000000001
 30
0.0
 10
1.3717400000000002
 20
1.39897
 30
0.0
 10
1.3717400000000002
 20
1.39897
 30
0.0
 10
1.3361800000000001
 20
1.3380100000000001
 30
0.0
 10
1.3717400000000002
 20
1.2567300000000001
 30
0.0
 10
1.3717400000000002
 20
1.1805300000000001
 30
0.0
 10
1.3717400000000002
 20
1.1805300000000001
 30
0.0
 10
1.9965800000000002
 20
0.39821
 30
0.0
 10
0.31256
 20
-0.22408
 30
0.0
 10
-0.20559
 20
0.2737500000000001
 30
0.0
 10
-0.20559
 20
0.2737500000000001
 30
0.0
 10
-0.11923
 20
0.4540900000000001
 30
0.0
 10
-0.17257
 20
0.6471300000000001
 30
0.0
 10
-0.17257
 20
0.8249300000000001
 30
0.0
 10
-0.17257
 20
0.8249300000000001
 30
0.0
 10
1.1787000000000001
 20
1.2135500000000001
 30
0.0
 10
0.38114
 20
2.7477100000000001
 30
0.0
 10
0.57164
 20
3.7281500000000003
 30
0.0
 10
0.57164
 20
3.7281500000000003
 30
0.0
 10
0.5030600000000001
 20
3.9161100000000002
 30
0.0
 10
0.43448
 20
4.1294700000000004
 30
0.0
 10
0.48528
 20
4.3377500000000007
 30
0.0
  0
SPLINE
  5
2E
100
AcDbEntity
  8
Ebene 1
100
AcDbSpline
210
0.0
220
0.0
230
1.0
 70
     1
 71
     3
 72
    20
 73
    16
 74
     0
 42
0.0000000001
 43
0.0000000001
 40
0.0
 40
0.0
 40
0.0
 40
0.0
 40
0.25
 40
0.25
 40
0.25
 40
0.25
 40
0.5
 40
0.5
 40
0.5
 40
0.5
 40
0.75
 40
0.75
 40
0.75
 40
0.75
 40
1.0
 40
1.0
 40
1.0
 40
1.0
 10
1.7527400000000002
 20
3.9542100000000002
 30
0.0
 10
1.7527400000000002
 20
3.9542100000000002
 30
0.0
 10
1.8568800000000001
 20
3.9364300000000005
 30
0.0
 10
1.8568800000000001
 20
3.9364300000000005
 30
0.0
 10
1.8568800000000001
 20
3.9364300000000005
 30
0.0
 10
1.7019400000000002
 20
3.7205300000000001
 30
0.0
 10
1.5444600000000002
 20
3.4258900000000003
 30
0.0
 10
1.7705200000000001
 20
3.1896700000000004
 30
0.0
 10
1.7705200000000001
 20
3.1896700000000004
 30
0.0
 10
1.7705200000000001
 20
3.1591900000000002
 30
0.0
 10
1.7527400000000002
 20
3.1464900000000005
 30
0.0
 10
1.7375
 20
3.1261700000000001
 30
0.0
 10
1.7375
 20
3.1261700000000001
 30
0.0
 10
1.3717400000000002
 20
3.2531700000000003
 30
0.0
 10
1.4225400000000001
 20
3.7916500000000002
 30
0.0
 10
1.7527400000000002
 20
3.9542100000000002
 30
0.0
  0
SPLINE
  5
2F
100
AcDbEntity
  8
Ebene 1
100
AcDbSpline
210
0.0
220
0.0
230
1.0
 70
     1
 71
     3
 72
    20
 73
    16
 74
     0
 42
0.0000000001
 43
0.0000000001
 40
0.0
 40
0.0
 40
0.0
 40
0.0
 40
0.25
 40
0.25
 40
0.25
 40
0.25
 40
0.5
 40
0.5
 40
0.5
 40
0.5
 40
0.75
 40
0.75
 40
0.75
 40
0.75
 40
1.0
 40
1.0
 40
1.0
 40
1.0
 10
-0.24115
 20
3.9211900000000002
 30
0.0
 10
-0.20559
 20
3.9084900000000005
 30
0.0
 10
-0.10145
 20
3.8602300000000005
 30
0.0
 10
-0.15479
 20
3.8195900000000003
 30
0.0
 10
-0.15479
 20
3.8195900000000003
 30
0.0
 10
-0.84821
 20
3.7586300000000001
 30
0.0
 10
-1.4400300000000001
 20
3.3598500000000002
 30
0.0
 10
-2.06487
 20
3.0677500000000002
 30
0.0
 10
-2.06487
 20
3.0677500000000002
 30
0.0
 10
-2.1182100000000004
 20
3.0652100000000004
 30
0.0
 10
-2.1867900000000002
 20
3.0652100000000004
 30
0.0
 10
-2.2198100000000003
 20
3.1083900000000004
 30
0.0
 10
-2.2198100000000003
 20
3.1083900000000004
 30
0.0
 10
-1.63053
 20
3.4360500000000003
 30
0.0
 10
-0.9193300000000001
 20
3.7510100000000004
 30
0.0
 10
-0.24115
 20
3.9211900000000002
 30
0.0
  0
SPLINE
  5
30
100
AcDbEntity
  8
Ebene 1
100
AcDbSpline
210
0.0
220
0.0
230
1.0
 70
     1
 71
     3
 72
    20
 73
    16
 74
     0
 42
0.0000000001
 43
0.0000000001
 40
0.0
 40
0.0
 40
0.0
 40
0.0
 40
0.25
 40
0.25
 40
0.25
 40
0.25
 40
0.5
 40
0.5
 40
0.5
 40
0.5
 40
0.75
 40
0.75
 40
0.75
 40
0.75
 40
1.0
 40
1.0
 40
1.0
 40
1.0
 10
0.5894200000000001
 20
3.9034100000000005
 30
0.0
 10
0.95518
 20
3.8373700000000004
 30
0.0
 10
1.23204
 20
3.5071700000000003
 30
0.0
 10
1.23204
 20
3.1439500000000002
 30
0.0
 10
1.23204
 20
3.1439500000000002
 30
0.0
 10
1.19648
 20
3.1312500000000001
 30
0.0
 10
1.1787000000000001
 20
3.14141
 30
0.0
 10
1.1634600000000002
 20
3.1617300000000004
 30
0.0
 10
1.1634600000000002
 20
3.1617300000000004
 30
0.0
 10
1.05932
 20
3.4538300000000004
 30
0.0
 10
0.8332600000000001
 20
3.6900500000000003
 30
0.0
 10
0.57164
 20
3.8729300000000002
 30
0.0
 10
0.57164
 20
3.8729300000000002
 30
0.0
 10
0.57164
 20
3.8729300000000002
 30
0.0
 10
0.5894200000000001
 20
3.9034100000000005
 30
0.0
 10
0.5894200000000001
 20
3.9034100000000005
 30
0.0
  0
SPLINE
  5
31
100
AcDbEntity
  8
Ebene 1
 62
     7
100
AcDbSpline
210
0.0
220
0.0
230
1.0
 70
     1
 71
     3
 72
    20
 73
    16
 74
     0
 42
0.0000000001
 43
0.0000000001
 40
0.0
 40
0.0
 40
0.0
 40
0.0
 40
0.25
 40
0.25
 40
0.25
 40
0.25
 40
0.5
 40
0.5
 40
0.5
 40
0.5
 40
0.75
 40
0.75
 40
0.75
 40
0.75
 40
1.0
 40
1.0
 40
1.0
 40
1.0
 10
0.33034
 20
3.5732100000000004
 30
0.0
 10
0.34812
 20
3.5732100000000004
 30
0.0
 10
0.3659
 20
3.5757500000000002
 30
0.0
 10
0.3659
 20
3.5554300000000003
 30
0.0
 10
0.3659
 20
3.5554300000000003
 30
0.0
 10
0.33034
 20
3.3801700000000001
 30
0.0
 10
0.4497200000000001
 20
3.1769700000000003
 30
0.0
 10
0.3659
 20
3.0347300000000001
 30
0.0
 10
0.3659
 20
3.0347300000000001
 30
0.0
 10
0.33034
 20
3.0372700000000004
 30
0.0
 10
0.29478
 20
3.0245700000000002
 30
0.0
 10
0.277
 20
3.0575900000000003
 30
0.0
 10
0.277
 20
3.0575900000000003
 30
0.0
 10
0.277
 20
3.0575900000000003
 30
0.0
 10
0.33034
 20
3.5732100000000004
 30
0.0
 10
0.33034
 20
3.5732100000000004
 30
0.0
  0
SPLINE
  5
32
100
AcDbEntity
  8
Ebene 1
100
AcDbSpline
210
0.0
220
0.0
230
1.0
 70
     1
 71
     3
 72
    24
 73
    20
 74
     0
 42
0.0000000001
 43
0.0000000001
 40
0.0
 40
0.0
 40
0.0
 40
0.0
 40
0.2
 40
0.2
 40
0.2
 40
0.2
 40
0.4
 40
0.4
 40
0.4
 40
0.4
 40
0.6000000000000001
 40
0.6000000000000001
 40
0.6000000000000001
 40
0.6000000000000001
 40
0.8
 40
0.8
 40
0.8
 40
0.8
 40
1.0
 40
1.0
 40
1.0
 40
1.0
 10
2.1362800000000002
 20
2.8594700000000004
 30
0.0
 10
2.1693000000000002
 20
2.8594700000000004
 30
0.0
 10
2.2404200000000003
 20
2.8721700000000001
 30
0.0
 10
2.2226400000000002
 20
2.8137500000000002
 30
0.0
 10
2.2226400000000002
 20
2.8137500000000002
 30
0.0
 10
1.8060800000000001
 20
2.7248500000000004
 30
0.0
 10
1.4581000000000002
 20
2.3057500000000002
 30
0.0
 10
1.4758800000000001
 20
1.8714100000000002
 30
0.0
 10
1.4758800000000001
 20
1.8714100000000002
 30
0.0
 10
1.4581000000000002
 20
1.8383900000000002
 30
0.0
 10
1.44032
 20
1.7977500000000002
 30
0.0
 10
1.4073000000000002
 20
1.78251
 30
0.0
 10
1.4073000000000002
 20
1.78251
 30
0.0
 10
1.2676000000000001
 20
2.0365100000000003
 30
0.0
 10
1.3717400000000002
 20
2.34639
 30
0.0
 10
1.4225400000000001
 20
2.6130900000000001
 30
0.0
 10
1.4225400000000001
 20
2.6130900000000001
 30
0.0
 10
1.6155800000000002
 20
2.7705700000000002
 30
0.0
 10
1.8924400000000001
 20
2.8315300000000003
 30
0.0
 10
2.1362800000000002
 20
2.8594700000000004
 30
0.0
  0
SPLINE
  5
33
100
AcDbEntity
  8
Ebene 1
100
AcDbSpline
210
0.0
220
0.0
230
1.0
 70
     1
 71
     3
 72
    16
 73
    12
 74
     0
 42
0.0000000001
 43
0.0000000001
 40
0.0
 40
0.0
 40
0.0
 40
0.0
 40
0.3333333333333333
 40
0.3333333333333333
 40
0.3333333333333333
 40
0.3333333333333333
 40
0.6666666666666666
 40
0.6666666666666666
 40
0.6666666666666666
 40
0.6666666666666666
 40
1.0
 40
1.0
 40
1.0
 40
1.0
 10
-2.3061700000000003
 20
2.8264500000000004
 30
0.0
 10
-2.2731500000000002
 20
2.8340700000000001
 30
0.0
 10
-2.2553700000000001
 20
2.8035900000000002
 30
0.0
 10
-2.23759
 20
2.7883500000000003
 30
0.0
 10
-2.23759
 20
2.7883500000000003
 30
0.0
 10
-2.2045700000000004
 20
2.5368900000000001
 30
0.0
 10
-2.01153
 20
2.3819500000000002
 30
0.0
 10
-1.7880100000000001
 20
2.3565500000000004
 30
0.0
 10
-1.7880100000000001
 20
2.3565500000000004
 30
0.0
 10
-2.0826500000000001
 20
2.2193900000000002
 30
0.0
 10
-2.4306300000000003
 20
2.5013300000000003
 30
0.0
 10
-2.3061700000000003
 20
2.8264500000000004
 30
0.0
  0
SPLINE
  5
34
100
AcDbEntity
  8
Ebene 1
100
AcDbSpline
210
0.0
220
0.0
230
1.0
 70
     1
 71
     3
 72
    16
 73
    12
 74
     0
 42
0.0000000001
 43
0.0000000001
 40
0.0
 40
0.0
 40
0.0
 40
0.0
 40
0.3333333333333333
 40
0.3333333333333333
 40
0.3333333333333333
 40
0.3333333333333333
 40
0.6666666666666666
 40
0.6666666666666666
 40
0.6666666666666666
 40
0.6666666666666666
 40
1.0
 40
1.0
 40
1.0
 40
1.0
 10
-2.7582900000000001
 20
2.7908900000000001
 30
0.0
 10
-2.7481300000000002
 20
2.7908900000000001
 30
0.0
 10
-2.7201900000000001
 20
2.7959700000000001
 30
0.0
 10
-2.7252700000000001
 20
2.7731100000000004
 30
0.0
 10
-2.7252700000000001
 20
2.7731100000000004
 30
0.0
 10
-2.81671
 20
2.5851500000000001
 30
0.0
 10
-2.6008100000000001
 20
2.4200500000000003
 30
0.0
 10
-2.6414500000000003
 20
2.2574900000000002
 30
0.0
 10
-2.6414500000000003
 20
2.2574900000000002
 30
0.0
 10
-2.7582900000000001
 20
2.3971900000000002
 30
0.0
 10
-2.8675100000000002
 20
2.6181700000000001
 30
0.0
 10
-2.7582900000000001
 20
2.7908900000000001
 30
0.0
  0
SPLINE
  5
35
100
AcDbEntity
  8
Ebene 1
 62
     7
100
AcDbSpline
210
0.0
220
0.0
230
1.0
 70
     1
 71
     3
 72
    28
 73
    24
 74
     0
 42
0.0000000001
 43
0.0000000001
 40
0.0
 40
0.0
 40
0.0
 40
0.0
 40
0.1666666666666667
 40
0.1666666666666667
 40
0.1666666666666667
 40
0.1666666666666667
 40
0.3333333333333333
 40
0.3333333333333333
 40
0.3333333333333333
 40
0.3333333333333333
 40
0.5
 40
0.5
 40
0.5
 40
0.5
 40
0.6666666666666666
 40
0.6666666666666666
 40
0.6666666666666666
 40
0.6666666666666666
 40
0.8333333333333333
 40
0.8333333333333333
 40
0.8333333333333333
 40
0.8333333333333333
 40
1.0
 40
1.0
 40
1.0
 40
1.0
 10
-3.4720300000000002
 20
2.3743300000000001
 30
0.0
 10
-3.3120100000000003
 20
2.3895700000000004
 30
0.0
 10
-3.4542500000000005
 20
2.2574900000000002
 30
0.0
 10
-3.4136100000000003
 20
2.20669
 30
0.0
 10
-3.4136100000000003
 20
2.20669
 30
0.0
 10
-3.4136100000000003
 20
2.20669
 30
0.0
 10
-3.3145500000000001
 20
2.2879700000000001
 30
0.0
 10
-3.3145500000000001
 20
2.2879700000000001
 30
0.0
 10
-3.3145500000000001
 20
2.2879700000000001
 30
0.0
 10
-3.11389
 20
2.2244700000000002
 30
0.0
 10
-3.0656300000000001
 20
2.0136500000000002
 30
0.0
 10
-2.8827500000000001
 20
2.1279500000000002
 30
0.0
 10
-2.8827500000000001
 20
2.1279500000000002
 30
0.0
 10
-2.94625
 20
2.0212700000000003
 30
0.0
 10
-2.8776700000000002
 20
1.8206100000000001
 30
0.0
 10
-2.8294100000000002
 20
1.7672700000000001
 30
0.0
 10
-2.8294100000000002
 20
1.7672700000000001
 30
0.0
 10
-3.0376900000000004
 20
1.6250300000000002
 30
0.0
 10
-2.9411700000000001
 20
1.3888100000000001
 30
0.0
 10
-3.0402300000000002
 20
1.2160900000000001
 30
0.0
 10
-3.0402300000000002
 20
1.2160900000000001
 30
0.0
 10
-3.6549100000000001
 20
1.1297300000000001
 30
0.0
 10
-3.8911300000000004
 20
1.9984100000000002
 30
0.0
 10
-3.4720300000000002
 20
2.3743300000000001
 30
0.0
  0
SPLINE
  5
36
100
AcDbEntity
  8
Ebene 1
100
AcDbSpline
210
0.0
220
0.0
230
1.0
 70
     1
 71
     3
 72
    12
 73
     8
 74
     0
 42
0.0000000001
 43
0.0000000001
 40
0.0
 40
0.0
 40
0.0
 40
0.0
 40
0.5
 40
0.5
 40
0.5
 40
0.5
 40
1.0
 40
1.0
 40
1.0
 40
1.0
 10
-3.4898100000000003
 20
2.04413
 30
0.0
 10
-3.1723100000000004
 20
2.1228700000000003
 30
0.0
 10
-3.0529300000000004
 20
1.6809100000000001
 30
0.0
 10
-3.2485100000000005
 20
1.4929500000000002
 30
0.0
 10
-3.2485100000000005
 20
1.4929500000000002
 30
0.0
 10
-3.5583900000000002
 20
1.36341
 30
0.0
 10
-3.7692100000000002
 20
1.8993500000000001
 30
0.0
 10
-3.4898100000000003
 20
2.04413
 30
0.0
  0
SPLINE
  5
37
100
AcDbEntity
  8
Ebene 1
 62
     7
100
AcDbSpline
210
0.0
220
0.0
230
1.0
 70
     1
 71
     3
 72
    12
 73
     8
 74
     0
 42
0.0000000001
 43
0.0000000001
 40
0.0
 40
0.0
 40
0.0
 40
0.0
 40
0.5
 40
0.5
 40
0.5
 40
0.5
 40
1.0
 40
1.0
 40
1.0
 40
1.0
 10
-3.4009100000000001
 20
1.9399900000000001
 30
0.0
 10
-3.2993100000000002
 20
1.9501500000000001
 30
0.0
 10
-3.2739100000000003
 20
1.8434700000000002
 30
0.0
 10
-3.3780500000000004
 20
1.82315
 30
0.0
 10
-3.3780500000000004
 20
1.82315
 30
0.0
 10
-3.4186900000000002
 20
1.8510900000000001
 30
0.0
 10
-3.3958300000000001
 20
1.9018900000000001
 30
0.0
 10
-3.4009100000000001
 20
1.9399900000000001
 30
0.0
  0
SPLINE
  5
38
100
AcDbEntity
  8
Ebene 1
 62
     7
100
AcDbSpline
210
0.0
220
0.0
230
1.0
 70
     1
 71
     3
 72
    12
 73
     8
 74
     0
 42
0.0000000001
 43
0.0000000001
 40
0.0
 40
0.0
 40
0.0
 40
0.0
 40
0.5
 40
0.5
 40
0.5
 40
0.5
 40
1.0
 40
1.0
 40
1.0
 40
1.0
 10
-3.2459700000000002
 20
1.8536300000000001
 30
0.0
 10
-3.1545300000000003
 20
1.8002900000000002
 30
0.0
 10
-3.2281900000000001
 20
1.5615300000000001
 30
0.0
 10
-3.3450300000000004
 20
1.6504300000000001
 30
0.0
 10
-3.3450300000000004
 20
1.6504300000000001
 30
0.0
 10
-3.3450300000000004
 20
1.6504300000000001
 30
0.0
 10
-3.2459700000000002
 20
1.8536300000000001
 30
0.0
 10
-3.2459700000000002
 20
1.8536300000000001
 30
0.0
  0
SPLINE
  5
39
100
AcDbEntity
  8
Ebene 1
100
AcDbSpline
210
0.0
220
0.0
230
1.0
 70
     1
 71
     3
 72
    40
 73
    36
 74
     0
 42
0.0000000001
 43
0.0000000001
 40
0.0
 40
0.0
 40
0.0
 40
0.0
 40
0.1111111111111111
 40
0.1111111111111111
 40
0.1111111111111111
 40
0.1111111111111111
 40
0.2222222222222222
 40
0.2222222222222222
 40
0.2222222222222222
 40
0.2222222222222222
 40
0.3333333333333333
 40
0.3333333333333333
 40
0.3333333333333333
 40
0.3333333333333333
 40
0.4444444444444444
 40
0.4444444444444444
 40
0.4444444444444444
 40
0.4444444444444444
 40
0.5555555555555556
 40
0.5555555555555556
 40
0.5555555555555556
 40
0.5555555555555556
 40
0.6666666666666667
 40
0.6666666666666667
 40
0.6666666666666667
 40
0.6666666666666667
 40
0.7777777777777779
 40
0.7777777777777779
 40
0.7777777777777779
 40
0.7777777777777779
 40
0.8888888888888891
 40
0.8888888888888891
 40
0.8888888888888891
 40
0.8888888888888891
 40
1.0
 40
1.0
 40
1.0
 40
1.0
 10
-2.7252700000000001
 20
1.5589900000000001
 30
0.0
 10
-2.0470900000000003
 20
1.6402700000000001
 30
0.0
 10
-1.9759700000000002
 20
0.8325500000000001
 30
0.0
 10
-1.5949700000000002
 20
0.4617100000000001
 30
0.0
 10
-1.5949700000000002
 20
0.4617100000000001
 30
0.0
 10
-1.5949700000000002
 20
0.4617100000000001
 30
0.0
 10
-1.5949700000000002
 20
0.34233
 30
0.0
 10
-1.5949700000000002
 20
0.34233
 30
0.0
 10
-1.5949700000000002
 20
0.34233
 30
0.0
 10
-1.6635500000000001
 20
0.07055
 30
0.0
 10
-2.1690100000000001
 20
-0.21392
 30
0.0
 10
-2.3595100000000002
 20
0.06039
 30
0.0
 10
-2.3595100000000002
 20
0.06039
 30
0.0
 10
-2.3595100000000002
 20
0.06039
 30
0.0
 10
-2.48143
 20
0.07817
 30
0.0
 10
-2.48143
 20
0.07817
 30
0.0
 10
-2.48143
 20
0.07817
 30
0.0
 10
-2.4306300000000003
 20
-0.19868
 30
0.0
 10
-2.4992100000000002
 20
-0.49332
 30
0.0
 10
-2.56271
 20
-0.74224
 30
0.0
 10
-2.56271
 20
-0.74224
 30
0.0
 10
-2.5474700000000001
 20
-0.50856
 30
0.0
 10
-2.5322300000000002
 20
-0.24186
 30
0.0
 10
-2.5703300000000002
 20
-0.00564
 30
0.0
 10
-2.5703300000000002
 20
-0.00564
 30
0.0
 10
-2.7151100000000001
 20
-0.1428
 30
0.0
 10
-2.8395700000000001
 20
0.05277
 30
0.0
 10
-2.9614900000000004
 20
0.12135
 30
0.0
 10
-2.9614900000000004
 20
0.12135
 30
0.0
 10
-3.0249900000000003
 20
0.5633100000000001
 30
0.0
 10
-2.7684500000000001
 20
0.9316100000000001
 30
0.0
 10
-2.8065500000000001
 20
1.3913500000000001
 30
0.0
 10
-2.8065500000000001
 20
1.3913500000000001
 30
0.0
 10
-2.7862300000000002
 20
1.4548500000000002
 30
0.0
 10
-2.7684500000000001
 20
1.5234300000000001
 30
0.0
 10
-2.7252700000000001
 20
1.5589900000000001
 30
0.0
  0
SPLINE
  5
3A
100
AcDbEntity
  8
Ebene 1
 62
     7
100
AcDbSpline
210
0.0
220
0.0
230
1.0
 70
     1
 71
     3
 72
    16
 73
    12
 74
     0
 42
0.0000000001
 43
0.0000000001
 40
0.0
 40
0.0
 40
0.0
 40
0.0
 40
0.3333333333333333
 40
0.3333333333333333
 40
0.3333333333333333
 40
0.3333333333333333
 40
0.6666666666666666
 40
0.6666666666666666
 40
0.6666666666666666
 40
0.6666666666666666
 40
1.0
 40
1.0
 40
1.0
 40
1.0
 10
-3.5228300000000004
 20
1.1754500000000001
 30
0.0
 10
-3.5228300000000004
 20
1.1754500000000001
 30
0.0
 10
-3.0935700000000002
 20
1.0332100000000002
 30
0.0
 10
-3.0935700000000002
 20
1.0332100000000002
 30
0.0
 10
-3.0935700000000002
 20
1.0332100000000002
 30
0.0
 10
-3.0554700000000001
 20
0.8427100000000001
 30
0.0
 10
-3.1418300000000001
 20
0.6344300000000001
 30
0.0
 10
-3.2307300000000003
 20
0.46933
 30
0.0
 10
-3.2307300000000003
 20
0.46933
 30
0.0
 10
-3.5761700000000003
 20
0.42615
 30
0.0
 10
-3.7438100000000003
 20
0.9722500000000001
 30
0.0
 10
-3.5228300000000004
 20
1.1754500000000001
 30
0.0
  0
SPLINE
  5
3B
100
AcDbEntity
  8
Ebene 1
 62
     7
100
AcDbSpline
210
0.0
220
0.0
230
1.0
 70
     1
 71
     3
 72
    12
 73
     8
 74
     0
 42
0.0000000001
 43
0.0000000001
 40
0.0
 40
0.0
 40
0.0
 40
0.0
 40
0.5
 40
0.5
 40
0.5
 40
0.5
 40
1.0
 40
1.0
 40
1.0
 40
1.0
 10
-0.76185
 20
1.1576700000000002
 30
0.0
 10
-0.6932700000000001
 20
1.0433700000000001
 30
0.0
 10
-0.7974100000000001
 20
0.91129
 30
0.0
 10
-0.7796300000000001
 20
0.7817500000000001
 30
0.0
 10
-0.7796300000000001
 20
0.7817500000000001
 30
0.0
 10
-0.84821
 20
0.8833500000000001
 30
0.0
 10
-0.8329700000000001
 20
1.0459100000000001
 30
0.0
 10
-0.76185
 20
1.1576700000000002
 30
0.0
  0
SPLINE
  5
3C
100
AcDbEntity
  8
Ebene 1
 62
     7
100
AcDbSpline
210
0.0
220
0.0
230
1.0
 70
     1
 71
     3
 72
    40
 73
    36
 74
     0
 42
0.0000000001
 43
0.0000000001
 40
0.0
 40
0.0
 40
0.0
 40
0.0
 40
0.1111111111111111
 40
0.1111111111111111
 40
0.1111111111111111
 40
0.1111111111111111
 40
0.2222222222222222
 40
0.2222222222222222
 40
0.2222222222222222
 40
0.2222222222222222
 40
0.3333333333333333
 40
0.3333333333333333
 40
0.3333333333333333
 40
0.3333333333333333
 40
0.4444444444444444
 40
0.4444444444444444
 40
0.4444444444444444
 40
0.4444444444444444
 40
0.5555555555555556
 40
0.5555555555555556
 40
0.5555555555555556
 40
0.5555555555555556
 40
0.6666666666666667
 40
0.6666666666666667
 40
0.6666666666666667
 40
0.6666666666666667
 40
0.7777777777777779
 40
0.7777777777777779
 40
0.7777777777777779
 40
0.7777777777777779
 40
0.8888888888888891
 40
0.8888888888888891
 40
0.8888888888888891
 40
0.8888888888888891
 40
1.0
 40
1.0
 40
1.0
 40
1.0
 10
-0.58913
 20
0.6903100000000001
 30
0.0
 10
-0.57135
 20
0.6953900000000001
 30
0.0
 10
-0.55357
 20
0.68269
 30
0.0
 10
-0.53579
 20
0.6699900000000001
 30
0.0
 10
-0.53579
 20
0.6699900000000001
 30
0.0
 10
-0.5027700000000001
 20
0.3905900000000001
 30
0.0
 10
-0.5027700000000001
 20
0.06801
 30
0.0
 10
-0.57135
 20
-0.18852
 30
0.0
 10
-0.57135
 20
-0.18852
 30
0.0
 10
-0.57135
 20
-0.12502
 30
0.0
 10
-0.57135
 20
-0.05898
 30
0.0
 10
-0.55357
 20
-0.0031
 30
0.0
 10
-0.55357
 20
-0.0031
 30
0.0
 10
-0.55357
 20
-0.0031
 30
0.0
 10
-0.57135
 20
0.30931
 30
0.0
 10
-0.57135
 20
0.30931
 30
0.0
 10
-0.57135
 20
0.30931
 30
0.0
 10
-0.58913
 20
0.17723
 30
0.0
 10
-0.63993
 20
0.00959
 30
0.0
 10
-0.7110500000000001
 20
-0.09962
 30
0.0
 10
-0.7110500000000001
 20
-0.09962
 30
0.0
 10
-0.7110500000000001
 20
-0.09962
 30
0.0
 10
-0.7110500000000001
 20
0.42615
 30
0.0
 10
-0.7110500000000001
 20
0.42615
 30
0.0
 10
-0.7110500000000001
 20
0.42615
 30
0.0
 10
-0.7110500000000001
 20
0.42615
 30
0.0
 10
-0.65771
 20
0.3474100000000001
 30
0.0
 10
-0.65771
 20
0.3474100000000001
 30
0.0
 10
-0.65771
 20
0.3474100000000001
 30
0.0
 10
-0.65771
 20
0.3474100000000001
 30
0.0
 10
-0.63993
 20
0.4007500000000001
 30
0.0
 10
-0.63993
 20
0.4007500000000001
 30
0.0
 10
-0.63993
 20
0.4007500000000001
 30
0.0
 10
-0.6932700000000001
 20
0.4972700000000001
 30
0.0
 10
-0.65771
 20
0.6090300000000001
 30
0.0
 10
-0.58913
 20
0.6903100000000001
 30
0.0
  0
SPLINE
  5
3D
100
AcDbEntity
  8
Ebene 1
 62
     7
100
AcDbSpline
210
0.0
220
0.0
230
1.0
 70
     1
 71
     3
 72
    16
 73
    12
 74
     0
 42
0.0000000001
 43
0.0000000001
 40
0.0
 40
0.0
 40
0.0
 40
0.0
 40
0.3333333333333333
 40
0.3333333333333333
 40
0.3333333333333333
 40
0.3333333333333333
 40
0.6666666666666666
 40
0.6666666666666666
 40
0.6666666666666666
 40
0.6666666666666666
 40
1.0
 40
1.0
 40
1.0
 40
1.0
 10
-0.29195
 20
0.6039500000000001
 30
0.0
 10
-0.29195
 20
0.6039500000000001
 30
0.0
 10
-0.25893
 20
0.59887
 30
0.0
 10
-0.25893
 20
0.59887
 30
0.0
 10
-0.25893
 20
0.59887
 30
0.0
 10
-0.27671
 20
0.4947300000000001
 30
0.0
 10
-0.22337
 20
0.25089
 30
0.0
 10
-0.38085
 20
0.27883
 30
0.0
 10
-0.38085
 20
0.27883
 30
0.0
 10
-0.38085
 20
0.27883
 30
0.0
 10
-0.29195
 20
0.6039500000000001
 30
0.0
 10
-0.29195
 20
0.6039500000000001
 30
0.0
  0
SPLINE
  5
3E
100
AcDbEntity
  8
Ebene 1
 62
     7
100
AcDbSpline
210
0.0
220
0.0
230
1.0
 70
     1
 71
     3
 72
    16
 73
    12
 74
     0
 42
0.0000000001
 43
0.0000000001
 40
0.0
 40
0.0
 40
0.0
 40
0.0
 40
0.3333333333333333
 40
0.3333333333333333
 40
0.3333333333333333
 40
0.3333333333333333
 40
0.6666666666666666
 40
0.6666666666666666
 40
0.6666666666666666
 40
0.6666666666666666
 40
1.0
 40
1.0
 40
1.0
 40
1.0
 10
-1.03871
 20
0.39567
 30
0.0
 10
-0.9345700000000001
 20
0.25343
 30
0.0
 10
-0.95235
 20
0.04769
 30
0.0
 10
-0.84821
 20
-0.09962
 30
0.0
 10
-0.84821
 20
-0.09962
 30
0.0
 10
-0.84821
 20
-0.09962
 30
0.0
 10
-0.9015500000000001
 20
-0.17582
 30
0.0
 10
-0.9015500000000001
 20
-0.17582
 30
0.0
 10
-0.9015500000000001
 20
-0.17582
 30
0.0
 10
-0.95235
 20
-0.0031
 30
0.0
 10
-1.00569
 20
0.20009
 30
0.0
 10
-1.03871
 20
0.39567
 30
0.0
  0
SPLINE
  5
3F
100
AcDbEntity
  8
Ebene 1
 62
     7
100
AcDbSpline
210
0.0
220
0.0
230
1.0
 70
     1
 71
     3
 72
    12
 73
     8
 74
     0
 42
0.0000000001
 43
0.0000000001
 40
0.0
 40
0.0
 40
0.0
 40
0.0
 40
0.5
 40
0.5
 40
0.5
 40
0.5
 40
1.0
 40
1.0
 40
1.0
 40
1.0
 10
-0.9015500000000001
 20
0.36011
 30
0.0
 10
-0.7974100000000001
 20
0.30931
 30
0.0
 10
-0.8329700000000001
 20
0.09341
 30
0.0
 10
-0.8329700000000001
 20
-0.0031
 30
0.0
 10
-0.8329700000000001
 20
-0.0031
 30
0.0
 10
-0.86599
 20
0.09849
 30
0.0
 10
-0.9015500000000001
 20
0.24835
 30
0.0
 10
-0.9015500000000001
 20
0.36011
 30
0.0
  0
SPLINE
  5
40
100
AcDbEntity
  8
Ebene 1
 62
     7
100
AcDbSpline
210
0.0
220
0.0
230
1.0
 70
     1
 71
     3
 72
    16
 73
    12
 74
     0
 42
0.0000000001
 43
0.0000000001
 40
0.0
 40
0.0
 40
0.0
 40
0.0
 40
0.3333333333333333
 40
0.3333333333333333
 40
0.3333333333333333
 40
0.3333333333333333
 40
0.6666666666666666
 40
0.6666666666666666
 40
0.6666666666666666
 40
0.6666666666666666
 40
1.0
 40
1.0
 40
1.0
 40
1.0
 10
-0.29195
 20
0.11627
 30
0.0
 10
0.0865
 20
0.00451
 30
0.0
 10
-0.10145
 20
-0.5212600000000001
 30
0.0
 10
0.05094
 20
-0.7955800000000001
 30
0.0
 10
0.05094
 20
-0.7955800000000001
 30
0.0
 10
0.00268
 20
-0.7879600000000001
 30
0.0
 10
-0.05065
 20
-0.7905000000000001
 30
0.0
 10
-0.08621
 20
-0.74224
 30
0.0
 10
-0.08621
 20
-0.74224
 30
0.0
 10
-0.13701
 20
-0.45268
 30
0.0
 10
-0.15479
 20
-0.15042
 30
0.0
 10
-0.29195
 20
0.11627
 30
0.0
  0
SPLINE
  5
41
100
AcDbEntity
  8
Ebene 1
 62
     7
100
AcDbSpline
210
0.0
220
0.0
230
1.0
 70
     1
 71
     3
 72
    20
 73
    16
 74
     0
 42
0.0000000001
 43
0.0000000001
 40
0.0
 40
0.0
 40
0.0
 40
0.0
 40
0.25
 40
0.25
 40
0.25
 40
0.25
 40
0.5
 40
0.5
 40
0.5
 40
0.5
 40
0.75
 40
0.75
 40
0.75
 40
0.75
 40
1.0
 40
1.0
 40
1.0
 40
1.0
 10
-0.39863
 20
0.04769
 30
0.0
 10
-0.27671
 20
-0.22662
 30
0.0
 10
-0.17257
 20
-0.5568200000000001
 30
0.0
 10
-0.20559
 20
-0.8667
 30
0.0
 10
-0.20559
 20
-0.8667
 30
0.0
 10
-0.20559
 20
-0.8667
 30
0.0
 10
-0.27671
 20
-0.7651000000000001
 30
0.0
 10
-0.27671
 20
-0.7651000000000001
 30
0.0
 10
-0.27671
 20
-0.7651000000000001
 30
0.0
 10
-0.27671
 20
-0.7651000000000001
 30
0.0
 10
-0.46721
 20
-0.8489200000000001
 30
0.0
 10
-0.46721
 20
-0.8489200000000001
 30
0.0
 10
-0.46721
 20
-0.8489200000000001
 30
0.0
 10
-0.5205500000000001
 20
-0.55428
 30
0.0
 10
-0.39863
 20
-0.25202
 30
0.0
 10
-0.39863
 20
0.04769
 30
0.0
  0
SPLINE
  5
42
100
AcDbEntity
  8
Ebene 1
 62
     7
100
AcDbSpline
210
0.0
220
0.0
230
1.0
 70
     1
 71
     3
 72
    12
 73
     8
 74
     0
 42
0.0000000001
 43
0.0000000001
 40
0.0
 40
0.0
 40
0.0
 40
0.0
 40
0.5
 40
0.5
 40
0.5
 40
0.5
 40
1.0
 40
1.0
 40
1.0
 40
1.0
 10
-0.57135
 20
-0.2444
 30
0.0
 10
-0.55357
 20
-0.27742
 30
0.0
 10
-0.55357
 20
-0.38918
 30
0.0
 10
-0.6043700000000001
 20
-0.41204
 30
0.0
 10
-0.6043700000000001
 20
-0.41204
 30
0.0
 10
-0.6221500000000001
 20
-0.3536200000000001
 30
0.0
 10
-0.58913
 20
-0.29774
 30
0.0
 10
-0.57135
 20
-0.2444
 30
0.0
  0
SPLINE
  5
43
100
AcDbEntity
  8
Ebene 1
 62
     7
100
AcDbSpline
210
0.0
220
0.0
230
1.0
 70
     1
 71
     3
 72
    12
 73
     8
 74
     0
 42
0.0000000001
 43
0.0000000001
 40
0.0
 40
0.0
 40
0.0
 40
0.0
 40
0.5
 40
0.5
 40
0.5
 40
0.5
 40
1.0
 40
1.0
 40
1.0
 40
1.0
 10
-0.76185
 20
-0.36632
 30
0.0
 10
-0.7796300000000001
 20
-0.46284
 30
0.0
 10
-0.8151900000000001
 20
-0.6000000000000001
 30
0.0
 10
-0.9015500000000001
 20
-0.6406400000000001
 30
0.0
 10
-0.9015500000000001
 20
-0.6406400000000001
 30
0.0
 10
-0.86599
 20
-0.55174
 30
0.0
 10
-0.8329700000000001
 20
-0.43998
 30
0.0
 10
-0.76185
 20
-0.36632
 30
0.0
  0
SPLINE
  5
44
100
AcDbEntity
  8
Ebene 1
 62
     7
100
AcDbSpline
210
0.0
220
0.0
230
1.0
 70
     1
 71
     3
 72
    16
 73
    12
 74
     0
 42
0.0000000001
 43
0.0000000001
 40
0.0
 40
0.0
 40
0.0
 40
0.0
 40
0.3333333333333333
 40
0.3333333333333333
 40
0.3333333333333333
 40
0.3333333333333333
 40
0.6666666666666666
 40
0.6666666666666666
 40
0.6666666666666666
 40
0.6666666666666666
 40
1.0
 40
1.0
 40
1.0
 40
1.0
 10
-0.9193300000000001
 20
-0.45268
 30
0.0
 10
-0.9193300000000001
 20
-0.45522
 30
0.0
 10
-0.8837700000000001
 20
-0.4476000000000001
 30
0.0
 10
-0.8837700000000001
 20
-0.46538
 30
0.0
 10
-0.8837700000000001
 20
-0.46538
 30
0.0
 10
-0.9879100000000001
 20
-0.6203200000000001
 30
0.0
 10
-1.0564900000000002
 20
-0.9352800000000001
 30
0.0
 10
-1.2825500000000001
 20
-0.80066
 30
0.0
 10
-1.2825500000000001
 20
-0.80066
 30
0.0
 10
-1.16317
 20
-0.69398
 30
0.0
 10
-0.9701300000000001
 20
-0.63302
 30
0.0
 10
-0.9193300000000001
 20
-0.45268
 30
0.0
  0
SPLINE
  5
45
100
AcDbEntity
  8
Ebene 1
 62
     7
100
AcDbSpline
210
0.0
220
0.0
230
1.0
 70
     1
 71
     3
 72
    16
 73
    12
 74
     0
 42
0.0000000001
 43
0.0000000001
 40
0.0
 40
0.0
 40
0.0
 40
0.0
 40
0.3333333333333333
 40
0.3333333333333333
 40
0.3333333333333333
 40
0.3333333333333333
 40
0.6666666666666666
 40
0.6666666666666666
 40
0.6666666666666666
 40
0.6666666666666666
 40
1.0
 40
1.0
 40
1.0
 40
1.0
 10
-0.34529
 20
-0.8362200000000001
 30
0.0
 10
-0.22337
 20
-0.94798
 30
0.0
 10
-0.17257
 20
-1.1994400000000001
 30
0.0
 10
-0.24115
 20
-1.3391400000000002
 30
0.0
 10
-0.24115
 20
-1.3391400000000002
 30
0.0
 10
-0.25893
 20
-1.3366
 30
0.0
 10
-0.27671
 20
-1.3213600000000001
 30
0.0
 10
-0.27671
 20
-1.3035800000000002
 30
0.0
 10
-0.27671
 20
-1.3035800000000002
 30
0.0
 10
-0.24115
 20
-1.1334000000000002
 30
0.0
 10
-0.53579
 20
-0.95052
 30
0.0
 10
-0.34529
 20
-0.8362200000000001
 30
0.0
  0
SPLINE
  5
46
100
AcDbEntity
  8
Ebene 1
 62
     7
100
AcDbSpline
210
0.0
220
0.0
230
1.0
 70
     1
 71
     3
 72
    24
 73
    20
 74
     0
 42
0.0000000001
 43
0.0000000001
 40
0.0
 40
0.0
 40
0.0
 40
0.0
 40
0.2
 40
0.2
 40
0.2
 40
0.2
 40
0.4
 40
0.4
 40
0.4
 40
0.4
 40
0.6000000000000001
 40
0.6000000000000001
 40
0.6000000000000001
 40
0.6000000000000001
 40
0.8
 40
0.8
 40
0.8
 40
0.8
 40
1.0
 40
1.0
 40
1.0
 40
1.0
 10
-0.13701
 20
-0.8362200000000001
 30
0.0
 10
-0.13701
 20
-0.8362200000000001
 30
0.0
 10
-0.06843
 20
-0.9175000000000001
 30
0.0
 10
-0.06843
 20
-0.9175000000000001
 30
0.0
 10
-0.06843
 20
-0.9175000000000001
 30
0.0
 10
-0.01509
 20
-0.9149600000000001
 30
0.0
 10
-0.03287
 20
-0.8667
 30
0.0
 10
-0.03287
 20
-0.8387600000000001
 30
0.0
 10
-0.03287
 20
-0.8387600000000001
 30
0.0
 10
0.10428
 20
-0.8616200000000001
 30
0.0
 10
0.05094
 20
-1.0114800000000002
 30
0.0
 10
0.05094
 20
-1.1080000000000001
 30
0.0
 10
0.05094
 20
-1.1080000000000001
 30
0.0
 10
0.05094
 20
-1.1080000000000001
 30
0.0
 10
-0.17257
 20
-0.8717800000000001
 30
0.0
 10
-0.17257
 20
-0.8717800000000001
 30
0.0
 10
-0.17257
 20
-0.8717800000000001
 30
0.0
 10
-0.17257
 20
-0.8717800000000001
 30
0.0
 10
-0.13701
 20
-0.8362200000000001
 30
0.0
 10
-0.13701
 20
-0.8362200000000001
 30
0.0
  0
SPLINE
  5
47
100
AcDbEntity
  8
Ebene 1
 62
     7
100
AcDbSpline
210
0.0
220
0.0
230
1.0
 70
     1
 71
     3
 72
    52
 73
    48
 74
     0
 42
0.0000000001
 43
0.0000000001
 40
0.0
 40
0.0
 40
0.0
 40
0.0
 40
0.0833333333333333
 40
0.0833333333333333
 40
0.0833333333333333
 40
0.0833333333333333
 40
0.1666666666666667
 40
0.1666666666666667
 40
0.1666666666666667
 40
0.1666666666666667
 40
0.25
 40
0.25
 40
0.25
 40
0.25
 40
0.3333333333333333
 40
0.3333333333333333
 40
0.3333333333333333
 40
0.3333333333333333
 40
0.4166666666666666
 40
0.4166666666666666
 40
0.4166666666666666
 40
0.4166666666666666
 40
0.4999999999999999
 40
0.4999999999999999
 40
0.4999999999999999
 40
0.4999999999999999
 40
0.5833333333333333
 40
0.5833333333333333
 40
0.5833333333333333
 40
0.5833333333333333
 40
0.6666666666666666
 40
0.6666666666666666
 40
0.6666666666666666
 40
0.6666666666666666
 40
0.75
 40
0.75
 40
0.75
 40
0.75
 40
0.8333333333333334
 40
0.8333333333333334
 40
0.8333333333333334
 40
0.8333333333333334
 40
0.9166666666666667
 40
0.9166666666666667
 40
0.9166666666666667
 40
0.9166666666666667
 40
1.0
 40
1.0
 40
1.0
 40
1.0
 10
-0.86599
 20
-0.8540000000000001
 30
0.0
 10
-0.86599
 20
-0.8540000000000001
 30
0.0
 10
-0.84821
 20
-1.16642
 30
0.0
 10
-0.84821
 20
-1.16642
 30
0.0
 10
-0.84821
 20
-1.16642
 30
0.0
 10
-0.58913
 20
-1.5829800000000001
 30
0.0
 10
-0.57135
 20
-2.1240000000000001
 30
0.0
 10
-0.7262900000000001
 20
-2.5685000000000002
 30
0.0
 10
-0.7262900000000001
 20
-2.5685000000000002
 30
0.0
 10
-0.7262900000000001
 20
-2.5685000000000002
 30
0.0
 10
-0.8329700000000001
 20
-2.6015200000000003
 30
0.0
 10
-0.8329700000000001
 20
-2.6015200000000003
 30
0.0
 10
-0.8329700000000001
 20
-2.6015200000000003
 30
0.0
 10
-0.9879100000000001
 20
-2.2865600000000001
 30
0.0
 10
-1.4908300000000001
 20
-2.0452600000000003
 30
0.0
 10
-1.7702300000000002
 20
-2.2891000000000004
 30
0.0
 10
-1.7702300000000002
 20
-2.2891000000000004
 30
0.0
 10
-1.8057900000000002
 20
-2.3043400000000003
 30
0.0
 10
-1.8210300000000001
 20
-2.26878
 30
0.0
 10
-1.8388100000000001
 20
-2.2560800000000003
 30
0.0
 10
-1.8388100000000001
 20
-2.2560800000000003
 30
0.0
 10
-2.1004300000000002
 20
-1.8522200000000002
 30
0.0
 10
-1.9937500000000001
 20
-1.1867400000000001
 30
0.0
 10
-1.4908300000000001
 20
-1.0318000000000001
 30
0.0
 10
-1.4908300000000001
 20
-1.0318000000000001
 30
0.0
 10
-1.5263900000000001
 20
-1.1080000000000001
 30
0.0
 10
-1.5263900000000001
 20
-1.20198
 30
0.0
 10
-1.6127500000000001
 20
-1.2299200000000001
 30
0.0
 10
-1.6127500000000001
 20
-1.2299200000000001
 30
0.0
 10
-1.6127500000000001
 20
-1.2299200000000001
 30
0.0
 10
-1.5086100000000002
 20
-1.2299200000000001
 30
0.0
 10
-1.5086100000000002
 20
-1.2299200000000001
 30
0.0
 10
-1.5086100000000002
 20
-1.2299200000000001
 30
0.0
 10
-1.5086100000000002
 20
-1.0191000000000001
 30
0.0
 10
-1.0564900000000002
 20
-0.82352
 30
0.0
 10
-1.21397
 20
-1.1308600000000002
 30
0.0
 10
-1.21397
 20
-1.1308600000000002
 30
0.0
 10
-1.1860300000000001
 20
-1.2705600000000001
 30
0.0
 10
-1.12507
 20
-1.0902200000000002
 30
0.0
 10
-1.1022100000000001
 20
-1.0699000000000001
 30
0.0
 10
-1.1022100000000001
 20
-1.0699000000000001
 30
0.0
 10
-1.00061
 20
-0.9784600000000001
 30
0.0
 10
-0.9574300000000001
 20
-1.0191000000000001
 30
0.0
 10
-0.9015500000000001
 20
-1.1969000000000001
 30
0.0
 10
-0.9015500000000001
 20
-1.1969000000000001
 30
0.0
 10
-0.9015500000000001
 20
-1.1969000000000001
 30
0.0
 10
-0.86599
 20
-0.8540000000000001
 30
0.0
 10
-0.86599
 20
-0.8540000000000001
 30
0.0
  0
SPLINE
  5
48
100
AcDbEntity
  8
Ebene 1
 62
     7
100
AcDbSpline
210
0.0
220
0.0
230
1.0
 70
     1
 71
     3
 72
    16
 73
    12
 74
     0
 42
0.0000000001
 43
0.0000000001
 40
0.0
 40
0.0
 40
0.0
 40
0.0
 40
0.3333333333333333
 40
0.3333333333333333
 40
0.3333333333333333
 40
0.3333333333333333
 40
0.6666666666666666
 40
0.6666666666666666
 40
0.6666666666666666
 40
0.6666666666666666
 40
1.0
 40
1.0
 40
1.0
 40
1.0
 10
-3.2637500000000004
 20
-0.9581400000000001
 30
0.0
 10
-3.2637500000000004
 20
-0.9581400000000001
 30
0.0
 10
-3.1951700000000001
 20
-0.9784600000000001
 30
0.0
 10
-3.1951700000000001
 20
-0.9784600000000001
 30
0.0
 10
-3.1951700000000001
 20
-0.9784600000000001
 30
0.0
 10
-3.0300700000000003
 20
-1.2604000000000002
 30
0.0
 10
-3.0656300000000001
 20
-1.7023600000000001
 30
0.0
 10
-3.2104100000000004
 20
-1.9639800000000001
 30
0.0
 10
-3.2104100000000004
 20
-1.9639800000000001
 30
0.0
 10
-3.3018500000000004
 20
-1.6617200000000001
 30
0.0
 10
-3.2713700000000001
 20
-1.2807200000000001
 30
0.0
 10
-3.2637500000000004
 20
-0.9581400000000001
 30
0.0
  0
SPLINE
  5
49
100
AcDbEntity
  8
Ebene 1
 62
     7
100
AcDbSpline
210
0.0
220
0.0
230
1.0
 70
     1
 71
     3
 72
    12
 73
     8
 74
     0
 42
0.0000000001
 43
0.0000000001
 40
0.0
 40
0.0
 40
0.0
 40
0.0
 40
0.5
 40
0.5
 40
0.5
 40
0.5
 40
1.0
 40
1.0
 40
1.0
 40
1.0
 10
-0.7110500000000001
 20
-1.1308600000000002
 30
0.0
 10
-0.65771
 20
-1.1842000000000001
 30
0.0
 10
-0.58913
 20
-1.3035800000000002
 30
0.0
 10
-0.63993
 20
-1.3747
 30
0.0
 10
-0.63993
 20
-1.3747
 30
0.0
 10
-0.6932700000000001
 20
-1.3162800000000001
 30
0.0
 10
-0.6932700000000001
 20
-1.21214
 30
0.0
 10
-0.7110500000000001
 20
-1.1308600000000002
 30
0.0
  0
SPLINE
  5
4A
100
AcDbEntity
  8
Ebene 1
 62
     7
100
AcDbSpline
210
0.0
220
0.0
230
1.0
 70
     1
 71
     3
 72
    12
 73
     8
 74
     0
 42
0.0000000001
 43
0.0000000001
 40
0.0
 40
0.0
 40
0.0
 40
0.0
 40
0.5
 40
0.5
 40
0.5
 40
0.5
 40
1.0
 40
1.0
 40
1.0
 40
1.0
 10
-0.48499
 20
-1.16642
 30
0.0
 10
-0.24115
 20
-1.3493000000000002
 30
0.0
 10
-0.4494300000000001
 20
-1.6464800000000002
 30
0.0
 10
-0.53579
 20
-1.8547600000000002
 30
0.0
 10
-0.53579
 20
-1.8547600000000002
 30
0.0
 10
-0.63993
 20
-1.62616
 30
0.0
 10
-0.46721
 20
-1.4051800000000001
 30
0.0
 10
-0.48499
 20
-1.16642
 30
0.0
  0
SPLINE
  5
4B
100
AcDbEntity
  8
Ebene 1
 62
     7
100
AcDbSpline
210
0.0
220
0.0
230
1.0
 70
     1
 71
     3
 72
    20
 73
    16
 74
     0
 42
0.0000000001
 43
0.0000000001
 40
0.0
 40
0.0
 40
0.0
 40
0.0
 40
0.25
 40
0.25
 40
0.25
 40
0.25
 40
0.5
 40
0.5
 40
0.5
 40
0.5
 40
0.75
 40
0.75
 40
0.75
 40
0.75
 40
1.0
 40
1.0
 40
1.0
 40
1.0
 10
-2.5169900000000003
 20
-1.20198
 30
0.0
 10
-2.5169900000000003
 20
-1.20198
 30
0.0
 10
-2.4306300000000003
 20
-1.2197600000000002
 30
0.0
 10
-2.4306300000000003
 20
-1.2197600000000002
 30
0.0
 10
-2.4306300000000003
 20
-1.2197600000000002
 30
0.0
 10
-2.48143
 20
-1.5118600000000002
 30
0.0
 10
-2.39507
 20
-1.8446000000000002
 30
0.0
 10
-2.5017500000000004
 20
-2.1163800000000004
 30
0.0
 10
-2.5017500000000004
 20
-2.1163800000000004
 30
0.0
 10
-2.5017500000000004
 20
-2.1163800000000004
 30
0.0
 10
-2.5804900000000002
 20
-2.0808200000000001
 30
0.0
 10
-2.5804900000000002
 20
-2.0808200000000001
 30
0.0
 10
-2.5804900000000002
 20
-2.0808200000000001
 30
0.0
 10
-2.5703300000000002
 20
-1.7887200000000001
 30
0.0
 10
-2.6363700000000003
 20
-1.46106
 30
0.0
 10
-2.5169900000000003
 20
-1.20198
 30
0.0
  0
SPLINE
  5
4C
100
AcDbEntity
  8
Ebene 1
 62
     7
100
AcDbSpline
210
0.0
220
0.0
230
1.0
 70
     1
 71
     3
 72
    20
 73
    16
 74
     0
 42
0.0000000001
 43
0.0000000001
 40
0.0
 40
0.0
 40
0.0
 40
0.0
 40
0.25
 40
0.25
 40
0.25
 40
0.25
 40
0.5
 40
0.5
 40
0.5
 40
0.5
 40
0.75
 40
0.75
 40
0.75
 40
0.75
 40
1.0
 40
1.0
 40
1.0
 40
1.0
 10
-2.1867900000000002
 20
-1.3035800000000002
 30
0.0
 10
-2.1867900000000002
 20
-1.3035800000000002
 30
0.0
 10
-2.1334500000000003
 20
-1.3086600000000002
 30
0.0
 10
-2.1334500000000003
 20
-1.3086600000000002
 30
0.0
 10
-2.1334500000000003
 20
-1.3086600000000002
 30
0.0
 10
-2.1004300000000002
 20
-1.45852
 30
0.0
 10
-1.9937500000000001
 20
-1.7557
 30
0.0
 10
-2.2045700000000004
 20
-1.8090400000000002
 30
0.0
 10
-2.2045700000000004
 20
-1.8090400000000002
 30
0.0
 10
-2.2731500000000002
 20
-1.6769600000000002
 30
0.0
 10
-2.2553700000000001
 20
-1.4737600000000002
 30
0.0
 10
-2.2553700000000001
 20
-1.3264400000000001
 30
0.0
 10
-2.2553700000000001
 20
-1.3264400000000001
 30
0.0
 10
-2.2553700000000001
 20
-1.3264400000000001
 30
0.0
 10
-2.1867900000000002
 20
-1.3035800000000002
 30
0.0
 10
-2.1867900000000002
 20
-1.3035800000000002
 30
0.0
  0
SPLINE
  5
4D
100
AcDbEntity
  8
Ebene 1
 62
     7
100
AcDbSpline
210
0.0
220
0.0
230
1.0
 70
     1
 71
     3
 72
    12
 73
     8
 74
     0
 42
0.0000000001
 43
0.0000000001
 40
0.0
 40
0.0
 40
0.0
 40
0.0
 40
0.5
 40
0.5
 40
0.5
 40
0.5
 40
1.0
 40
1.0
 40
1.0
 40
1.0
 10
-0.32751
 20
-1.5652000000000001
 30
0.0
 10
-0.20559
 20
-1.7633200000000002
 30
0.0
 10
-0.30973
 20
-2.0554200000000002
 30
0.0
 10
-0.41387
 20
-2.2383000000000002
 30
0.0
 10
-0.41387
 20
-2.2383000000000002
 30
0.0
 10
-0.48499
 20
-2.0071600000000003
 30
0.0
 10
-0.38085
 20
-1.7811000000000001
 30
0.0
 10
-0.32751
 20
-1.5652000000000001
 30
0.0
  0
SPLINE
  5
4E
100
AcDbEntity
  8
Ebene 1
 62
     7
100
AcDbSpline
210
0.0
220
0.0
230
1.0
 70
     1
 71
     3
 72
    20
 73
    16
 74
     0
 42
0.0000000001
 43
0.0000000001
 40
0.0
 40
0.0
 40
0.0
 40
0.0
 40
0.25
 40
0.25
 40
0.25
 40
0.25
 40
0.5
 40
0.5
 40
0.5
 40
0.5
 40
0.75
 40
0.75
 40
0.75
 40
0.75
 40
1.0
 40
1.0
 40
1.0
 40
1.0
 10
-1.5263900000000001
 20
-2.2764000000000002
 30
0.0
 10
-1.5263900000000001
 20
-2.2764000000000002
 30
0.0
 10
-1.3689100000000001
 20
-2.2967200000000001
 30
0.0
 10
-1.3689100000000001
 20
-2.2967200000000001
 30
0.0
 10
-1.3689100000000001
 20
-2.2967200000000001
 30
0.0
 10
-1.3689100000000001
 20
-2.2967200000000001
 30
0.0
 10
-1.4044700000000001
 20
-2.3322800000000004
 30
0.0
 10
-1.4044700000000001
 20
-2.3322800000000004
 30
0.0
 10
-1.4044700000000001
 20
-2.3322800000000004
 30
0.0
 10
-1.3689100000000001
 20
-2.4516600000000004
 30
0.0
 10
-1.5086100000000002
 20
-2.4516600000000004
 30
0.0
 10
-1.4755900000000002
 20
-2.3322800000000004
 30
0.0
 10
-1.4755900000000002
 20
-2.3322800000000004
 30
0.0
 10
-1.4755900000000002
 20
-2.3322800000000004
 30
0.0
 10
-1.5263900000000001
 20
-2.2764000000000002
 30
0.0
 10
-1.5263900000000001
 20
-2.2764000000000002
 30
0.0
  0
SPLINE
  5
4F
100
AcDbEntity
  8
Ebene 1
 62
     7
100
AcDbSpline
210
0.0
220
0.0
230
1.0
 70
     1
 71
     3
 72
     8
 73
     4
 74
     0
 42
0.0000000001
 43
0.0000000001
 40
0.0
 40
0.0
 40
0.0
 40
0.0
 40
1.0
 40
1.0
 40
1.0
 40
1.0
 10
-1.33589
 20
-2.2941800000000003
 30
0.0
 10
-1.1784100000000002
 20
-2.2637
 30
0.0
 10
-1.3003300000000002
 20
-2.4034
 30
0.0
 10
-1.33589
 20
-2.2941800000000003
 30
0.0
  0
SPLINE
  5
50
100
AcDbEntity
  8
Ebene 1
 62
     7
100
AcDbSpline
210
0.0
220
0.0
230
1.0
 70
     1
 71
     3
 72
    12
 73
     8
 74
     0
 42
0.0000000001
 43
0.0000000001
 40
0.0
 40
0.0
 40
0.0
 40
0.0
 40
0.5
 40
0.5
 40
0.5
 40
0.5
 40
1.0
 40
1.0
 40
1.0
 40
1.0
 10
-0.6043700000000001
 20
-2.31196
 30
0.0
 10
-0.53579
 20
-2.35006
 30
0.0
 10
-0.5205500000000001
 20
-2.4973800000000002
 30
0.0
 10
-0.63993
 20
-2.4796
 30
0.0
 10
-0.63993
 20
-2.4796
 30
0.0
 10
-0.65771
 20
-2.4211800000000001
 30
0.0
 10
-0.6221500000000001
 20
-2.3653000000000004
 30
0.0
 10
-0.6043700000000001
 20
-2.31196
 30
0.0
  0
SPLINE
  5
51
100
AcDbEntity
  8
Ebene 1
 62
     7
100
AcDbSpline
210
0.0
220
0.0
230
1.0
 70
     1
 71
     3
 72
    12
 73
     8
 74
     0
 42
0.0000000001
 43
0.0000000001
 40
0.0
 40
0.0
 40
0.0
 40
0.0
 40
0.5
 40
0.5
 40
0.5
 40
0.5
 40
1.0
 40
1.0
 40
1.0
 40
1.0
 10
-1.1453900000000001
 20
-2.3805400000000003
 30
0.0
 10
-1.0234700000000001
 20
-2.3957800000000002
 30
0.0
 10
-0.9193300000000001
 20
-2.5151600000000003
 30
0.0
 10
-0.9193300000000001
 20
-2.6370800000000001
 30
0.0
 10
-0.9193300000000001
 20
-2.6370800000000001
 30
0.0
 10
-1.0920500000000002
 20
-2.7691600000000003
 30
0.0
 10
-1.16317
 20
-2.52278
 30
0.0
 10
-1.1453900000000001
 20
-2.3805400000000003
 30
0.0
  0
ENDSEC
  0
SECTION
  2
OBJECTS
  0
DICTIONARY
  5
19
100
AcDbDictionary
280
     0
281
     1
  3
ACAD_GROUP
350
1A
  3
ACAD_MLINESTYLE
350
1B
  3
ACAD_LAYOUT
350
1E
  3
ACAD_PLOTSETTINGS
350
22
  3
ACAD_PLOTSTYLENAME
350
1F
  3
ACAD_WIPEOUT_VARS
350
23
  0
DICTIONARY
  5
1A
102
{ACAD_REACTORS
330
19
102
}
100
AcDbDictionary
280
     0
281
     1
  0
DICTIONARY
  5
1B
102
{ACAD_REACTORS
330
19
102
}
100
AcDbDictionary
280
     0
281
     1
  3
Standard
350
1C
  0
MLINESTYLE
  5
1C
102
{ACAD_REACTORS
330
1B
102
}
100
AcDbMlineStyle
  2
Standard
 70
     0
  3

 62
     0
 51
90.0
 52
90.0
 71
     2
 49
0.5
 62
   256
  6
BYLAYER
 49
-0.5
 62
   256
  6
BYLAYER
  0
ACDBDICTIONARYWDFLT
  5
1F
102
{ACAD_REACTORS
330
19
102
}
100
AcDbDictionary
281
     1
  3
Normal
350
1D
100
AcDbDictionaryWithDefault
340
1D
  0
ACDBPLACEHOLDER
  5
1D
102
{ACAD_REACTORS
330
1F
102
}
  0
LAYOUT
  5
20
102
{ACAD_REACTORS
330
1E
102
}
100
AcDbPlotSettings
  1

  2

  4

  6

 40
0.0
 41
0.0
 42
0.0
 43
0.0
 44
0.0
 45
0.0
 46
0.0
 47
0.0
 48
0.0
 49
0.0
140
0.0
141
0.0
142
1.0
143
1.0
 70
  1024
 72
     0
 73
     0
 74
     0
  7

 75
     0
147
1.0
148
0.0
149
0.0
100
AcDbLayout
  1
Model
 70
     0
 71
     0
 10
0.0
 20
0.0
 11
0.0
 21
0.0
 12
0.0
 22
0.0
 32
0.0
 14
0.0
 24
0.0
 34
0.0
 15
0.0
 25
0.0
 35
0.0
146
0.0
 13
0.0
 23
0.0
 33
0.0
 16
0.0
 26
0.0
 36
0.0
 17
0.0
 27
0.0
 37
0.0
 76
     0
330
A
331
0
345
0
346
0
  0
LAYOUT
  5
21
102
{ACAD_REACTORS
330
1E
102
}
100
AcDbPlotSettings
  1

  2

  4

  6

 40
0.0
 41
0.0
 42
0.0
 43
0.0
 44
0.0
 45
0.0
 46
0.0
 47
0.0
 48
0.0
 49
0.0
140
0.0
141
0.0
142
1.0
143
1.0
 70
     0
 72
     0
 73
     0
 74
     0
  7

 75
     0
147
1.0
148
0.0
149
0.0
100
AcDbLayout
  1
Layout1
 70
     0
 71
     0
 10
0.0
 20
0.0
 11
0.0
 21
0.0
 12
0.0
 22
0.0
 32
0.0
 14
0.0
 24
0.0
 34
0.0
 15
0.0
 25
0.0
 35
0.0
146
0.0
 13
0.0
 23
0.0
 33
0.0
 16
0.0
 26
0.0
 36
0.0
 17
0.0
 27
0.0
 37
0.0
 76
     0
330
B
331
0
345
0
346
0
  0
DICTIONARY
  5
1E
102
{ACAD_REACTORS
330
19
102
}
100
AcDbDictionary
280
     0
281
     1
  3
Layout1
350
21
  3
Model
350
20
  0
DICTIONARY
  5
22
102
{ACAD_REACTORS
330
19
102
}
100
AcDbDictionary
280
     0
281
     1
  0
WIPEOUTVARIABLES
  5
23
100
AcDbWipeoutVariables
 70
     1
  0
ENDSEC
  0
EOF
