  0
SECTION
  2
HEADER
  9
$ACADVER
  1
AC1015
  9
$ACADMAINTVER
 70
     6
  9
$DWGCODEPAGE
  3
DOS850
  9
$INSBASE
 10
0.0
 20
0.0
 30
0.0
  9
$EXTMIN
 10
-5.51673
 20
-5.33964
 30
1.000000E+20
  9
$EXTMAX
 10
5.5221
 20
5.33343
 30
-1.000000E+20
  9
$LIMMIN
 10
0.0
 20
0.0
  9
$LIMMAX
 10
0.0
 20
0.0
  9
$ORTHOMODE
 70
     0
  9
$REGENMODE
 70
     1
  9
$FILLMODE
 70
     1
  9
$QTEXTMODE
 70
     0
  9
$MIRRTEXT
 70
     1
  9
$LTSCALE
 40
1.0
  9
$ATTMODE
 70
     1
  9
$TEXTSIZE
 40
0.2
  9
$TRACEWID
 40
0.05
  9
$TEXTSTYLE
  7
Standard
  9
$CLAYER
  8
0
  9
$CELTYPE
  6
Continuous
  9
$CECOLOR
 62
   256
  9
$CELTSCALE
 40
1.0
  9
$DISPSILH
 70
     0
  9
$DIMSCALE
 40
1.0
  9
$DIMASZ
 40
0.18
  9
$DIMEXO
 40
0.0625
  9
$DIMDLI
 40
0.38
  9
$DIMRND
 40
0.0
  9
$DIMDLE
 40
0.0
  9
$DIMEXE
 40
0.18
  9
$DIMTP
 40
0.0
  9
$DIMTM
 40
0.0
  9
$DIMTXT
 40
0.18
  9
$DIMCEN
 40
0.09
  9
$DIMTSZ
 40
0.0
  9
$DIMTOL
 70
     0
  9
$DIMLIM
 70
     0
  9
$DIMTIH
 70
     1
  9
$DIMTOH
 70
     1
  9
$DIMSE1
 70
     0
  9
$DIMSE2
 70
     0
  9
$DIMTAD
 70
     0
  9
$DIMZIN
 70
     0
  9
$DIMBLK
  1

  9
$DIMASO
 70
     1
  9
$DIMSHO
 70
     1
  9
$DIMPOST
  1

  9
$DIMAPOST
  1

  9
$DIMALT
 70
     0
  9
$DIMALTD
 70
     2
  9
$DIMALTF
 40
25.4
  9
$DIMLFAC
 40
1.0
  9
$DIMTOFL
 70
     0
  9
$DIMTVP
 40
0.0
  9
$DIMTIX
 70
     0
  9
$DIMSOXD
 70
     0
  9
$DIMSAH
 70
     0
  9
$DIMBLK1
  1

  9
$DIMBLK2
  1

  9
$DIMSTYLE
  2
Standard
  9
$DIMCLRD
 70
     0
  9
$DIMCLRE
 70
     0
  9
$DIMCLRT
 70
     0
  9
$DIMTFAC
 40
1.0
  9
$DIMGAP
 40
0.09
  9
$DIMJUST
 70
     0
  9
$DIMSD1
 70
     0
  9
$DIMSD2
 70
     0
  9
$DIMTOLJ
 70
     1
  9
$DIMTZIN
 70
     0
  9
$DIMALTZ
 70
     0
  9
$DIMALTTZ
 70
     0
  9
$DIMUPT
 70
     0
  9
$DIMDEC
 70
     4
  9
$DIMTDEC
 70
     4
  9
$DIMALTU
 70
     2
  9
$DIMALTTD
 70
     2
  9
$DIMTXSTY
  7
Standard
  9
$DIMAUNIT
 70
     0
  9
$DIMADEC
 70
     0
  9
$DIMALTRND
 40
0.0
  9
$DIMAZIN
 70
     0
  9
$DIMDSEP
 70
     0
  9
$DIMATFIT
 70
     3
  9
$DIMFRAC
 70
     0
  9
$DIMLDRBLK
  1

  9
$DIMLUNIT
 70
     2
  9
$DIMLWD
 70
     0
  9
$DIMLWE
 70
     0
  9
$DIMTMOVE
 70
     0
  9
$LUNITS
 70
     2
  9
$LUPREC
 70
     4
  9
$SKETCHINC
 40
0.1
  9
$FILLETRAD
 40
0.0
  9
$AUNITS
 70
     0
  9
$AUPREC
 70
     0
  9
$MENU
  1
acad
  9
$ELEVATION
 40
0.0
  9
$PELEVATION
 40
0.0
  9
$THICKNESS
 40
0.0
  9
$LIMCHECK
 70
     0
  9
$CHAMFERA
 40
0.0
  9
$CHAMFERB
 40
0.0
  9
$CHAMFERC
 40
0.0
  9
$CHAMFERD
 40
0.0
  9
$SKPOLY
 70
     0
  9
$TDCREATE
 40
0.000000000
  9
$TDUCREATE
 40
0.000000000
  9
$TDUPDATE
 40
0.000000000
  9
$TDUUPDATE
 40
0.000000000
  9
$TDINDWG
 40
0.0000000000
  9
$TDUSRTIMER
 40
0.0000000000
  9
$USRTIMER
 70
     1
  9
$ANGBASE
 50
0.0
  9
$ANGDIR
 70
     0
  9
$PDMODE
 70
     0
  9
$PDSIZE
 40
0.0
  9
$PLINEWID
 40
0.0
  9
$SPLFRAME
 70
     0
  9
$SPLINETYPE
 70
     6
  9
$SPLINESEGS
 70
     8
  9
$HANDSEED
  5
63
  9
$SURFTAB1
 70
     6
  9
$SURFTAB2
 70
     6
  9
$SURFTYPE
 70
     6
  9
$SURFU
 70
     6
  9
$SURFV
 70
     6
  9
$UCSBASE
  2

  9
$UCSNAME
  2

  9
$UCSORG
 10
0.0
 20
0.0
 30
0.0
  9
$UCSXDIR
 10
1.0
 20
0.0
 30
0.0
  9
$UCSYDIR
 10
0.0
 20
1.0
 30
0.0
  9
$UCSORTHOREF
  2

  9
$UCSORTHOVIEW
 70
     0
  9
$UCSORGTOP
 10
0.0
 20
0.0
 30
0.0
  9
$UCSORGBOTTOM
 10
0.0
 20
0.0
 30
0.0
  9
$UCSORGLEFT
 10
0.0
 20
0.0
 30
0.0
  9
$UCSORGRIGHT
 10
0.0
 20
0.0
 30
0.0
  9
$UCSORGFRONT
 10
0.0
 20
0.0
 30
0.0
  9
$UCSORGBACK
 10
0.0
 20
0.0
 30
0.0
  9
$PUCSBASE
  2

  9
$PUCSNAME
  2

  9
$PUCSORG
 10
0.0
 20
0.0
 30
0.0
  9
$PUCSXDIR
 10
1.0
 20
0.0
 30
0.0
  9
$PUCSYDIR
 10
0.0
 20
1.0
 30
0.0
  9
$PUCSORTHOREF
  2

  9
$PUCSORTHOVIEW
 70
     0
  9
$PUCSORGTOP
 10
0.0
 20
0.0
 30
0.0
  9
$PUCSORGBOTTOM
 10
0.0
 20
0.0
 30
0.0
  9
$PUCSORGLEFT
 10
0.0
 20
0.0
 30
0.0
  9
$PUCSORGRIGHT
 10
0.0
 20
0.0
 30
0.0
  9
$PUCSORGFRONT
 10
0.0
 20
0.0
 30
0.0
  9
$PUCSORGBACK
 10
0.0
 20
0.0
 30
0.0
  9
$USERI1
 70
     0
  9
$USERI2
 70
     0
  9
$USERI3
 70
     0
  9
$USERI4
 70
     0
  9
$USERI5
 70
     0
  9
$USERR1
 40
0.0
  9
$USERR2
 40
0.0
  9
$USERR3
 40
0.0
  9
$USERR4
 40
0.0
  9
$USERR5
 40
0.0
  9
$WORLDVIEW
 70
     1
  9
$SHADEDGE
 70
     3
  9
$SHADEDIF
 70
    70
  9
$TILEMODE
 70
     1
  9
$MAXACTVP
 70
    16
  9
$PINSBASE
 10
0.0
 20
0.0
 30
0.0
  9
$PLIMCHECK
 70
     0
  9
$PEXTMIN
 10
1.000000E+20
 20
1.000000E+20
 30
1.000000E+20
  9
$PEXTMAX
 10
-1.000000E+20
 20
-1.000000E+20
 30
-1.000000E+20
  9
$PLIMMIN
 10
0.0
 20
0.0
  9
$PLIMMAX
 10
12.0
 20
9.0
  9
$UNITMODE
 70
     0
  9
$VISRETAIN
 70
     0
  9
$PLINEGEN
 70
     1
  9
$PSLTSCALE
 70
     0
  9
$TREEDEPTH
 70
  3020
  9
$CMLSTYLE
  2
Standard
  9
$CMLJUST
 70
     0
  9
$CMLSCALE
 40
1.0
  9
$PROXYGRAPHICS
 70
     0
  9
$MEASUREMENT
 70
     0
  9
$CELWEIGHT
370
     0
  9
$ENDCAPS
280
     0
  9
$JOINSTYLE
280
     0
  9
$LWDISPLAY
290
     0
  9
$INSUNITS
 70
     5
  9
$HYPERLINKBASE
  1

  9
$XEDIT
290
     1
  9
$CEPSNTYPE
380
     0
  9
$PSTYLEMODE
290
     1
  9
$FINGERPRINTGUID
  2

  9
$VERSIONGUID
  2

  9
$EXTNAMES
290
     1
  9
$PSVPSCALE
 40
0.0
  0
ENDSEC
  0
SECTION
  2
CLASSES
  0
CLASS
  1
LWPOLYLINE
  2
AcDbPolyline
  3
AutoCAD 2000
 90
    32768
280
     0
281
     1
  0
CLASS
  1
IMAGE
  2
AcDbRasterImage
  3
ISM
 90
    32895
280
     0
281
     1
  0
CLASS
  1
OLE2FRAME
  2
AcDbOle2Frame
  3
AutoCAD 2000
 90
    32768
280
     0
281
     1
  0
CLASS
  1
HATCH
  2
AcDbHatch
  3
AutoCAD 2000
 90
    32768
280
     0
281
     1
  0
CLASS
  1
DICTIONARYVAR
  2
AcDbDictionaryVar
  3
AutoCAD 2000
 90
    32768
280
     0
281
     0
  0
CLASS
  1
RASTERVARIABLES
  2
AcDbRasterVariables
  3
ISM
 90
    32768
280
     0
281
     0
  0
CLASS
  1
IMAGEDEF
  2
AcDbRasterImageDef
  3
ISM
 90
    32768
280
     0
281
     0
  0
CLASS
  1
IMAGEDEF_REACTOR
  2
AcDbRasterImageDefReactor
  3
ISM
 90
    32769
280
     0
281
     0
  0
CLASS
  1
IDBUFFER
  2
AcDbIdBuffer
  3
AutoCAD 2000
 90
    32768
280
     0
281
     0
  0
CLASS
  1
SPATIAL_FILTER
  2
AcDbSpatialFilter
  3
AutoCAD 2000
 90
    32768
280
     0
281
     0
  0
CLASS
  1
XRECORD
  2
AcDbXrecord
  3
AutoCAD 2000
 90
    32768
280
     0
281
     0
  0
CLASS
  1
SORTENTSTABLE
  2
AcDbSortentsTable
  3
AutoCAD 2000
 90
    32768
280
     0
281
     0
  0
CLASS
  1
LAYER_INDEX
  2
AcDbLayerIndex
  3
AutoCAD 2000
 90
    32768
280
     0
281
     0
  0
CLASS
  1
SPATIAL_INDEX
  2
AcDbSpatialIndex
  3
AutoCAD 2000
 90
    32768
280
     0
281
     0
  0
CLASS
  1
OBJECT_PTR
  2
CAseDLPNTableRecord
  3
"ASE-LPNTableRecord"
 90
    32769
280
     0
281
     0
  0
CLASS
  1
LAYOUT
  2
AcDbLayout
  3
AutoCAD 2000
 90
        0
280
     0
281
     0
  0
CLASS
  1
PLOTSETTINGS
  2
AcDbPlotSettings
  3
AutoCAD 2000
 90
    32768
280
     0
281
     0
  0
CLASS
  1
ACDBDICTIONARYWDFLT
  2
AcDbDictionaryWithDefault
  3
AutoCAD 2000
 90
        0
280
     0
281
     0
  0
CLASS
  1
ACDBPLACEHOLDER
  2
AcDbPlaceHolder
  3
AutoCAD 2000
 90
        0
280
     0
281
     0
  0
CLASS
  1
VBA_PROJECT
  2
AcDbVbaProject
  3
acadvba
 90
    32768
280
     0
281
     0
  0
CLASS
  1
WIPEOUT
  2
AcDbWipeout
  3
WipeOut|AutoCAD Express Tool|expresstools@autodesk.com
 90
    32895
280
     0
281
     1
  0
CLASS
  1
WIPEOUTVARIABLES
  2
AcDbWipeoutVariables
  3
WipeOut|AutoCAD Express Tool|expresstools@autodesk.com
 90
        0
280
     0
281
     0
  0
CLASS
  1
RTEXT
  2
RText
  3
RText|AutoCAD Express Tool|expresstools@autodesk.com
 90
    32768
280
     0
281
     1
  0
CLASS
  1
ARCALIGNEDTEXT
  2
AcDbArcAlignedText
  3
ATEXT|AutoCAD Express Tool|expresstools@autodesk.com
 90
    32768
280
     0
281
     1
  0
ENDSEC
  0
SECTION
  2
TABLES
  0
TABLE
  2
VPORT
  5
7
100
AcDbSymbolTable
 70
     1
  0
VPORT
  5
15
100
AcDbSymbolTableRecord
100
AcDbViewportTableRecord
  2
*ACTIVE
 70
     0
 10
0.0
 20
0.0
 11
1.0
 21
1.0
 12
6.591288
 22
4.579184
 13
0.0
 23
0.0
 14
1.0
 24
1.0
 15
0.0
 25
0.0
 16
0.0
 26
0.0
 36
1.0
 17
0.0
 27
0.0
 37
0.0
 40
9.158369
 41
0.688564
 42
50.0
 43
0.0
 44
0.0
 50
0.0
 51
0.0
 71
     0
 72
   100
 73
     1
 74
     1
 75
     0
 76
     0
 77
     0
 78
     0
281
     0
 65
     0
110
0.0
120
0.0
130
0.0
111
1.0
121
0.0
131
0.0
112
0.0
122
1.0
132
0.0
345
0
346
0
 79
     0
146
0.0
  0
ENDTAB
  0
TABLE
  2
LTYPE
  5
4
100
AcDbSymbolTable
 70
     3
  0
LTYPE
  5
11
100
AcDbSymbolTableRecord
100
AcDbLinetypeTableRecord
  2
ByBlock
 70
    64
  3

 72
    65
 73
     0
 40
0.0
  0
LTYPE
  5
12
100
AcDbSymbolTableRecord
100
AcDbLinetypeTableRecord
  2
ByLayer
 70
    64
  3

 72
    65
 73
     0
 40
0.0
  0
LTYPE
  5
13
100
AcDbSymbolTableRecord
100
AcDbLinetypeTableRecord
  2
Continuous
 70
    64
  3
Solid line
 72
    65
 73
     0
 40
0.0
  0
ENDTAB
  0
TABLE
  2
LAYER
  5
2
100
AcDbSymbolTable
 70
     2
  0
LAYER
  5
14
100
AcDbSymbolTableRecord
100
AcDbLayerTableRecord
  2
0
 70
     0
 62
     7
  6
Continuous
290
     1
370
    -3
390
1D
  0
LAYER
  5
24
100
AcDbSymbolTableRecord
100
AcDbLayerTableRecord
  2
Ebene 1
 70
     0
 62
     7
  6
Continuous
290
     1
370
    -3
390
1F
  0
ENDTAB
  0
TABLE
  2
STYLE
  5
3
100
AcDbSymbolTable
 70
     1
  0
STYLE
  5
17
100
AcDbSymbolTableRecord
100
AcDbTextStyleTableRecord
  2
Standard
 70
     0
 40
0.0
 41
1.0
 50
0.0
 71
     0
 42
0.0
  3
txt
  4

  0
ENDTAB
  0
TABLE
  2
VIEW
  5
5
100
AcDbSymbolTable
 70
     0
  0
ENDTAB
  0
TABLE
  2
UCS
  5
6
100
AcDbSymbolTable
 70
     0
  0
ENDTAB
  0
TABLE
  2
APPID
  5
8
100
AcDbSymbolTable
 70
     1
  0
APPID
  5
16
100
AcDbSymbolTableRecord
100
AcDbRegAppTableRecord
  2
ACAD
 70
     0
  0
ENDTAB
  0
TABLE
  2
DIMSTYLE
  5
9
100
AcDbSymbolTable
 70
     1
100
AcDbDimStyleTable
 71
     0
  0
DIMSTYLE
105
18
100
AcDbSymbolTableRecord
100
AcDbDimStyleTableRecord
  2
Standard
 70
     0
  3

  4

 40
1.0
 41
0.18
 42
0.0625
 43
0.38
 44
0.18
 45
0.0
 46
0.0
 47
0.0
 48
0.0
 71
     0
 72
     0
 73
     1
 74
     1
 75
     0
 76
     0
 77
     0
 78
     0
 79
     0
140
0.18
141
0.09
142
0.0
143
25.4
144
1.0
145
0.0
146
1.0
147
0.09
148
0.0
170
     0
171
     2
172
     0
173
     0
174
     0
175
     0
176
     0
177
     0
178
     0
179
     0
271
     4
272
     4
273
     2
274
     2
275
     0
276
     0
277
     2
278
    46
279
     0
280
     0
281
     0
282
     0
283
     1
284
     0
285
     0
286
     0
288
     0
340
17
341
0
342
0
343
0
344
0
371
    -2
372
    -2
  0
ENDTAB
  0
TABLE
  2
BLOCK_RECORD
  5
1
100
AcDbSymbolTable
 70
     0
  0
BLOCK_RECORD
  5
A
100
AcDbSymbolTableRecord
100
AcDbBlockTableRecord
  2
*MODEL_SPACE
340
20
  0
BLOCK_RECORD
  5
B
100
AcDbSymbolTableRecord
100
AcDbBlockTableRecord
  2
*PAPER_SPACE
340
21
  0
ENDTAB
  0
ENDSEC
  0
SECTION
  2
BLOCKS
  0
BLOCK
  5
D
100
AcDbEntity
  8
0
100
AcDbBlockBegin
  2
*MODEL_SPACE
 70
     0
 10
0.0
 20
0.0
 30
0.0
  3
*MODEL_SPACE
  1

  0
ENDBLK
  5
E
100
AcDbEntity
  8
0
100
AcDbBlockEnd
  0
BLOCK
  5
F
100
AcDbEntity
 67
     1
  8
0
100
AcDbBlockBegin
  2
*PAPER_SPACE
 70
     0
 10
0.0
 20
0.0
 30
0.0
  3
*PAPER_SPACE
  1

  0
ENDBLK
  5
10
100
AcDbEntity
 67
     1
  8
0
100
AcDbBlockEnd
  0
ENDSEC
  0
SECTION
  2
ENTITIES
  0
SPLINE
  5
25
100
AcDbEntity
  8
Ebene 1
100
AcDbSpline
210
0.0
220
0.0
230
1.0
 70
     1
 71
     3
 72
   312
 73
   308
 74
     0
 42
0.0000000001
 43
0.0000000001
 40
0.0
 40
0.0
 40
0.0
 40
0.0
 40
0.012987012987013
 40
0.012987012987013
 40
0.012987012987013
 40
0.012987012987013
 40
0.025974025974026
 40
0.025974025974026
 40
0.025974025974026
 40
0.025974025974026
 40
0.038961038961039
 40
0.038961038961039
 40
0.038961038961039
 40
0.038961038961039
 40
0.051948051948052
 40
0.051948051948052
 40
0.051948051948052
 40
0.051948051948052
 40
0.0649350649350649
 40
0.0649350649350649
 40
0.0649350649350649
 40
0.0649350649350649
 40
0.0779220779220779
 40
0.0779220779220779
 40
0.0779220779220779
 40
0.0779220779220779
 40
0.0909090909090909
 40
0.0909090909090909
 40
0.0909090909090909
 40
0.0909090909090909
 40
0.1038961038961039
 40
0.1038961038961039
 40
0.1038961038961039
 40
0.1038961038961039
 40
0.1168831168831169
 40
0.1168831168831169
 40
0.1168831168831169
 40
0.1168831168831169
 40
0.1298701298701299
 40
0.1298701298701299
 40
0.1298701298701299
 40
0.1298701298701299
 40
0.1428571428571429
 40
0.1428571428571429
 40
0.1428571428571429
 40
0.1428571428571429
 40
0.1558441558441559
 40
0.1558441558441559
 40
0.1558441558441559
 40
0.1558441558441559
 40
0.1688311688311689
 40
0.1688311688311689
 40
0.1688311688311689
 40
0.1688311688311689
 40
0.1818181818181819
 40
0.1818181818181819
 40
0.1818181818181819
 40
0.1818181818181819
 40
0.1948051948051948
 40
0.1948051948051948
 40
0.1948051948051948
 40
0.1948051948051948
 40
0.2077922077922078
 40
0.2077922077922078
 40
0.2077922077922078
 40
0.2077922077922078
 40
0.2207792207792208
 40
0.2207792207792208
 40
0.2207792207792208
 40
0.2207792207792208
 40
0.2337662337662338
 40
0.2337662337662338
 40
0.2337662337662338
 40
0.2337662337662338
 40
0.2467532467532468
 40
0.2467532467532468
 40
0.2467532467532468
 40
0.2467532467532468
 40
0.2597402597402598
 40
0.2597402597402598
 40
0.2597402597402598
 40
0.2597402597402598
 40
0.2727272727272728
 40
0.2727272727272728
 40
0.2727272727272728
 40
0.2727272727272728
 40
0.2857142857142858
 40
0.2857142857142858
 40
0.2857142857142858
 40
0.2857142857142858
 40
0.2987012987012988
 40
0.2987012987012988
 40
0.2987012987012988
 40
0.2987012987012988
 40
0.3116883116883117
 40
0.3116883116883117
 40
0.3116883116883117
 40
0.3116883116883117
 40
0.3246753246753247
 40
0.3246753246753247
 40
0.3246753246753247
 40
0.3246753246753247
 40
0.3376623376623377
 40
0.3376623376623377
 40
0.3376623376623377
 40
0.3376623376623377
 40
0.3506493506493507
 40
0.3506493506493507
 40
0.3506493506493507
 40
0.3506493506493507
 40
0.3636363636363637
 40
0.3636363636363637
 40
0.3636363636363637
 40
0.3636363636363637
 40
0.3766233766233767
 40
0.3766233766233767
 40
0.3766233766233767
 40
0.3766233766233767
 40
0.3896103896103897
 40
0.3896103896103897
 40
0.3896103896103897
 40
0.3896103896103897
 40
0.4025974025974027
 40
0.4025974025974027
 40
0.4025974025974027
 40
0.4025974025974027
 40
0.4155844155844157
 40
0.4155844155844157
 40
0.4155844155844157
 40
0.4155844155844157
 40
0.4285714285714287
 40
0.4285714285714287
 40
0.4285714285714287
 40
0.4285714285714287
 40
0.4415584415584417
 40
0.4415584415584417
 40
0.4415584415584417
 40
0.4415584415584417
 40
0.4545454545454546
 40
0.4545454545454546
 40
0.4545454545454546
 40
0.4545454545454546
 40
0.4675324675324676
 40
0.4675324675324676
 40
0.4675324675324676
 40
0.4675324675324676
 40
0.4805194805194806
 40
0.4805194805194806
 40
0.4805194805194806
 40
0.4805194805194806
 40
0.4935064935064936
 40
0.4935064935064936
 40
0.4935064935064936
 40
0.4935064935064936
 40
0.5064935064935066
 40
0.5064935064935066
 40
0.5064935064935066
 40
0.5064935064935066
 40
0.5194805194805195
 40
0.5194805194805195
 40
0.5194805194805195
 40
0.5194805194805195
 40
0.5324675324675325
 40
0.5324675324675325
 40
0.5324675324675325
 40
0.5324675324675325
 40
0.5454545454545455
 40
0.5454545454545455
 40
0.5454545454545455
 40
0.5454545454545455
 40
0.5584415584415585
 40
0.5584415584415585
 40
0.5584415584415585
 40
0.5584415584415585
 40
0.5714285714285715
 40
0.5714285714285715
 40
0.5714285714285715
 40
0.5714285714285715
 40
0.5844155844155845
 40
0.5844155844155845
 40
0.5844155844155845
 40
0.5844155844155845
 40
0.5974025974025975
 40
0.5974025974025975
 40
0.5974025974025975
 40
0.5974025974025975
 40
0.6103896103896105
 40
0.6103896103896105
 40
0.6103896103896105
 40
0.6103896103896105
 40
0.6233766233766235
 40
0.6233766233766235
 40
0.6233766233766235
 40
0.6233766233766235
 40
0.6363636363636365
 40
0.6363636363636365
 40
0.6363636363636365
 40
0.6363636363636365
 40
0.6493506493506495
 40
0.6493506493506495
 40
0.6493506493506495
 40
0.6493506493506495
 40
0.6623376623376625
 40
0.6623376623376625
 40
0.6623376623376625
 40
0.6623376623376625
 40
0.6753246753246754
 40
0.6753246753246754
 40
0.6753246753246754
 40
0.6753246753246754
 40
0.6883116883116884
 40
0.6883116883116884
 40
0.6883116883116884
 40
0.6883116883116884
 40
0.7012987012987014
 40
0.7012987012987014
 40
0.7012987012987014
 40
0.7012987012987014
 40
0.7142857142857144
 40
0.7142857142857144
 40
0.7142857142857144
 40
0.7142857142857144
 40
0.7272727272727274
 40
0.7272727272727274
 40
0.7272727272727274
 40
0.7272727272727274
 40
0.7402597402597404
 40
0.7402597402597404
 40
0.7402597402597404
 40
0.7402597402597404
 40
0.7532467532467534
 40
0.7532467532467534
 40
0.7532467532467534
 40
0.7532467532467534
 40
0.7662337662337664
 40
0.7662337662337664
 40
0.7662337662337664
 40
0.7662337662337664
 40
0.7792207792207794
 40
0.7792207792207794
 40
0.7792207792207794
 40
0.7792207792207794
 40
0.7922077922077924
 40
0.7922077922077924
 40
0.7922077922077924
 40
0.7922077922077924
 40
0.8051948051948054
 40
0.8051948051948054
 40
0.8051948051948054
 40
0.8051948051948054
 40
0.8181818181818183
 40
0.8181818181818183
 40
0.8181818181818183
 40
0.8181818181818183
 40
0.8311688311688313
 40
0.8311688311688313
 40
0.8311688311688313
 40
0.8311688311688313
 40
0.8441558441558443
 40
0.8441558441558443
 40
0.8441558441558443
 40
0.8441558441558443
 40
0.8571428571428573
 40
0.8571428571428573
 40
0.8571428571428573
 40
0.8571428571428573
 40
0.8701298701298703
 40
0.8701298701298703
 40
0.8701298701298703
 40
0.8701298701298703
 40
0.8831168831168833
 40
0.8831168831168833
 40
0.8831168831168833
 40
0.8831168831168833
 40
0.8961038961038963
 40
0.8961038961038963
 40
0.8961038961038963
 40
0.8961038961038963
 40
0.9090909090909093
 40
0.9090909090909093
 40
0.9090909090909093
 40
0.9090909090909093
 40
0.9220779220779223
 40
0.9220779220779223
 40
0.9220779220779223
 40
0.9220779220779223
 40
0.9350649350649353
 40
0.9350649350649353
 40
0.9350649350649353
 40
0.9350649350649353
 40
0.9480519480519483
 40
0.9480519480519483
 40
0.9480519480519483
 40
0.9480519480519483
 40
0.9610389610389613
 40
0.9610389610389613
 40
0.9610389610389613
 40
0.9610389610389613
 40
0.9740259740259742
 40
0.9740259740259742
 40
0.9740259740259742
 40
0.9740259740259742
 40
0.9870129870129872
 40
0.9870129870129872
 40
0.9870129870129872
 40
0.9870129870129872
 40
1.0
 40
1.0
 40
1.0
 40
1.0
 10
-2.6795500000000003
 20
-2.1748000000000003
 30
0.0
 10
-2.6795500000000003
 20
-2.1748000000000003
 30
0.0
 10
-2.7100300000000002
 20
-2.1595600000000004
 30
0.0
 10
-2.7100300000000002
 20
-2.1595600000000004
 30
0.0
 10
-2.7100300000000002
 20
-2.1595600000000004
 30
0.0
 10
-2.7100300000000002
 20
-2.1595600000000004
 30
0.0
 10
-2.8395700000000001
 20
-2.1773400000000001
 30
0.0
 10
-2.8395700000000001
 20
-2.1773400000000001
 30
0.0
 10
-2.8395700000000001
 20
-2.1773400000000001
 30
0.0
 10
-3.2332700000000001
 20
-2.4465800000000004
 30
0.0
 10
-3.7082500000000005
 20
-2.6624800000000004
 30
0.0
 10
-3.9647900000000003
 20
-3.0815800000000002
 30
0.0
 10
-3.9647900000000003
 20
-3.0815800000000002
 30
0.0
 10
-4.1552899999999999
 20
-3.2644600000000001
 30
0.0
 10
-4.2924500000000005
 20
-3.4676600000000004
 30
0.0
 10
-4.4346900000000007
 20
-3.6353000000000004
 30
0.0
 10
-4.4346900000000007
 20
-3.6353000000000004
 30
0.0
 10
-4.3762700000000008
 20
-3.0003000000000002
 30
0.0
 10
-3.8327100000000005
 20
-2.3830800000000001
 30
0.0
 10
-3.3678900000000005
 20
-1.9157200000000001
 30
0.0
 10
-3.3678900000000005
 20
-1.9157200000000001
 30
0.0
 10
-3.3678900000000005
 20
-1.9131800000000001
 30
0.0
 10
-3.3678900000000005
 20
-1.9106400000000001
 30
0.0
 10
-3.3704300000000003
 20
-1.9081000000000001
 30
0.0
 10
-3.3704300000000003
 20
-1.9081000000000001
 30
0.0
 10
-3.6752300000000004
 20
-1.7785600000000001
 30
0.0
 10
-4.0689299999999999
 20
-2.0097
 30
0.0
 10
-4.4118300000000001
 20
-2.0097
 30
0.0
 10
-4.4118300000000001
 20
-2.0097
 30
0.0
 10
-4.4118300000000001
 20
-2.0097
 30
0.0
 10
-5.4887900000000007
 20
-2.4948400000000004
 30
0.0
 10
-5.4887900000000007
 20
-2.4948400000000004
 30
0.0
 10
-5.4887900000000007
 20
-2.4948400000000004
 30
0.0
 10
-5.0188900000000007
 20
-1.9258800000000003
 30
0.0
 10
-4.2670500000000002
 20
-1.5906000000000002
 30
0.0
 10
-3.5787100000000005
 20
-1.4077200000000001
 30
0.0
 10
-3.5787100000000005
 20
-1.4077200000000001
 30
0.0
 10
-3.7742900000000001
 20
-1.1054600000000001
 30
0.0
 10
-4.6124900000000002
 20
-1.4382000000000001
 30
0.0
 10
-4.6988500000000002
 20
-1.2553200000000002
 30
0.0
 10
-4.6988500000000002
 20
-1.2553200000000002
 30
0.0
 10
-4.56677
 20
-1.1588000000000001
 30
0.0
 10
-4.43215
 20
-1.12324
 30
0.0
 10
-4.3508700000000005
 20
-1.1156200000000001
 30
0.0
 10
-4.3508700000000005
 20
-1.1156200000000001
 30
0.0
 10
-3.9622500000000005
 20
-1.0699000000000001
 30
0.0
 10
-3.7082500000000005
 20
-0.9403600000000001
 30
0.0
 10
-3.5660100000000003
 20
-0.7651000000000001
 30
0.0
 10
-3.5660100000000003
 20
-0.7651000000000001
 30
0.0
 10
-3.5304500000000001
 20
-0.65588
 30
0.0
 10
-3.4974300000000005
 20
-0.5238
 30
0.0
 10
-3.4821900000000001
 20
-0.37648
 30
0.0
 10
-3.4821900000000001
 20
-0.37648
 30
0.0
 10
-3.4593300000000005
 20
-0.1174
 30
0.0
 10
-3.6193500000000003
 20
0.19501
 30
0.0
 10
-3.7234900000000004
 20
0.37027
 30
0.0
 10
-3.7234900000000004
 20
0.37027
 30
0.0
 10
-3.9647900000000003
 20
0.6293500000000001
 30
0.0
 10
-4.3153100000000002
 20
0.6903100000000001
 30
0.0
 10
-4.7267900000000003
 20
0.65983
 30
0.0
 10
-4.7267900000000003
 20
0.65983
 30
0.0
 10
-4.9731700000000005
 20
0.63951
 30
0.0
 10
-5.2525700000000004
 20
0.66237
 30
0.0
 10
-5.5167300000000008
 20
0.4642500000000001
 30
0.0
 10
-5.5167300000000008
 20
0.4642500000000001
 30
0.0
 10
-5.1763700000000004
 20
1.0890900000000001
 30
0.0
 10
-4.2746700000000004
 20
1.0433700000000001
 30
0.0
 10
-3.6726900000000002
 20
1.1170300000000002
 30
0.0
 10
-3.6726900000000002
 20
1.1170300000000002
 30
0.0
 10
-3.6422100000000004
 20
1.1322700000000001
 30
0.0
 10
-3.6117300000000001
 20
1.15259
 30
0.0
 10
-3.5812500000000003
 20
1.1729100000000001
 30
0.0
 10
-3.5812500000000003
 20
1.1729100000000001
 30
0.0
 10
-4.5058100000000003
 20
2.2143100000000002
 30
0.0
 10
-4.8969700000000005
 20
3.8932500000000001
 30
0.0
 10
-4.1121100000000004
 20
5.0997500000000002
 30
0.0
 10
-4.1121100000000004
 20
5.0997500000000002
 30
0.0
 10
-4.3356300000000001
 20
4.0685100000000007
 30
0.0
 10
-3.7615900000000004
 20
2.4962500000000003
 30
0.0
 10
-2.7049500000000002
 20
2.12541
 30
0.0
 10
-2.7049500000000002
 20
2.12541
 30
0.0
 10
-2.6668500000000002
 20
2.1279500000000002
 30
0.0
 10
-2.6262100000000004
 20
2.13049
 30
0.0
 10
-2.5855700000000001
 20
2.13049
 30
0.0
 10
-2.5855700000000001
 20
2.13049
 30
0.0
 10
-2.6566900000000002
 20
2.63849
 30
0.0
 10
-2.6871700000000001
 20
3.2049100000000004
 30
0.0
 10
-2.4128500000000002
 20
3.6443300000000005
 30
0.0
 10
-2.4128500000000002
 20
3.6443300000000005
 30
0.0
 10
-2.2833100000000002
 20
3.5274900000000002
 30
0.0
 10
-2.3264900000000002
 20
2.6715100000000001
 30
0.0
 10
-2.02677
 20
2.3387700000000002
 30
0.0
 10
-2.02677
 20
2.3387700000000002
 30
0.0
 10
-1.6889500000000002
 20
2.8239100000000001
 30
0.0
 10
-1.7219700000000002
 20
3.5427300000000002
 30
0.0
 10
-1.2698500000000001
 20
3.9440500000000003
 30
0.0
 10
-1.2698500000000001
 20
3.9440500000000003
 30
0.0
 10
-1.4882900000000001
 20
3.4766900000000005
 30
0.0
 10
-1.2190500000000002
 20
2.6562700000000001
 30
0.0
 10
-0.8507500000000001
 20
3.4436700000000005
 30
0.0
 10
-0.8507500000000001
 20
3.4436700000000005
 30
0.0
 10
-0.78471
 20
3.4258900000000003
 30
0.0
 10
-0.8355100000000001
 20
3.2912700000000004
 30
0.0
 10
-0.8355100000000001
 20
3.2430100000000004
 30
0.0
 10
-0.8355100000000001
 20
3.2430100000000004
 30
0.0
 10
-0.86853
 20
2.97377
 30
0.0
 10
-0.70089
 20
2.59023
 30
0.0
 10
-0.36815
 20
2.6562700000000001
 30
0.0
 10
-0.36815
 20
2.6562700000000001
 30
0.0
 10
-0.20051
 20
3.5097100000000001
 30
0.0
 10
-0.16495
 20
4.4317299999999999
 30
0.0
 10
0.18302
 20
5.2165900000000001
 30
0.0
 10
0.18302
 20
5.2165900000000001
 30
0.0
 10
0.55132
 20
4.4469700000000003
 30
0.0
 10
0.5183000000000001
 20
3.5274900000000002
 30
0.0
 10
0.63514
 20
2.6715100000000001
 30
0.0
 10
0.63514
 20
2.6715100000000001
 30
0.0
 10
1.0872600000000001
 20
2.5064100000000002
 30
0.0
 10
0.8358000000000001
 20
3.4589100000000004
 30
0.0
 10
1.10504
 20
3.2252300000000003
 30
0.0
 10
1.10504
 20
3.2252300000000003
 30
0.0
 10
1.4377800000000001
 20
1.9704700000000002
 30
0.0
 10
1.3387200000000001
 20
4.2463100000000003
 30
0.0
 10
1.5724
 20
3.7764100000000003
 30
0.0
 10
1.5724
 20
3.7764100000000003
 30
0.0
 10
1.7705200000000001
 20
3.2353900000000002
 30
0.0
 10
2.0143600000000004
 20
2.7553300000000003
 30
0.0
 10
2.2632800000000004
 20
2.2447900000000001
 30
0.0
 10
2.2632800000000004
 20
2.2447900000000001
 30
0.0
 10
2.2734400000000003
 20
2.2473300000000003
 30
0.0
 10
2.2836000000000003
 20
2.24987
 30
0.0
 10
2.2937600000000002
 20
2.2524100000000002
 30
0.0
 10
2.2937600000000002
 20
2.2524100000000002
 30
0.0
 10
2.5274400000000004
 20
2.6791300000000002
 30
0.0
 10
2.2302600000000004
 20
3.4004900000000005
 30
0.0
 10
2.4436200000000001
 20
3.6951300000000002
 30
0.0
 10
2.4436200000000001
 20
3.6951300000000002
 30
0.0
 10
2.8932000000000002
 20
3.3242900000000004
 30
0.0
 10
2.7865200000000003
 20
2.7223100000000002
 30
0.0
 10
2.9262200000000003
 20
2.2473300000000003
 30
0.0
 10
2.9262200000000003
 20
2.2473300000000003
 30
0.0
 10
2.9465400000000002
 20
2.2422500000000003
 30
0.0
 10
2.9694000000000003
 20
2.2397100000000001
 30
0.0
 10
2.9897200000000002
 20
2.2346300000000001
 30
0.0
 10
2.9897200000000002
 20
2.2346300000000001
 30
0.0
 10
3.7771200000000005
 20
3.0601300000000005
 30
0.0
 10
3.6780600000000003
 20
4.4952300000000003
 30
0.0
 10
3.5459800000000001
 20
5.3334300000000008
 30
0.0
 10
3.5459800000000001
 20
5.3334300000000008
 30
0.0
 10
3.5459800000000001
 20
5.3334300000000008
 30
0.0
 10
3.6475800000000005
 20
5.2673900000000007
 30
0.0
 10
3.6475800000000005
 20
5.2673900000000007
 30
0.0
 10
3.6475800000000005
 20
5.2673900000000007
 30
0.0
 10
4.5340400000000001
 20
4.1878900000000003
 30
0.0
 10
4.3968800000000003
 20
2.5318100000000001
 30
0.0
 10
3.7872800000000004
 20
1.3659500000000002
 30
0.0
 10
3.7872800000000004
 20
1.3659500000000002
 30
0.0
 10
3.8228400000000002
 20
1.27451
 30
0.0
 10
3.8304600000000004
 20
1.2237100000000001
 30
0.0
 10
3.8279200000000002
 20
1.1830700000000001
 30
0.0
 10
3.8279200000000002
 20
1.1830700000000001
 30
0.0
 10
4.41974
 20
0.9239900000000001
 30
0.0
 10
5.1919000000000004
 20
0.5887100000000001
 30
0.0
 10
5.5221
 20
-0.06914
 30
0.0
 10
5.5221
 20
-0.06914
 30
0.0
 10
5.06236
 20
0.20771
 30
0.0
 10
4.5061
 20
0.61665
 30
0.0
 10
3.8990400000000003
 20
0.5048900000000001
 30
0.0
 10
3.8990400000000003
 20
0.5048900000000001
 30
0.0
 10
3.8482400000000001
 20
0.42869
 30
0.0
 10
3.7466400000000002
 20
0.26613
 30
0.0
 10
3.6094800000000005
 20
0.01721
 30
0.0
 10
3.6094800000000005
 20
0.01721
 30
0.0
 10
3.5002600000000004
 20
-0.1809
 30
0.0
 10
3.4697800000000001
 20
-0.41204
 30
0.0
 10
3.4621600000000003
 20
-0.5796800000000001
 30
0.0
 10
3.4621600000000003
 20
-0.5796800000000001
 30
0.0
 10
3.4748600000000005
 20
-0.6482600000000001
 30
0.0
 10
3.4951800000000004
 20
-0.71938
 30
0.0
 10
3.5307400000000002
 20
-0.7905000000000001
 30
0.0
 10
3.5307400000000002
 20
-0.7905000000000001
 30
0.0
 10
3.8634800000000005
 20
-0.7727200000000001
 30
0.0
 10
4.3664000000000005
 20
-1.0572000000000001
 30
0.0
 10
4.4502200000000007
 20
-1.2400800000000001
 30
0.0
 10
4.4502200000000007
 20
-1.2400800000000001
 30
0.0
 10
4.3156000000000008
 20
-1.2400800000000001
 30
0.0
 10
4.19876
 20
-1.1892800000000001
 30
0.0
 10
4.0819200000000002
 20
-1.1562600000000001
 30
0.0
 10
4.0819200000000002
 20
-1.1562600000000001
 30
0.0
 10
3.9650800000000004
 20
-1.0902200000000002
 30
0.0
 10
3.8152200000000005
 20
-1.1054600000000001
 30
0.0
 10
3.6653600000000002
 20
-1.1054600000000001
 30
0.0
 10
3.6653600000000002
 20
-1.1054600000000001
 30
0.0
 10
3.6196400000000004
 20
-1.1156200000000001
 30
0.0
 10
3.5942400000000001
 20
-1.1308600000000002
 30
0.0
 10
3.5840800000000002
 20
-1.1461000000000001
 30
0.0
 10
3.5840800000000002
 20
-1.1461000000000001
 30
0.0
 10
3.5891600000000001
 20
-1.16388
 30
0.0
 10
3.5917000000000003
 20
-1.1816600000000002
 30
0.0
 10
3.5917000000000003
 20
-1.1969000000000001
 30
0.0
 10
3.5917000000000003
 20
-1.1969000000000001
 30
0.0
 10
3.6831400000000003
 20
-1.33406
 30
0.0
 10
4.2648000000000001
 20
-1.5728200000000001
 30
0.0
 10
4.3664000000000005
 20
-1.7938000000000001
 30
0.0
 10
4.3664000000000005
 20
-1.7938000000000001
 30
0.0
 10
4.3664000000000005
 20
-1.7938000000000001
 30
0.0
 10
4.7194600000000007
 20
-2.1595600000000004
 30
0.0
 10
4.7194600000000007
 20
-2.1595600000000004
 30
0.0
 10
4.7194600000000007
 20
-2.1595600000000004
 30
0.0
 10
4.7677200000000006
 20
-2.2611600000000003
 30
0.0
 10
4.9201200000000007
 20
-2.3627600000000002
 30
0.0
 10
4.8693200000000001
 20
-2.4796
 30
0.0
 10
4.8693200000000001
 20
-2.4796
 30
0.0
 10
4.33338
 20
-2.14432
 30
0.0
 10
3.6298000000000004
 20
-1.5906000000000002
 30
0.0
 10
3.0456000000000003
 20
-1.7430000000000001
 30
0.0
 10
3.0456000000000003
 20
-1.7430000000000001
 30
0.0
 10
3.0938600000000003
 20
-1.8446000000000002
 30
0.0
 10
3.1776800000000001
 20
-1.9258800000000003
 30
0.0
 10
3.2615000000000003
 20
-2.0097
 30
0.0
 10
3.2615000000000003
 20
-2.0097
 30
0.0
 10
3.3783400000000001
 20
-2.1595600000000004
 30
0.0
 10
3.5129600000000001
 20
-2.3272000000000004
 30
0.0
 10
3.6475800000000005
 20
-2.4796
 30
0.0
 10
3.6475800000000005
 20
-2.4796
 30
0.0
 10
3.8812600000000002
 20
-2.81488
 30
0.0
 10
4.2495600000000007
 20
-3.1323800000000004
 30
0.0
 10
4.2495600000000007
 20
-3.5667200000000001
 30
0.0
 10
4.2495600000000007
 20
-3.5667200000000001
 30
0.0
 10
3.7314000000000003
 20
-3.0485600000000002
 30
0.0
 10
3.1446600000000005
 20
-2.3780000000000001
 30
0.0
 10
2.4741000000000004
 20
-2.0935200000000003
 30
0.0
 10
2.4741000000000004
 20
-2.0935200000000003
 30
0.0
 10
2.45886
 20
-2.3449800000000001
 30
0.0
 10
2.7103200000000003
 20
-2.6116800000000002
 30
0.0
 10
2.7103200000000003
 20
-2.8987000000000003
 30
0.0
 10
2.7103200000000003
 20
-2.8987000000000003
 30
0.0
 10
2.7433400000000003
 20
-3.6657800000000003
 30
0.0
 10
2.3572600000000001
 20
-2.2611600000000003
 30
0.0
 10
1.9407000000000001
 20
-2.3449800000000001
 30
0.0
 10
1.9407000000000001
 20
-2.3449800000000001
 30
0.0
 10
1.9076800000000003
 20
-3.3152600000000003
 30
0.0
 10
2.0727800000000003
 20
-3.5006800000000005
 30
0.0
 10
1.7908400000000002
 20
-4.3185600000000006
 30
0.0
 10
1.7908400000000002
 20
-4.3185600000000006
 30
0.0
 10
1.6714600000000002
 20
-4.2372800000000002
 30
0.0
 10
1.6714600000000002
 20
-3.9020000000000001
 30
0.0
 10
1.5216000000000001
 20
-3.9350200000000002
 30
0.0
 10
1.5216000000000001
 20
-3.9350200000000002
 30
0.0
 10
1.5393800000000002
 20
-4.4531800000000006
 30
0.0
 10
1.40476
 20
-4.93832
 30
0.0
 10
1.10504
 20
-5.3396400000000002
 30
0.0
 10
1.10504
 20
-5.3396400000000002
 30
0.0
 10
0.9856600000000001
 20
-5.1237400000000006
 30
0.0
 10
1.1202800000000002
 20
-4.6386000000000003
 30
0.0
 10
0.95264
 20
-4.3363400000000007
 30
0.0
 10
0.95264
 20
-4.3363400000000007
 30
0.0
 10
0.85104
 20
-4.5547800000000001
 30
0.0
 10
0.63514
 20
-4.7554400000000001
 30
0.0
 10
0.5843400000000001
 20
-4.3693600000000004
 30
0.0
 10
0.5843400000000001
 20
-4.3693600000000004
 30
0.0
 10
0.33288
 20
-4.8062400000000007
 30
0.0
 10
0.0484
 20
-4.0366200000000001
 30
0.0
 10
-0.21575
 20
-4.6716200000000008
 30
0.0
 10
-0.21575
 20
-4.6716200000000008
 30
0.0
 10
-0.36815
 20
-4.4201600000000001
 30
0.0
 10
-0.4494300000000001
 20
-4.4049200000000006
 30
0.0
 10
-0.5662700000000001
 20
-4.7046400000000004
 30
0.0
 10
-0.5662700000000001
 20
-4.7046400000000004
 30
0.0
 10
-0.8202700000000001
 20
-3.9350200000000002
 30
0.0
 10
-0.86853
 20
-4.9891200000000007
 30
0.0
 10
-0.9193300000000001
 20
-5.3244000000000007
 30
0.0
 10
-0.9193300000000001
 20
-5.3244000000000007
 30
0.0
 10
-1.1860300000000001
 20
-4.8875200000000003
 30
0.0
 10
-1.2190500000000002
 20
-4.35412
 30
0.0
 10
-1.2876300000000001
 20
-3.8334200000000003
 30
0.0
 10
-1.2876300000000001
 20
-3.8334200000000003
 30
0.0
 10
-1.5721100000000001
 20
-4.4379400000000002
 30
0.0
 10
-1.6381500000000002
 20
-3.9528000000000003
 30
0.0
 10
-1.5543300000000002
 20
-3.5006800000000005
 30
0.0
 10
-1.5543300000000002
 20
-3.5006800000000005
 30
0.0
 10
-2.2096500000000003
 20
-4.1026600000000002
 30
0.0
 10
-1.2876300000000001
 20
-2.5964400000000003
 30
0.0
 10
-1.7067300000000001
 20
-2.2611600000000003
 30
0.0
 10
-1.7067300000000001
 20
-2.2611600000000003
 30
0.0
 10
-1.8032500000000002
 20
-2.2510000000000003
 30
0.0
 10
-1.8972300000000002
 20
-2.2586200000000001
 30
0.0
 10
-1.9835900000000002
 20
-2.2814800000000002
 30
0.0
 10
-1.9835900000000002
 20
-2.2814800000000002
 30
0.0
 10
-2.01661
 20
-2.2916400000000001
 30
0.0
 10
-2.0521700000000003
 20
-2.3043400000000003
 30
0.0
 10
-2.0877300000000001
 20
-2.3145000000000002
 30
0.0
 10
-2.0877300000000001
 20
-2.3145000000000002
 30
0.0
 10
-2.4611100000000001
 20
-2.4694400000000001
 30
0.0
 10
-2.7303500000000001
 20
-2.8834600000000004
 30
0.0
 10
-2.98943
 20
-3.1654000000000004
 30
0.0
 10
-2.98943
 20
-3.1654000000000004
 30
0.0
 10
-2.9741900000000001
 20
-2.90124
 30
0.0
 10
-2.8421100000000004
 20
-2.6853400000000001
 30
0.0
 10
-2.7125700000000004
 20
-2.4669000000000003
 30
0.0
 10
-2.7125700000000004
 20
-2.4669000000000003
 30
0.0
 10
-2.6668500000000002
 20
-2.35006
 30
0.0
 10
-2.6287500000000001
 20
-2.2459200000000004
 30
0.0
 10
-2.6693900000000004
 20
-2.1875
 30
0.0
 10
-2.6693900000000004
 20
-2.1875
 30
0.0
 10
-2.6719300000000001
 20
-2.18242
 30
0.0
 10
-2.6770100000000001
 20
-2.1798800000000003
 30
0.0
 10
-2.6795500000000003
 20
-2.1748000000000003
 30
0.0
  0
SPLINE
  5
26
100
AcDbEntity
  8
Ebene 1
 62
     7
100
AcDbSpline
210
0.0
220
0.0
230
1.0
 70
     1
 71
     3
 72
    68
 73
    64
 74
     0
 42
0.0000000001
 43
0.0000000001
 40
0.0
 40
0.0
 40
0.0
 40
0.0
 40
0.0625
 40
0.0625
 40
0.0625
 40
0.0625
 40
0.125
 40
0.125
 40
0.125
 40
0.125
 40
0.1875
 40
0.1875
 40
0.1875
 40
0.1875
 40
0.25
 40
0.25
 40
0.25
 40
0.25
 40
0.3125
 40
0.3125
 40
0.3125
 40
0.3125
 40
0.375
 40
0.375
 40
0.375
 40
0.375
 40
0.4375
 40
0.4375
 40
0.4375
 40
0.4375
 40
0.5
 40
0.5
 40
0.5
 40
0.5
 40
0.5625
 40
0.5625
 40
0.5625
 40
0.5625
 40
0.625
 40
0.625
 40
0.625
 40
0.625
 40
0.6875
 40
0.6875
 40
0.6875
 40
0.6875
 40
0.75
 40
0.75
 40
0.75
 40
0.75
 40
0.8125
 40
0.8125
 40
0.8125
 40
0.8125
 40
0.875
 40
0.875
 40
0.875
 40
0.875
 40
0.9375
 40
0.9375
 40
0.9375
 40
0.9375
 40
1.0
 40
1.0
 40
1.0
 40
1.0
 10
4.1174800000000005
 20
2.9255100000000001
 30
0.0
 10
4.1479600000000003
 20
2.3387700000000002
 30
0.0
 10
4.0158800000000001
 20
1.6529700000000001
 30
0.0
 10
3.5637600000000003
 20
1.2846700000000002
 30
0.0
 10
3.5637600000000003
 20
1.2846700000000002
 30
0.0
 10
3.5129600000000001
 20
1.2846700000000002
 30
0.0
 10
3.4621600000000003
 20
1.31769
 30
0.0
 10
3.4469200000000004
 20
1.3684900000000002
 30
0.0
 10
3.4469200000000004
 20
1.3684900000000002
 30
0.0
 10
3.4799400000000005
 20
1.5005700000000002
 30
0.0
 10
3.6298000000000004
 20
1.6021700000000001
 30
0.0
 10
3.6475800000000005
 20
1.7520300000000002
 30
0.0
 10
3.6475800000000005
 20
1.7520300000000002
 30
0.0
 10
3.6475800000000005
 20
1.7520300000000002
 30
0.0
 10
3.7822000000000005
 20
2.08731
 30
0.0
 10
3.7822000000000005
 20
2.08731
 30
0.0
 10
3.7822000000000005
 20
2.08731
 30
0.0
 10
3.5637600000000003
 20
1.8536300000000001
 30
0.0
 10
3.2792800000000004
 20
0.9824100000000001
 30
0.0
 10
2.9948000000000001
 20
1.6529700000000001
 30
0.0
 10
2.9948000000000001
 20
1.6529700000000001
 30
0.0
 10
2.9262200000000003
 20
1.7520300000000002
 30
0.0
 10
3.0786200000000004
 20
1.8358500000000002
 30
0.0
 10
3.1294200000000001
 20
1.9374500000000001
 30
0.0
 10
3.1294200000000001
 20
1.9374500000000001
 30
0.0
 10
3.2132400000000003
 20
2.0365100000000003
 30
0.0
 10
3.3300800000000002
 20
2.1381100000000002
 30
0.0
 10
3.3453200000000001
 20
2.2701900000000004
 30
0.0
 10
3.3453200000000001
 20
2.2701900000000004
 30
0.0
 10
3.3453200000000001
 20
2.2701900000000004
 30
0.0
 10
2.9440000000000004
 20
1.8866500000000002
 30
0.0
 10
2.9440000000000004
 20
1.8866500000000002
 30
0.0
 10
2.9440000000000004
 20
1.8866500000000002
 30
0.0
 10
2.8957400000000004
 20
2.0695300000000003
 30
0.0
 10
3.2132400000000003
 20
2.2701900000000004
 30
0.0
 10
3.3453200000000001
 20
2.4556100000000001
 30
0.0
 10
3.3453200000000001
 20
2.4556100000000001
 30
0.0
 10
3.2945200000000003
 20
2.5216500000000002
 30
0.0
 10
3.2132400000000003
 20
2.2879700000000001
 30
0.0
 10
3.1116400000000004
 20
2.2879700000000001
 30
0.0
 10
3.1116400000000004
 20
2.2879700000000001
 30
0.0
 10
3.1116400000000004
 20
2.2879700000000001
 30
0.0
 10
3.6145600000000004
 20
3.1591900000000002
 30
0.0
 10
3.6145600000000004
 20
3.1591900000000002
 30
0.0
 10
3.6145600000000004
 20
3.1591900000000002
 30
0.0
 10
3.6806000000000001
 20
3.0753700000000004
 30
0.0
 10
3.5967800000000003
 20
2.8391500000000001
 30
0.0
 10
3.7136200000000001
 20
2.80613
 30
0.0
 10
3.7136200000000001
 20
2.80613
 30
0.0
 10
3.7974400000000004
 20
3.5427300000000002
 30
0.0
 10
3.6806000000000001
 20
4.29711
 30
0.0
 10
3.6958400000000005
 20
4.9981500000000008
 30
0.0
 10
3.6958400000000005
 20
4.9981500000000008
 30
0.0
 10
3.9981000000000004
 20
4.7314500000000006
 30
0.0
 10
4.0997000000000003
 20
4.34537
 30
0.0
 10
4.1479600000000003
 20
3.9796100000000005
 30
0.0
 10
4.1479600000000003
 20
3.9796100000000005
 30
0.0
 10
4.2495600000000007
 20
3.3928700000000003
 30
0.0
 10
3.9320600000000003
 20
2.8569300000000002
 30
0.0
 10
3.9320600000000003
 20
2.3209900000000001
 30
0.0
 10
3.9320600000000003
 20
2.3209900000000001
 30
0.0
 10
3.9320600000000003
 20
2.3209900000000001
 30
0.0
 10
4.1174800000000005
 20
2.9255100000000001
 30
0.0
 10
4.1174800000000005
 20
2.9255100000000001
 30
0.0
  0
SPLINE
  5
27
100
AcDbEntity
  8
Ebene 1
 62
     7
100
AcDbSpline
210
0.0
220
0.0
230
1.0
 70
     1
 71
     3
 72
    92
 73
    88
 74
     0
 42
0.0000000001
 43
0.0000000001
 40
0.0
 40
0.0
 40
0.0
 40
0.0
 40
0.0454545454545455
 40
0.0454545454545455
 40
0.0454545454545455
 40
0.0454545454545455
 40
0.0909090909090909
 40
0.0909090909090909
 40
0.0909090909090909
 40
0.0909090909090909
 40
0.1363636363636364
 40
0.1363636363636364
 40
0.1363636363636364
 40
0.1363636363636364
 40
0.1818181818181818
 40
0.1818181818181818
 40
0.1818181818181818
 40
0.1818181818181818
 40
0.2272727272727273
 40
0.2272727272727273
 40
0.2272727272727273
 40
0.2272727272727273
 40
0.2727272727272728
 40
0.2727272727272728
 40
0.2727272727272728
 40
0.2727272727272728
 40
0.3181818181818182
 40
0.3181818181818182
 40
0.3181818181818182
 40
0.3181818181818182
 40
0.3636363636363637
 40
0.3636363636363637
 40
0.3636363636363637
 40
0.3636363636363637
 40
0.4090909090909092
 40
0.4090909090909092
 40
0.4090909090909092
 40
0.4090909090909092
 40
0.4545454545454546
 40
0.4545454545454546
 40
0.4545454545454546
 40
0.4545454545454546
 40
0.5000000000000001
 40
0.5000000000000001
 40
0.5000000000000001
 40
0.5000000000000001
 40
0.5454545454545455
 40
0.5454545454545455
 40
0.5454545454545455
 40
0.5454545454545455
 40
0.5909090909090909
 40
0.5909090909090909
 40
0.5909090909090909
 40
0.5909090909090909
 40
0.6363636363636364
 40
0.6363636363636364
 40
0.6363636363636364
 40
0.6363636363636364
 40
0.6818181818181818
 40
0.6818181818181818
 40
0.6818181818181818
 40
0.6818181818181818
 40
0.7272727272727272
 40
0.7272727272727272
 40
0.7272727272727272
 40
0.7272727272727272
 40
0.7727272727272726
 40
0.7727272727272726
 40
0.7727272727272726
 40
0.7727272727272726
 40
0.818181818181818
 40
0.818181818181818
 40
0.818181818181818
 40
0.818181818181818
 40
0.8636363636363634
 40
0.8636363636363634
 40
0.8636363636363634
 40
0.8636363636363634
 40
0.9090909090909088
 40
0.9090909090909088
 40
0.9090909090909088
 40
0.9090909090909088
 40
0.9545454545454543
 40
0.9545454545454543
 40
0.9545454545454543
 40
0.9545454545454543
 40
1.0
 40
1.0
 40
1.0
 40
1.0
 10
0.22112
 20
3.2785700000000002
 30
0.0
 10
0.20588
 20
3.1871300000000002
 30
0.0
 10
0.20842
 20
3.0448900000000001
 30
0.0
 10
0.26684
 20
3.2430100000000004
 30
0.0
 10
0.26684
 20
3.2430100000000004
 30
0.0
 10
0.26684
 20
3.2430100000000004
 30
0.0
 10
0.40146
 20
3.8932500000000001
 30
0.0
 10
0.40146
 20
3.8932500000000001
 30
0.0
 10
0.40146
 20
3.8932500000000001
 30
0.0
 10
0.53354
 20
2.9915500000000002
 30
0.0
 10
0.7697600000000001
 20
1.9196700000000002
 30
0.0
 10
0.5005200000000001
 20
1.0332100000000002
 30
0.0
 10
0.5005200000000001
 20
1.0332100000000002
 30
0.0
 10
0.5005200000000001
 20
1.0332100000000002
 30
0.0
 10
0.4675
 20
1.7190100000000001
 30
0.0
 10
0.4675
 20
1.7190100000000001
 30
0.0
 10
0.4675
 20
1.7190100000000001
 30
0.0
 10
0.4675
 20
1.7520300000000002
 30
0.0
 10
0.4675
 20
1.8028300000000002
 30
0.0
 10
0.43448
 20
1.8028300000000002
 30
0.0
 10
0.43448
 20
1.8028300000000002
 30
0.0
 10
0.29986
 20
1.5005700000000002
 30
0.0
 10
0.55132
 20
0.9163700000000001
 30
0.0
 10
0.23382
 20
0.6979300000000001
 30
0.0
 10
0.23382
 20
0.6979300000000001
 30
0.0
 10
0.2008
 20
0.74873
 30
0.0
 10
0.2008
 20
0.8147700000000001
 30
0.0
 10
0.2008
 20
0.8655700000000001
 30
0.0
 10
0.2008
 20
0.8655700000000001
 30
0.0
 10
0.2008
 20
1.06623
 30
0.0
 10
0.2008
 20
1.23387
 30
0.0
 10
0.18302
 20
1.4345300000000001
 30
0.0
 10
0.18302
 20
1.4345300000000001
 30
0.0
 10
0.0992
 20
1.1652900000000002
 30
0.0
 10
0.18302
 20
0.8325500000000001
 30
0.0
 10
0.11698
 20
0.5633100000000001
 30
0.0
 10
0.11698
 20
0.5633100000000001
 30
0.0
 10
-0.31735
 20
0.7995300000000001
 30
0.0
 10
-0.16495
 20
1.3329300000000002
 30
0.0
 10
-0.11415
 20
1.7520300000000002
 30
0.0
 10
-0.11415
 20
1.7520300000000002
 30
0.0
 10
-0.11415
 20
1.8358500000000002
 30
0.0
 10
-0.09891
 20
1.9374500000000001
 30
0.0
 10
-0.08367
 20
2.0212700000000003
 30
0.0
 10
-0.08367
 20
2.0212700000000003
 30
0.0
 10
-0.08367
 20
2.0212700000000003
 30
0.0
 10
-0.04811
 20
1.6174100000000002
 30
0.0
 10
-0.04811
 20
1.6174100000000002
 30
0.0
 10
-0.04811
 20
1.6174100000000002
 30
0.0
 10
0.02808
 20
1.4751700000000001
 30
0.0
 10
0.00522
 20
1.7469500000000002
 30
0.0
 10
0.0103
 20
1.8434700000000002
 30
0.0
 10
0.0103
 20
1.8434700000000002
 30
0.0
 10
0.01792
 20
2.0898500000000002
 30
0.0
 10
-0.02525
 20
2.3997300000000004
 30
0.0
 10
-0.04811
 20
2.6410300000000002
 30
0.0
 10
-0.04811
 20
2.6410300000000002
 30
0.0
 10
-0.08367
 20
2.6410300000000002
 30
0.0
 10
-0.08367
 20
2.59023
 30
0.0
 10
-0.08367
 20
2.5724500000000003
 30
0.0
 10
-0.08367
 20
2.5724500000000003
 30
0.0
 10
-0.13193
 20
2.3870300000000002
 30
0.0
 10
-0.13193
 20
2.1889100000000004
 30
0.0
 10
-0.14971
 20
2.0034900000000002
 30
0.0
 10
-0.14971
 20
2.0034900000000002
 30
0.0
 10
-0.20051
 20
1.8536300000000001
 30
0.0
 10
-0.23353
 20
1.6682100000000002
 30
0.0
 10
-0.29957
 20
1.5361300000000002
 30
0.0
 10
-0.29957
 20
1.5361300000000002
 30
0.0
 10
-0.3325900000000001
 20
2.2879700000000001
 30
0.0
 10
-0.31735
 20
3.1591900000000002
 30
0.0
 10
-0.06589
 20
3.8449900000000001
 30
0.0
 10
-0.06589
 20
3.8449900000000001
 30
0.0
 10
0.01538
 20
3.5935300000000003
 30
0.0
 10
-0.08367
 20
3.3090500000000005
 30
0.0
 10
0.00268
 20
3.0753700000000004
 30
0.0
 10
0.00268
 20
3.0753700000000004
 30
0.0
 10
0.03316
 20
3.1744300000000001
 30
0.0
 10
0.01538
 20
3.3242900000000004
 30
0.0
 10
0.01538
 20
3.4436700000000005
 30
0.0
 10
0.01538
 20
3.4436700000000005
 30
0.0
 10
0.03316
 20
3.9288100000000004
 30
0.0
 10
0.03316
 20
4.4647500000000004
 30
0.0
 10
0.18302
 20
4.9168700000000003
 30
0.0
 10
0.18302
 20
4.9168700000000003
 30
0.0
 10
0.35066
 20
4.3631500000000001
 30
0.0
 10
0.2897
 20
3.8475300000000003
 30
0.0
 10
0.22112
 20
3.2785700000000002
 30
0.0
  0
SPLINE
  5
28
100
AcDbEntity
  8
Ebene 1
 62
     7
100
AcDbSpline
210
0.0
220
0.0
230
1.0
 70
     1
 71
     3
 72
    64
 73
    60
 74
     0
 42
0.0000000001
 43
0.0000000001
 40
0.0
 40
0.0
 40
0.0
 40
0.0
 40
0.0666666666666667
 40
0.0666666666666667
 40
0.0666666666666667
 40
0.0666666666666667
 40
0.1333333333333333
 40
0.1333333333333333
 40
0.1333333333333333
 40
0.1333333333333333
 40
0.2
 40
0.2
 40
0.2
 40
0.2
 40
0.2666666666666667
 40
0.2666666666666667
 40
0.2666666666666667
 40
0.2666666666666667
 40
0.3333333333333333
 40
0.3333333333333333
 40
0.3333333333333333
 40
0.3333333333333333
 40
0.4
 40
0.4
 40
0.4
 40
0.4
 40
0.4666666666666666
 40
0.4666666666666666
 40
0.4666666666666666
 40
0.4666666666666666
 40
0.5333333333333333
 40
0.5333333333333333
 40
0.5333333333333333
 40
0.5333333333333333
 40
0.6
 40
0.6
 40
0.6
 40
0.6
 40
0.6666666666666666
 40
0.6666666666666666
 40
0.6666666666666666
 40
0.6666666666666666
 40
0.7333333333333333
 40
0.7333333333333333
 40
0.7333333333333333
 40
0.7333333333333333
 40
0.7999999999999999
 40
0.7999999999999999
 40
0.7999999999999999
 40
0.7999999999999999
 40
0.8666666666666666
 40
0.8666666666666666
 40
0.8666666666666666
 40
0.8666666666666666
 40
0.9333333333333332
 40
0.9333333333333332
 40
0.9333333333333332
 40
0.9333333333333332
 40
1.0
 40
1.0
 40
1.0
 40
1.0
 10
-4.3153100000000002
 20
4.34537
 30
0.0
 10
-4.0257500000000004
 20
3.6443300000000005
 30
0.0
 10
-3.9241500000000005
 20
2.7400900000000004
 30
0.0
 10
-3.3653500000000003
 20
2.1533500000000001
 30
0.0
 10
-3.3653500000000003
 20
2.1533500000000001
 30
0.0
 10
-3.3653500000000003
 20
2.1533500000000001
 30
0.0
 10
-3.6828500000000002
 20
2.8239100000000001
 30
0.0
 10
-3.6828500000000002
 20
2.8239100000000001
 30
0.0
 10
-3.6828500000000002
 20
2.8239100000000001
 30
0.0
 10
-3.6828500000000002
 20
2.8239100000000001
 30
0.0
 10
-3.5329900000000003
 20
2.7070700000000003
 30
0.0
 10
-3.5329900000000003
 20
2.7070700000000003
 30
0.0
 10
-3.5329900000000003
 20
2.7070700000000003
 30
0.0
 10
-3.3501100000000004
 20
2.3209900000000001
 30
0.0
 10
-2.5373100000000002
 20
2.0365100000000003
 30
0.0
 10
-2.8471900000000003
 20
1.56915
 30
0.0
 10
-2.8471900000000003
 20
1.56915
 30
0.0
 10
-2.8471900000000003
 20
1.56915
 30
0.0
 10
-3.2891500000000002
 20
2.12033
 30
0.0
 10
-3.2891500000000002
 20
2.12033
 30
0.0
 10
-3.2891500000000002
 20
2.12033
 30
0.0
 10
-3.2891500000000002
 20
2.12033
 30
0.0
 10
-3.2789900000000003
 20
1.9857100000000001
 30
0.0
 10
-3.2789900000000003
 20
1.9857100000000001
 30
0.0
 10
-3.2789900000000003
 20
1.9857100000000001
 30
0.0
 10
-3.0707100000000001
 20
1.8180700000000001
 30
0.0
 10
-2.6897100000000003
 20
1.1830700000000001
 30
0.0
 10
-3.3120100000000003
 20
1.3024500000000001
 30
0.0
 10
-3.3120100000000003
 20
1.3024500000000001
 30
0.0
 10
-3.6066500000000001
 20
1.4675500000000001
 30
0.0
 10
-3.7717500000000004
 20
1.9196700000000002
 30
0.0
 10
-3.9317700000000002
 20
2.0695300000000003
 30
0.0
 10
-3.9317700000000002
 20
2.0695300000000003
 30
0.0
 10
-3.8301700000000003
 20
1.8358500000000002
 30
0.0
 10
-3.7107900000000003
 20
1.6021700000000001
 30
0.0
 10
-3.5837900000000005
 20
1.3837300000000001
 30
0.0
 10
-3.5837900000000005
 20
1.3837300000000001
 30
0.0
 10
-3.9266900000000002
 20
1.6859900000000001
 30
0.0
 10
-4.1603700000000003
 20
2.1711300000000002
 30
0.0
 10
-4.3153100000000002
 20
2.6054700000000004
 30
0.0
 10
-4.3153100000000002
 20
2.6054700000000004
 30
0.0
 10
-4.3153100000000002
 20
2.6054700000000004
 30
0.0
 10
-4.3838900000000001
 20
2.80613
 30
0.0
 10
-4.3838900000000001
 20
2.80613
 30
0.0
 10
-4.3838900000000001
 20
2.80613
 30
0.0
 10
-4.3838900000000001
 20
2.80613
 30
0.0
 10
-4.3838900000000001
 20
3.0423500000000003
 30
0.0
 10
-4.3838900000000001
 20
3.0423500000000003
 30
0.0
 10
-4.3838900000000001
 20
3.0423500000000003
 30
0.0
 10
-4.31785
 20
3.1083900000000004
 30
0.0
 10
-4.2492700000000001
 20
2.75787
 30
0.0
 10
-4.1857700000000007
 20
2.6562700000000001
 30
0.0
 10
-4.1857700000000007
 20
2.6562700000000001
 30
0.0
 10
-4.1400500000000005
 20
2.5216500000000002
 30
0.0
 10
-4.05877
 20
2.42259
 30
0.0
 10
-3.9520900000000001
 20
2.3387700000000002
 30
0.0
 10
-3.9520900000000001
 20
2.3387700000000002
 30
0.0
 10
-4.2848300000000004
 20
2.9255100000000001
 30
0.0
 10
-4.52867
 20
3.6595700000000004
 30
0.0
 10
-4.3153100000000002
 20
4.34537
 30
0.0
  0
SPLINE
  5
29
100
AcDbEntity
  8
Ebene 1
 62
     7
100
AcDbSpline
210
0.0
220
0.0
230
1.0
 70
     1
 71
     3
 72
    32
 73
    28
 74
     0
 42
0.0000000001
 43
0.0000000001
 40
0.0
 40
0.0
 40
0.0
 40
0.0
 40
0.1428571428571429
 40
0.1428571428571429
 40
0.1428571428571429
 40
0.1428571428571429
 40
0.2857142857142857
 40
0.2857142857142857
 40
0.2857142857142857
 40
0.2857142857142857
 40
0.4285714285714286
 40
0.4285714285714286
 40
0.4285714285714286
 40
0.4285714285714286
 40
0.5714285714285714
 40
0.5714285714285714
 40
0.5714285714285714
 40
0.5714285714285714
 40
0.7142857142857142
 40
0.7142857142857142
 40
0.7142857142857142
 40
0.7142857142857142
 40
0.857142857142857
 40
0.857142857142857
 40
0.857142857142857
 40
0.857142857142857
 40
1.0
 40
1.0
 40
1.0
 40
1.0
 10
2.5096600000000002
 20
3.3598500000000002
 30
0.0
 10
2.7763600000000004
 20
2.9915500000000002
 30
0.0
 10
2.9770200000000004
 20
2.3565500000000004
 30
0.0
 10
2.5757000000000003
 20
2.0212700000000003
 30
0.0
 10
2.5757000000000003
 20
2.0212700000000003
 30
0.0
 10
2.5757000000000003
 20
2.0695300000000003
 30
0.0
 10
2.6417400000000004
 20
2.1889100000000004
 30
0.0
 10
2.5426800000000003
 20
2.1711300000000002
 30
0.0
 10
2.5426800000000003
 20
2.1711300000000002
 30
0.0
 10
2.5249000000000001
 20
2.1025500000000004
 30
0.0
 10
2.5096600000000002
 20
1.9526900000000003
 30
0.0
 10
2.4080600000000003
 20
2.0212700000000003
 30
0.0
 10
2.4080600000000003
 20
2.0212700000000003
 30
0.0
 10
2.3242400000000001
 20
2.2879700000000001
 30
0.0
 10
2.45886
 20
2.6232500000000001
 30
0.0
 10
2.5096600000000002
 20
2.9077300000000004
 30
0.0
 10
2.5096600000000002
 20
2.9077300000000004
 30
0.0
 10
2.5096600000000002
 20
2.9077300000000004
 30
0.0
 10
2.5249000000000001
 20
2.7070700000000003
 30
0.0
 10
2.5249000000000001
 20
2.7070700000000003
 30
0.0
 10
2.5249000000000001
 20
2.7070700000000003
 30
0.0
 10
2.5249000000000001
 20
2.6715100000000001
 30
0.0
 10
2.5249000000000001
 20
2.4733900000000002
 30
0.0
 10
2.5604600000000004
 20
2.5546700000000002
 30
0.0
 10
2.5604600000000004
 20
2.5546700000000002
 30
0.0
 10
2.5604600000000004
 20
2.8391500000000001
 30
0.0
 10
2.5426800000000003
 20
3.0906100000000003
 30
0.0
 10
2.5096600000000002
 20
3.3598500000000002
 30
0.0
  0
SPLINE
  5
2A
100
AcDbEntity
  8
Ebene 1
 62
     7
100
AcDbSpline
210
0.0
220
0.0
230
1.0
 70
     1
 71
     3
 72
    40
 73
    36
 74
     0
 42
0.0000000001
 43
0.0000000001
 40
0.0
 40
0.0
 40
0.0
 40
0.0
 40
0.1111111111111111
 40
0.1111111111111111
 40
0.1111111111111111
 40
0.1111111111111111
 40
0.2222222222222222
 40
0.2222222222222222
 40
0.2222222222222222
 40
0.2222222222222222
 40
0.3333333333333333
 40
0.3333333333333333
 40
0.3333333333333333
 40
0.3333333333333333
 40
0.4444444444444444
 40
0.4444444444444444
 40
0.4444444444444444
 40
0.4444444444444444
 40
0.5555555555555556
 40
0.5555555555555556
 40
0.5555555555555556
 40
0.5555555555555556
 40
0.6666666666666667
 40
0.6666666666666667
 40
0.6666666666666667
 40
0.6666666666666667
 40
0.7777777777777779
 40
0.7777777777777779
 40
0.7777777777777779
 40
0.7777777777777779
 40
0.8888888888888891
 40
0.8888888888888891
 40
0.8888888888888891
 40
0.8888888888888891
 40
1.0
 40
1.0
 40
1.0
 40
1.0
 10
-2.4763500000000001
 20
3.1591900000000002
 30
0.0
 10
-2.4763500000000001
 20
3.1591900000000002
 30
0.0
 10
-2.2350500000000002
 20
2.4048100000000003
 30
0.0
 10
-2.2350500000000002
 20
2.4048100000000003
 30
0.0
 10
-2.2350500000000002
 20
2.4048100000000003
 30
0.0
 10
-2.22743
 20
2.4048100000000003
 30
0.0
 10
-2.2121900000000001
 20
2.3717900000000003
 30
0.0
 10
-2.19441
 20
2.3870300000000002
 30
0.0
 10
-2.19441
 20
2.3870300000000002
 30
0.0
 10
-2.1436100000000002
 20
2.4048100000000003
 30
0.0
 10
-2.2172700000000001
 20
2.4556100000000001
 30
0.0
 10
-2.1740900000000001
 20
2.4733900000000002
 30
0.0
 10
-2.1740900000000001
 20
2.4733900000000002
 30
0.0
 10
-2.1258300000000001
 20
2.3209900000000001
 30
0.0
 10
-1.9988300000000001
 20
2.1711300000000002
 30
0.0
 10
-2.02677
 20
2.0034900000000002
 30
0.0
 10
-2.02677
 20
2.0034900000000002
 30
0.0
 10
-2.1359900000000001
 20
1.9044300000000001
 30
0.0
 10
-2.1918700000000002
 20
2.08731
 30
0.0
 10
-2.2579100000000003
 20
2.1381100000000002
 30
0.0
 10
-2.2579100000000003
 20
2.1381100000000002
 30
0.0
 10
-2.3442700000000003
 20
2.1025500000000004
 30
0.0
 10
-2.23251
 20
2.0034900000000002
 30
0.0
 10
-2.2782300000000002
 20
1.9526900000000003
 30
0.0
 10
-2.2782300000000002
 20
1.9526900000000003
 30
0.0
 10
-2.5449300000000004
 20
2.0542899999999999
 30
0.0
 10
-2.56271
 20
2.3565500000000004
 30
0.0
 10
-2.5550900000000003
 20
2.59023
 30
0.0
 10
-2.5550900000000003
 20
2.59023
 30
0.0
 10
-2.48651
 20
2.4886300000000001
 30
0.0
 10
-2.4839700000000002
 20
2.2371700000000003
 30
0.0
 10
-2.3264900000000002
 20
2.2701900000000004
 30
0.0
 10
-2.3264900000000002
 20
2.2701900000000004
 30
0.0
 10
-2.4407900000000002
 20
2.5394300000000003
 30
0.0
 10
-2.5500100000000003
 20
2.8569300000000002
 30
0.0
 10
-2.4763500000000001
 20
3.1591900000000002
 30
0.0
  0
SPLINE
  5
2B
100
AcDbEntity
  8
Ebene 1
 62
     7
100
AcDbSpline
210
0.0
220
0.0
230
1.0
 70
     1
 71
     3
 72
    28
 73
    24
 74
     0
 42
0.0000000001
 43
0.0000000001
 40
0.0
 40
0.0
 40
0.0
 40
0.0
 40
0.1666666666666667
 40
0.1666666666666667
 40
0.1666666666666667
 40
0.1666666666666667
 40
0.3333333333333333
 40
0.3333333333333333
 40
0.3333333333333333
 40
0.3333333333333333
 40
0.5
 40
0.5
 40
0.5
 40
0.5
 40
0.6666666666666666
 40
0.6666666666666666
 40
0.6666666666666666
 40
0.6666666666666666
 40
0.8333333333333333
 40
0.8333333333333333
 40
0.8333333333333333
 40
0.8333333333333333
 40
1.0
 40
1.0
 40
1.0
 40
1.0
 10
1.8391000000000002
 20
2.5216500000000002
 30
0.0
 10
2.0727800000000003
 20
2.3870300000000002
 30
0.0
 10
2.3572600000000001
 20
1.7190100000000001
 30
0.0
 10
1.8899000000000001
 20
1.7698100000000001
 30
0.0
 10
1.8899000000000001
 20
1.7698100000000001
 30
0.0
 10
1.8899000000000001
 20
1.7698100000000001
 30
0.0
 10
1.8899000000000001
 20
2.0542899999999999
 30
0.0
 10
1.8899000000000001
 20
2.0542899999999999
 30
0.0
 10
1.8899000000000001
 20
2.0542899999999999
 30
0.0
 10
1.8568800000000001
 20
2.1025500000000004
 30
0.0
 10
1.8721200000000002
 20
2.1711300000000002
 30
0.0
 10
1.8721200000000002
 20
2.2371700000000003
 30
0.0
 10
1.8721200000000002
 20
2.2371700000000003
 30
0.0
 10
1.8721200000000002
 20
2.2371700000000003
 30
0.0
 10
1.9559400000000002
 20
2.0034900000000002
 30
0.0
 10
1.9559400000000002
 20
2.0034900000000002
 30
0.0
 10
1.9559400000000002
 20
2.0034900000000002
 30
0.0
 10
1.9559400000000002
 20
2.0034900000000002
 30
0.0
 10
1.9915000000000003
 20
1.9857100000000001
 30
0.0
 10
1.9915000000000003
 20
1.9857100000000001
 30
0.0
 10
1.9915000000000003
 20
1.9857100000000001
 30
0.0
 10
2.0245200000000003
 20
2.1889100000000004
 30
0.0
 10
1.8721200000000002
 20
2.3387700000000002
 30
0.0
 10
1.8391000000000002
 20
2.5216500000000002
 30
0.0
  0
SPLINE
  5
2C
100
AcDbEntity
  8
Ebene 1
 62
     7
100
AcDbSpline
210
0.0
220
0.0
230
1.0
 70
     1
 71
     3
 72
    20
 73
    16
 74
     0
 42
0.0000000001
 43
0.0000000001
 40
0.0
 40
0.0
 40
0.0
 40
0.0
 40
0.25
 40
0.25
 40
0.25
 40
0.25
 40
0.5
 40
0.5
 40
0.5
 40
0.5
 40
0.75
 40
0.75
 40
0.75
 40
0.75
 40
1.0
 40
1.0
 40
1.0
 40
1.0
 10
-1.5721100000000001
 20
2.3717900000000003
 30
0.0
 10
-1.5721100000000001
 20
2.3717900000000003
 30
0.0
 10
-1.5721100000000001
 20
1.6529700000000001
 30
0.0
 10
-1.5721100000000001
 20
1.6529700000000001
 30
0.0
 10
-1.5721100000000001
 20
1.6529700000000001
 30
0.0
 10
-1.6889500000000002
 20
1.6529700000000001
 30
0.0
 10
-1.6559300000000001
 20
1.8358500000000002
 30
0.0
 10
-1.7067300000000001
 20
1.9044300000000001
 30
0.0
 10
-1.7067300000000001
 20
1.9044300000000001
 30
0.0
 10
-1.7067300000000001
 20
1.9044300000000001
 30
0.0
 10
-1.7219700000000002
 20
1.6859900000000001
 30
0.0
 10
-1.7219700000000002
 20
1.6859900000000001
 30
0.0
 10
-1.7219700000000002
 20
1.6859900000000001
 30
0.0
 10
-1.8896100000000002
 20
1.8866500000000002
 30
0.0
 10
-1.6889500000000002
 20
2.1711300000000002
 30
0.0
 10
-1.5721100000000001
 20
2.3717900000000003
 30
0.0
  0
SPLINE
  5
2D
100
AcDbEntity
  8
Ebene 1
 62
     7
100
AcDbSpline
210
0.0
220
0.0
230
1.0
 70
     1
 71
     3
 72
    28
 73
    24
 74
     0
 42
0.0000000001
 43
0.0000000001
 40
0.0
 40
0.0
 40
0.0
 40
0.0
 40
0.1666666666666667
 40
0.1666666666666667
 40
0.1666666666666667
 40
0.1666666666666667
 40
0.3333333333333333
 40
0.3333333333333333
 40
0.3333333333333333
 40
0.3333333333333333
 40
0.5
 40
0.5
 40
0.5
 40
0.5
 40
0.6666666666666666
 40
0.6666666666666666
 40
0.6666666666666666
 40
0.6666666666666666
 40
0.8333333333333333
 40
0.8333333333333333
 40
0.8333333333333333
 40
0.8333333333333333
 40
1.0
 40
1.0
 40
1.0
 40
1.0
 10
-1.1377700000000002
 20
2.1381100000000002
 30
0.0
 10
-1.0691900000000001
 20
2.0542899999999999
 30
0.0
 10
-1.1022100000000001
 20
1.9196700000000002
 30
0.0
 10
-1.1022100000000001
 20
1.8180700000000001
 30
0.0
 10
-1.1022100000000001
 20
1.8180700000000001
 30
0.0
 10
-0.9701300000000001
 20
1.7850500000000002
 30
0.0
 10
-1.00315
 20
1.5005700000000002
 30
0.0
 10
-1.17079
 20
1.5513700000000001
 30
0.0
 10
-1.17079
 20
1.5513700000000001
 30
0.0
 10
-1.17079
 20
1.5513700000000001
 30
0.0
 10
-1.20381
 20
1.7012300000000002
 30
0.0
 10
-1.20381
 20
1.7012300000000002
 30
0.0
 10
-1.20381
 20
1.7012300000000002
 30
0.0
 10
-1.20381
 20
1.7012300000000002
 30
0.0
 10
-1.20381
 20
1.8180700000000001
 30
0.0
 10
-1.20381
 20
1.8180700000000001
 30
0.0
 10
-1.20381
 20
1.8180700000000001
 30
0.0
 10
-1.2698500000000001
 20
1.8866500000000002
 30
0.0
 10
-1.2190500000000002
 20
1.6174100000000002
 30
0.0
 10
-1.2190500000000002
 20
1.5513700000000001
 30
0.0
 10
-1.2190500000000002
 20
1.5513700000000001
 30
0.0
 10
-1.42225
 20
1.7190100000000001
 30
0.0
 10
-1.2190500000000002
 20
1.9704700000000002
 30
0.0
 10
-1.1377700000000002
 20
2.1381100000000002
 30
0.0
  0
SPLINE
  5
2E
100
AcDbEntity
  8
Ebene 1
 62
     7
100
AcDbSpline
210
0.0
220
0.0
230
1.0
 70
     1
 71
     3
 72
    28
 73
    24
 74
     0
 42
0.0000000001
 43
0.0000000001
 40
0.0
 40
0.0
 40
0.0
 40
0.0
 40
0.1666666666666667
 40
0.1666666666666667
 40
0.1666666666666667
 40
0.1666666666666667
 40
0.3333333333333333
 40
0.3333333333333333
 40
0.3333333333333333
 40
0.3333333333333333
 40
0.5
 40
0.5
 40
0.5
 40
0.5
 40
0.6666666666666666
 40
0.6666666666666666
 40
0.6666666666666666
 40
0.6666666666666666
 40
0.8333333333333333
 40
0.8333333333333333
 40
0.8333333333333333
 40
0.8333333333333333
 40
1.0
 40
1.0
 40
1.0
 40
1.0
 10
1.4555600000000002
 20
2.1381100000000002
 30
0.0
 10
1.65622
 20
2.0365100000000003
 30
0.0
 10
1.8899000000000001
 20
1.5843900000000002
 30
0.0
 10
1.5393800000000002
 20
1.5183500000000001
 30
0.0
 10
1.5393800000000002
 20
1.5183500000000001
 30
0.0
 10
1.5393800000000002
 20
1.5183500000000001
 30
0.0
 10
1.4555600000000002
 20
1.56915
 30
0.0
 10
1.4555600000000002
 20
1.56915
 30
0.0
 10
1.4555600000000002
 20
1.56915
 30
0.0
 10
1.4555600000000002
 20
1.56915
 30
0.0
 10
1.4555600000000002
 20
1.6682100000000002
 30
0.0
 10
1.4555600000000002
 20
1.6682100000000002
 30
0.0
 10
1.4555600000000002
 20
1.6682100000000002
 30
0.0
 10
1.4555600000000002
 20
1.6682100000000002
 30
0.0
 10
1.4708000000000001
 20
1.7850500000000002
 30
0.0
 10
1.4708000000000001
 20
1.7850500000000002
 30
0.0
 10
1.4708000000000001
 20
1.7850500000000002
 30
0.0
 10
1.5216000000000001
 20
1.7698100000000001
 30
0.0
 10
1.5063600000000001
 20
1.6529700000000001
 30
0.0
 10
1.5876400000000002
 20
1.6529700000000001
 30
0.0
 10
1.5876400000000002
 20
1.6529700000000001
 30
0.0
 10
1.5216000000000001
 20
1.8028300000000002
 30
0.0
 10
1.4708000000000001
 20
1.9704700000000002
 30
0.0
 10
1.4555600000000002
 20
2.1381100000000002
 30
0.0
  0
SPLINE
  5
2F
100
AcDbEntity
  8
Ebene 1
 62
     7
100
AcDbSpline
210
0.0
220
0.0
230
1.0
 70
     1
 71
     3
 72
   356
 73
   352
 74
     0
 42
0.0000000001
 43
0.0000000001
 40
0.0
 40
0.0
 40
0.0
 40
0.0
 40
0.0113636363636364
 40
0.0113636363636364
 40
0.0113636363636364
 40
0.0113636363636364
 40
0.0227272727272727
 40
0.0227272727272727
 40
0.0227272727272727
 40
0.0227272727272727
 40
0.0340909090909091
 40
0.0340909090909091
 40
0.0340909090909091
 40
0.0340909090909091
 40
0.0454545454545455
 40
0.0454545454545455
 40
0.0454545454545455
 40
0.0454545454545455
 40
0.0568181818181818
 40
0.0568181818181818
 40
0.0568181818181818
 40
0.0568181818181818
 40
0.0681818181818182
 40
0.0681818181818182
 40
0.0681818181818182
 40
0.0681818181818182
 40
0.0795454545454546
 40
0.0795454545454546
 40
0.0795454545454546
 40
0.0795454545454546
 40
0.0909090909090909
 40
0.0909090909090909
 40
0.0909090909090909
 40
0.0909090909090909
 40
0.1022727272727273
 40
0.1022727272727273
 40
0.1022727272727273
 40
0.1022727272727273
 40
0.1136363636363637
 40
0.1136363636363637
 40
0.1136363636363637
 40
0.1136363636363637
 40
0.125
 40
0.125
 40
0.125
 40
0.125
 40
0.1363636363636364
 40
0.1363636363636364
 40
0.1363636363636364
 40
0.1363636363636364
 40
0.1477272727272727
 40
0.1477272727272727
 40
0.1477272727272727
 40
0.1477272727272727
 40
0.1590909090909091
 40
0.1590909090909091
 40
0.1590909090909091
 40
0.1590909090909091
 40
0.1704545454545454
 40
0.1704545454545454
 40
0.1704545454545454
 40
0.1704545454545454
 40
0.1818181818181818
 40
0.1818181818181818
 40
0.1818181818181818
 40
0.1818181818181818
 40
0.1931818181818182
 40
0.1931818181818182
 40
0.1931818181818182
 40
0.1931818181818182
 40
0.2045454545454545
 40
0.2045454545454545
 40
0.2045454545454545
 40
0.2045454545454545
 40
0.2159090909090909
 40
0.2159090909090909
 40
0.2159090909090909
 40
0.2159090909090909
 40
0.2272727272727272
 40
0.2272727272727272
 40
0.2272727272727272
 40
0.2272727272727272
 40
0.2386363636363636
 40
0.2386363636363636
 40
0.2386363636363636
 40
0.2386363636363636
 40
0.2499999999999999
 40
0.2499999999999999
 40
0.2499999999999999
 40
0.2499999999999999
 40
0.2613636363636363
 40
0.2613636363636363
 40
0.2613636363636363
 40
0.2613636363636363
 40
0.2727272727272727
 40
0.2727272727272727
 40
0.2727272727272727
 40
0.2727272727272727
 40
0.284090909090909
 40
0.284090909090909
 40
0.284090909090909
 40
0.284090909090909
 40
0.2954545454545454
 40
0.2954545454545454
 40
0.2954545454545454
 40
0.2954545454545454
 40
0.3068181818181817
 40
0.3068181818181817
 40
0.3068181818181817
 40
0.3068181818181817
 40
0.3181818181818181
 40
0.3181818181818181
 40
0.3181818181818181
 40
0.3181818181818181
 40
0.3295454545454544
 40
0.3295454545454544
 40
0.3295454545454544
 40
0.3295454545454544
 40
0.3409090909090908
 40
0.3409090909090908
 40
0.3409090909090908
 40
0.3409090909090908
 40
0.3522727272727271
 40
0.3522727272727271
 40
0.3522727272727271
 40
0.3522727272727271
 40
0.3636363636363635
 40
0.3636363636363635
 40
0.3636363636363635
 40
0.3636363636363635
 40
0.3749999999999998
 40
0.3749999999999998
 40
0.3749999999999998
 40
0.3749999999999998
 40
0.3863636363636362
 40
0.3863636363636362
 40
0.3863636363636362
 40
0.3863636363636362
 40
0.3977272727272725
 40
0.3977272727272725
 40
0.3977272727272725
 40
0.3977272727272725
 40
0.4090909090909089
 40
0.4090909090909089
 40
0.4090909090909089
 40
0.4090909090909089
 40
0.4204545454545453
 40
0.4204545454545453
 40
0.4204545454545453
 40
0.4204545454545453
 40
0.4318181818181816
 40
0.4318181818181816
 40
0.4318181818181816
 40
0.4318181818181816
 40
0.443181818181818
 40
0.443181818181818
 40
0.443181818181818
 40
0.443181818181818
 40
0.4545454545454543
 40
0.4545454545454543
 40
0.4545454545454543
 40
0.4545454545454543
 40
0.4659090909090907
 40
0.4659090909090907
 40
0.4659090909090907
 40
0.4659090909090907
 40
0.477272727272727
 40
0.477272727272727
 40
0.477272727272727
 40
0.477272727272727
 40
0.4886363636363634
 40
0.4886363636363634
 40
0.4886363636363634
 40
0.4886363636363634
 40
0.4999999999999997
 40
0.4999999999999997
 40
0.4999999999999997
 40
0.4999999999999997
 40
0.5113636363636361
 40
0.5113636363636361
 40
0.5113636363636361
 40
0.5113636363636361
 40
0.5227272727272725
 40
0.5227272727272725
 40
0.5227272727272725
 40
0.5227272727272725
 40
0.5340909090909088
 40
0.5340909090909088
 40
0.5340909090909088
 40
0.5340909090909088
 40
0.5454545454545452
 40
0.5454545454545452
 40
0.5454545454545452
 40
0.5454545454545452
 40
0.5568181818181816
 40
0.5568181818181816
 40
0.5568181818181816
 40
0.5568181818181816
 40
0.5681818181818179
 40
0.5681818181818179
 40
0.5681818181818179
 40
0.5681818181818179
 40
0.5795454545454543
 40
0.5795454545454543
 40
0.5795454545454543
 40
0.5795454545454543
 40
0.5909090909090906
 40
0.5909090909090906
 40
0.5909090909090906
 40
0.5909090909090906
 40
0.602272727272727
 40
0.602272727272727
 40
0.602272727272727
 40
0.602272727272727
 40
0.6136363636363633
 40
0.6136363636363633
 40
0.6136363636363633
 40
0.6136363636363633
 40
0.6249999999999997
 40
0.6249999999999997
 40
0.6249999999999997
 40
0.6249999999999997
 40
0.636363636363636
 40
0.636363636363636
 40
0.636363636363636
 40
0.636363636363636
 40
0.6477272727272724
 40
0.6477272727272724
 40
0.6477272727272724
 40
0.6477272727272724
 40
0.6590909090909087
 40
0.6590909090909087
 40
0.6590909090909087
 40
0.6590909090909087
 40
0.6704545454545451
 40
0.6704545454545451
 40
0.6704545454545451
 40
0.6704545454545451
 40
0.6818181818181814
 40
0.6818181818181814
 40
0.6818181818181814
 40
0.6818181818181814
 40
0.6931818181818178
 40
0.6931818181818178
 40
0.6931818181818178
 40
0.6931818181818178
 40
0.7045454545454541
 40
0.7045454545454541
 40
0.7045454545454541
 40
0.7045454545454541
 40
0.7159090909090905
 40
0.7159090909090905
 40
0.7159090909090905
 40
0.7159090909090905
 40
0.7272727272727269
 40
0.7272727272727269
 40
0.7272727272727269
 40
0.7272727272727269
 40
0.7386363636363632
 40
0.7386363636363632
 40
0.7386363636363632
 40
0.7386363636363632
 40
0.7499999999999996
 40
0.7499999999999996
 40
0.7499999999999996
 40
0.7499999999999996
 40
0.7613636363636359
 40
0.7613636363636359
 40
0.7613636363636359
 40
0.7613636363636359
 40
0.7727272727272723
 40
0.7727272727272723
 40
0.7727272727272723
 40
0.7727272727272723
 40
0.7840909090909086
 40
0.7840909090909086
 40
0.7840909090909086
 40
0.7840909090909086
 40
0.795454545454545
 40
0.795454545454545
 40
0.795454545454545
 40
0.795454545454545
 40
0.8068181818181813
 40
0.8068181818181813
 40
0.8068181818181813
 40
0.8068181818181813
 40
0.8181818181818177
 40
0.8181818181818177
 40
0.8181818181818177
 40
0.8181818181818177
 40
0.829545454545454
 40
0.829545454545454
 40
0.829545454545454
 40
0.829545454545454
 40
0.8409090909090904
 40
0.8409090909090904
 40
0.8409090909090904
 40
0.8409090909090904
 40
0.8522727272727267
 40
0.8522727272727267
 40
0.8522727272727267
 40
0.8522727272727267
 40
0.8636363636363631
 40
0.8636363636363631
 40
0.8636363636363631
 40
0.8636363636363631
 40
0.8749999999999994
 40
0.8749999999999994
 40
0.8749999999999994
 40
0.8749999999999994
 40
0.8863636363636358
 40
0.8863636363636358
 40
0.8863636363636358
 40
0.8863636363636358
 40
0.8977272727272722
 40
0.8977272727272722
 40
0.8977272727272722
 40
0.8977272727272722
 40
0.9090909090909085
 40
0.9090909090909085
 40
0.9090909090909085
 40
0.9090909090909085
 40
0.9204545454545449
 40
0.9204545454545449
 40
0.9204545454545449
 40
0.9204545454545449
 40
0.9318181818181812
 40
0.9318181818181812
 40
0.9318181818181812
 40
0.9318181818181812
 40
0.9431818181818176
 40
0.9431818181818176
 40
0.9431818181818176
 40
0.9431818181818176
 40
0.9545454545454539
 40
0.9545454545454539
 40
0.9545454545454539
 40
0.9545454545454539
 40
0.9659090909090903
 40
0.9659090909090903
 40
0.9659090909090903
 40
0.9659090909090903
 40
0.9772727272727266
 40
0.9772727272727266
 40
0.9772727272727266
 40
0.9772727272727266
 40
0.988636363636363
 40
0.988636363636363
 40
0.988636363636363
 40
0.988636363636363
 40
1.0
 40
1.0
 40
1.0
 40
1.0
 10
-2.6084300000000002
 20
-2.2103600000000001
 30
0.0
 10
-2.7608300000000003
 20
-2.0097
 30
0.0
 10
-2.4712700000000001
 20
-1.8598400000000002
 30
0.0
 10
-2.3772900000000003
 20
-1.7074400000000001
 30
0.0
 10
-2.3772900000000003
 20
-1.7074400000000001
 30
0.0
 10
-2.5830300000000004
 20
-1.7582400000000002
 30
0.0
 10
-2.6668500000000002
 20
-2.0427200000000001
 30
0.0
 10
-2.8040100000000003
 20
-2.1290800000000001
 30
0.0
 10
-2.8040100000000003
 20
-2.1290800000000001
 30
0.0
 10
-2.6592300000000004
 20
-1.8446000000000002
 30
0.0
 10
-3.0453100000000002
 20
-1.6591800000000001
 30
0.0
 10
-3.2408900000000003
 20
-1.8446000000000002
 30
0.0
 10
-3.2408900000000003
 20
-1.8446000000000002
 30
0.0
 10
-3.1850100000000001
 20
-1.6769600000000002
 30
0.0
 10
-2.8725900000000002
 20
-1.5753600000000001
 30
0.0
 10
-2.8776700000000002
 20
-1.4915400000000001
 30
0.0
 10
-2.8776700000000002
 20
-1.4915400000000001
 30
0.0
 10
-2.8776700000000002
 20
-1.4915400000000001
 30
0.0
 10
-3.3069300000000004
 20
-1.6769600000000002
 30
0.0
 10
-3.3069300000000004
 20
-1.6769600000000002
 30
0.0
 10
-3.3069300000000004
 20
-1.6769600000000002
 30
0.0
 10
-3.2485100000000005
 20
-1.54234
 30
0.0
 10
-3.3628100000000001
 20
-1.3747
 30
0.0
 10
-3.5075900000000004
 20
-1.4077200000000001
 30
0.0
 10
-3.5075900000000004
 20
-1.4077200000000001
 30
0.0
 10
-3.4999700000000002
 20
-1.33152
 30
0.0
 10
-3.3653500000000003
 20
-1.3366
 30
0.0
 10
-3.2916900000000004
 20
-1.3442200000000002
 30
0.0
 10
-3.2916900000000004
 20
-1.3442200000000002
 30
0.0
 10
-3.0935700000000002
 20
-1.3620000000000001
 30
0.0
 10
-3.0351500000000002
 20
-1.3188200000000001
 30
0.0
 10
-3.1977100000000003
 20
-1.29088
 30
0.0
 10
-3.1977100000000003
 20
-1.29088
 30
0.0
 10
-3.5609300000000004
 20
-1.3747
 30
0.0
 10
-3.4618700000000002
 20
-0.7905000000000001
 30
0.0
 10
-3.1113500000000003
 20
-1.0064000000000002
 30
0.0
 10
-3.1113500000000003
 20
-1.0064000000000002
 30
0.0
 10
-2.9411700000000001
 20
-1.03434
 30
0.0
 10
-3.0986500000000001
 20
-0.92766
 30
0.0
 10
-3.1494500000000003
 20
-0.90734
 30
0.0
 10
-3.1494500000000003
 20
-0.90734
 30
0.0
 10
-3.1824700000000004
 20
-0.8921000000000001
 30
0.0
 10
-3.3247100000000001
 20
-0.9124200000000001
 30
0.0
 10
-3.3577300000000001
 20
-0.90734
 30
0.0
 10
-3.3577300000000001
 20
-0.90734
 30
0.0
 10
-3.1621500000000005
 20
-0.4374400000000001
 30
0.0
 10
-3.2307300000000003
 20
0.21279
 30
0.0
 10
-3.7260300000000002
 20
0.4642500000000001
 30
0.0
 10
-3.7260300000000002
 20
0.4642500000000001
 30
0.0
 10
-3.5279100000000003
 20
0.58109
 30
0.0
 10
-3.2688300000000003
 20
0.8325500000000001
 30
0.0
 10
-3.5075900000000004
 20
1.06623
 30
0.0
 10
-3.5075900000000004
 20
1.06623
 30
0.0
 10
-2.9564100000000004
 20
0.9493900000000001
 30
0.0
 10
-2.4585700000000004
 20
1.5361300000000002
 30
0.0
 10
-2.7049500000000002
 20
2.0542899999999999
 30
0.0
 10
-2.7049500000000002
 20
2.0542899999999999
 30
0.0
 10
-2.4890500000000002
 20
1.9196700000000002
 30
0.0
 10
-2.4153900000000004
 20
1.6859900000000001
 30
0.0
 10
-2.4915900000000004
 20
2.0212700000000003
 30
0.0
 10
-2.4915900000000004
 20
2.0212700000000003
 30
0.0
 10
-2.2782300000000002
 20
1.6351900000000001
 30
0.0
 10
-1.8235700000000001
 20
2.1889100000000004
 30
0.0
 10
-1.9556500000000001
 20
1.7012300000000002
 30
0.0
 10
-1.9556500000000001
 20
1.7012300000000002
 30
0.0
 10
-1.8896100000000002
 20
1.7698100000000001
 30
0.0
 10
-1.9404100000000002
 20
1.9044300000000001
 30
0.0
 10
-1.8743700000000001
 20
1.9704700000000002
 30
0.0
 10
-1.8743700000000001
 20
1.9704700000000002
 30
0.0
 10
-1.9683500000000003
 20
1.56915
 30
0.0
 10
-1.50353
 20
1.6682100000000002
 30
0.0
 10
-1.42225
 20
1.5005700000000002
 30
0.0
 10
-1.42225
 20
1.5005700000000002
 30
0.0
 10
-1.42225
 20
1.6174100000000002
 30
0.0
 10
-1.42225
 20
1.7367900000000001
 30
0.0
 10
-1.3714500000000001
 20
1.8358500000000002
 30
0.0
 10
-1.3714500000000001
 20
1.8358500000000002
 30
0.0
 10
-1.4044700000000001
 20
1.6351900000000001
 30
0.0
 10
-1.25461
 20
1.3684900000000002
 30
0.0
 10
-1.0183900000000001
 20
1.5183500000000001
 30
0.0
 10
-1.0183900000000001
 20
1.5183500000000001
 30
0.0
 10
-1.0183900000000001
 20
1.5183500000000001
 30
0.0
 10
-1.03617
 20
1.2008500000000002
 30
0.0
 10
-1.03617
 20
1.2008500000000002
 30
0.0
 10
-1.03617
 20
1.2008500000000002
 30
0.0
 10
-1.03617
 20
1.2008500000000002
 30
0.0
 10
-0.9193300000000001
 20
1.5843900000000002
 30
0.0
 10
-0.9193300000000001
 20
1.5843900000000002
 30
0.0
 10
-0.9193300000000001
 20
1.5843900000000002
 30
0.0
 10
-0.9015500000000001
 20
1.48533
 30
0.0
 10
-0.88631
 20
1.3507100000000001
 30
0.0
 10
-0.78471
 20
1.2846700000000002
 30
0.0
 10
-0.78471
 20
1.2846700000000002
 30
0.0
 10
-0.61707
 20
1.2668900000000001
 30
0.0
 10
-0.5662700000000001
 20
1.3684900000000002
 30
0.0
 10
-0.5840500000000001
 20
1.5005700000000002
 30
0.0
 10
-0.5840500000000001
 20
1.5005700000000002
 30
0.0
 10
-0.5840500000000001
 20
1.5005700000000002
 30
0.0
 10
-0.55103
 20
1.4116700000000002
 30
0.0
 10
-0.55103
 20
1.4116700000000002
 30
0.0
 10
-0.55103
 20
1.4116700000000002
 30
0.0
 10
-0.55103
 20
1.4116700000000002
 30
0.0
 10
-0.55103
 20
1.1652900000000002
 30
0.0
 10
-0.55103
 20
1.1652900000000002
 30
0.0
 10
-0.55103
 20
1.1652900000000002
 30
0.0
 10
-0.53579
 20
1.15005
 30
0.0
 10
-0.5180100000000001
 20
1.0484500000000001
 30
0.0
 10
-0.48499
 20
1.0992500000000001
 30
0.0
 10
-0.48499
 20
1.0992500000000001
 30
0.0
 10
-0.5002300000000001
 20
1.2160900000000001
 30
0.0
 10
-0.5180100000000001
 20
1.3684900000000002
 30
0.0
 10
-0.46721
 20
1.4675500000000001
 30
0.0
 10
-0.46721
 20
1.4675500000000001
 30
0.0
 10
-0.29957
 20
1.1830700000000001
 30
0.0
 10
-0.28179
 20
0.51505
 30
0.0
 10
0.16524
 20
0.4642500000000001
 30
0.0
 10
0.16524
 20
0.4642500000000001
 30
0.0
 10
0.53354
 20
0.61411
 30
0.0
 10
0.63514
 20
1.0840100000000001
 30
0.0
 10
0.71896
 20
1.4345300000000001
 30
0.0
 10
0.71896
 20
1.4345300000000001
 30
0.0
 10
0.8358000000000001
 20
1.3837300000000001
 30
0.0
 10
0.71896
 20
1.1348100000000001
 30
0.0
 10
0.86882
 20
1.0992500000000001
 30
0.0
 10
0.86882
 20
1.0992500000000001
 30
0.0
 10
0.85104
 20
1.2160900000000001
 30
0.0
 10
0.7697600000000001
 20
1.3837300000000001
 30
0.0
 10
0.8866000000000001
 20
1.4523100000000002
 30
0.0
 10
0.8866000000000001
 20
1.4523100000000002
 30
0.0
 10
0.8866000000000001
 20
1.4523100000000002
 30
0.0
 10
0.9678800000000001
 20
1.48533
 30
0.0
 10
0.9678800000000001
 20
1.48533
 30
0.0
 10
0.9678800000000001
 20
1.48533
 30
0.0
 10
0.9043800000000001
 20
1.1983100000000002
 30
0.0
 10
1.14568
 20
1.23133
 30
0.0
 10
1.2269600000000001
 20
1.3710300000000002
 30
0.0
 10
1.2269600000000001
 20
1.3710300000000002
 30
0.0
 10
1.2498200000000002
 20
1.4091300000000002
 30
0.0
 10
1.2091800000000001
 20
1.57169
 30
0.0
 10
1.27014
 20
1.5183500000000001
 30
0.0
 10
1.27014
 20
1.5183500000000001
 30
0.0
 10
1.32094
 20
1.4345300000000001
 30
0.0
 10
1.27014
 20
1.31769
 30
0.0
 10
1.3387200000000001
 20
1.2516500000000002
 30
0.0
 10
1.3387200000000001
 20
1.2516500000000002
 30
0.0
 10
1.4200000000000002
 20
1.3684900000000002
 30
0.0
 10
1.2549000000000001
 20
1.5513700000000001
 30
0.0
 10
1.3895200000000001
 20
1.6529700000000001
 30
0.0
 10
1.3895200000000001
 20
1.6529700000000001
 30
0.0
 10
1.4555600000000002
 20
1.1830700000000001
 30
0.0
 10
1.8899000000000001
 20
1.8688700000000003
 30
0.0
 10
1.8391000000000002
 20
1.40151
 30
0.0
 10
1.8391000000000002
 20
1.40151
 30
0.0
 10
1.9229200000000002
 20
1.3532500000000001
 30
0.0
 10
1.9076800000000003
 20
1.5564500000000001
 30
0.0
 10
1.9305400000000001
 20
1.5996300000000001
 30
0.0
 10
1.9305400000000001
 20
1.5996300000000001
 30
0.0
 10
2.0169000000000001
 20
1.7774300000000001
 30
0.0
 10
2.2404200000000003
 20
1.7215500000000001
 30
0.0
 10
2.2251800000000004
 20
2.12033
 30
0.0
 10
2.2251800000000004
 20
2.12033
 30
0.0
 10
2.29122
 20
2.0365100000000003
 30
0.0
 10
2.2251800000000004
 20
1.8688700000000003
 30
0.0
 10
2.29122
 20
1.7850500000000002
 30
0.0
 10
2.29122
 20
1.7850500000000002
 30
0.0
 10
2.3090000000000002
 20
1.9857100000000001
 30
0.0
 10
2.29122
 20
2.1381100000000002
 30
0.0
 10
2.4918800000000001
 20
1.9196700000000002
 30
0.0
 10
2.4918800000000001
 20
1.9196700000000002
 30
0.0
 10
2.6925400000000002
 20
2.0034900000000002
 30
0.0
 10
2.8271600000000001
 20
2.1711300000000002
 30
0.0
 10
2.6417400000000004
 20
1.8688700000000003
 30
0.0
 10
2.6417400000000004
 20
1.8688700000000003
 30
0.0
 10
2.7281000000000004
 20
1.8180700000000001
 30
0.0
 10
2.7103200000000003
 20
2.0212700000000003
 30
0.0
 10
2.8271600000000001
 20
2.0212700000000003
 30
0.0
 10
2.8271600000000001
 20
2.0212700000000003
 30
0.0
 10
2.7433400000000003
 20
1.5513700000000001
 30
0.0
 10
3.2615000000000003
 20
1.15005
 30
0.0
 10
3.6806000000000001
 20
1.1830700000000001
 30
0.0
 10
3.6806000000000001
 20
1.1830700000000001
 30
0.0
 10
3.3123000000000005
 20
0.9824100000000001
 30
0.0
 10
3.5459800000000001
 20
0.53029
 30
0.0
 10
3.7822000000000005
 20
0.39821
 30
0.0
 10
3.7822000000000005
 20
0.39821
 30
0.0
 10
3.1954600000000002
 20
0.12897
 30
0.0
 10
3.7136200000000001
 20
-0.7905000000000001
 30
0.0
 10
3.0278200000000002
 20
-0.7549400000000001
 30
0.0
 10
3.0278200000000002
 20
-0.7549400000000001
 30
0.0
 10
2.8068400000000002
 20
-0.7955800000000001
 30
0.0
 10
3.1167200000000004
 20
-0.8311400000000001
 30
0.0
 10
3.1573600000000002
 20
-0.84384
 30
0.0
 10
3.1573600000000002
 20
-0.84384
 30
0.0
 10
3.2767400000000002
 20
-0.8743200000000001
 30
0.0
 10
3.3504000000000005
 20
-0.8768600000000001
 30
0.0
 10
3.3631000000000002
 20
-1.03942
 30
0.0
 10
3.3631000000000002
 20
-1.03942
 30
0.0
 10
3.1624400000000001
 20
-1.0724400000000001
 30
0.0
 10
2.9770200000000004
 20
-0.9556000000000001
 30
0.0
 10
2.7941400000000001
 20
-1.0241800000000001
 30
0.0
 10
2.7941400000000001
 20
-1.0241800000000001
 30
0.0
 10
2.7941400000000001
 20
-1.0241800000000001
 30
0.0
 10
3.2945200000000003
 20
-1.12324
 30
0.0
 10
3.2945200000000003
 20
-1.12324
 30
0.0
 10
3.2945200000000003
 20
-1.12324
 30
0.0
 10
3.0608400000000002
 20
-1.0902200000000002
 30
0.0
 10
2.9262200000000003
 20
-1.3569200000000001
 30
0.0
 10
3.0608400000000002
 20
-1.54234
 30
0.0
 10
3.0608400000000002
 20
-1.54234
 30
0.0
 10
2.8779600000000003
 20
-1.62616
 30
0.0
 10
2.7103200000000003
 20
-1.3924800000000002
 30
0.0
 10
2.5249000000000001
 20
-1.4407400000000001
 30
0.0
 10
2.5249000000000001
 20
-1.4407400000000001
 30
0.0
 10
2.9440000000000004
 20
-1.6922000000000001
 30
0.0
 10
2.6112600000000001
 20
-1.5906000000000002
 30
0.0
 10
2.5096600000000002
 20
-1.9766800000000002
 30
0.0
 10
2.5096600000000002
 20
-1.9766800000000002
 30
0.0
 10
2.3420200000000002
 20
-1.9766800000000002
 30
0.0
 10
2.3420200000000002
 20
-1.7074400000000001
 30
0.0
 10
2.2251800000000004
 20
-1.6922000000000001
 30
0.0
 10
2.2251800000000004
 20
-1.6922000000000001
 30
0.0
 10
2.42584
 20
-2.0097
 30
0.0
 10
1.8721200000000002
 20
-2.4288000000000003
 30
0.0
 10
1.8568800000000001
 20
-1.8446000000000002
 30
0.0
 10
1.8568800000000001
 20
-1.8446000000000002
 30
0.0
 10
1.7425800000000002
 20
-1.6541000000000001
 30
0.0
 10
1.8035400000000001
 20
-1.9436600000000002
 30
0.0
 10
1.7959200000000002
 20
-1.9817600000000002
 30
0.0
 10
1.7959200000000002
 20
-1.9817600000000002
 30
0.0
 10
1.7502000000000002
 20
-2.1900400000000002
 30
0.0
 10
1.6638400000000002
 20
-2.0274800000000002
 30
0.0
 10
1.4377800000000001
 20
-1.8446000000000002
 30
0.0
 10
1.4377800000000001
 20
-1.8446000000000002
 30
0.0
 10
1.4708000000000001
 20
-2.0274800000000002
 30
0.0
 10
1.6714600000000002
 20
-2.1595600000000004
 30
0.0
 10
1.6714600000000002
 20
-2.3627600000000002
 30
0.0
 10
1.6714600000000002
 20
-2.3627600000000002
 30
0.0
 10
1.4708000000000001
 20
-2.6624800000000004
 30
0.0
 10
1.0034400000000001
 20
-2.8479000000000001
 30
0.0
 10
0.8866000000000001
 20
-3.1831800000000001
 30
0.0
 10
0.8866000000000001
 20
-3.1831800000000001
 30
0.0
 10
0.8866000000000001
 20
-3.1831800000000001
 30
0.0
 10
1.2218800000000001
 20
-2.8987000000000003
 30
0.0
 10
1.2218800000000001
 20
-2.8987000000000003
 30
0.0
 10
1.2218800000000001
 20
-2.8987000000000003
 30
0.0
 10
1.23712
 20
-2.86314
 30
0.0
 10
1.27014
 20
-2.8479000000000001
 30
0.0
 10
1.3031600000000001
 20
-2.8301200000000004
 30
0.0
 10
1.3031600000000001
 20
-2.8301200000000004
 30
0.0
 10
1.27014
 20
-3.2822400000000003
 30
0.0
 10
1.27014
 20
-3.5667200000000001
 30
0.0
 10
1.01868
 20
-3.9350200000000002
 30
0.0
 10
1.01868
 20
-3.9350200000000002
 30
0.0
 10
0.9856600000000001
 20
-3.8512000000000004
 30
0.0
 10
1.01868
 20
-3.7343600000000001
 30
0.0
 10
1.01868
 20
-3.6505400000000003
 30
0.0
 10
1.01868
 20
-3.6505400000000003
 30
0.0
 10
1.01868
 20
-3.6353000000000004
 30
0.0
 10
1.01868
 20
-3.5489400000000004
 30
0.0
 10
0.9856600000000001
 20
-3.5845000000000002
 30
0.0
 10
0.9856600000000001
 20
-3.5845000000000002
 30
0.0
 10
0.9856600000000001
 20
-3.5845000000000002
 30
0.0
 10
0.9196200000000001
 20
-4.0010600000000007
 30
0.0
 10
0.9196200000000001
 20
-4.0010600000000007
 30
0.0
 10
0.9196200000000001
 20
-4.0010600000000007
 30
0.0
 10
0.9196200000000001
 20
-3.6835600000000004
 30
0.0
 10
0.63514
 20
-3.7521400000000003
 30
0.0
 10
0.5843400000000001
 20
-4.0010600000000007
 30
0.0
 10
0.5843400000000001
 20
-4.0010600000000007
 30
0.0
 10
0.5487800000000001
 20
-4.0518600000000005
 30
0.0
 10
0.53354
 20
-3.9782000000000002
 30
0.0
 10
0.5843400000000001
 20
-3.8359600000000005
 30
0.0
 10
0.5843400000000001
 20
-3.8359600000000005
 30
0.0
 10
0.6732400000000001
 20
-3.5819600000000005
 30
0.0
 10
0.5894200000000001
 20
-3.1730200000000002
 30
0.0
 10
0.53354
 20
-3.19842
 30
0.0
 10
0.53354
 20
-3.19842
 30
0.0
 10
0.5005200000000001
 20
-3.4168600000000002
 30
0.0
 10
0.6021200000000001
 20
-4.0848800000000001
 30
0.0
 10
0.3659
 20
-3.5997400000000002
 30
0.0
 10
0.3659
 20
-3.5997400000000002
 30
0.0
 10
0.03316
 20
-4.01884
 30
0.0
 10
0.2008
 20
-3.4676600000000004
 30
0.0
 10
0.06618
 20
-3.1146000000000003
 30
0.0
 10
0.06618
 20
-3.1146000000000003
 30
0.0
 10
0.08142
 20
-3.3152600000000003
 30
0.0
 10
0.08142
 20
-3.4829000000000003
 30
0.0
 10
0.0484
 20
-3.6835600000000004
 30
0.0
 10
0.0484
 20
-3.6835600000000004
 30
0.0
 10
-0.04811
 20
-3.4321000000000002
 30
0.0
 10
-0.18273
 20
-3.7673800000000002
 30
0.0
 10
-0.26655
 20
-3.8512000000000004
 30
0.0
 10
-0.26655
 20
-3.8512000000000004
 30
0.0
 10
-0.26655
 20
-3.8512000000000004
 30
0.0
 10
-0.28179
 20
-3.4321000000000002
 30
0.0
 10
-0.28179
 20
-3.4321000000000002
 30
0.0
 10
-0.28179
 20
-3.4321000000000002
 30
0.0
 10
-0.31735
 20
-3.2314400000000001
 30
0.0
 10
-0.31735
 20
-4.1534599999999999
 30
0.0
 10
-0.4164100000000001
 20
-3.8029400000000004
 30
0.0
 10
-0.4164100000000001
 20
-3.8029400000000004
 30
0.0
 10
-0.43419
 20
-3.7521400000000003
 30
0.0
 10
-0.48499
 20
-3.7013400000000005
 30
0.0
 10
-0.55103
 20
-3.7165800000000004
 30
0.0
 10
-0.55103
 20
-3.7165800000000004
 30
0.0
 10
-0.7339100000000001
 20
-4.1534599999999999
 30
0.0
 10
-0.70089
 20
-3.8512000000000004
 30
0.0
 10
-0.7694700000000001
 20
-3.5489400000000004
 30
0.0
 10
-0.7694700000000001
 20
-3.5489400000000004
 30
0.0
 10
-0.80249
 20
-3.3152600000000003
 30
0.0
 10
-0.8202700000000001
 20
-3.4498800000000003
 30
0.0
 10
-0.8355100000000001
 20
-3.5667200000000001
 30
0.0
 10
-0.8355100000000001
 20
-3.5667200000000001
 30
0.0
 10
-0.80249
 20
-3.7343600000000001
 30
0.0
 10
-0.7516900000000001
 20
-3.8842200000000005
 30
0.0
 10
-0.7694700000000001
 20
-4.0696400000000006
 30
0.0
 10
-0.7694700000000001
 20
-4.0696400000000006
 30
0.0
 10
-0.8355100000000001
 20
-3.5489400000000004
 30
0.0
 10
-1.2647700000000002
 20
-3.5184600000000001
 30
0.0
 10
-1.08189
 20
-3.0003000000000002
 30
0.0
 10
-1.08189
 20
-3.0003000000000002
 30
0.0
 10
-0.9142500000000001
 20
-2.7158200000000003
 30
0.0
 10
-0.88631
 20
-3.7013400000000005
 30
0.0
 10
-0.8507500000000001
 20
-3.3000200000000004
 30
0.0
 10
-0.8507500000000001
 20
-3.3000200000000004
 30
0.0
 10
-0.8355100000000001
 20
-3.1831800000000001
 30
0.0
 10
-0.9701300000000001
 20
-2.8479000000000001
 30
0.0
 10
-0.86853
 20
-2.86314
 30
0.0
 10
-0.86853
 20
-2.86314
 30
0.0
 10
-0.7516900000000001
 20
-2.8987000000000003
 30
0.0
 10
-0.6856500000000001
 20
-3.0155400000000001
 30
0.0
 10
-0.63485
 20
-3.1146000000000003
 30
0.0
 10
-0.63485
 20
-3.1146000000000003
 30
0.0
 10
-0.6678700000000001
 20
-2.6955
 30
0.0
 10
-1.17079
 20
-2.5964400000000003
 30
0.0
 10
-1.4552700000000001
 20
-2.3957800000000002
 30
0.0
 10
-1.4552700000000001
 20
-2.3957800000000002
 30
0.0
 10
-1.5238500000000001
 20
-2.1113
 30
0.0
 10
-1.0691900000000001
 20
-1.9614400000000001
 30
0.0
 10
-1.1530100000000001
 20
-1.7074400000000001
 30
0.0
 10
-1.1530100000000001
 20
-1.7074400000000001
 30
0.0
 10
-1.33843
 20
-2.0605000000000002
 30
0.0
 10
-1.8743700000000001
 20
-2.3627600000000002
 30
0.0
 10
-1.7880100000000001
 20
-1.8090400000000002
 30
0.0
 10
-1.7880100000000001
 20
-1.8090400000000002
 30
0.0
 10
-1.92517
 20
-1.8750800000000001
 30
0.0
 10
-1.8667500000000001
 20
-2.0884400000000003
 30
0.0
 10
-2.1537700000000002
 20
-2.2967200000000001
 30
0.0
 10
-2.1537700000000002
 20
-2.2967200000000001
 30
0.0
 10
-2.1105900000000002
 20
-1.9436600000000002
 30
0.0
 10
-2.4890500000000002
 20
-1.9766800000000002
 30
0.0
 10
-2.6084300000000002
 20
-2.2103600000000001
 30
0.0
  0
SPLINE
  5
30
100
AcDbEntity
  8
Ebene 1
 62
     7
100
AcDbSpline
210
0.0
220
0.0
230
1.0
 70
     1
 71
     3
 72
    12
 73
     8
 74
     0
 42
0.0000000001
 43
0.0000000001
 40
0.0
 40
0.0
 40
0.0
 40
0.0
 40
0.5
 40
0.5
 40
0.5
 40
0.5
 40
1.0
 40
1.0
 40
1.0
 40
1.0
 10
-1.5213100000000002
 20
1.8536300000000001
 30
0.0
 10
-1.4882900000000001
 20
1.8180700000000001
 30
0.0
 10
-1.42225
 20
1.7012300000000002
 30
0.0
 10
-1.4882900000000001
 20
1.6529700000000001
 30
0.0
 10
-1.4882900000000001
 20
1.6529700000000001
 30
0.0
 10
-1.4882900000000001
 20
1.6529700000000001
 30
0.0
 10
-1.5213100000000002
 20
1.8536300000000001
 30
0.0
 10
-1.5213100000000002
 20
1.8536300000000001
 30
0.0
  0
SPLINE
  5
31
100
AcDbEntity
  8
Ebene 1
 62
     7
100
AcDbSpline
210
0.0
220
0.0
230
1.0
 70
     1
 71
     3
 72
    16
 73
    12
 74
     0
 42
0.0000000001
 43
0.0000000001
 40
0.0
 40
0.0
 40
0.0
 40
0.0
 40
0.3333333333333333
 40
0.3333333333333333
 40
0.3333333333333333
 40
0.3333333333333333
 40
0.6666666666666666
 40
0.6666666666666666
 40
0.6666666666666666
 40
0.6666666666666666
 40
1.0
 40
1.0
 40
1.0
 40
1.0
 10
-0.7694700000000001
 20
1.7367900000000001
 30
0.0
 10
-0.7694700000000001
 20
1.7367900000000001
 30
0.0
 10
-0.7339100000000001
 20
1.7367900000000001
 30
0.0
 10
-0.7339100000000001
 20
1.7367900000000001
 30
0.0
 10
-0.7339100000000001
 20
1.7367900000000001
 30
0.0
 10
-0.7339100000000001
 20
1.6021700000000001
 30
0.0
 10
-0.5662700000000001
 20
1.4192900000000002
 30
0.0
 10
-0.71867
 20
1.3329300000000002
 30
0.0
 10
-0.71867
 20
1.3329300000000002
 30
0.0
 10
-0.9015500000000001
 20
1.3684900000000002
 30
0.0
 10
-0.86853
 20
1.6174100000000002
 30
0.0
 10
-0.7694700000000001
 20
1.7367900000000001
 30
0.0
  0
SPLINE
  5
32
100
AcDbEntity
  8
Ebene 1
 62
     7
100
AcDbSpline
210
0.0
220
0.0
230
1.0
 70
     1
 71
     3
 72
    16
 73
    12
 74
     0
 42
0.0000000001
 43
0.0000000001
 40
0.0
 40
0.0
 40
0.0
 40
0.0
 40
0.3333333333333333
 40
0.3333333333333333
 40
0.3333333333333333
 40
0.3333333333333333
 40
0.6666666666666666
 40
0.6666666666666666
 40
0.6666666666666666
 40
0.6666666666666666
 40
1.0
 40
1.0
 40
1.0
 40
1.0
 10
1.0542400000000001
 20
1.7012300000000002
 30
0.0
 10
1.0542400000000001
 20
1.7012300000000002
 30
0.0
 10
1.10504
 20
1.7012300000000002
 30
0.0
 10
1.10504
 20
1.7012300000000002
 30
0.0
 10
1.10504
 20
1.7012300000000002
 30
0.0
 10
1.1533
 20
1.5843900000000002
 30
0.0
 10
1.27014
 20
1.3837300000000001
 30
0.0
 10
1.10504
 20
1.31769
 30
0.0
 10
1.10504
 20
1.31769
 30
0.0
 10
0.9196200000000001
 20
1.3684900000000002
 30
0.0
 10
1.10504
 20
1.56915
 30
0.0
 10
1.0542400000000001
 20
1.7012300000000002
 30
0.0
  0
SPLINE
  5
33
100
AcDbEntity
  8
Ebene 1
100
AcDbSpline
210
0.0
220
0.0
230
1.0
 70
     1
 71
     3
 72
    28
 73
    24
 74
     0
 42
0.0000000001
 43
0.0000000001
 40
0.0
 40
0.0
 40
0.0
 40
0.0
 40
0.1666666666666667
 40
0.1666666666666667
 40
0.1666666666666667
 40
0.1666666666666667
 40
0.3333333333333333
 40
0.3333333333333333
 40
0.3333333333333333
 40
0.3333333333333333
 40
0.5
 40
0.5
 40
0.5
 40
0.5
 40
0.6666666666666666
 40
0.6666666666666666
 40
0.6666666666666666
 40
0.6666666666666666
 40
0.8333333333333333
 40
0.8333333333333333
 40
0.8333333333333333
 40
0.8333333333333333
 40
1.0
 40
1.0
 40
1.0
 40
1.0
 10
-2.35697
 20
1.5361300000000002
 30
0.0
 10
-2.3036300000000001
 20
1.5513700000000001
 30
0.0
 10
-2.3036300000000001
 20
1.5005700000000002
 30
0.0
 10
-2.2782300000000002
 20
1.4675500000000001
 30
0.0
 10
-2.2782300000000002
 20
1.4675500000000001
 30
0.0
 10
-2.31379
 20
1.0484500000000001
 30
0.0
 10
-1.7219700000000002
 20
1.0332100000000002
 30
0.0
 10
-1.58989
 20
0.7131700000000001
 30
0.0
 10
-1.58989
 20
0.7131700000000001
 30
0.0
 10
-1.58989
 20
0.7131700000000001
 30
0.0
 10
-1.7397500000000001
 20
0.7995300000000001
 30
0.0
 10
-1.7397500000000001
 20
0.7995300000000001
 30
0.0
 10
-1.7397500000000001
 20
0.7995300000000001
 30
0.0
 10
-1.9734300000000002
 20
1.1170300000000002
 30
0.0
 10
-2.4026900000000002
 20
0.9824100000000001
 30
0.0
 10
-2.6363700000000003
 20
0.74873
 30
0.0
 10
-2.6363700000000003
 20
0.74873
 30
0.0
 10
-2.5906500000000001
 20
0.8985900000000001
 30
0.0
 10
-2.4763500000000001
 20
1.0484500000000001
 30
0.0
 10
-2.3264900000000002
 20
1.1170300000000002
 30
0.0
 10
-2.3264900000000002
 20
1.1170300000000002
 30
0.0
 10
-2.3264900000000002
 20
1.1170300000000002
 30
0.0
 10
-2.35697
 20
1.5361300000000002
 30
0.0
 10
-2.35697
 20
1.5361300000000002
 30
0.0
  0
SPLINE
  5
34
100
AcDbEntity
  8
Ebene 1
100
AcDbSpline
210
0.0
220
0.0
230
1.0
 70
     1
 71
     3
 72
    24
 73
    20
 74
     0
 42
0.0000000001
 43
0.0000000001
 40
0.0
 40
0.0
 40
0.0
 40
0.0
 40
0.2
 40
0.2
 40
0.2
 40
0.2
 40
0.4
 40
0.4
 40
0.4
 40
0.4
 40
0.6000000000000001
 40
0.6000000000000001
 40
0.6000000000000001
 40
0.6000000000000001
 40
0.8
 40
0.8
 40
0.8
 40
0.8
 40
1.0
 40
1.0
 40
1.0
 40
1.0
 10
2.8093800000000004
 20
1.3329300000000002
 30
0.0
 10
2.8093800000000004
 20
1.3329300000000002
 30
0.0
 10
2.8779600000000003
 20
1.31769
 30
0.0
 10
2.8779600000000003
 20
1.31769
 30
0.0
 10
2.8779600000000003
 20
1.31769
 30
0.0
 10
2.7433400000000003
 20
1.0992500000000001
 30
0.0
 10
2.3750400000000003
 20
0.9163700000000001
 30
0.0
 10
2.5757000000000003
 20
0.6318900000000001
 30
0.0
 10
2.5757000000000003
 20
0.6318900000000001
 30
0.0
 10
2.5757000000000003
 20
0.6318900000000001
 30
0.0
 10
2.59348
 20
0.4972700000000001
 30
0.0
 10
2.59348
 20
0.4972700000000001
 30
0.0
 10
2.59348
 20
0.4972700000000001
 30
0.0
 10
2.4436200000000001
 20
0.66491
 30
0.0
 10
2.2404200000000003
 20
0.7995300000000001
 30
0.0
 10
2.0245200000000003
 20
0.74873
 30
0.0
 10
2.0245200000000003
 20
0.74873
 30
0.0
 10
2.3090000000000002
 20
0.8808100000000001
 30
0.0
 10
2.6112600000000001
 20
1.0332100000000002
 30
0.0
 10
2.8093800000000004
 20
1.3329300000000002
 30
0.0
  0
SPLINE
  5
35
100
AcDbEntity
  8
Ebene 1
 62
     7
100
AcDbSpline
210
0.0
220
0.0
230
1.0
 70
     1
 71
     3
 72
    44
 73
    40
 74
     0
 42
0.0000000001
 43
0.0000000001
 40
0.0
 40
0.0
 40
0.0
 40
0.0
 40
0.1
 40
0.1
 40
0.1
 40
0.1
 40
0.2
 40
0.2
 40
0.2
 40
0.2
 40
0.3
 40
0.3
 40
0.3
 40
0.3
 40
0.4
 40
0.4
 40
0.4
 40
0.4
 40
0.5
 40
0.5
 40
0.5
 40
0.5
 40
0.6
 40
0.6
 40
0.6
 40
0.6
 40
0.7
 40
0.7
 40
0.7
 40
0.7
 40
0.7999999999999999
 40
0.7999999999999999
 40
0.7999999999999999
 40
0.7999999999999999
 40
0.8999999999999999
 40
0.8999999999999999
 40
0.8999999999999999
 40
0.8999999999999999
 40
1.0
 40
1.0
 40
1.0
 40
1.0
 10
4.8007400000000002
 20
0.5633100000000001
 30
0.0
 10
4.7016800000000005
 20
0.6318900000000001
 30
0.0
 10
4.5188000000000006
 20
0.66491
 30
0.0
 10
4.7016800000000005
 20
0.5480700000000001
 30
0.0
 10
4.7016800000000005
 20
0.5480700000000001
 30
0.0
 10
4.7016800000000005
 20
0.5480700000000001
 30
0.0
 10
4.7855000000000008
 20
0.4642500000000001
 30
0.0
 10
4.7855000000000008
 20
0.4642500000000001
 30
0.0
 10
4.7855000000000008
 20
0.4642500000000001
 30
0.0
 10
4.7194600000000007
 20
0.47949
 30
0.0
 10
4.6356400000000004
 20
0.5633100000000001
 30
0.0
 10
4.5670600000000006
 20
0.4972700000000001
 30
0.0
 10
4.5670600000000006
 20
0.4972700000000001
 30
0.0
 10
4.2673399999999999
 20
0.68269
 30
0.0
 10
3.5459800000000001
 20
0.31439
 30
0.0
 10
3.5790000000000002
 20
0.8325500000000001
 30
0.0
 10
3.5790000000000002
 20
0.8325500000000001
 30
0.0
 10
3.6806000000000001
 20
0.85033
 30
0.0
 10
3.7974400000000004
 20
0.8808100000000001
 30
0.0
 10
3.8990400000000003
 20
0.85033
 30
0.0
 10
3.8990400000000003
 20
0.85033
 30
0.0
 10
4.0489000000000006
 20
0.8655700000000001
 30
0.0
 10
4.1657400000000004
 20
0.7131700000000001
 30
0.0
 10
4.33338
 20
0.74873
 30
0.0
 10
4.33338
 20
0.74873
 30
0.0
 10
4.2673399999999999
 20
0.85033
 30
0.0
 10
4.1479600000000003
 20
0.8808100000000001
 30
0.0
 10
4.0489000000000006
 20
0.9316100000000001
 30
0.0
 10
4.0489000000000006
 20
0.9316100000000001
 30
0.0
 10
3.9142800000000002
 20
0.9671700000000001
 30
0.0
 10
3.7822000000000005
 20
1.0001900000000001
 30
0.0
 10
3.6298000000000004
 20
1.0154300000000001
 30
0.0
 10
3.6298000000000004
 20
1.0154300000000001
 30
0.0
 10
3.9777800000000005
 20
1.15513
 30
0.0
 10
4.3537000000000008
 20
0.91383
 30
0.0
 10
4.6534200000000006
 20
0.6979300000000001
 30
0.0
 10
4.6534200000000006
 20
0.6979300000000001
 30
0.0
 10
4.7143800000000002
 20
0.6547500000000001
 30
0.0
 10
4.9099600000000008
 20
0.57601
 30
0.0
 10
4.8007400000000002
 20
0.5633100000000001
 30
0.0
  0
SPLINE
  5
36
100
AcDbEntity
  8
Ebene 1
 62
     7
100
AcDbSpline
210
0.0
220
0.0
230
1.0
 70
     1
 71
     3
 72
    48
 73
    44
 74
     0
 42
0.0000000001
 43
0.0000000001
 40
0.0
 40
0.0
 40
0.0
 40
0.0
 40
0.0909090909090909
 40
0.0909090909090909
 40
0.0909090909090909
 40
0.0909090909090909
 40
0.1818181818181818
 40
0.1818181818181818
 40
0.1818181818181818
 40
0.1818181818181818
 40
0.2727272727272727
 40
0.2727272727272727
 40
0.2727272727272727
 40
0.2727272727272727
 40
0.3636363636363637
 40
0.3636363636363637
 40
0.3636363636363637
 40
0.3636363636363637
 40
0.4545454545454546
 40
0.4545454545454546
 40
0.4545454545454546
 40
0.4545454545454546
 40
0.5454545454545455
 40
0.5454545454545455
 40
0.5454545454545455
 40
0.5454545454545455
 40
0.6363636363636365
 40
0.6363636363636365
 40
0.6363636363636365
 40
0.6363636363636365
 40
0.7272727272727274
 40
0.7272727272727274
 40
0.7272727272727274
 40
0.7272727272727274
 40
0.8181818181818183
 40
0.8181818181818183
 40
0.8181818181818183
 40
0.8181818181818183
 40
0.9090909090909093
 40
0.9090909090909093
 40
0.9090909090909093
 40
0.9090909090909093
 40
1.0
 40
1.0
 40
1.0
 40
1.0
 10
-4.2162500000000005
 20
1.0484500000000001
 30
0.0
 10
-3.9724100000000004
 20
1.0001900000000001
 30
0.0
 10
-3.6041100000000004
 20
1.0992500000000001
 30
0.0
 10
-3.4618700000000002
 20
0.8655700000000001
 30
0.0
 10
-3.4618700000000002
 20
0.8655700000000001
 30
0.0
 10
-3.4618700000000002
 20
0.8655700000000001
 30
0.0
 10
-3.4821900000000001
 20
0.7995300000000001
 30
0.0
 10
-3.4821900000000001
 20
0.7995300000000001
 30
0.0
 10
-3.4821900000000001
 20
0.7995300000000001
 30
0.0
 10
-3.4821900000000001
 20
0.7995300000000001
 30
0.0
 10
-4.1273500000000007
 20
0.76397
 30
0.0
 10
-4.1273500000000007
 20
0.76397
 30
0.0
 10
-4.1273500000000007
 20
0.76397
 30
0.0
 10
-4.1273500000000007
 20
0.76397
 30
0.0
 10
-3.9444700000000004
 20
0.7309500000000001
 30
0.0
 10
-3.9444700000000004
 20
0.7309500000000001
 30
0.0
 10
-3.9444700000000004
 20
0.7309500000000001
 30
0.0
 10
-3.8885900000000002
 20
0.6979300000000001
 30
0.0
 10
-3.7895300000000005
 20
0.7131700000000001
 30
0.0
 10
-3.7311100000000001
 20
0.7309500000000001
 30
0.0
 10
-3.7311100000000001
 20
0.7309500000000001
 30
0.0
 10
-3.7311100000000001
 20
0.7309500000000001
 30
0.0
 10
-3.5660100000000003
 20
0.7131700000000001
 30
0.0
 10
-3.5660100000000003
 20
0.7131700000000001
 30
0.0
 10
-3.5660100000000003
 20
0.7131700000000001
 30
0.0
 10
-3.8454100000000002
 20
0.5480700000000001
 30
0.0
 10
-4.1679900000000005
 20
0.76397
 30
0.0
 10
-4.4778700000000002
 20
0.74873
 30
0.0
 10
-4.4778700000000002
 20
0.74873
 30
0.0
 10
-4.4778700000000002
 20
0.74873
 30
0.0
 10
-4.2670500000000002
 20
0.8147700000000001
 30
0.0
 10
-4.2670500000000002
 20
0.8147700000000001
 30
0.0
 10
-4.2670500000000002
 20
0.8147700000000001
 30
0.0
 10
-4.0257500000000004
 20
0.85033
 30
0.0
 10
-4.3788100000000005
 20
0.8808100000000001
 30
0.0
 10
-4.4677100000000003
 20
0.85033
 30
0.0
 10
-4.4677100000000003
 20
0.85033
 30
0.0
 10
-4.4677100000000003
 20
0.85033
 30
0.0
 10
-4.8868100000000005
 20
0.8147700000000001
 30
0.0
 10
-4.8868100000000005
 20
0.8147700000000001
 30
0.0
 10
-4.8868100000000005
 20
0.8147700000000001
 30
0.0
 10
-4.69123
 20
0.9493900000000001
 30
0.0
 10
-4.4296100000000003
 20
0.9824100000000001
 30
0.0
 10
-4.2162500000000005
 20
1.0484500000000001
 30
0.0
  0
SPLINE
  5
37
100
AcDbEntity
  8
Ebene 1
100
AcDbSpline
210
0.0
220
0.0
230
1.0
 70
     1
 71
     3
 72
    16
 73
    12
 74
     0
 42
0.0000000001
 43
0.0000000001
 40
0.0
 40
0.0
 40
0.0
 40
0.0
 40
0.3333333333333333
 40
0.3333333333333333
 40
0.3333333333333333
 40
0.3333333333333333
 40
0.6666666666666666
 40
0.6666666666666666
 40
0.6666666666666666
 40
0.6666666666666666
 40
1.0
 40
1.0
 40
1.0
 40
1.0
 10
-3.3120100000000003
 20
1.0001900000000001
 30
0.0
 10
-3.1443700000000003
 20
1.0001900000000001
 30
0.0
 10
-3.0630900000000003
 20
0.7995300000000001
 30
0.0
 10
-2.9640300000000002
 20
0.6979300000000001
 30
0.0
 10
-2.9640300000000002
 20
0.6979300000000001
 30
0.0
 10
-3.1240500000000004
 20
0.7309500000000001
 30
0.0
 10
-3.1596100000000003
 20
0.9316100000000001
 30
0.0
 10
-3.3247100000000001
 20
0.9493900000000001
 30
0.0
 10
-3.3247100000000001
 20
0.9493900000000001
 30
0.0
 10
-3.3247100000000001
 20
0.9493900000000001
 30
0.0
 10
-3.3120100000000003
 20
1.0001900000000001
 30
0.0
 10
-3.3120100000000003
 20
1.0001900000000001
 30
0.0
  0
SPLINE
  5
38
100
AcDbEntity
  8
Ebene 1
100
AcDbSpline
210
0.0
220
0.0
230
1.0
 70
     1
 71
     3
 72
    24
 73
    20
 74
     0
 42
0.0000000001
 43
0.0000000001
 40
0.0
 40
0.0
 40
0.0
 40
0.0
 40
0.2
 40
0.2
 40
0.2
 40
0.2
 40
0.4
 40
0.4
 40
0.4
 40
0.4
 40
0.6000000000000001
 40
0.6000000000000001
 40
0.6000000000000001
 40
0.6000000000000001
 40
0.8
 40
0.8
 40
0.8
 40
0.8
 40
1.0
 40
1.0
 40
1.0
 40
1.0
 10
0.6834
 20
0.8808100000000001
 30
0.0
 10
0.7519800000000001
 20
0.8808100000000001
 30
0.0
 10
0.70118
 20
0.8147700000000001
 30
0.0
 10
0.6834
 20
0.7817500000000001
 30
0.0
 10
0.6834
 20
0.7817500000000001
 30
0.0
 10
0.6834
 20
0.7817500000000001
 30
0.0
 10
0.7342000000000001
 20
0.76397
 30
0.0
 10
0.7342000000000001
 20
0.76397
 30
0.0
 10
0.7342000000000001
 20
0.76397
 30
0.0
 10
0.71896
 20
0.59633
 30
0.0
 10
0.55132
 20
0.41345
 30
0.0
 10
0.40146
 20
0.3804300000000001
 30
0.0
 10
0.40146
 20
0.3804300000000001
 30
0.0
 10
0.38368
 20
0.39821
 30
0.0
 10
0.38368
 20
0.41345
 30
0.0
 10
0.38368
 20
0.44647
 30
0.0
 10
0.38368
 20
0.44647
 30
0.0
 10
0.53354
 20
0.5633100000000001
 30
0.0
 10
0.5843400000000001
 20
0.7309500000000001
 30
0.0
 10
0.6834
 20
0.8808100000000001
 30
0.0
  0
SPLINE
  5
39
100
AcDbEntity
  8
Ebene 1
100
AcDbSpline
210
0.0
220
0.0
230
1.0
 70
     1
 71
     3
 72
    16
 73
    12
 74
     0
 42
0.0000000001
 43
0.0000000001
 40
0.0
 40
0.0
 40
0.0
 40
0.0
 40
0.3333333333333333
 40
0.3333333333333333
 40
0.3333333333333333
 40
0.3333333333333333
 40
0.6666666666666666
 40
0.6666666666666666
 40
0.6666666666666666
 40
0.6666666666666666
 40
1.0
 40
1.0
 40
1.0
 40
1.0
 10
-0.35037
 20
0.68269
 30
0.0
 10
-0.24877
 20
0.6471300000000001
 30
0.0
 10
-0.26655
 20
0.4972700000000001
 30
0.0
 10
-0.16495
 20
0.4312300000000001
 30
0.0
 10
-0.16495
 20
0.4312300000000001
 30
0.0
 10
-0.16495
 20
0.4312300000000001
 30
0.0
 10
-0.18273
 20
0.39821
 30
0.0
 10
-0.18273
 20
0.39821
 30
0.0
 10
-0.18273
 20
0.39821
 30
0.0
 10
-0.28179
 20
0.4312300000000001
 30
0.0
 10
-0.36815
 20
0.5633100000000001
 30
0.0
 10
-0.35037
 20
0.68269
 30
0.0
  0
SPLINE
  5
3A
100
AcDbEntity
  8
Ebene 1
100
AcDbSpline
210
0.0
220
0.0
230
1.0
 70
     1
 71
     3
 72
    12
 73
     8
 74
     0
 42
0.0000000001
 43
0.0000000001
 40
0.0
 40
0.0
 40
0.0
 40
0.0
 40
0.5
 40
0.5
 40
0.5
 40
0.5
 40
1.0
 40
1.0
 40
1.0
 40
1.0
 10
3.6653600000000002
 20
0.4642500000000001
 30
0.0
 10
3.7974400000000004
 20
0.4312300000000001
 30
0.0
 10
3.5967800000000003
 20
0.29661
 30
0.0
 10
3.5307400000000002
 20
0.27883
 30
0.0
 10
3.5307400000000002
 20
0.27883
 30
0.0
 10
3.3453200000000001
 20
0.36265
 30
0.0
 10
3.6145600000000004
 20
0.41345
 30
0.0
 10
3.6653600000000002
 20
0.4642500000000001
 30
0.0
  0
SPLINE
  5
3B
100
AcDbEntity
  8
Ebene 1
100
AcDbSpline
210
0.0
220
0.0
230
1.0
 70
     1
 71
     3
 72
    20
 73
    16
 74
     0
 42
0.0000000001
 43
0.0000000001
 40
0.0
 40
0.0
 40
0.0
 40
0.0
 40
0.25
 40
0.25
 40
0.25
 40
0.25
 40
0.5
 40
0.5
 40
0.5
 40
0.5
 40
0.75
 40
0.75
 40
0.75
 40
0.75
 40
1.0
 40
1.0
 40
1.0
 40
1.0
 10
0.9018400000000001
 20
0.4312300000000001
 30
0.0
 10
0.9018400000000001
 20
0.4312300000000001
 30
0.0
 10
0.9678800000000001
 20
0.41345
 30
0.0
 10
0.9678800000000001
 20
0.41345
 30
0.0
 10
0.9678800000000001
 20
0.41345
 30
0.0
 10
0.63514
 20
0.24581
 30
0.0
 10
0.23382
 20
-0.05136
 30
0.0
 10
0.33288
 20
-0.47046
 30
0.0
 10
0.33288
 20
-0.47046
 30
0.0
 10
0.33288
 20
-0.50348
 30
0.0
 10
0.29986
 20
-0.5365000000000001
 30
0.0
 10
0.28462
 20
-0.55428
 30
0.0
 10
0.28462
 20
-0.55428
 30
0.0
 10
-0.03287
 20
-0.10216
 30
0.0
 10
0.55132
 20
0.2635900000000001
 30
0.0
 10
0.9018400000000001
 20
0.4312300000000001
 30
0.0
  0
SPLINE
  5
3C
100
AcDbEntity
  8
Ebene 1
100
AcDbSpline
210
0.0
220
0.0
230
1.0
 70
     1
 71
     3
 72
    24
 73
    20
 74
     0
 42
0.0000000001
 43
0.0000000001
 40
0.0
 40
0.0
 40
0.0
 40
0.0
 40
0.2
 40
0.2
 40
0.2
 40
0.2
 40
0.4
 40
0.4
 40
0.4
 40
0.4
 40
0.6000000000000001
 40
0.6000000000000001
 40
0.6000000000000001
 40
0.6000000000000001
 40
0.8
 40
0.8
 40
0.8
 40
0.8
 40
1.0
 40
1.0
 40
1.0
 40
1.0
 10
3.3123000000000005
 20
0.4312300000000001
 30
0.0
 10
3.3300800000000002
 20
0.4312300000000001
 30
0.0
 10
3.3783400000000001
 20
0.4312300000000001
 30
0.0
 10
3.3631000000000002
 20
0.39821
 30
0.0
 10
3.3631000000000002
 20
0.39821
 30
0.0
 10
3.2615000000000003
 20
0.27883
 30
0.0
 10
3.1294200000000001
 20
0.11119
 30
0.0
 10
3.1954600000000002
 20
-0.05136
 30
0.0
 10
3.1954600000000002
 20
-0.05136
 30
0.0
 10
3.1954600000000002
 20
-0.05136
 30
0.0
 10
3.0456000000000003
 20
-0.11994
 30
0.0
 10
3.0456000000000003
 20
-0.11994
 30
0.0
 10
3.0456000000000003
 20
-0.11994
 30
0.0
 10
2.9770200000000004
 20
-0.08438
 30
0.0
 10
2.9262200000000003
 20
-0.03612
 30
0.0
 10
2.9109800000000003
 20
0.02991
 30
0.0
 10
2.9109800000000003
 20
0.02991
 30
0.0
 10
3.0125800000000003
 20
0.19501
 30
0.0
 10
3.1446600000000005
 20
0.36265
 30
0.0
 10
3.3123000000000005
 20
0.4312300000000001
 30
0.0
  0
SPLINE
  5
3D
100
AcDbEntity
  8
Ebene 1
100
AcDbSpline
210
0.0
220
0.0
230
1.0
 70
     1
 71
     3
 72
    24
 73
    20
 74
     0
 42
0.0000000001
 43
0.0000000001
 40
0.0
 40
0.0
 40
0.0
 40
0.0
 40
0.2
 40
0.2
 40
0.2
 40
0.2
 40
0.4
 40
0.4
 40
0.4
 40
0.4
 40
0.6000000000000001
 40
0.6000000000000001
 40
0.6000000000000001
 40
0.6000000000000001
 40
0.8
 40
0.8
 40
0.8
 40
0.8
 40
1.0
 40
1.0
 40
1.0
 40
1.0
 10
-1.03617
 20
0.39821
 30
0.0
 10
-0.7339100000000001
 20
0.31439
 30
0.0
 10
-0.39863
 20
0.29661
 30
0.0
 10
-0.13193
 20
0.09595
 30
0.0
 10
-0.13193
 20
0.09595
 30
0.0
 10
-0.13193
 20
0.09595
 30
0.0
 10
-0.13193
 20
-0.0031
 30
0.0
 10
-0.13193
 20
-0.0031
 30
0.0
 10
-0.13193
 20
-0.0031
 30
0.0
 10
-0.13193
 20
-0.0031
 30
0.0
 10
-0.20051
 20
-0.01834
 30
0.0
 10
-0.20051
 20
-0.01834
 30
0.0
 10
-0.20051
 20
-0.01834
 30
0.0
 10
-0.4494300000000001
 20
0.16199
 30
0.0
 10
-0.7516900000000001
 20
0.21279
 30
0.0
 10
-1.03617
 20
0.32963
 30
0.0
 10
-1.03617
 20
0.32963
 30
0.0
 10
-1.03617
 20
0.32963
 30
0.0
 10
-1.03617
 20
0.39821
 30
0.0
 10
-1.03617
 20
0.39821
 30
0.0
  0
SPLINE
  5
3E
100
AcDbEntity
  8
Ebene 1
100
AcDbSpline
210
0.0
220
0.0
230
1.0
 70
     1
 71
     3
 72
    20
 73
    16
 74
     0
 42
0.0000000001
 43
0.0000000001
 40
0.0
 40
0.0
 40
0.0
 40
0.0
 40
0.25
 40
0.25
 40
0.25
 40
0.25
 40
0.5
 40
0.5
 40
0.5
 40
0.5
 40
0.75
 40
0.75
 40
0.75
 40
0.75
 40
1.0
 40
1.0
 40
1.0
 40
1.0
 10
-2.0064500000000001
 20
0.36265
 30
0.0
 10
-2.0064500000000001
 20
0.36265
 30
0.0
 10
-1.9607300000000001
 20
0.36265
 30
0.0
 10
-1.9607300000000001
 20
0.36265
 30
0.0
 10
-1.9607300000000001
 20
0.36265
 30
0.0
 10
-2.0928100000000001
 20
0.19501
 30
0.0
 10
-2.3264900000000002
 20
0.14675
 30
0.0
 10
-2.4636500000000003
 20
-0.01834
 30
0.0
 10
-2.4636500000000003
 20
-0.01834
 30
0.0
 10
-2.4636500000000003
 20
-0.01834
 30
0.0
 10
-2.5042900000000001
 20
-0.01834
 30
0.0
 10
-2.5042900000000001
 20
-0.01834
 30
0.0
 10
-2.5042900000000001
 20
-0.01834
 30
0.0
 10
-2.4204700000000003
 20
0.16199
 30
0.0
 10
-2.1664700000000003
 20
0.24581
 30
0.0
 10
-2.0064500000000001
 20
0.36265
 30
0.0
  0
SPLINE
  5
3F
100
AcDbEntity
  8
Ebene 1
100
AcDbSpline
210
0.0
220
0.0
230
1.0
 70
     1
 71
     3
 72
    20
 73
    16
 74
     0
 42
0.0000000001
 43
0.0000000001
 40
0.0
 40
0.0
 40
0.0
 40
0.0
 40
0.25
 40
0.25
 40
0.25
 40
0.25
 40
0.5
 40
0.5
 40
0.5
 40
0.5
 40
0.75
 40
0.75
 40
0.75
 40
0.75
 40
1.0
 40
1.0
 40
1.0
 40
1.0
 10
-3.4618700000000002
 20
0.3474100000000001
 30
0.0
 10
-3.2383500000000001
 20
0.31439
 30
0.0
 10
-3.0961100000000004
 20
0.12897
 30
0.0
 10
-2.9767300000000003
 20
-0.05136
 30
0.0
 10
-2.9767300000000003
 20
-0.05136
 30
0.0
 10
-3.0249900000000003
 20
-0.13518
 30
0.0
 10
-3.0707100000000001
 20
-0.219
 30
0.0
 10
-3.0961100000000004
 20
-0.30282
 30
0.0
 10
-3.0961100000000004
 20
-0.30282
 30
0.0
 10
-3.1265900000000002
 20
-0.06914
 30
0.0
 10
-3.2612100000000002
 20
0.17977
 30
0.0
 10
-3.4745700000000004
 20
0.31439
 30
0.0
 10
-3.4745700000000004
 20
0.31439
 30
0.0
 10
-3.4745700000000004
 20
0.31439
 30
0.0
 10
-3.4618700000000002
 20
0.3474100000000001
 30
0.0
 10
-3.4618700000000002
 20
0.3474100000000001
 30
0.0
  0
SPLINE
  5
40
100
AcDbEntity
  8
Ebene 1
100
AcDbSpline
210
0.0
220
0.0
230
1.0
 70
     1
 71
     3
 72
    32
 73
    28
 74
     0
 42
0.0000000001
 43
0.0000000001
 40
0.0
 40
0.0
 40
0.0
 40
0.0
 40
0.1428571428571429
 40
0.1428571428571429
 40
0.1428571428571429
 40
0.1428571428571429
 40
0.2857142857142857
 40
0.2857142857142857
 40
0.2857142857142857
 40
0.2857142857142857
 40
0.4285714285714286
 40
0.4285714285714286
 40
0.4285714285714286
 40
0.4285714285714286
 40
0.5714285714285714
 40
0.5714285714285714
 40
0.5714285714285714
 40
0.5714285714285714
 40
0.7142857142857142
 40
0.7142857142857142
 40
0.7142857142857142
 40
0.7142857142857142
 40
0.857142857142857
 40
0.857142857142857
 40
0.857142857142857
 40
0.857142857142857
 40
1.0
 40
1.0
 40
1.0
 40
1.0
 10
2.2404200000000003
 20
-0.05136
 30
0.0
 10
2.4436200000000001
 20
-0.05136
 30
0.0
 10
2.6417400000000004
 20
-0.08438
 30
0.0
 10
2.8093800000000004
 20
-0.17074
 30
0.0
 10
2.8093800000000004
 20
-0.17074
 30
0.0
 10
2.4436200000000001
 20
-0.41966
 30
0.0
 10
2.0245200000000003
 20
-0.7727200000000001
 30
0.0
 10
1.7730600000000001
 20
-1.1562600000000001
 30
0.0
 10
1.7730600000000001
 20
-1.1562600000000001
 30
0.0
 10
1.7730600000000001
 20
-1.1562600000000001
 30
0.0
 10
2.12358
 20
-1.4255000000000002
 30
0.0
 10
2.12358
 20
-1.4255000000000002
 30
0.0
 10
2.12358
 20
-1.4255000000000002
 30
0.0
 10
1.6206600000000002
 20
-1.28834
 30
0.0
 10
1.1634600000000002
 20
-1.0114800000000002
 30
0.0
 10
0.6529200000000001
 20
-0.9124200000000001
 30
0.0
 10
0.6529200000000001
 20
-0.9124200000000001
 30
0.0
 10
0.53608
 20
-0.88956
 30
0.0
 10
0.17032
 20
-0.9225800000000001
 30
0.0
 10
0.29986
 20
-0.8565400000000001
 30
0.0
 10
0.29986
 20
-0.8565400000000001
 30
0.0
 10
0.40654
 20
-0.8692400000000001
 30
0.0
 10
0.5056000000000001
 20
-0.86416
 30
0.0
 10
0.6021200000000001
 20
-0.84638
 30
0.0
 10
0.6021200000000001
 20
-0.84638
 30
0.0
 10
1.1914
 20
-0.7270000000000001
 30
0.0
 10
1.6232000000000002
 20
-0.08184
 30
0.0
 10
2.2404200000000003
 20
-0.05136
 30
0.0
  0
SPLINE
  5
41
100
AcDbEntity
  8
Ebene 1
100
AcDbSpline
210
0.0
220
0.0
230
1.0
 70
     1
 71
     3
 72
    24
 73
    20
 74
     0
 42
0.0000000001
 43
0.0000000001
 40
0.0
 40
0.0
 40
0.0
 40
0.0
 40
0.2
 40
0.2
 40
0.2
 40
0.2
 40
0.4
 40
0.4
 40
0.4
 40
0.4
 40
0.6000000000000001
 40
0.6000000000000001
 40
0.6000000000000001
 40
0.6000000000000001
 40
0.8
 40
0.8
 40
0.8
 40
0.8
 40
1.0
 40
1.0
 40
1.0
 40
1.0
 10
-0.06589
 20
-0.17074
 30
0.0
 10
-0.06589
 20
-0.17074
 30
0.0
 10
-0.01509
 20
-0.17074
 30
0.0
 10
-0.01509
 20
-0.17074
 30
0.0
 10
-0.01509
 20
-0.17074
 30
0.0
 10
0.00268
 20
-0.3206000000000001
 30
0.0
 10
0.08142
 20
-0.47046
 30
0.0
 10
-0.01509
 20
-0.6050800000000001
 30
0.0
 10
-0.01509
 20
-0.6050800000000001
 30
0.0
 10
-0.01509
 20
-0.6050800000000001
 30
0.0
 10
0.03316
 20
-0.7041400000000001
 30
0.0
 10
0.03316
 20
-0.7041400000000001
 30
0.0
 10
0.03316
 20
-0.7041400000000001
 30
0.0
 10
-0.04811
 20
-0.6889000000000001
 30
0.0
 10
-0.09891
 20
-0.6889000000000001
 30
0.0
 10
-0.18273
 20
-0.7041400000000001
 30
0.0
 10
-0.18273
 20
-0.7041400000000001
 30
0.0
 10
-0.08367
 20
-0.55428
 30
0.0
 10
-0.06589
 20
-0.3536200000000001
 30
0.0
 10
-0.06589
 20
-0.17074
 30
0.0
  0
SPLINE
  5
42
100
AcDbEntity
  8
Ebene 1
100
AcDbSpline
210
0.0
220
0.0
230
1.0
 70
     1
 71
     3
 72
    32
 73
    28
 74
     0
 42
0.0000000001
 43
0.0000000001
 40
0.0
 40
0.0
 40
0.0
 40
0.0
 40
0.1428571428571429
 40
0.1428571428571429
 40
0.1428571428571429
 40
0.1428571428571429
 40
0.2857142857142857
 40
0.2857142857142857
 40
0.2857142857142857
 40
0.2857142857142857
 40
0.4285714285714286
 40
0.4285714285714286
 40
0.4285714285714286
 40
0.4285714285714286
 40
0.5714285714285714
 40
0.5714285714285714
 40
0.5714285714285714
 40
0.5714285714285714
 40
0.7142857142857142
 40
0.7142857142857142
 40
0.7142857142857142
 40
0.7142857142857142
 40
0.857142857142857
 40
0.857142857142857
 40
0.857142857142857
 40
0.857142857142857
 40
1.0
 40
1.0
 40
1.0
 40
1.0
 10
-2.0064500000000001
 20
-0.219
 30
0.0
 10
-1.2698500000000001
 20
-0.15296
 30
0.0
 10
-0.8202700000000001
 20
-1.03942
 30
0.0
 10
-0.06589
 20
-0.8565400000000001
 30
0.0
 10
-0.06589
 20
-0.8565400000000001
 30
0.0
 10
-0.04811
 20
-0.9251200000000001
 30
0.0
 10
-0.27417
 20
-0.9378200000000001
 30
0.0
 10
-0.39863
 20
-0.9606800000000001
 30
0.0
 10
-0.39863
 20
-0.9606800000000001
 30
0.0
 10
-0.8939300000000001
 20
-1.0546600000000002
 30
0.0
 10
-1.4425700000000001
 20
-1.1562600000000001
 30
0.0
 10
-1.8565900000000002
 20
-1.4737600000000002
 30
0.0
 10
-1.8565900000000002
 20
-1.4737600000000002
 30
0.0
 10
-1.8565900000000002
 20
-1.4737600000000002
 30
0.0
 10
-1.8642100000000001
 20
-1.3874000000000002
 30
0.0
 10
-1.8642100000000001
 20
-1.3874000000000002
 30
0.0
 10
-1.8642100000000001
 20
-1.3874000000000002
 30
0.0
 10
-1.8642100000000001
 20
-1.3874000000000002
 30
0.0
 10
-1.5721100000000001
 20
-1.1740400000000002
 30
0.0
 10
-1.5721100000000001
 20
-1.1740400000000002
 30
0.0
 10
-1.5721100000000001
 20
-1.1740400000000002
 30
0.0
 10
-1.9404100000000002
 20
-1.03942
 30
0.0
 10
-2.14615
 20
-0.50348
 30
0.0
 10
-2.5601700000000003
 20
-0.47046
 30
0.0
 10
-2.5601700000000003
 20
-0.47046
 30
0.0
 10
-2.4128500000000002
 20
-0.33838
 30
0.0
 10
-2.18425
 20
-0.28758
 30
0.0
 10
-2.0064500000000001
 20
-0.219
 30
0.0
  0
SPLINE
  5
43
100
AcDbEntity
  8
Ebene 1
100
AcDbSpline
210
0.0
220
0.0
230
1.0
 70
     1
 71
     3
 72
    20
 73
    16
 74
     0
 42
0.0000000001
 43
0.0000000001
 40
0.0
 40
0.0
 40
0.0
 40
0.0
 40
0.25
 40
0.25
 40
0.25
 40
0.25
 40
0.5
 40
0.5
 40
0.5
 40
0.5
 40
0.75
 40
0.75
 40
0.75
 40
0.75
 40
1.0
 40
1.0
 40
1.0
 40
1.0
 10
3.1624400000000001
 20
-0.23678
 30
0.0
 10
3.4139000000000004
 20
-0.33838
 30
0.0
 10
3.0456000000000003
 20
-0.7041400000000001
 30
0.0
 10
2.8957400000000004
 20
-0.4882400000000001
 30
0.0
 10
2.8957400000000004
 20
-0.4882400000000001
 30
0.0
 10
2.8957400000000004
 20
-0.4882400000000001
 30
0.0
 10
2.9440000000000004
 20
-0.4044200000000001
 30
0.0
 10
2.9440000000000004
 20
-0.4044200000000001
 30
0.0
 10
2.9440000000000004
 20
-0.4044200000000001
 30
0.0
 10
2.9948000000000001
 20
-0.4044200000000001
 30
0.0
 10
3.0456000000000003
 20
-0.45522
 30
0.0
 10
3.0938600000000003
 20
-0.4044200000000001
 30
0.0
 10
3.0938600000000003
 20
-0.4044200000000001
 30
0.0
 10
3.1294200000000001
 20
-0.3536200000000001
 30
0.0
 10
3.1624400000000001
 20
-0.30282
 30
0.0
 10
3.1624400000000001
 20
-0.23678
 30
0.0
  0
SPLINE
  5
44
100
AcDbEntity
  8
Ebene 1
100
AcDbSpline
210
0.0
220
0.0
230
1.0
 70
     1
 71
     3
 72
    20
 73
    16
 74
     0
 42
0.0000000001
 43
0.0000000001
 40
0.0
 40
0.0
 40
0.0
 40
0.0
 40
0.25
 40
0.25
 40
0.25
 40
0.25
 40
0.5
 40
0.5
 40
0.5
 40
0.5
 40
0.75
 40
0.75
 40
0.75
 40
0.75
 40
1.0
 40
1.0
 40
1.0
 40
1.0
 10
-3.0605500000000001
 20
-0.4044200000000001
 30
0.0
 10
-3.0021300000000002
 20
-0.41966
 30
0.0
 10
-2.9665700000000004
 20
-0.50348
 30
0.0
 10
-2.9386300000000003
 20
-0.55428
 30
0.0
 10
-2.9386300000000003
 20
-0.55428
 30
0.0
 10
-2.86497
 20
-0.6050800000000001
 30
0.0
 10
-2.77861
 20
-0.55428
 30
0.0
 10
-2.7100300000000002
 20
-0.5212600000000001
 30
0.0
 10
-2.7100300000000002
 20
-0.5212600000000001
 30
0.0
 10
-2.7100300000000002
 20
-0.5212600000000001
 30
0.0
 10
-2.6617700000000002
 20
-0.55428
 30
0.0
 10
-2.6617700000000002
 20
-0.55428
 30
0.0
 10
-2.6617700000000002
 20
-0.55428
 30
0.0
 10
-2.7862300000000002
 20
-0.7549400000000001
 30
0.0
 10
-3.0783300000000002
 20
-0.6050800000000001
 30
0.0
 10
-3.0605500000000001
 20
-0.4044200000000001
 30
0.0
  0
SPLINE
  5
45
100
AcDbEntity
  8
Ebene 1
 62
     7
100
AcDbSpline
210
0.0
220
0.0
230
1.0
 70
     1
 71
     3
 72
    20
 73
    16
 74
     0
 42
0.0000000001
 43
0.0000000001
 40
0.0
 40
0.0
 40
0.0
 40
0.0
 40
0.25
 40
0.25
 40
0.25
 40
0.25
 40
0.5
 40
0.5
 40
0.5
 40
0.5
 40
0.75
 40
0.75
 40
0.75
 40
0.75
 40
1.0
 40
1.0
 40
1.0
 40
1.0
 10
3.4621600000000003
 20
-0.8387600000000001
 30
0.0
 10
3.6653600000000002
 20
-0.8565400000000001
 30
0.0
 10
3.8990400000000003
 20
-0.9225800000000001
 30
0.0
 10
4.0311200000000005
 20
-1.0572000000000001
 30
0.0
 10
4.0311200000000005
 20
-1.0572000000000001
 30
0.0
 10
3.9142800000000002
 20
-1.03942
 30
0.0
 10
3.7644200000000003
 20
-1.0572000000000001
 30
0.0
 10
3.6958400000000005
 20
-0.9556000000000001
 30
0.0
 10
3.6958400000000005
 20
-0.9556000000000001
 30
0.0
 10
3.6958400000000005
 20
-0.9556000000000001
 30
0.0
 10
3.4139000000000004
 20
-0.8717800000000001
 30
0.0
 10
3.4139000000000004
 20
-0.8717800000000001
 30
0.0
 10
3.4139000000000004
 20
-0.8717800000000001
 30
0.0
 10
3.4139000000000004
 20
-0.8717800000000001
 30
0.0
 10
3.4621600000000003
 20
-0.8387600000000001
 30
0.0
 10
3.4621600000000003
 20
-0.8387600000000001
 30
0.0
  0
SPLINE
  5
46
100
AcDbEntity
  8
Ebene 1
 62
     7
100
AcDbSpline
210
0.0
220
0.0
230
1.0
 70
     1
 71
     3
 72
    24
 73
    20
 74
     0
 42
0.0000000001
 43
0.0000000001
 40
0.0
 40
0.0
 40
0.0
 40
0.0
 40
0.2
 40
0.2
 40
0.2
 40
0.2
 40
0.4
 40
0.4
 40
0.4
 40
0.4
 40
0.6000000000000001
 40
0.6000000000000001
 40
0.6000000000000001
 40
0.6000000000000001
 40
0.8
 40
0.8
 40
0.8
 40
0.8
 40
1.0
 40
1.0
 40
1.0
 40
1.0
 10
-3.5964900000000002
 20
-1.0241800000000001
 30
0.0
 10
-3.5964900000000002
 20
-1.0241800000000001
 30
0.0
 10
-3.4618700000000002
 20
-1.0724400000000001
 30
0.0
 10
-3.4618700000000002
 20
-1.0724400000000001
 30
0.0
 10
-3.4618700000000002
 20
-1.0724400000000001
 30
0.0
 10
-3.4466300000000003
 20
-1.2731000000000001
 30
0.0
 10
-3.6904700000000004
 20
-1.2578600000000002
 30
0.0
 10
-3.8250900000000003
 20
-1.2248400000000002
 30
0.0
 10
-3.8250900000000003
 20
-1.2248400000000002
 30
0.0
 10
-3.8098500000000004
 20
-1.1740400000000002
 30
0.0
 10
-3.6904700000000004
 20
-1.20706
 30
0.0
 10
-3.7006300000000003
 20
-1.12324
 30
0.0
 10
-3.7006300000000003
 20
-1.12324
 30
0.0
 10
-3.8631900000000003
 20
-1.0902200000000002
 30
0.0
 10
-4.0384500000000001
 20
-1.1892800000000001
 30
0.0
 10
-4.2111700000000001
 20
-1.1740400000000002
 30
0.0
 10
-4.2111700000000001
 20
-1.1740400000000002
 30
0.0
 10
-4.2111700000000001
 20
-1.1740400000000002
 30
0.0
 10
-3.5964900000000002
 20
-1.0241800000000001
 30
0.0
 10
-3.5964900000000002
 20
-1.0241800000000001
 30
0.0
  0
SPLINE
  5
47
100
AcDbEntity
  8
Ebene 1
 62
     7
100
AcDbSpline
210
0.0
220
0.0
230
1.0
 70
     1
 71
     3
 72
    28
 73
    24
 74
     0
 42
0.0000000001
 43
0.0000000001
 40
0.0
 40
0.0
 40
0.0
 40
0.0
 40
0.1666666666666667
 40
0.1666666666666667
 40
0.1666666666666667
 40
0.1666666666666667
 40
0.3333333333333333
 40
0.3333333333333333
 40
0.3333333333333333
 40
0.3333333333333333
 40
0.5
 40
0.5
 40
0.5
 40
0.5
 40
0.6666666666666666
 40
0.6666666666666666
 40
0.6666666666666666
 40
0.6666666666666666
 40
0.8333333333333333
 40
0.8333333333333333
 40
0.8333333333333333
 40
0.8333333333333333
 40
1.0
 40
1.0
 40
1.0
 40
1.0
 10
4.468
 20
-2.0097
 30
0.0
 10
4.2165400000000002
 20
-1.8598400000000002
 30
0.0
 10
3.9803200000000003
 20
-1.54234
 30
0.0
 10
3.7136200000000001
 20
-1.4737600000000002
 30
0.0
 10
3.7136200000000001
 20
-1.4737600000000002
 30
0.0
 10
3.7136200000000001
 20
-1.4737600000000002
 30
0.0
 10
4.1174800000000005
 20
-1.8598400000000002
 30
0.0
 10
4.1174800000000005
 20
-1.8598400000000002
 30
0.0
 10
4.1174800000000005
 20
-1.8598400000000002
 30
0.0
 10
4.1174800000000005
 20
-1.8598400000000002
 30
0.0
 10
3.8634800000000005
 20
-1.7938000000000001
 30
0.0
 10
3.8634800000000005
 20
-1.7938000000000001
 30
0.0
 10
3.8634800000000005
 20
-1.7938000000000001
 30
0.0
 10
3.5790000000000002
 20
-1.7252200000000002
 30
0.0
 10
3.3631000000000002
 20
-1.4407400000000001
 30
0.0
 10
3.0608400000000002
 20
-1.3086600000000002
 30
0.0
 10
3.0608400000000002
 20
-1.3086600000000002
 30
0.0
 10
3.0938600000000003
 20
-1.2578600000000002
 30
0.0
 10
3.1446600000000005
 20
-1.20706
 30
0.0
 10
3.1954600000000002
 20
-1.1892800000000001
 30
0.0
 10
3.1954600000000002
 20
-1.1892800000000001
 30
0.0
 10
3.7314000000000003
 20
-1.2248400000000002
 30
0.0
 10
4.1327199999999999
 20
-1.62616
 30
0.0
 10
4.468
 20
-2.0097
 30
0.0
  0
SPLINE
  5
48
100
AcDbEntity
  8
Ebene 1
100
AcDbSpline
210
0.0
220
0.0
230
1.0
 70
     1
 71
     3
 72
    28
 73
    24
 74
     0
 42
0.0000000001
 43
0.0000000001
 40
0.0
 40
0.0
 40
0.0
 40
0.0
 40
0.1666666666666667
 40
0.1666666666666667
 40
0.1666666666666667
 40
0.1666666666666667
 40
0.3333333333333333
 40
0.3333333333333333
 40
0.3333333333333333
 40
0.3333333333333333
 40
0.5
 40
0.5
 40
0.5
 40
0.5
 40
0.6666666666666666
 40
0.6666666666666666
 40
0.6666666666666666
 40
0.6666666666666666
 40
0.8333333333333333
 40
0.8333333333333333
 40
0.8333333333333333
 40
0.8333333333333333
 40
1.0
 40
1.0
 40
1.0
 40
1.0
 10
-0.8202700000000001
 20
-1.3239000000000001
 30
0.0
 10
-0.71867
 20
-1.3086600000000002
 30
0.0
 10
-0.61707
 20
-1.3416800000000002
 30
0.0
 10
-0.5662700000000001
 20
-1.4255000000000002
 30
0.0
 10
-0.5662700000000001
 20
-1.4255000000000002
 30
0.0
 10
-0.5662700000000001
 20
-1.4255000000000002
 30
0.0
 10
-0.4164100000000001
 20
-1.5753600000000001
 30
0.0
 10
-0.4164100000000001
 20
-1.5753600000000001
 30
0.0
 10
-0.4164100000000001
 20
-1.5753600000000001
 30
0.0
 10
-0.3325900000000001
 20
-1.6083800000000001
 30
0.0
 10
-0.36815
 20
-1.6769600000000002
 30
0.0
 10
-0.43419
 20
-1.6083800000000001
 30
0.0
 10
-0.43419
 20
-1.6083800000000001
 30
0.0
 10
-0.6018300000000001
 20
-1.4255000000000002
 30
0.0
 10
-0.8507500000000001
 20
-1.3416800000000002
 30
0.0
 10
-1.03617
 20
-1.5575800000000002
 30
0.0
 10
-1.03617
 20
-1.5575800000000002
 30
0.0
 10
-1.03617
 20
-1.5093200000000002
 30
0.0
 10
-1.00315
 20
-1.4737600000000002
 30
0.0
 10
-0.9701300000000001
 20
-1.4407400000000001
 30
0.0
 10
-0.9701300000000001
 20
-1.4407400000000001
 30
0.0
 10
-0.9701300000000001
 20
-1.4407400000000001
 30
0.0
 10
-0.8202700000000001
 20
-1.3239000000000001
 30
0.0
 10
-0.8202700000000001
 20
-1.3239000000000001
 30
0.0
  0
SPLINE
  5
49
100
AcDbEntity
  8
Ebene 1
100
AcDbSpline
210
0.0
220
0.0
230
1.0
 70
     1
 71
     3
 72
    28
 73
    24
 74
     0
 42
0.0000000001
 43
0.0000000001
 40
0.0
 40
0.0
 40
0.0
 40
0.0
 40
0.1666666666666667
 40
0.1666666666666667
 40
0.1666666666666667
 40
0.1666666666666667
 40
0.3333333333333333
 40
0.3333333333333333
 40
0.3333333333333333
 40
0.3333333333333333
 40
0.5
 40
0.5
 40
0.5
 40
0.5
 40
0.6666666666666666
 40
0.6666666666666666
 40
0.6666666666666666
 40
0.6666666666666666
 40
0.8333333333333333
 40
0.8333333333333333
 40
0.8333333333333333
 40
0.8333333333333333
 40
1.0
 40
1.0
 40
1.0
 40
1.0
 10
0.86882
 20
-1.3569200000000001
 30
0.0
 10
1.01868
 20
-1.3416800000000002
 30
0.0
 10
1.1355200000000001
 20
-1.4255000000000002
 30
0.0
 10
1.23712
 20
-1.54234
 30
0.0
 10
1.23712
 20
-1.54234
 30
0.0
 10
1.23712
 20
-1.54234
 30
0.0
 10
1.32094
 20
-1.6591800000000001
 30
0.0
 10
1.32094
 20
-1.6591800000000001
 30
0.0
 10
1.32094
 20
-1.6591800000000001
 30
0.0
 10
1.32094
 20
-1.6591800000000001
 30
0.0
 10
1.0034400000000001
 20
-1.4255000000000002
 30
0.0
 10
1.0034400000000001
 20
-1.4255000000000002
 30
0.0
 10
1.0034400000000001
 20
-1.4255000000000002
 30
0.0
 10
0.8358000000000001
 20
-1.4255000000000002
 30
0.0
 10
0.7342000000000001
 20
-1.54234
 30
0.0
 10
0.61736
 20
-1.62616
 30
0.0
 10
0.61736
 20
-1.62616
 30
0.0
 10
0.5183000000000001
 20
-1.6769600000000002
 30
0.0
 10
0.5843400000000001
 20
-1.5575800000000002
 30
0.0
 10
0.63514
 20
-1.5245600000000001
 30
0.0
 10
0.63514
 20
-1.5245600000000001
 30
0.0
 10
0.63514
 20
-1.5245600000000001
 30
0.0
 10
0.86882
 20
-1.3569200000000001
 30
0.0
 10
0.86882
 20
-1.3569200000000001
 30
0.0
  0
SPLINE
  5
4A
100
AcDbEntity
  8
Ebene 1
 62
     7
100
AcDbSpline
210
0.0
220
0.0
230
1.0
 70
     1
 71
     3
 72
    48
 73
    44
 74
     0
 42
0.0000000001
 43
0.0000000001
 40
0.0
 40
0.0
 40
0.0
 40
0.0
 40
0.0909090909090909
 40
0.0909090909090909
 40
0.0909090909090909
 40
0.0909090909090909
 40
0.1818181818181818
 40
0.1818181818181818
 40
0.1818181818181818
 40
0.1818181818181818
 40
0.2727272727272727
 40
0.2727272727272727
 40
0.2727272727272727
 40
0.2727272727272727
 40
0.3636363636363637
 40
0.3636363636363637
 40
0.3636363636363637
 40
0.3636363636363637
 40
0.4545454545454546
 40
0.4545454545454546
 40
0.4545454545454546
 40
0.4545454545454546
 40
0.5454545454545455
 40
0.5454545454545455
 40
0.5454545454545455
 40
0.5454545454545455
 40
0.6363636363636365
 40
0.6363636363636365
 40
0.6363636363636365
 40
0.6363636363636365
 40
0.7272727272727274
 40
0.7272727272727274
 40
0.7272727272727274
 40
0.7272727272727274
 40
0.8181818181818183
 40
0.8181818181818183
 40
0.8181818181818183
 40
0.8181818181818183
 40
0.9090909090909093
 40
0.9090909090909093
 40
0.9090909090909093
 40
0.9090909090909093
 40
1.0
 40
1.0
 40
1.0
 40
1.0
 10
-3.7311100000000001
 20
-1.4915400000000001
 30
0.0
 10
-3.7311100000000001
 20
-1.4915400000000001
 30
0.0
 10
-3.4796500000000004
 20
-1.4915400000000001
 30
0.0
 10
-3.4796500000000004
 20
-1.4915400000000001
 30
0.0
 10
-3.4796500000000004
 20
-1.4915400000000001
 30
0.0
 10
-3.4415500000000003
 20
-1.5093200000000002
 30
0.0
 10
-3.3882100000000004
 20
-1.5093200000000002
 30
0.0
 10
-3.3628100000000001
 20
-1.54234
 30
0.0
 10
-3.3628100000000001
 20
-1.54234
 30
0.0
 10
-3.3628100000000001
 20
-1.54234
 30
0.0
 10
-4.0257500000000004
 20
-1.8268200000000001
 30
0.0
 10
-4.0257500000000004
 20
-1.8268200000000001
 30
0.0
 10
-4.0257500000000004
 20
-1.8268200000000001
 30
0.0
 10
-4.0257500000000004
 20
-1.8268200000000001
 30
0.0
 10
-3.9647900000000003
 20
-1.8268200000000001
 30
0.0
 10
-3.9647900000000003
 20
-1.8268200000000001
 30
0.0
 10
-3.9647900000000003
 20
-1.8268200000000001
 30
0.0
 10
-3.9647900000000003
 20
-1.8268200000000001
 30
0.0
 10
-3.4999700000000002
 20
-1.6922000000000001
 30
0.0
 10
-3.4999700000000002
 20
-1.6922000000000001
 30
0.0
 10
-3.4999700000000002
 20
-1.6922000000000001
 30
0.0
 10
-3.8936700000000002
 20
-2.0097
 30
0.0
 10
-4.5362900000000002
 20
-1.8750800000000001
 30
0.0
 10
-4.9807900000000007
 20
-2.1595600000000004
 30
0.0
 10
-4.9807900000000007
 20
-2.1595600000000004
 30
0.0
 10
-4.9807900000000007
 20
-2.1595600000000004
 30
0.0
 10
-4.7242500000000005
 20
-1.9512800000000001
 30
0.0
 10
-4.7242500000000005
 20
-1.9512800000000001
 30
0.0
 10
-4.7242500000000005
 20
-1.9512800000000001
 30
0.0
 10
-4.6074100000000007
 20
-1.8674600000000001
 30
0.0
 10
-4.4092900000000004
 20
-1.8598400000000002
 30
0.0
 10
-4.2822900000000006
 20
-1.8090400000000002
 30
0.0
 10
-4.2822900000000006
 20
-1.8090400000000002
 30
0.0
 10
-4.1705300000000003
 20
-1.7430000000000001
 30
0.0
 10
-3.8377900000000005
 20
-1.7430000000000001
 30
0.0
 10
-3.8631900000000003
 20
-1.6414000000000002
 30
0.0
 10
-3.8631900000000003
 20
-1.6414000000000002
 30
0.0
 10
-3.8631900000000003
 20
-1.6414000000000002
 30
0.0
 10
-4.2289500000000002
 20
-1.6922000000000001
 30
0.0
 10
-4.2289500000000002
 20
-1.6922000000000001
 30
0.0
 10
-4.2289500000000002
 20
-1.6922000000000001
 30
0.0
 10
-4.0867100000000001
 20
-1.5906000000000002
 30
0.0
 10
-3.8860500000000004
 20
-1.5575800000000002
 30
0.0
 10
-3.7311100000000001
 20
-1.4915400000000001
 30
0.0
  0
SPLINE
  5
4B
100
AcDbEntity
  8
Ebene 1
100
AcDbSpline
210
0.0
220
0.0
230
1.0
 70
     1
 71
     3
 72
    20
 73
    16
 74
     0
 42
0.0000000001
 43
0.0000000001
 40
0.0
 40
0.0
 40
0.0
 40
0.0
 40
0.25
 40
0.25
 40
0.25
 40
0.25
 40
0.5
 40
0.5
 40
0.5
 40
0.5
 40
0.75
 40
0.75
 40
0.75
 40
0.75
 40
1.0
 40
1.0
 40
1.0
 40
1.0
 10
-0.21575
 20
-1.5093200000000002
 30
0.0
 10
-0.06589
 20
-1.5245600000000001
 30
0.0
 10
-0.01509
 20
-1.7938000000000001
 30
0.0
 10
0.13222
 20
-1.6769600000000002
 30
0.0
 10
0.13222
 20
-1.6769600000000002
 30
0.0
 10
0.15
 20
-1.6769600000000002
 30
0.0
 10
0.18302
 20
-1.6591800000000001
 30
0.0
 10
0.18302
 20
-1.6922000000000001
 30
0.0
 10
0.18302
 20
-1.6922000000000001
 30
0.0
 10
0.13222
 20
-1.8598400000000002
 30
0.0
 10
-0.13193
 20
-1.8268200000000001
 30
0.0
 10
-0.11415
 20
-1.62616
 30
0.0
 10
-0.11415
 20
-1.62616
 30
0.0
 10
-0.11415
 20
-1.62616
 30
0.0
 10
-0.21575
 20
-1.5093200000000002
 30
0.0
 10
-0.21575
 20
-1.5093200000000002
 30
0.0
  0
SPLINE
  5
4C
100
AcDbEntity
  8
Ebene 1
 62
     7
100
AcDbSpline
210
0.0
220
0.0
230
1.0
 70
     1
 71
     3
 72
    16
 73
    12
 74
     0
 42
0.0000000001
 43
0.0000000001
 40
0.0
 40
0.0
 40
0.0
 40
0.0
 40
0.3333333333333333
 40
0.3333333333333333
 40
0.3333333333333333
 40
0.3333333333333333
 40
0.6666666666666666
 40
0.6666666666666666
 40
0.6666666666666666
 40
0.6666666666666666
 40
1.0
 40
1.0
 40
1.0
 40
1.0
 10
3.2132400000000003
 20
-1.5245600000000001
 30
0.0
 10
3.3453200000000001
 20
-1.54234
 30
0.0
 10
3.4977200000000002
 20
-1.6083800000000001
 30
0.0
 10
3.5790000000000002
 20
-1.7074400000000001
 30
0.0
 10
3.5790000000000002
 20
-1.7074400000000001
 30
0.0
 10
3.4621600000000003
 20
-1.6769600000000002
 30
0.0
 10
3.3300800000000002
 20
-1.62616
 30
0.0
 10
3.2132400000000003
 20
-1.5753600000000001
 30
0.0
 10
3.2132400000000003
 20
-1.5753600000000001
 30
0.0
 10
3.2132400000000003
 20
-1.5753600000000001
 30
0.0
 10
3.2132400000000003
 20
-1.5245600000000001
 30
0.0
 10
3.2132400000000003
 20
-1.5245600000000001
 30
0.0
  0
SPLINE
  5
4D
100
AcDbEntity
  8
Ebene 1
100
AcDbSpline
210
0.0
220
0.0
230
1.0
 70
     1
 71
     3
 72
    28
 73
    24
 74
     0
 42
0.0000000001
 43
0.0000000001
 40
0.0
 40
0.0
 40
0.0
 40
0.0
 40
0.1666666666666667
 40
0.1666666666666667
 40
0.1666666666666667
 40
0.1666666666666667
 40
0.3333333333333333
 40
0.3333333333333333
 40
0.3333333333333333
 40
0.3333333333333333
 40
0.5
 40
0.5
 40
0.5
 40
0.5
 40
0.6666666666666666
 40
0.6666666666666666
 40
0.6666666666666666
 40
0.6666666666666666
 40
0.8333333333333333
 40
0.8333333333333333
 40
0.8333333333333333
 40
0.8333333333333333
 40
1.0
 40
1.0
 40
1.0
 40
1.0
 10
-0.61707
 20
-1.6922000000000001
 30
0.0
 10
-0.20051
 20
-1.9258800000000003
 30
0.0
 10
-0.18273
 20
-2.4465800000000004
 30
0.0
 10
-0.16495
 20
-2.8809200000000001
 30
0.0
 10
-0.16495
 20
-2.8809200000000001
 30
0.0
 10
-0.18273
 20
-2.9139400000000002
 30
0.0
 10
-0.20051
 20
-2.9469600000000002
 30
0.0
 10
-0.23353
 20
-2.9647400000000004
 30
0.0
 10
-0.23353
 20
-2.9647400000000004
 30
0.0
 10
-0.26655
 20
-2.9647400000000004
 30
0.0
 10
-0.28179
 20
-2.9317200000000003
 30
0.0
 10
-0.31735
 20
-2.9139400000000002
 30
0.0
 10
-0.31735
 20
-2.9139400000000002
 30
0.0
 10
-0.4164100000000001
 20
-2.5634200000000003
 30
0.0
 10
-0.70089
 20
-2.3627600000000002
 30
0.0
 10
-0.9193300000000001
 20
-2.0935200000000003
 30
0.0
 10
-0.9193300000000001
 20
-2.0935200000000003
 30
0.0
 10
-0.8355100000000001
 20
-1.9766800000000002
 30
0.0
 10
-0.7516900000000001
 20
-1.7760200000000002
 30
0.0
 10
-0.5662700000000001
 20
-1.8268200000000001
 30
0.0
 10
-0.5662700000000001
 20
-1.8268200000000001
 30
0.0
 10
-0.5662700000000001
 20
-1.8268200000000001
 30
0.0
 10
-0.61707
 20
-1.6922000000000001
 30
0.0
 10
-0.61707
 20
-1.6922000000000001
 30
0.0
  0
SPLINE
  5
4E
100
AcDbEntity
  8
Ebene 1
100
AcDbSpline
210
0.0
220
0.0
230
1.0
 70
     1
 71
     3
 72
    24
 73
    20
 74
     0
 42
0.0000000001
 43
0.0000000001
 40
0.0
 40
0.0
 40
0.0
 40
0.0
 40
0.2
 40
0.2
 40
0.2
 40
0.2
 40
0.4
 40
0.4
 40
0.4
 40
0.4
 40
0.6000000000000001
 40
0.6000000000000001
 40
0.6000000000000001
 40
0.6000000000000001
 40
0.8
 40
0.8
 40
0.8
 40
0.8
 40
1.0
 40
1.0
 40
1.0
 40
1.0
 10
0.7519800000000001
 20
-1.7252200000000002
 30
0.0
 10
0.86882
 20
-1.7074400000000001
 30
0.0
 10
0.71896
 20
-1.8090400000000002
 30
0.0
 10
0.785
 20
-1.8598400000000002
 30
0.0
 10
0.785
 20
-1.8598400000000002
 30
0.0
 10
0.9374000000000001
 20
-1.8928600000000002
 30
0.0
 10
1.1710800000000001
 20
-1.9944600000000001
 30
0.0
 10
1.10504
 20
-2.1951200000000002
 30
0.0
 10
1.10504
 20
-2.1951200000000002
 30
0.0
 10
0.8866000000000001
 20
-2.3957800000000002
 30
0.0
 10
0.6529200000000001
 20
-2.6116800000000002
 30
0.0
 10
0.6021200000000001
 20
-2.9139400000000002
 30
0.0
 10
0.6021200000000001
 20
-2.9139400000000002
 30
0.0
 10
0.6021200000000001
 20
-2.9139400000000002
 30
0.0
 10
0.4497200000000001
 20
-3.0485600000000002
 30
0.0
 10
0.4497200000000001
 20
-3.0485600000000002
 30
0.0
 10
0.4497200000000001
 20
-3.0485600000000002
 30
0.0
 10
0.35066
 20
-2.6116800000000002
 30
0.0
 10
0.5005200000000001
 20
-2.0935200000000003
 30
0.0
 10
0.7519800000000001
 20
-1.7252200000000002
 30
0.0
  0
SPLINE
  5
4F
100
AcDbEntity
  8
Ebene 1
 62
     7
100
AcDbSpline
210
0.0
220
0.0
230
1.0
 70
     1
 71
     3
 72
    32
 73
    28
 74
     0
 42
0.0000000001
 43
0.0000000001
 40
0.0
 40
0.0
 40
0.0
 40
0.0
 40
0.1428571428571429
 40
0.1428571428571429
 40
0.1428571428571429
 40
0.1428571428571429
 40
0.2857142857142857
 40
0.2857142857142857
 40
0.2857142857142857
 40
0.2857142857142857
 40
0.4285714285714286
 40
0.4285714285714286
 40
0.4285714285714286
 40
0.4285714285714286
 40
0.5714285714285714
 40
0.5714285714285714
 40
0.5714285714285714
 40
0.5714285714285714
 40
0.7142857142857142
 40
0.7142857142857142
 40
0.7142857142857142
 40
0.7142857142857142
 40
0.857142857142857
 40
0.857142857142857
 40
0.857142857142857
 40
0.857142857142857
 40
1.0
 40
1.0
 40
1.0
 40
1.0
 10
2.6925400000000002
 20
-1.7582400000000002
 30
0.0
 10
3.0278200000000002
 20
-1.8268200000000001
 30
0.0
 10
3.2945200000000003
 20
-2.0782800000000003
 30
0.0
 10
3.4469200000000004
 20
-2.3780000000000001
 30
0.0
 10
3.4469200000000004
 20
-2.3780000000000001
 30
0.0
 10
3.4469200000000004
 20
-2.3780000000000001
 30
0.0
 10
3.2132400000000003
 20
-2.1951200000000002
 30
0.0
 10
3.2132400000000003
 20
-2.1951200000000002
 30
0.0
 10
3.2132400000000003
 20
-2.1951200000000002
 30
0.0
 10
3.1954600000000002
 20
-2.14432
 30
0.0
 10
3.0278200000000002
 20
-2.0427200000000001
 30
0.0
 10
3.0938600000000003
 20
-2.1595600000000004
 30
0.0
 10
3.0938600000000003
 20
-2.1595600000000004
 30
0.0
 10
3.4291400000000003
 20
-2.4135600000000004
 30
0.0
 10
3.7314000000000003
 20
-2.6802600000000001
 30
0.0
 10
3.9498400000000005
 20
-3.0485600000000002
 30
0.0
 10
3.9498400000000005
 20
-3.0485600000000002
 30
0.0
 10
3.9498400000000005
 20
-3.0485600000000002
 30
0.0
 10
3.8812600000000002
 20
-3.0485600000000002
 30
0.0
 10
3.8812600000000002
 20
-3.0485600000000002
 30
0.0
 10
3.8812600000000002
 20
-3.0485600000000002
 30
0.0
 10
3.6145600000000004
 20
-2.4948400000000004
 30
0.0
 10
2.9770200000000004
 20
-2.3272000000000004
 30
0.0
 10
2.59348
 20
-1.8750800000000001
 30
0.0
 10
2.59348
 20
-1.8750800000000001
 30
0.0
 10
2.59348
 20
-1.8090400000000002
 30
0.0
 10
2.6595200000000001
 20
-1.7938000000000001
 30
0.0
 10
2.6925400000000002
 20
-1.7582400000000002
 30
0.0
  0
SPLINE
  5
50
100
AcDbEntity
  8
Ebene 1
 62
     7
100
AcDbSpline
210
0.0
220
0.0
230
1.0
 70
     1
 71
     3
 72
    32
 73
    28
 74
     0
 42
0.0000000001
 43
0.0000000001
 40
0.0
 40
0.0
 40
0.0
 40
0.0
 40
0.1428571428571429
 40
0.1428571428571429
 40
0.1428571428571429
 40
0.1428571428571429
 40
0.2857142857142857
 40
0.2857142857142857
 40
0.2857142857142857
 40
0.2857142857142857
 40
0.4285714285714286
 40
0.4285714285714286
 40
0.4285714285714286
 40
0.4285714285714286
 40
0.5714285714285714
 40
0.5714285714285714
 40
0.5714285714285714
 40
0.5714285714285714
 40
0.7142857142857142
 40
0.7142857142857142
 40
0.7142857142857142
 40
0.7142857142857142
 40
0.857142857142857
 40
0.857142857142857
 40
0.857142857142857
 40
0.857142857142857
 40
1.0
 40
1.0
 40
1.0
 40
1.0
 10
-3.0097500000000004
 20
-1.8090400000000002
 30
0.0
 10
-2.8141700000000003
 20
-1.8446000000000002
 30
0.0
 10
-3.1824700000000004
 20
-1.9766800000000002
 30
0.0
 10
-3.0961100000000004
 20
-2.0274800000000002
 30
0.0
 10
-3.0961100000000004
 20
-2.0274800000000002
 30
0.0
 10
-2.6947900000000002
 20
-1.8090400000000002
 30
0.0
 10
-3.0656300000000001
 20
-2.3957800000000002
 30
0.0
 10
-3.3069300000000004
 20
-2.3627600000000002
 30
0.0
 10
-3.3069300000000004
 20
-2.3627600000000002
 30
0.0
 10
-3.3069300000000004
 20
-2.3627600000000002
 30
0.0
 10
-3.5406100000000005
 20
-2.5126200000000001
 30
0.0
 10
-3.5406100000000005
 20
-2.5126200000000001
 30
0.0
 10
-3.5406100000000005
 20
-2.5126200000000001
 30
0.0
 10
-3.5228300000000004
 20
-2.4465800000000004
 30
0.0
 10
-3.4567900000000003
 20
-2.3780000000000001
 30
0.0
 10
-3.4085300000000003
 20
-2.3272000000000004
 30
0.0
 10
-3.4085300000000003
 20
-2.3272000000000004
 30
0.0
 10
-3.3247100000000001
 20
-2.2459200000000004
 30
0.0
 10
-3.2612100000000002
 20
-2.14432
 30
0.0
 10
-3.1977100000000003
 20
-2.0605000000000002
 30
0.0
 10
-3.1977100000000003
 20
-2.0605000000000002
 30
0.0
 10
-3.5685500000000001
 20
-2.2611600000000003
 30
0.0
 10
-3.7488900000000003
 20
-2.7463000000000002
 30
0.0
 10
-4.0943300000000002
 20
-2.9799800000000003
 30
0.0
 10
-4.0943300000000002
 20
-2.9799800000000003
 30
0.0
 10
-3.8708100000000005
 20
-2.4948400000000004
 30
0.0
 10
-3.5279100000000003
 20
-1.9944600000000001
 30
0.0
 10
-3.0097500000000004
 20
-1.8090400000000002
 30
0.0
  0
SPLINE
  5
51
100
AcDbEntity
  8
Ebene 1
 62
     7
100
AcDbSpline
210
0.0
220
0.0
230
1.0
 70
     1
 71
     3
 72
    12
 73
     8
 74
     0
 42
0.0000000001
 43
0.0000000001
 40
0.0
 40
0.0
 40
0.0
 40
0.0
 40
0.5
 40
0.5
 40
0.5
 40
0.5
 40
1.0
 40
1.0
 40
1.0
 40
1.0
 10
2.6112600000000001
 20
-1.9944600000000001
 30
0.0
 10
2.6112600000000001
 20
-1.9944600000000001
 30
0.0
 10
3.3453200000000001
 20
-2.5634200000000003
 30
0.0
 10
3.3453200000000001
 20
-2.5634200000000003
 30
0.0
 10
3.3453200000000001
 20
-2.5634200000000003
 30
0.0
 10
3.0938600000000003
 20
-2.4135600000000004
 30
0.0
 10
2.7763600000000004
 20
-2.2459200000000004
 30
0.0
 10
2.6112600000000001
 20
-1.9944600000000001
 30
0.0
  0
SPLINE
  5
52
100
AcDbEntity
  8
Ebene 1
 62
     7
100
AcDbSpline
210
0.0
220
0.0
230
1.0
 70
     1
 71
     3
 72
    20
 73
    16
 74
     0
 42
0.0000000001
 43
0.0000000001
 40
0.0
 40
0.0
 40
0.0
 40
0.0
 40
0.25
 40
0.25
 40
0.25
 40
0.25
 40
0.5
 40
0.5
 40
0.5
 40
0.5
 40
0.75
 40
0.75
 40
0.75
 40
0.75
 40
1.0
 40
1.0
 40
1.0
 40
1.0
 10
-2.3925300000000003
 20
-2.0986000000000002
 30
0.0
 10
-2.3925300000000003
 20
-2.0986000000000002
 30
0.0
 10
-2.3290300000000004
 20
-2.1163800000000004
 30
0.0
 10
-2.3290300000000004
 20
-2.1163800000000004
 30
0.0
 10
-2.3290300000000004
 20
-2.1163800000000004
 30
0.0
 10
-2.1969500000000002
 20
-2.4161000000000001
 30
0.0
 10
-2.6084300000000002
 20
-2.4465800000000004
 30
0.0
 10
-2.7125700000000004
 20
-2.6802600000000001
 30
0.0
 10
-2.7125700000000004
 20
-2.6802600000000001
 30
0.0
 10
-2.7303500000000001
 20
-2.6802600000000001
 30
0.0
 10
-2.7481300000000002
 20
-2.7310600000000003
 30
0.0
 10
-2.7709900000000003
 20
-2.7132800000000001
 30
0.0
 10
-2.7709900000000003
 20
-2.7132800000000001
 30
0.0
 10
-2.69733
 20
-2.4618200000000003
 30
0.0
 10
-2.5449300000000004
 20
-2.31704
 30
0.0
 10
-2.3925300000000003
 20
-2.0986000000000002
 30
0.0
  0
SPLINE
  5
53
100
AcDbEntity
  8
Ebene 1
 62
     7
100
AcDbSpline
210
0.0
220
0.0
230
1.0
 70
     1
 71
     3
 72
    20
 73
    16
 74
     0
 42
0.0000000001
 43
0.0000000001
 40
0.0
 40
0.0
 40
0.0
 40
0.0
 40
0.25
 40
0.25
 40
0.25
 40
0.25
 40
0.5
 40
0.5
 40
0.5
 40
0.5
 40
0.75
 40
0.75
 40
0.75
 40
0.75
 40
1.0
 40
1.0
 40
1.0
 40
1.0
 10
2.2277200000000001
 20
-2.1544800000000004
 30
0.0
 10
2.4741000000000004
 20
-2.2408400000000004
 30
0.0
 10
2.5477600000000002
 20
-2.5329400000000004
 30
0.0
 10
2.5757000000000003
 20
-2.7640800000000003
 30
0.0
 10
2.5757000000000003
 20
-2.7640800000000003
 30
0.0
 10
2.5045800000000003
 20
-2.7056600000000004
 30
0.0
 10
2.3725000000000001
 20
-2.5888200000000001
 30
0.0
 10
2.4029800000000003
 20
-2.4745200000000001
 30
0.0
 10
2.4029800000000003
 20
-2.4745200000000001
 30
0.0
 10
2.4029800000000003
 20
-2.4745200000000001
 30
0.0
 10
2.1845400000000001
 20
-2.2002000000000002
 30
0.0
 10
2.1845400000000001
 20
-2.2002000000000002
 30
0.0
 10
2.1845400000000001
 20
-2.2002000000000002
 30
0.0
 10
2.1845400000000001
 20
-2.2002000000000002
 30
0.0
 10
2.2277200000000001
 20
-2.1544800000000004
 30
0.0
 10
2.2277200000000001
 20
-2.1544800000000004
 30
0.0
  0
SPLINE
  5
54
100
AcDbEntity
  8
Ebene 1
 62
     7
100
AcDbSpline
210
0.0
220
0.0
230
1.0
 70
     1
 71
     3
 72
    16
 73
    12
 74
     0
 42
0.0000000001
 43
0.0000000001
 40
0.0
 40
0.0
 40
0.0
 40
0.0
 40
0.3333333333333333
 40
0.3333333333333333
 40
0.3333333333333333
 40
0.3333333333333333
 40
0.6666666666666666
 40
0.6666666666666666
 40
0.6666666666666666
 40
0.6666666666666666
 40
1.0
 40
1.0
 40
1.0
 40
1.0
 10
-1.42225
 20
-2.6624800000000004
 30
0.0
 10
-1.3536700000000002
 20
-2.86314
 30
0.0
 10
-1.3714500000000001
 20
-3.1476200000000003
 30
0.0
 10
-1.4705100000000002
 20
-3.3152600000000003
 30
0.0
 10
-1.4705100000000002
 20
-3.3152600000000003
 30
0.0
 10
-1.5213100000000002
 20
-3.2136600000000004
 30
0.0
 10
-1.4374900000000002
 20
-3.0485600000000002
 30
0.0
 10
-1.5543300000000002
 20
-2.9647400000000004
 30
0.0
 10
-1.5543300000000002
 20
-2.9647400000000004
 30
0.0
 10
-1.4705100000000002
 20
-2.8809200000000001
 30
0.0
 10
-1.50353
 20
-2.7463000000000002
 30
0.0
 10
-1.42225
 20
-2.6624800000000004
 30
0.0
  0
SPLINE
  5
55
100
AcDbEntity
  8
Ebene 1
 62
     7
100
AcDbSpline
210
0.0
220
0.0
230
1.0
 70
     1
 71
     3
 72
    20
 73
    16
 74
     0
 42
0.0000000001
 43
0.0000000001
 40
0.0
 40
0.0
 40
0.0
 40
0.0
 40
0.25
 40
0.25
 40
0.25
 40
0.25
 40
0.5
 40
0.5
 40
0.5
 40
0.5
 40
0.75
 40
0.75
 40
0.75
 40
0.75
 40
1.0
 40
1.0
 40
1.0
 40
1.0
 10
1.6714600000000002
 20
-2.7310600000000003
 30
0.0
 10
1.6714600000000002
 20
-2.7310600000000003
 30
0.0
 10
1.7070200000000002
 20
-2.7310600000000003
 30
0.0
 10
1.7070200000000002
 20
-2.7310600000000003
 30
0.0
 10
1.7070200000000002
 20
-2.7310600000000003
 30
0.0
 10
1.7070200000000002
 20
-2.7310600000000003
 30
0.0
 10
1.7222600000000001
 20
-3.1476200000000003
 30
0.0
 10
1.7222600000000001
 20
-3.1476200000000003
 30
0.0
 10
1.7222600000000001
 20
-3.1476200000000003
 30
0.0
 10
1.7222600000000001
 20
-3.1476200000000003
 30
0.0
 10
1.5546200000000001
 20
-3.4676600000000004
 30
0.0
 10
1.5546200000000001
 20
-3.4676600000000004
 30
0.0
 10
1.5546200000000001
 20
-3.4676600000000004
 30
0.0
 10
1.5546200000000001
 20
-3.2136600000000004
 30
0.0
 10
1.5724
 20
-2.9469600000000002
 30
0.0
 10
1.6714600000000002
 20
-2.7310600000000003
 30
0.0
  0
SPLINE
  5
56
100
AcDbEntity
  8
Ebene 1
 62
     7
100
AcDbSpline
210
0.0
220
0.0
230
1.0
 70
     1
 71
     3
 72
    20
 73
    16
 74
     0
 42
0.0000000001
 43
0.0000000001
 40
0.0
 40
0.0
 40
0.0
 40
0.0
 40
0.25
 40
0.25
 40
0.25
 40
0.25
 40
0.5
 40
0.5
 40
0.5
 40
0.5
 40
0.75
 40
0.75
 40
0.75
 40
0.75
 40
1.0
 40
1.0
 40
1.0
 40
1.0
 10
1.5216000000000001
 20
-2.7793200000000002
 30
0.0
 10
1.5216000000000001
 20
-2.7793200000000002
 30
0.0
 10
1.5546200000000001
 20
-2.7793200000000002
 30
0.0
 10
1.5546200000000001
 20
-2.7971000000000004
 30
0.0
 10
1.5546200000000001
 20
-2.7971000000000004
 30
0.0
 10
1.5546200000000001
 20
-2.7971000000000004
 30
0.0
 10
1.4555600000000002
 20
-3.7851600000000003
 30
0.0
 10
1.4555600000000002
 20
-3.7851600000000003
 30
0.0
 10
1.4555600000000002
 20
-3.7851600000000003
 30
0.0
 10
1.4555600000000002
 20
-3.7851600000000003
 30
0.0
 10
1.32094
 20
-3.5489400000000004
 30
0.0
 10
1.32094
 20
-3.5489400000000004
 30
0.0
 10
1.32094
 20
-3.5489400000000004
 30
0.0
 10
1.3717400000000002
 20
-3.2822400000000003
 30
0.0
 10
1.2879200000000002
 20
-2.9647400000000004
 30
0.0
 10
1.5216000000000001
 20
-2.7793200000000002
 30
0.0
  0
SPLINE
  5
57
100
AcDbEntity
  8
Ebene 1
 62
     7
100
AcDbSpline
210
0.0
220
0.0
230
1.0
 70
     1
 71
     3
 72
    16
 73
    12
 74
     0
 42
0.0000000001
 43
0.0000000001
 40
0.0
 40
0.0
 40
0.0
 40
0.0
 40
0.3333333333333333
 40
0.3333333333333333
 40
0.3333333333333333
 40
0.3333333333333333
 40
0.6666666666666666
 40
0.6666666666666666
 40
0.6666666666666666
 40
0.6666666666666666
 40
1.0
 40
1.0
 40
1.0
 40
1.0
 10
-1.25461
 20
-2.8809200000000001
 30
0.0
 10
-1.11999
 20
-2.9647400000000004
 30
0.0
 10
-1.20381
 20
-3.19842
 30
0.0
 10
-1.1860300000000001
 20
-3.3508200000000001
 30
0.0
 10
-1.1860300000000001
 20
-3.3508200000000001
 30
0.0
 10
-1.1860300000000001
 20
-3.3508200000000001
 30
0.0
 10
-1.3206500000000001
 20
-3.1831800000000001
 30
0.0
 10
-1.3206500000000001
 20
-3.1831800000000001
 30
0.0
 10
-1.3206500000000001
 20
-3.1831800000000001
 30
0.0
 10
-1.3206500000000001
 20
-3.0815800000000002
 30
0.0
 10
-1.3028700000000002
 20
-2.9647400000000004
 30
0.0
 10
-1.25461
 20
-2.8809200000000001
 30
0.0
  0
SPLINE
  5
58
100
AcDbEntity
  8
Ebene 1
 62
     7
100
AcDbSpline
210
0.0
220
0.0
230
1.0
 70
     1
 71
     3
 72
    12
 73
     8
 74
     0
 42
0.0000000001
 43
0.0000000001
 40
0.0
 40
0.0
 40
0.0
 40
0.0
 40
0.5
 40
0.5
 40
0.5
 40
0.5
 40
1.0
 40
1.0
 40
1.0
 40
1.0
 10
1.7908400000000002
 20
-2.8809200000000001
 30
0.0
 10
1.8568800000000001
 20
-2.8987000000000003
 30
0.0
 10
1.8721200000000002
 20
-2.9977600000000004
 30
0.0
 10
1.8238600000000003
 20
-3.0485600000000002
 30
0.0
 10
1.8238600000000003
 20
-3.0485600000000002
 30
0.0
 10
1.7730600000000001
 20
-3.0155400000000001
 30
0.0
 10
1.7908400000000002
 20
-2.9317200000000003
 30
0.0
 10
1.7908400000000002
 20
-2.8809200000000001
 30
0.0
  0
SPLINE
  5
59
100
AcDbEntity
  8
Ebene 1
 62
     7
100
AcDbSpline
210
0.0
220
0.0
230
1.0
 70
     1
 71
     3
 72
    12
 73
     8
 74
     0
 42
0.0000000001
 43
0.0000000001
 40
0.0
 40
0.0
 40
0.0
 40
0.0
 40
0.5
 40
0.5
 40
0.5
 40
0.5
 40
1.0
 40
1.0
 40
1.0
 40
1.0
 10
-1.58989
 20
-3.03078
 30
0.0
 10
-1.4882900000000001
 20
-3.19842
 30
0.0
 10
-1.6051300000000002
 20
-3.3813000000000004
 30
0.0
 10
-1.7219700000000002
 20
-3.5159200000000004
 30
0.0
 10
-1.7219700000000002
 20
-3.5159200000000004
 30
0.0
 10
-1.7067300000000001
 20
-3.3508200000000001
 30
0.0
 10
-1.7067300000000001
 20
-3.1476200000000003
 30
0.0
 10
-1.58989
 20
-3.03078
 30
0.0
  0
SPLINE
  5
5A
100
AcDbEntity
  8
Ebene 1
 62
     7
100
AcDbSpline
210
0.0
220
0.0
230
1.0
 70
     1
 71
     3
 72
    16
 73
    12
 74
     0
 42
0.0000000001
 43
0.0000000001
 40
0.0
 40
0.0
 40
0.0
 40
0.0
 40
0.3333333333333333
 40
0.3333333333333333
 40
0.3333333333333333
 40
0.3333333333333333
 40
0.6666666666666666
 40
0.6666666666666666
 40
0.6666666666666666
 40
0.6666666666666666
 40
1.0
 40
1.0
 40
1.0
 40
1.0
 10
1.8568800000000001
 20
-3.0815800000000002
 30
0.0
 10
1.9407000000000001
 20
-3.1476200000000003
 30
0.0
 10
1.8949800000000001
 20
-3.2593800000000002
 30
0.0
 10
1.8949800000000001
 20
-3.3762200000000004
 30
0.0
 10
1.8949800000000001
 20
-3.3762200000000004
 30
0.0
 10
1.8949800000000001
 20
-3.3762200000000004
 30
0.0
 10
1.8746600000000002
 20
-3.4752800000000001
 30
0.0
 10
1.8746600000000002
 20
-3.4752800000000001
 30
0.0
 10
1.8746600000000002
 20
-3.4752800000000001
 30
0.0
 10
1.8594200000000001
 20
-3.3584400000000003
 30
0.0
 10
1.7552800000000002
 20
-3.19842
 30
0.0
 10
1.8568800000000001
 20
-3.0815800000000002
 30
0.0
  0
SPLINE
  5
5B
100
AcDbEntity
  8
Ebene 1
 62
     7
100
AcDbSpline
210
0.0
220
0.0
230
1.0
 70
     1
 71
     3
 72
    16
 73
    12
 74
     0
 42
0.0000000001
 43
0.0000000001
 40
0.0
 40
0.0
 40
0.0
 40
0.0
 40
0.3333333333333333
 40
0.3333333333333333
 40
0.3333333333333333
 40
0.3333333333333333
 40
0.6666666666666666
 40
0.6666666666666666
 40
0.6666666666666666
 40
0.6666666666666666
 40
1.0
 40
1.0
 40
1.0
 40
1.0
 10
-1.3714500000000001
 20
-3.2822400000000003
 30
0.0
 10
-1.3714500000000001
 20
-3.2822400000000003
 30
0.0
 10
-1.33843
 20
-3.2822400000000003
 30
0.0
 10
-1.33843
 20
-3.2822400000000003
 30
0.0
 10
-1.33843
 20
-3.2822400000000003
 30
0.0
 10
-1.2876300000000001
 20
-3.4498800000000003
 30
0.0
 10
-1.3206500000000001
 20
-3.6835600000000004
 30
0.0
 10
-1.4705100000000002
 20
-3.7673800000000002
 30
0.0
 10
-1.4705100000000002
 20
-3.7673800000000002
 30
0.0
 10
-1.5213100000000002
 20
-3.6175200000000003
 30
0.0
 10
-1.5213100000000002
 20
-3.3990800000000001
 30
0.0
 10
-1.3714500000000001
 20
-3.2822400000000003
 30
0.0
  0
SPLINE
  5
5C
100
AcDbEntity
  8
Ebene 1
 62
     7
100
AcDbSpline
210
0.0
220
0.0
230
1.0
 70
     1
 71
     3
 72
    16
 73
    12
 74
     0
 42
0.0000000001
 43
0.0000000001
 40
0.0
 40
0.0
 40
0.0
 40
0.0
 40
0.3333333333333333
 40
0.3333333333333333
 40
0.3333333333333333
 40
0.3333333333333333
 40
0.6666666666666666
 40
0.6666666666666666
 40
0.6666666666666666
 40
0.6666666666666666
 40
1.0
 40
1.0
 40
1.0
 40
1.0
 10
1.65622
 20
-3.3660600000000005
 30
0.0
 10
1.8238600000000003
 20
-3.4498800000000003
 30
0.0
 10
1.8060800000000001
 20
-3.7343600000000001
 30
0.0
 10
1.7222600000000001
 20
-3.8689800000000005
 30
0.0
 10
1.7222600000000001
 20
-3.8689800000000005
 30
0.0
 10
1.7222600000000001
 20
-3.8689800000000005
 30
0.0
 10
1.5876400000000002
 20
-3.6175200000000003
 30
0.0
 10
1.5876400000000002
 20
-3.6175200000000003
 30
0.0
 10
1.5876400000000002
 20
-3.6175200000000003
 30
0.0
 10
1.5876400000000002
 20
-3.6175200000000003
 30
0.0
 10
1.65622
 20
-3.3660600000000005
 30
0.0
 10
1.65622
 20
-3.3660600000000005
 30
0.0
  0
SPLINE
  5
5D
100
AcDbEntity
  8
Ebene 1
 62
     7
100
AcDbSpline
210
0.0
220
0.0
230
1.0
 70
     1
 71
     3
 72
    20
 73
    16
 74
     0
 42
0.0000000001
 43
0.0000000001
 40
0.0
 40
0.0
 40
0.0
 40
0.0
 40
0.25
 40
0.25
 40
0.25
 40
0.25
 40
0.5
 40
0.5
 40
0.5
 40
0.5
 40
0.75
 40
0.75
 40
0.75
 40
0.75
 40
1.0
 40
1.0
 40
1.0
 40
1.0
 10
-1.0539500000000002
 20
-3.5845000000000002
 30
0.0
 10
-0.86853
 20
-3.8029400000000004
 30
0.0
 10
-0.7694700000000001
 20
-4.2372800000000002
 30
0.0
 10
-0.9193300000000001
 20
-4.4862000000000002
 30
0.0
 10
-0.9193300000000001
 20
-4.4862000000000002
 30
0.0
 10
-0.95235
 20
-4.4862000000000002
 30
0.0
 10
-0.9193300000000001
 20
-4.35412
 30
0.0
 10
-0.9701300000000001
 20
-4.4049200000000006
 30
0.0
 10
-0.9701300000000001
 20
-4.4049200000000006
 30
0.0
 10
-0.9853700000000001
 20
-4.6386000000000003
 30
0.0
 10
-0.9853700000000001
 20
-4.8570400000000005
 30
0.0
 10
-0.9701300000000001
 20
-5.07294
 30
0.0
 10
-0.9701300000000001
 20
-5.07294
 30
0.0
 10
-1.1530100000000001
 20
-4.6208200000000001
 30
0.0
 10
-1.3028700000000002
 20
-4.0366200000000001
 30
0.0
 10
-1.0539500000000002
 20
-3.5845000000000002
 30
0.0
  0
SPLINE
  5
5E
100
AcDbEntity
  8
Ebene 1
 62
     7
100
AcDbSpline
210
0.0
220
0.0
230
1.0
 70
     1
 71
     3
 72
    44
 73
    40
 74
     0
 42
0.0000000001
 43
0.0000000001
 40
0.0
 40
0.0
 40
0.0
 40
0.0
 40
0.1
 40
0.1
 40
0.1
 40
0.1
 40
0.2
 40
0.2
 40
0.2
 40
0.2
 40
0.3
 40
0.3
 40
0.3
 40
0.3
 40
0.4
 40
0.4
 40
0.4
 40
0.4
 40
0.5
 40
0.5
 40
0.5
 40
0.5
 40
0.6
 40
0.6
 40
0.6
 40
0.6
 40
0.7
 40
0.7
 40
0.7
 40
0.7
 40
0.7999999999999999
 40
0.7999999999999999
 40
0.7999999999999999
 40
0.7999999999999999
 40
0.8999999999999999
 40
0.8999999999999999
 40
0.8999999999999999
 40
0.8999999999999999
 40
1.0
 40
1.0
 40
1.0
 40
1.0
 10
1.23712
 20
-3.6505400000000003
 30
0.0
 10
1.4377800000000001
 20
-3.7851600000000003
 30
0.0
 10
1.5063600000000001
 20
-4.2017200000000008
 30
0.0
 10
1.40476
 20
-4.4201600000000001
 30
0.0
 10
1.40476
 20
-4.4201600000000001
 30
0.0
 10
1.40476
 20
-4.4201600000000001
 30
0.0
 10
1.4200000000000002
 20
-4.2525200000000005
 30
0.0
 10
1.4200000000000002
 20
-4.2525200000000005
 30
0.0
 10
1.4200000000000002
 20
-4.2525200000000005
 30
0.0
 10
1.4377800000000001
 20
-4.2017200000000008
 30
0.0
 10
1.3717400000000002
 20
-4.1179000000000006
 30
0.0
 10
1.3387200000000001
 20
-4.1356800000000007
 30
0.0
 10
1.3387200000000001
 20
-4.1356800000000007
 30
0.0
 10
1.3387200000000001
 20
-4.1356800000000007
 30
0.0
 10
1.32094
 20
-4.2372800000000002
 30
0.0
 10
1.32094
 20
-4.2372800000000002
 30
0.0
 10
1.32094
 20
-4.2372800000000002
 30
0.0
 10
1.3387200000000001
 20
-4.5370000000000008
 30
0.0
 10
1.3031600000000001
 20
-4.8214800000000002
 30
0.0
 10
1.1355200000000001
 20
-5.0551600000000008
 30
0.0
 10
1.1355200000000001
 20
-5.0551600000000008
 30
0.0
 10
1.1355200000000001
 20
-5.0551600000000008
 30
0.0
 10
1.06948
 20
-4.4709600000000007
 30
0.0
 10
1.06948
 20
-4.4709600000000007
 30
0.0
 10
1.06948
 20
-4.4709600000000007
 30
0.0
 10
1.0872600000000001
 20
-4.4531800000000006
 30
0.0
 10
1.10504
 20
-4.4862000000000002
 30
0.0
 10
1.10504
 20
-4.5039800000000003
 30
0.0
 10
1.10504
 20
-4.5039800000000003
 30
0.0
 10
1.10504
 20
-4.5039800000000003
 30
0.0
 10
1.18632
 20
-4.6894
 30
0.0
 10
1.18632
 20
-4.6894
 30
0.0
 10
1.18632
 20
-4.6894
 30
0.0
 10
1.2041000000000002
 20
-4.5039800000000003
 30
0.0
 10
1.1202800000000002
 20
-4.2855400000000001
 30
0.0
 10
1.0364600000000002
 20
-4.1179000000000006
 30
0.0
 10
1.0364600000000002
 20
-4.1179000000000006
 30
0.0
 10
1.0872600000000001
 20
-3.9528000000000003
 30
0.0
 10
1.1533
 20
-3.8029400000000004
 30
0.0
 10
1.23712
 20
-3.6505400000000003
 30
0.0
  0
SPLINE
  5
5F
100
AcDbEntity
  8
Ebene 1
 62
     7
100
AcDbSpline
210
0.0
220
0.0
230
1.0
 70
     1
 71
     3
 72
    28
 73
    24
 74
     0
 42
0.0000000001
 43
0.0000000001
 40
0.0
 40
0.0
 40
0.0
 40
0.0
 40
0.1666666666666667
 40
0.1666666666666667
 40
0.1666666666666667
 40
0.1666666666666667
 40
0.3333333333333333
 40
0.3333333333333333
 40
0.3333333333333333
 40
0.3333333333333333
 40
0.5
 40
0.5
 40
0.5
 40
0.5
 40
0.6666666666666666
 40
0.6666666666666666
 40
0.6666666666666666
 40
0.6666666666666666
 40
0.8333333333333333
 40
0.8333333333333333
 40
0.8333333333333333
 40
0.8333333333333333
 40
1.0
 40
1.0
 40
1.0
 40
1.0
 10
0.23382
 20
-3.9223200000000005
 30
0.0
 10
0.23382
 20
-3.8562800000000004
 30
0.0
 10
0.27954
 20
-3.8207200000000001
 30
0.0
 10
0.31256
 20
-3.7699200000000004
 30
0.0
 10
0.31256
 20
-3.7699200000000004
 30
0.0
 10
0.4802
 20
-3.9705800000000004
 30
0.0
 10
0.5183000000000001
 20
-4.1687000000000003
 30
0.0
 10
0.40146
 20
-4.4049200000000006
 30
0.0
 10
0.40146
 20
-4.4049200000000006
 30
0.0
 10
0.38368
 20
-4.3871400000000005
 30
0.0
 10
0.38368
 20
-4.35412
 30
0.0
 10
0.38368
 20
-4.3363400000000007
 30
0.0
 10
0.38368
 20
-4.3363400000000007
 30
0.0
 10
0.40146
 20
-4.2703000000000007
 30
0.0
 10
0.35066
 20
-4.1864800000000004
 30
0.0
 10
0.31764
 20
-4.1179000000000006
 30
0.0
 10
0.31764
 20
-4.1179000000000006
 30
0.0
 10
0.31256
 20
-4.1407600000000002
 30
0.0
 10
0.30494
 20
-4.1966400000000004
 30
0.0
 10
0.29224
 20
-4.2601400000000007
 30
0.0
 10
0.29224
 20
-4.2601400000000007
 30
0.0
 10
0.29224
 20
-4.3363400000000007
 30
0.0
 10
0.12714
 20
-4.6233600000000008
 30
0.0
 10
0.23382
 20
-3.9223200000000005
 30
0.0
  0
SPLINE
  5
60
100
AcDbEntity
  8
Ebene 1
 62
     7
100
AcDbSpline
210
0.0
220
0.0
230
1.0
 70
     1
 71
     3
 72
    28
 73
    24
 74
     0
 42
0.0000000001
 43
0.0000000001
 40
0.0
 40
0.0
 40
0.0
 40
0.0
 40
0.1666666666666667
 40
0.1666666666666667
 40
0.1666666666666667
 40
0.1666666666666667
 40
0.3333333333333333
 40
0.3333333333333333
 40
0.3333333333333333
 40
0.3333333333333333
 40
0.5
 40
0.5
 40
0.5
 40
0.5
 40
0.6666666666666666
 40
0.6666666666666666
 40
0.6666666666666666
 40
0.6666666666666666
 40
0.8333333333333333
 40
0.8333333333333333
 40
0.8333333333333333
 40
0.8333333333333333
 40
1.0
 40
1.0
 40
1.0
 40
1.0
 10
-0.06589
 20
-3.7013400000000005
 30
0.0
 10
0.0484
 20
-3.8181800000000004
 30
0.0
 10
0.11698
 20
-4.1026600000000002
 30
0.0
 10
0.01538
 20
-4.2703000000000007
 30
0.0
 10
0.01538
 20
-4.2703000000000007
 30
0.0
 10
0.01538
 20
-4.2703000000000007
 30
0.0
 10
-0.06589
 20
-4.2525200000000005
 30
0.0
 10
-0.06589
 20
-4.2525200000000005
 30
0.0
 10
-0.06589
 20
-4.2525200000000005
 30
0.0
 10
-0.06589
 20
-4.2525200000000005
 30
0.0
 10
-0.04811
 20
-4.0696400000000006
 30
0.0
 10
-0.04811
 20
-4.0696400000000006
 30
0.0
 10
-0.04811
 20
-4.0696400000000006
 30
0.0
 10
-0.03287
 20
-3.9858200000000004
 30
0.0
 10
-0.11415
 20
-4.0366200000000001
 30
0.0
 10
-0.09891
 20
-4.0848800000000001
 30
0.0
 10
-0.09891
 20
-4.0848800000000001
 30
0.0
 10
-0.09891
 20
-4.0848800000000001
 30
0.0
 10
-0.20051
 20
-4.4862000000000002
 30
0.0
 10
-0.20051
 20
-4.4862000000000002
 30
0.0
 10
-0.20051
 20
-4.4862000000000002
 30
0.0
 10
-0.4164100000000001
 20
-4.2525200000000005
 30
0.0
 10
-0.18273
 20
-3.9350200000000002
 30
0.0
 10
-0.06589
 20
-3.7013400000000005
 30
0.0
  0
SPLINE
  5
61
100
AcDbEntity
  8
Ebene 1
 62
     7
100
AcDbSpline
210
0.0
220
0.0
230
1.0
 70
     1
 71
     3
 72
    12
 73
     8
 74
     0
 42
0.0000000001
 43
0.0000000001
 40
0.0
 40
0.0
 40
0.0
 40
0.0
 40
0.5
 40
0.5
 40
0.5
 40
0.5
 40
1.0
 40
1.0
 40
1.0
 40
1.0
 10
-0.5002300000000001
 20
-3.8181800000000004
 30
0.0
 10
-0.3325900000000001
 20
-4.0366200000000001
 30
0.0
 10
-0.46721
 20
-4.3185600000000006
 30
0.0
 10
-0.5840500000000001
 20
-4.5217600000000004
 30
0.0
 10
-0.5840500000000001
 20
-4.5217600000000004
 30
0.0
 10
-0.6856500000000001
 20
-4.2855400000000001
 30
0.0
 10
-0.70089
 20
-4.01884
 30
0.0
 10
-0.5002300000000001
 20
-3.8181800000000004
 30
0.0
  0
SPLINE
  5
62
100
AcDbEntity
  8
Ebene 1
 62
     7
100
AcDbSpline
210
0.0
220
0.0
230
1.0
 70
     1
 71
     3
 72
    12
 73
     8
 74
     0
 42
0.0000000001
 43
0.0000000001
 40
0.0
 40
0.0
 40
0.0
 40
0.0
 40
0.5
 40
0.5
 40
0.5
 40
0.5
 40
1.0
 40
1.0
 40
1.0
 40
1.0
 10
0.7342000000000001
 20
-3.8842200000000005
 30
0.0
 10
0.95264
 20
-3.9858200000000004
 30
0.0
 10
0.785
 20
-4.3185600000000006
 30
0.0
 10
0.71896
 20
-4.4709600000000007
 30
0.0
 10
0.71896
 20
-4.4709600000000007
 30
0.0
 10
0.6021200000000001
 20
-4.3033200000000003
 30
0.0
 10
0.5843400000000001
 20
-4.0518600000000005
 30
0.0
 10
0.7342000000000001
 20
-3.8842200000000005
 30
0.0
  0
ENDSEC
  0
SECTION
  2
OBJECTS
  0
DICTIONARY
  5
19
100
AcDbDictionary
280
     0
281
     1
  3
ACAD_GROUP
350
1A
  3
ACAD_MLINESTYLE
350
1B
  3
ACAD_LAYOUT
350
1E
  3
ACAD_PLOTSETTINGS
350
22
  3
ACAD_PLOTSTYLENAME
350
1F
  3
ACAD_WIPEOUT_VARS
350
23
  0
DICTIONARY
  5
1A
102
{ACAD_REACTORS
330
19
102
}
100
AcDbDictionary
280
     0
281
     1
  0
DICTIONARY
  5
1B
102
{ACAD_REACTORS
330
19
102
}
100
AcDbDictionary
280
     0
281
     1
  3
Standard
350
1C
  0
MLINESTYLE
  5
1C
102
{ACAD_REACTORS
330
1B
102
}
100
AcDbMlineStyle
  2
Standard
 70
     0
  3

 62
     0
 51
90.0
 52
90.0
 71
     2
 49
0.5
 62
   256
  6
BYLAYER
 49
-0.5
 62
   256
  6
BYLAYER
  0
ACDBDICTIONARYWDFLT
  5
1F
102
{ACAD_REACTORS
330
19
102
}
100
AcDbDictionary
281
     1
  3
Normal
350
1D
100
AcDbDictionaryWithDefault
340
1D
  0
ACDBPLACEHOLDER
  5
1D
102
{ACAD_REACTORS
330
1F
102
}
  0
LAYOUT
  5
20
102
{ACAD_REACTORS
330
1E
102
}
100
AcDbPlotSettings
  1

  2

  4

  6

 40
0.0
 41
0.0
 42
0.0
 43
0.0
 44
0.0
 45
0.0
 46
0.0
 47
0.0
 48
0.0
 49
0.0
140
0.0
141
0.0
142
1.0
143
1.0
 70
  1024
 72
     0
 73
     0
 74
     0
  7

 75
     0
147
1.0
148
0.0
149
0.0
100
AcDbLayout
  1
Model
 70
     0
 71
     0
 10
0.0
 20
0.0
 11
0.0
 21
0.0
 12
0.0
 22
0.0
 32
0.0
 14
0.0
 24
0.0
 34
0.0
 15
0.0
 25
0.0
 35
0.0
146
0.0
 13
0.0
 23
0.0
 33
0.0
 16
0.0
 26
0.0
 36
0.0
 17
0.0
 27
0.0
 37
0.0
 76
     0
330
A
331
0
345
0
346
0
  0
LAYOUT
  5
21
102
{ACAD_REACTORS
330
1E
102
}
100
AcDbPlotSettings
  1

  2

  4

  6

 40
0.0
 41
0.0
 42
0.0
 43
0.0
 44
0.0
 45
0.0
 46
0.0
 47
0.0
 48
0.0
 49
0.0
140
0.0
141
0.0
142
1.0
143
1.0
 70
     0
 72
     0
 73
     0
 74
     0
  7

 75
     0
147
1.0
148
0.0
149
0.0
100
AcDbLayout
  1
Layout1
 70
     0
 71
     0
 10
0.0
 20
0.0
 11
0.0
 21
0.0
 12
0.0
 22
0.0
 32
0.0
 14
0.0
 24
0.0
 34
0.0
 15
0.0
 25
0.0
 35
0.0
146
0.0
 13
0.0
 23
0.0
 33
0.0
 16
0.0
 26
0.0
 36
0.0
 17
0.0
 27
0.0
 37
0.0
 76
     0
330
B
331
0
345
0
346
0
  0
DICTIONARY
  5
1E
102
{ACAD_REACTORS
330
19
102
}
100
AcDbDictionary
280
     0
281
     1
  3
Layout1
350
21
  3
Model
350
20
  0
DICTIONARY
  5
22
102
{ACAD_REACTORS
330
19
102
}
100
AcDbDictionary
280
     0
281
     1
  0
WIPEOUTVARIABLES
  5
23
100
AcDbWipeoutVariables
 70
     1
  0
ENDSEC
  0
EOF
