  0
SECTION
  2
HEADER
  9
$ACADVER
  1
AC1015
  9
$ACADMAINTVER
 70
     6
  9
$DWGCODEPAGE
  3
DOS850
  9
$INSBASE
 10
0.0
 20
0.0
 30
0.0
  9
$EXTMIN
 10
-4.9881
 20
-4.97642
 30
1.000000E+20
  9
$EXTMAX
 10
4.99372
 20
4.96926
 30
-1.000000E+20
  9
$LIMMIN
 10
0.0
 20
0.0
  9
$LIMMAX
 10
0.0
 20
0.0
  9
$ORTHOMODE
 70
     0
  9
$REGENMODE
 70
     1
  9
$FILLMODE
 70
     1
  9
$QTEXTMODE
 70
     0
  9
$MIRRTEXT
 70
     1
  9
$LTSCALE
 40
1.0
  9
$ATTMODE
 70
     1
  9
$TEXTSIZE
 40
0.2
  9
$TRACEWID
 40
0.05
  9
$TEXTSTYLE
  7
Standard
  9
$CLAYER
  8
0
  9
$CELTYPE
  6
Continuous
  9
$CECOLOR
 62
   256
  9
$CELTSCALE
 40
1.0
  9
$DISPSILH
 70
     0
  9
$DIMSCALE
 40
1.0
  9
$DIMASZ
 40
0.18
  9
$DIMEXO
 40
0.0625
  9
$DIMDLI
 40
0.38
  9
$DIMRND
 40
0.0
  9
$DIMDLE
 40
0.0
  9
$DIMEXE
 40
0.18
  9
$DIMTP
 40
0.0
  9
$DIMTM
 40
0.0
  9
$DIMTXT
 40
0.18
  9
$DIMCEN
 40
0.09
  9
$DIMTSZ
 40
0.0
  9
$DIMTOL
 70
     0
  9
$DIMLIM
 70
     0
  9
$DIMTIH
 70
     1
  9
$DIMTOH
 70
     1
  9
$DIMSE1
 70
     0
  9
$DIMSE2
 70
     0
  9
$DIMTAD
 70
     0
  9
$DIMZIN
 70
     0
  9
$DIMBLK
  1

  9
$DIMASO
 70
     1
  9
$DIMSHO
 70
     1
  9
$DIMPOST
  1

  9
$DIMAPOST
  1

  9
$DIMALT
 70
     0
  9
$DIMALTD
 70
     2
  9
$DIMALTF
 40
25.4
  9
$DIMLFAC
 40
1.0
  9
$DIMTOFL
 70
     0
  9
$DIMTVP
 40
0.0
  9
$DIMTIX
 70
     0
  9
$DIMSOXD
 70
     0
  9
$DIMSAH
 70
     0
  9
$DIMBLK1
  1

  9
$DIMBLK2
  1

  9
$DIMSTYLE
  2
Standard
  9
$DIMCLRD
 70
     0
  9
$DIMCLRE
 70
     0
  9
$DIMCLRT
 70
     0
  9
$DIMTFAC
 40
1.0
  9
$DIMGAP
 40
0.09
  9
$DIMJUST
 70
     0
  9
$DIMSD1
 70
     0
  9
$DIMSD2
 70
     0
  9
$DIMTOLJ
 70
     1
  9
$DIMTZIN
 70
     0
  9
$DIMALTZ
 70
     0
  9
$DIMALTTZ
 70
     0
  9
$DIMUPT
 70
     0
  9
$DIMDEC
 70
     4
  9
$DIMTDEC
 70
     4
  9
$DIMALTU
 70
     2
  9
$DIMALTTD
 70
     2
  9
$DIMTXSTY
  7
Standard
  9
$DIMAUNIT
 70
     0
  9
$DIMADEC
 70
     0
  9
$DIMALTRND
 40
0.0
  9
$DIMAZIN
 70
     0
  9
$DIMDSEP
 70
     0
  9
$DIMATFIT
 70
     3
  9
$DIMFRAC
 70
     0
  9
$DIMLDRBLK
  1

  9
$DIMLUNIT
 70
     2
  9
$DIMLWD
 70
     0
  9
$DIMLWE
 70
     0
  9
$DIMTMOVE
 70
     0
  9
$LUNITS
 70
     2
  9
$LUPREC
 70
     4
  9
$SKETCHINC
 40
0.1
  9
$FILLETRAD
 40
0.0
  9
$AUNITS
 70
     0
  9
$AUPREC
 70
     0
  9
$MENU
  1
acad
  9
$ELEVATION
 40
0.0
  9
$PELEVATION
 40
0.0
  9
$THICKNESS
 40
0.0
  9
$LIMCHECK
 70
     0
  9
$CHAMFERA
 40
0.0
  9
$CHAMFERB
 40
0.0
  9
$CHAMFERC
 40
0.0
  9
$CHAMFERD
 40
0.0
  9
$SKPOLY
 70
     0
  9
$TDCREATE
 40
0.000000000
  9
$TDUCREATE
 40
0.000000000
  9
$TDUPDATE
 40
0.000000000
  9
$TDUUPDATE
 40
0.000000000
  9
$TDINDWG
 40
0.0000000000
  9
$TDUSRTIMER
 40
0.0000000000
  9
$USRTIMER
 70
     1
  9
$ANGBASE
 50
0.0
  9
$ANGDIR
 70
     0
  9
$PDMODE
 70
     0
  9
$PDSIZE
 40
0.0
  9
$PLINEWID
 40
0.0
  9
$SPLFRAME
 70
     0
  9
$SPLINETYPE
 70
     6
  9
$SPLINESEGS
 70
     8
  9
$HANDSEED
  5
3D
  9
$SURFTAB1
 70
     6
  9
$SURFTAB2
 70
     6
  9
$SURFTYPE
 70
     6
  9
$SURFU
 70
     6
  9
$SURFV
 70
     6
  9
$UCSBASE
  2

  9
$UCSNAME
  2

  9
$UCSORG
 10
0.0
 20
0.0
 30
0.0
  9
$UCSXDIR
 10
1.0
 20
0.0
 30
0.0
  9
$UCSYDIR
 10
0.0
 20
1.0
 30
0.0
  9
$UCSORTHOREF
  2

  9
$UCSORTHOVIEW
 70
     0
  9
$UCSORGTOP
 10
0.0
 20
0.0
 30
0.0
  9
$UCSORGBOTTOM
 10
0.0
 20
0.0
 30
0.0
  9
$UCSORGLEFT
 10
0.0
 20
0.0
 30
0.0
  9
$UCSORGRIGHT
 10
0.0
 20
0.0
 30
0.0
  9
$UCSORGFRONT
 10
0.0
 20
0.0
 30
0.0
  9
$UCSORGBACK
 10
0.0
 20
0.0
 30
0.0
  9
$PUCSBASE
  2

  9
$PUCSNAME
  2

  9
$PUCSORG
 10
0.0
 20
0.0
 30
0.0
  9
$PUCSXDIR
 10
1.0
 20
0.0
 30
0.0
  9
$PUCSYDIR
 10
0.0
 20
1.0
 30
0.0
  9
$PUCSORTHOREF
  2

  9
$PUCSORTHOVIEW
 70
     0
  9
$PUCSORGTOP
 10
0.0
 20
0.0
 30
0.0
  9
$PUCSORGBOTTOM
 10
0.0
 20
0.0
 30
0.0
  9
$PUCSORGLEFT
 10
0.0
 20
0.0
 30
0.0
  9
$PUCSORGRIGHT
 10
0.0
 20
0.0
 30
0.0
  9
$PUCSORGFRONT
 10
0.0
 20
0.0
 30
0.0
  9
$PUCSORGBACK
 10
0.0
 20
0.0
 30
0.0
  9
$USERI1
 70
     0
  9
$USERI2
 70
     0
  9
$USERI3
 70
     0
  9
$USERI4
 70
     0
  9
$USERI5
 70
     0
  9
$USERR1
 40
0.0
  9
$USERR2
 40
0.0
  9
$USERR3
 40
0.0
  9
$USERR4
 40
0.0
  9
$USERR5
 40
0.0
  9
$WORLDVIEW
 70
     1
  9
$SHADEDGE
 70
     3
  9
$SHADEDIF
 70
    70
  9
$TILEMODE
 70
     1
  9
$MAXACTVP
 70
    16
  9
$PINSBASE
 10
0.0
 20
0.0
 30
0.0
  9
$PLIMCHECK
 70
     0
  9
$PEXTMIN
 10
1.000000E+20
 20
1.000000E+20
 30
1.000000E+20
  9
$PEXTMAX
 10
-1.000000E+20
 20
-1.000000E+20
 30
-1.000000E+20
  9
$PLIMMIN
 10
0.0
 20
0.0
  9
$PLIMMAX
 10
12.0
 20
9.0
  9
$UNITMODE
 70
     0
  9
$VISRETAIN
 70
     0
  9
$PLINEGEN
 70
     1
  9
$PSLTSCALE
 70
     0
  9
$TREEDEPTH
 70
  3020
  9
$CMLSTYLE
  2
Standard
  9
$CMLJUST
 70
     0
  9
$CMLSCALE
 40
1.0
  9
$PROXYGRAPHICS
 70
     0
  9
$MEASUREMENT
 70
     0
  9
$CELWEIGHT
370
     0
  9
$ENDCAPS
280
     0
  9
$JOINSTYLE
280
     0
  9
$LWDISPLAY
290
     0
  9
$INSUNITS
 70
     5
  9
$HYPERLINKBASE
  1

  9
$XEDIT
290
     1
  9
$CEPSNTYPE
380
     0
  9
$PSTYLEMODE
290
     1
  9
$FINGERPRINTGUID
  2

  9
$VERSIONGUID
  2

  9
$EXTNAMES
290
     1
  9
$PSVPSCALE
 40
0.0
  0
ENDSEC
  0
SECTION
  2
CLASSES
  0
CLASS
  1
LWPOLYLINE
  2
AcDbPolyline
  3
AutoCAD 2000
 90
    32768
280
     0
281
     1
  0
CLASS
  1
IMAGE
  2
AcDbRasterImage
  3
ISM
 90
    32895
280
     0
281
     1
  0
CLASS
  1
OLE2FRAME
  2
AcDbOle2Frame
  3
AutoCAD 2000
 90
    32768
280
     0
281
     1
  0
CLASS
  1
HATCH
  2
AcDbHatch
  3
AutoCAD 2000
 90
    32768
280
     0
281
     1
  0
CLASS
  1
DICTIONARYVAR
  2
AcDbDictionaryVar
  3
AutoCAD 2000
 90
    32768
280
     0
281
     0
  0
CLASS
  1
RASTERVARIABLES
  2
AcDbRasterVariables
  3
ISM
 90
    32768
280
     0
281
     0
  0
CLASS
  1
IMAGEDEF
  2
AcDbRasterImageDef
  3
ISM
 90
    32768
280
     0
281
     0
  0
CLASS
  1
IMAGEDEF_REACTOR
  2
AcDbRasterImageDefReactor
  3
ISM
 90
    32769
280
     0
281
     0
  0
CLASS
  1
IDBUFFER
  2
AcDbIdBuffer
  3
AutoCAD 2000
 90
    32768
280
     0
281
     0
  0
CLASS
  1
SPATIAL_FILTER
  2
AcDbSpatialFilter
  3
AutoCAD 2000
 90
    32768
280
     0
281
     0
  0
CLASS
  1
XRECORD
  2
AcDbXrecord
  3
AutoCAD 2000
 90
    32768
280
     0
281
     0
  0
CLASS
  1
SORTENTSTABLE
  2
AcDbSortentsTable
  3
AutoCAD 2000
 90
    32768
280
     0
281
     0
  0
CLASS
  1
LAYER_INDEX
  2
AcDbLayerIndex
  3
AutoCAD 2000
 90
    32768
280
     0
281
     0
  0
CLASS
  1
SPATIAL_INDEX
  2
AcDbSpatialIndex
  3
AutoCAD 2000
 90
    32768
280
     0
281
     0
  0
CLASS
  1
OBJECT_PTR
  2
CAseDLPNTableRecord
  3
"ASE-LPNTableRecord"
 90
    32769
280
     0
281
     0
  0
CLASS
  1
LAYOUT
  2
AcDbLayout
  3
AutoCAD 2000
 90
        0
280
     0
281
     0
  0
CLASS
  1
PLOTSETTINGS
  2
AcDbPlotSettings
  3
AutoCAD 2000
 90
    32768
280
     0
281
     0
  0
CLASS
  1
ACDBDICTIONARYWDFLT
  2
AcDbDictionaryWithDefault
  3
AutoCAD 2000
 90
        0
280
     0
281
     0
  0
CLASS
  1
ACDBPLACEHOLDER
  2
AcDbPlaceHolder
  3
AutoCAD 2000
 90
        0
280
     0
281
     0
  0
CLASS
  1
VBA_PROJECT
  2
AcDbVbaProject
  3
acadvba
 90
    32768
280
     0
281
     0
  0
CLASS
  1
WIPEOUT
  2
AcDbWipeout
  3
WipeOut|AutoCAD Express Tool|expresstools@autodesk.com
 90
    32895
280
     0
281
     1
  0
CLASS
  1
WIPEOUTVARIABLES
  2
AcDbWipeoutVariables
  3
WipeOut|AutoCAD Express Tool|expresstools@autodesk.com
 90
        0
280
     0
281
     0
  0
CLASS
  1
RTEXT
  2
RText
  3
RText|AutoCAD Express Tool|expresstools@autodesk.com
 90
    32768
280
     0
281
     1
  0
CLASS
  1
ARCALIGNEDTEXT
  2
AcDbArcAlignedText
  3
ATEXT|AutoCAD Express Tool|expresstools@autodesk.com
 90
    32768
280
     0
281
     1
  0
ENDSEC
  0
SECTION
  2
TABLES
  0
TABLE
  2
VPORT
  5
7
100
AcDbSymbolTable
 70
     1
  0
VPORT
  5
15
100
AcDbSymbolTableRecord
100
AcDbViewportTableRecord
  2
*ACTIVE
 70
     0
 10
0.0
 20
0.0
 11
1.0
 21
1.0
 12
6.591288
 22
4.579184
 13
0.0
 23
0.0
 14
1.0
 24
1.0
 15
0.0
 25
0.0
 16
0.0
 26
0.0
 36
1.0
 17
0.0
 27
0.0
 37
0.0
 40
9.158369
 41
0.688564
 42
50.0
 43
0.0
 44
0.0
 50
0.0
 51
0.0
 71
     0
 72
   100
 73
     1
 74
     1
 75
     0
 76
     0
 77
     0
 78
     0
281
     0
 65
     0
110
0.0
120
0.0
130
0.0
111
1.0
121
0.0
131
0.0
112
0.0
122
1.0
132
0.0
345
0
346
0
 79
     0
146
0.0
  0
ENDTAB
  0
TABLE
  2
LTYPE
  5
4
100
AcDbSymbolTable
 70
     3
  0
LTYPE
  5
11
100
AcDbSymbolTableRecord
100
AcDbLinetypeTableRecord
  2
ByBlock
 70
    64
  3

 72
    65
 73
     0
 40
0.0
  0
LTYPE
  5
12
100
AcDbSymbolTableRecord
100
AcDbLinetypeTableRecord
  2
ByLayer
 70
    64
  3

 72
    65
 73
     0
 40
0.0
  0
LTYPE
  5
13
100
AcDbSymbolTableRecord
100
AcDbLinetypeTableRecord
  2
Continuous
 70
    64
  3
Solid line
 72
    65
 73
     0
 40
0.0
  0
ENDTAB
  0
TABLE
  2
LAYER
  5
2
100
AcDbSymbolTable
 70
     2
  0
LAYER
  5
14
100
AcDbSymbolTableRecord
100
AcDbLayerTableRecord
  2
0
 70
     0
 62
     7
  6
Continuous
290
     1
370
    -3
390
1D
  0
LAYER
  5
24
100
AcDbSymbolTableRecord
100
AcDbLayerTableRecord
  2
Ebene 1
 70
     0
 62
     7
  6
Continuous
290
     1
370
    -3
390
1F
  0
ENDTAB
  0
TABLE
  2
STYLE
  5
3
100
AcDbSymbolTable
 70
     1
  0
STYLE
  5
17
100
AcDbSymbolTableRecord
100
AcDbTextStyleTableRecord
  2
Standard
 70
     0
 40
0.0
 41
1.0
 50
0.0
 71
     0
 42
0.0
  3
txt
  4

  0
ENDTAB
  0
TABLE
  2
VIEW
  5
5
100
AcDbSymbolTable
 70
     0
  0
ENDTAB
  0
TABLE
  2
UCS
  5
6
100
AcDbSymbolTable
 70
     0
  0
ENDTAB
  0
TABLE
  2
APPID
  5
8
100
AcDbSymbolTable
 70
     1
  0
APPID
  5
16
100
AcDbSymbolTableRecord
100
AcDbRegAppTableRecord
  2
ACAD
 70
     0
  0
ENDTAB
  0
TABLE
  2
DIMSTYLE
  5
9
100
AcDbSymbolTable
 70
     1
100
AcDbDimStyleTable
 71
     0
  0
DIMSTYLE
105
18
100
AcDbSymbolTableRecord
100
AcDbDimStyleTableRecord
  2
Standard
 70
     0
  3

  4

 40
1.0
 41
0.18
 42
0.0625
 43
0.38
 44
0.18
 45
0.0
 46
0.0
 47
0.0
 48
0.0
 71
     0
 72
     0
 73
     1
 74
     1
 75
     0
 76
     0
 77
     0
 78
     0
 79
     0
140
0.18
141
0.09
142
0.0
143
25.4
144
1.0
145
0.0
146
1.0
147
0.09
148
0.0
170
     0
171
     2
172
     0
173
     0
174
     0
175
     0
176
     0
177
     0
178
     0
179
     0
271
     4
272
     4
273
     2
274
     2
275
     0
276
     0
277
     2
278
    46
279
     0
280
     0
281
     0
282
     0
283
     1
284
     0
285
     0
286
     0
288
     0
340
17
341
0
342
0
343
0
344
0
371
    -2
372
    -2
  0
ENDTAB
  0
TABLE
  2
BLOCK_RECORD
  5
1
100
AcDbSymbolTable
 70
     0
  0
BLOCK_RECORD
  5
A
100
AcDbSymbolTableRecord
100
AcDbBlockTableRecord
  2
*MODEL_SPACE
340
20
  0
BLOCK_RECORD
  5
B
100
AcDbSymbolTableRecord
100
AcDbBlockTableRecord
  2
*PAPER_SPACE
340
21
  0
ENDTAB
  0
ENDSEC
  0
SECTION
  2
BLOCKS
  0
BLOCK
  5
D
100
AcDbEntity
  8
0
100
AcDbBlockBegin
  2
*MODEL_SPACE
 70
     0
 10
0.0
 20
0.0
 30
0.0
  3
*MODEL_SPACE
  1

  0
ENDBLK
  5
E
100
AcDbEntity
  8
0
100
AcDbBlockEnd
  0
BLOCK
  5
F
100
AcDbEntity
 67
     1
  8
0
100
AcDbBlockBegin
  2
*PAPER_SPACE
 70
     0
 10
0.0
 20
0.0
 30
0.0
  3
*PAPER_SPACE
  1

  0
ENDBLK
  5
10
100
AcDbEntity
 67
     1
  8
0
100
AcDbBlockEnd
  0
ENDSEC
  0
SECTION
  2
ENTITIES
  0
SPLINE
  5
25
100
AcDbEntity
  8
Ebene 1
100
AcDbSpline
210
0.0
220
0.0
230
1.0
 70
     1
 71
     3
 72
   216
 73
   212
 74
     0
 42
0.0000000001
 43
0.0000000001
 40
0.0
 40
0.0
 40
0.0
 40
0.0
 40
0.0188679245283019
 40
0.0188679245283019
 40
0.0188679245283019
 40
0.0188679245283019
 40
0.0377358490566038
 40
0.0377358490566038
 40
0.0377358490566038
 40
0.0377358490566038
 40
0.0566037735849057
 40
0.0566037735849057
 40
0.0566037735849057
 40
0.0566037735849057
 40
0.0754716981132075
 40
0.0754716981132075
 40
0.0754716981132075
 40
0.0754716981132075
 40
0.0943396226415094
 40
0.0943396226415094
 40
0.0943396226415094
 40
0.0943396226415094
 40
0.1132075471698113
 40
0.1132075471698113
 40
0.1132075471698113
 40
0.1132075471698113
 40
0.1320754716981132
 40
0.1320754716981132
 40
0.1320754716981132
 40
0.1320754716981132
 40
0.1509433962264151
 40
0.1509433962264151
 40
0.1509433962264151
 40
0.1509433962264151
 40
0.169811320754717
 40
0.169811320754717
 40
0.169811320754717
 40
0.169811320754717
 40
0.1886792452830189
 40
0.1886792452830189
 40
0.1886792452830189
 40
0.1886792452830189
 40
0.2075471698113207
 40
0.2075471698113207
 40
0.2075471698113207
 40
0.2075471698113207
 40
0.2264150943396226
 40
0.2264150943396226
 40
0.2264150943396226
 40
0.2264150943396226
 40
0.2452830188679245
 40
0.2452830188679245
 40
0.2452830188679245
 40
0.2452830188679245
 40
0.2641509433962264
 40
0.2641509433962264
 40
0.2641509433962264
 40
0.2641509433962264
 40
0.2830188679245283
 40
0.2830188679245283
 40
0.2830188679245283
 40
0.2830188679245283
 40
0.3018867924528302
 40
0.3018867924528302
 40
0.3018867924528302
 40
0.3018867924528302
 40
0.3207547169811321
 40
0.3207547169811321
 40
0.3207547169811321
 40
0.3207547169811321
 40
0.3396226415094339
 40
0.3396226415094339
 40
0.3396226415094339
 40
0.3396226415094339
 40
0.3584905660377358
 40
0.3584905660377358
 40
0.3584905660377358
 40
0.3584905660377358
 40
0.3773584905660377
 40
0.3773584905660377
 40
0.3773584905660377
 40
0.3773584905660377
 40
0.3962264150943396
 40
0.3962264150943396
 40
0.3962264150943396
 40
0.3962264150943396
 40
0.4150943396226415
 40
0.4150943396226415
 40
0.4150943396226415
 40
0.4150943396226415
 40
0.4339622641509434
 40
0.4339622641509434
 40
0.4339622641509434
 40
0.4339622641509434
 40
0.4528301886792452
 40
0.4528301886792452
 40
0.4528301886792452
 40
0.4528301886792452
 40
0.4716981132075471
 40
0.4716981132075471
 40
0.4716981132075471
 40
0.4716981132075471
 40
0.490566037735849
 40
0.490566037735849
 40
0.490566037735849
 40
0.490566037735849
 40
0.5094339622641509
 40
0.5094339622641509
 40
0.5094339622641509
 40
0.5094339622641509
 40
0.5283018867924528
 40
0.5283018867924528
 40
0.5283018867924528
 40
0.5283018867924528
 40
0.5471698113207547
 40
0.5471698113207547
 40
0.5471698113207547
 40
0.5471698113207547
 40
0.5660377358490566
 40
0.5660377358490566
 40
0.5660377358490566
 40
0.5660377358490566
 40
0.5849056603773585
 40
0.5849056603773585
 40
0.5849056603773585
 40
0.5849056603773585
 40
0.6037735849056604
 40
0.6037735849056604
 40
0.6037735849056604
 40
0.6037735849056604
 40
0.6226415094339622
 40
0.6226415094339622
 40
0.6226415094339622
 40
0.6226415094339622
 40
0.6415094339622641
 40
0.6415094339622641
 40
0.6415094339622641
 40
0.6415094339622641
 40
0.660377358490566
 40
0.660377358490566
 40
0.660377358490566
 40
0.660377358490566
 40
0.6792452830188679
 40
0.6792452830188679
 40
0.6792452830188679
 40
0.6792452830188679
 40
0.6981132075471698
 40
0.6981132075471698
 40
0.6981132075471698
 40
0.6981132075471698
 40
0.7169811320754717
 40
0.7169811320754717
 40
0.7169811320754717
 40
0.7169811320754717
 40
0.7358490566037735
 40
0.7358490566037735
 40
0.7358490566037735
 40
0.7358490566037735
 40
0.7547169811320754
 40
0.7547169811320754
 40
0.7547169811320754
 40
0.7547169811320754
 40
0.7735849056603773
 40
0.7735849056603773
 40
0.7735849056603773
 40
0.7735849056603773
 40
0.7924528301886792
 40
0.7924528301886792
 40
0.7924528301886792
 40
0.7924528301886792
 40
0.8113207547169811
 40
0.8113207547169811
 40
0.8113207547169811
 40
0.8113207547169811
 40
0.830188679245283
 40
0.830188679245283
 40
0.830188679245283
 40
0.830188679245283
 40
0.8490566037735848
 40
0.8490566037735848
 40
0.8490566037735848
 40
0.8490566037735848
 40
0.8679245283018867
 40
0.8679245283018867
 40
0.8679245283018867
 40
0.8679245283018867
 40
0.8867924528301886
 40
0.8867924528301886
 40
0.8867924528301886
 40
0.8867924528301886
 40
0.9056603773584905
 40
0.9056603773584905
 40
0.9056603773584905
 40
0.9056603773584905
 40
0.9245283018867924
 40
0.9245283018867924
 40
0.9245283018867924
 40
0.9245283018867924
 40
0.9433962264150942
 40
0.9433962264150942
 40
0.9433962264150942
 40
0.9433962264150942
 40
0.9622641509433961
 40
0.9622641509433961
 40
0.9622641509433961
 40
0.9622641509433961
 40
0.981132075471698
 40
0.981132075471698
 40
0.981132075471698
 40
0.981132075471698
 40
1.0
 40
1.0
 40
1.0
 40
1.0
 10
0.17286
 20
4.9448100000000004
 30
0.0
 10
1.3006200000000001
 20
5.1175300000000004
 30
0.0
 10
2.2785200000000003
 20
4.3021900000000004
 30
0.0
 10
3.3300800000000002
 20
4.8355900000000007
 30
0.0
 10
3.3300800000000002
 20
4.8355900000000007
 30
0.0
 10
3.4316800000000001
 20
4.8355900000000007
 30
0.0
 10
3.5434400000000004
 20
4.7111300000000007
 30
0.0
 10
3.6018600000000003
 20
4.6374700000000004
 30
0.0
 10
3.6018600000000003
 20
4.6374700000000004
 30
0.0
 10
3.4723200000000003
 20
4.5968300000000006
 30
0.0
 10
3.2919800000000001
 20
4.7111300000000007
 30
0.0
 10
3.1853000000000002
 20
4.5790500000000005
 30
0.0
 10
3.1853000000000002
 20
4.5790500000000005
 30
0.0
 10
3.0913200000000001
 20
4.4291900000000002
 30
0.0
 10
2.9262200000000003
 20
4.2234500000000006
 30
0.0
 10
3.1700600000000003
 20
4.1218500000000002
 30
0.0
 10
3.1700600000000003
 20
4.1218500000000002
 30
0.0
 10
3.7110800000000004
 20
4.3936299999999999
 30
0.0
 10
3.9320600000000003
 20
4.3555300000000008
 30
0.0
 10
4.0971600000000006
 20
3.9237300000000004
 30
0.0
 10
4.0971600000000006
 20
3.9237300000000004
 30
0.0
 10
4.3130600000000001
 20
3.3674700000000004
 30
0.0
 10
4.3206800000000003
 20
2.3209900000000001
 30
0.0
 10
4.2394000000000007
 20
1.8256900000000003
 30
0.0
 10
4.2394000000000007
 20
1.8256900000000003
 30
0.0
 10
4.0870000000000006
 20
2.25495
 30
0.0
 10
4.0311200000000005
 20
2.9712300000000003
 30
0.0
 10
3.7898200000000002
 20
3.4614500000000001
 30
0.0
 10
3.7898200000000002
 20
3.4614500000000001
 30
0.0
 10
3.6806000000000001
 20
3.3217500000000002
 30
0.0
 10
3.7695000000000003
 20
3.0829900000000001
 30
0.0
 10
3.7771200000000005
 20
2.9102700000000001
 30
0.0
 10
3.7771200000000005
 20
2.9102700000000001
 30
0.0
 10
3.6958400000000005
 20
2.8188300000000002
 30
0.0
 10
3.6679000000000004
 20
3.0194900000000002
 30
0.0
 10
3.6069400000000003
 20
3.0245700000000002
 30
0.0
 10
3.6069400000000003
 20
3.0245700000000002
 30
0.0
 10
3.4240600000000003
 20
2.4733900000000002
 30
0.0
 10
3.7060000000000004
 20
1.7291700000000001
 30
0.0
 10
3.3986600000000005
 20
1.19577
 30
0.0
 10
3.3986600000000005
 20
1.19577
 30
0.0
 10
3.3504000000000005
 20
1.2237100000000001
 30
0.0
 10
3.3656400000000004
 20
1.2948300000000001
 30
0.0
 10
3.3554800000000005
 20
1.3430900000000001
 30
0.0
 10
3.3554800000000005
 20
1.3430900000000001
 30
0.0
 10
3.3758000000000004
 20
1.7164700000000002
 30
0.0
 10
3.3173800000000004
 20
2.0949300000000002
 30
0.0
 10
3.2005400000000002
 20
2.42767
 30
0.0
 10
3.2005400000000002
 20
2.42767
 30
0.0
 10
3.3123000000000005
 20
1.6097900000000001
 30
0.0
 10
2.6442800000000002
 20
1.53105
 30
0.0
 10
2.9008200000000004
 20
0.72079
 30
0.0
 10
2.9008200000000004
 20
0.72079
 30
0.0
 10
2.7890600000000001
 20
0.7157100000000001
 30
0.0
 10
2.7103200000000003
 20
0.8808100000000001
 30
0.0
 10
2.5884
 20
0.8020700000000001
 30
0.0
 10
2.5884
 20
0.8020700000000001
 30
0.0
 10
2.2963
 20
0.48711
 30
0.0
 10
2.5807800000000003
 20
0.08833
 30
0.0
 10
2.4664800000000002
 20
-0.27996
 30
0.0
 10
2.4664800000000002
 20
-0.27996
 30
0.0
 10
2.13374
 20
0.63697
 30
0.0
 10
1.9864200000000001
 20
-0.9175000000000001
 30
0.0
 10
2.5553800000000004
 20
-0.82098
 30
0.0
 10
2.5553800000000004
 20
-0.82098
 30
0.0
 10
2.54522
 20
-0.9200400000000001
 30
0.0
 10
2.46902
 20
-0.9962400000000001
 30
0.0
 10
2.42584
 20
-1.0826
 30
0.0
 10
2.42584
 20
-1.0826
 30
0.0
 10
2.3496400000000004
 20
-1.1410200000000001
 30
0.0
 10
2.3166200000000003
 20
-1.1892800000000001
 30
0.0
 10
2.3648800000000003
 20
-1.28834
 30
0.0
 10
2.3648800000000003
 20
-1.28834
 30
0.0
 10
2.4182200000000003
 20
-1.3645400000000001
 30
0.0
 10
2.46394
 20
-1.4686800000000002
 30
0.0
 10
2.5553800000000004
 20
-1.50424
 30
0.0
 10
2.5553800000000004
 20
-1.50424
 30
0.0
 10
2.7154000000000003
 20
-1.3112000000000001
 30
0.0
 10
2.6620600000000003
 20
-1.0064000000000002
 30
0.0
 10
2.7306400000000002
 20
-0.80574
 30
0.0
 10
2.7306400000000002
 20
-0.80574
 30
0.0
 10
2.9897200000000002
 20
-1.0495800000000002
 30
0.0
 10
2.7636600000000002
 20
-1.4509000000000001
 30
0.0
 10
2.9236800000000001
 20
-1.7328400000000002
 30
0.0
 10
2.9236800000000001
 20
-1.7328400000000002
 30
0.0
 10
3.1548200000000004
 20
-1.0597400000000001
 30
0.0
 10
3.1167200000000004
 20
-1.7988800000000003
 30
0.0
 10
3.3250000000000002
 20
-2.0833600000000003
 30
0.0
 10
3.3250000000000002
 20
-2.0833600000000003
 30
0.0
 10
3.4215200000000001
 20
-2.0224000000000002
 30
0.0
 10
3.4113600000000002
 20
-1.6058400000000002
 30
0.0
 10
3.5282000000000004
 20
-1.8369800000000001
 30
0.0
 10
3.5282000000000004
 20
-1.8369800000000001
 30
0.0
 10
3.5561400000000001
 20
-2.8733000000000004
 30
0.0
 10
4.0920800000000002
 20
-1.9131800000000001
 30
0.0
 10
3.8888800000000003
 20
-1.4636
 30
0.0
 10
3.8888800000000003
 20
-1.4636
 30
0.0
 10
4.2343200000000003
 20
-1.6769600000000002
 30
0.0
 10
4.0666800000000007
 20
-3.1882600000000001
 30
0.0
 10
4.4857800000000001
 20
-2.5380200000000004
 30
0.0
 10
4.4857800000000001
 20
-2.5380200000000004
 30
0.0
 10
4.4934000000000003
 20
-2.7894800000000002
 30
0.0
 10
4.5645200000000008
 20
-3.0028400000000004
 30
0.0
 10
4.7499400000000005
 20
-3.1730200000000002
 30
0.0
 10
4.7499400000000005
 20
-3.1730200000000002
 30
0.0
 10
4.7905800000000003
 20
-3.0993600000000003
 30
0.0
 10
4.7753400000000008
 20
-2.9901400000000002
 30
0.0
 10
4.7778800000000006
 20
-2.8987000000000003
 30
0.0
 10
4.7778800000000006
 20
-2.8987000000000003
 30
0.0
 10
4.8007400000000002
 20
-2.3475200000000003
 30
0.0
 10
4.7220000000000004
 20
-1.8217400000000001
 30
0.0
 10
4.5950000000000006
 20
-1.3162800000000001
 30
0.0
 10
4.5950000000000006
 20
-1.3162800000000001
 30
0.0
 10
4.8921800000000006
 20
-1.5956800000000002
 30
0.0
 10
4.9226600000000005
 20
-2.1722600000000001
 30
0.0
 10
4.9785400000000006
 20
-2.5888200000000001
 30
0.0
 10
4.9785400000000006
 20
-2.5888200000000001
 30
0.0
 10
4.8820200000000007
 20
-3.3254200000000003
 30
0.0
 10
5.1182400000000001
 20
-3.9655000000000005
 30
0.0
 10
4.8921800000000006
 20
-4.6360600000000005
 30
0.0
 10
4.8921800000000006
 20
-4.6360600000000005
 30
0.0
 10
4.8388400000000003
 20
-4.4760400000000002
 30
0.0
 10
4.7956600000000007
 20
-4.1280600000000005
 30
0.0
 10
4.4883200000000008
 20
-4.2195
 30
0.0
 10
4.4883200000000008
 20
-4.2195
 30
0.0
 10
3.9930200000000005
 20
-4.1458400000000006
 30
0.0
 10
4.0514400000000004
 20
-4.6894
 30
0.0
 10
3.8482400000000001
 20
-4.9764200000000001
 30
0.0
 10
3.8482400000000001
 20
-4.9764200000000001
 30
0.0
 10
3.7644200000000003
 20
-4.60304
 30
0.0
 10
3.5002600000000004
 20
-4.39222
 30
0.0
 10
3.2284800000000002
 20
-4.2347400000000004
 30
0.0
 10
3.2284800000000002
 20
-4.2347400000000004
 30
0.0
 10
2.4537800000000001
 20
-3.7750000000000004
 30
0.0
 10
1.18886
 20
-3.9197800000000003
 30
0.0
 10
0.6072000000000001
 20
-3.2339800000000003
 30
0.0
 10
0.6072000000000001
 20
-3.2339800000000003
 30
0.0
 10
0.44718
 20
-3.1628600000000002
 30
0.0
 10
0.27954
 20
-3.1323800000000004
 30
0.0
 10
0.11444
 20
-3.0866600000000002
 30
0.0
 10
0.11444
 20
-3.0866600000000002
 30
0.0
 10
0.11444
 20
-3.0866600000000002
 30
0.0
 10
-0.65263
 20
-3.1450800000000001
 30
0.0
 10
-0.65263
 20
-3.1450800000000001
 30
0.0
 10
-0.65263
 20
-3.1450800000000001
 30
0.0
 10
-0.7796300000000001
 20
-3.1222200000000004
 30
0.0
 10
-0.8532900000000001
 20
-3.0231600000000003
 30
0.0
 10
-0.8939300000000001
 20
-2.9088600000000002
 30
0.0
 10
-0.8939300000000001
 20
-2.9088600000000002
 30
0.0
 10
-1.00569
 20
-1.4966200000000001
 30
0.0
 10
-2.5169900000000003
 20
-2.2179800000000003
 30
0.0
 10
-3.1494500000000003
 20
-2.8123400000000003
 30
0.0
 10
-3.1494500000000003
 20
-2.8123400000000003
 30
0.0
 10
-3.3780500000000004
 20
-2.6802600000000001
 30
0.0
 10
-3.5761700000000003
 20
-2.4643600000000001
 30
0.0
 10
-3.8733500000000003
 20
-2.4288000000000003
 30
0.0
 10
-3.8733500000000003
 20
-2.4288000000000003
 30
0.0
 10
-3.7768300000000004
 20
-2.1900400000000002
 30
0.0
 10
-3.5329900000000003
 20
-2.1036800000000002
 30
0.0
 10
-3.2764500000000001
 20
-2.0554200000000002
 30
0.0
 10
-3.2764500000000001
 20
-2.0554200000000002
 30
0.0
 10
-3.0021300000000002
 20
-2.0046200000000001
 30
0.0
 10
-2.1359900000000001
 20
-1.9411200000000002
 30
0.0
 10
-2.3112500000000002
 20
-1.4636
 30
0.0
 10
-2.3112500000000002
 20
-1.4636
 30
0.0
 10
-2.3112500000000002
 20
-1.4636
 30
0.0
 10
-3.0046700000000004
 20
-1.50424
 30
0.0
 10
-3.0046700000000004
 20
-1.50424
 30
0.0
 10
-3.0046700000000004
 20
-1.50424
 30
0.0
 10
-4.7674300000000001
 20
-1.9944600000000001
 30
0.0
 10
-5.7148500000000002
 20
0.7538100000000001
 30
0.0
 10
-4.3127700000000004
 20
1.6174100000000002
 30
0.0
 10
-4.3127700000000004
 20
1.6174100000000002
 30
0.0
 10
-5.0290500000000007
 20
0.63951
 30
0.0
 10
-4.1044900000000002
 20
-1.3493000000000002
 30
0.0
 10
-2.7532100000000002
 20
-0.43998
 30
0.0
 10
-2.7532100000000002
 20
-0.43998
 30
0.0
 10
-2.3061700000000003
 20
-0.22408
 30
0.0
 10
-1.9277100000000003
 20
0.09595
 30
0.0
 10
-1.6406900000000002
 20
0.4845700000000001
 30
0.0
 10
-1.6406900000000002
 20
0.4845700000000001
 30
0.0
 10
-1.8972300000000002
 20
0.85033
 30
0.0
 10
-2.3315700000000001
 20
0.5658500000000001
 30
0.0
 10
-2.6084300000000002
 20
0.44647
 30
0.0
 10
-2.6084300000000002
 20
0.44647
 30
0.0
 10
-1.8972300000000002
 20
1.4523100000000002
 30
0.0
 10
-0.8786900000000001
 20
0.8757300000000001
 30
0.0
 10
-0.27671
 20
1.11449
 30
0.0
 10
-0.27671
 20
1.11449
 30
0.0
 10
-0.01763
 20
1.40405
 30
0.0
 10
-0.06843
 20
1.7698100000000001
 30
0.0
 10
-0.25639
 20
2.0517500000000002
 30
0.0
 10
-0.25639
 20
2.0517500000000002
 30
0.0
 10
-0.31989
 20
2.1431900000000002
 30
0.0
 10
-0.7085100000000001
 20
2.3184500000000003
 30
0.0
 10
-0.4595900000000001
 20
2.3108300000000002
 30
0.0
 10
-0.4595900000000001
 20
2.3108300000000002
 30
0.0
 10
0.20842
 20
1.8815700000000002
 30
0.0
 10
0.7545200000000001
 20
2.6181700000000001
 30
0.0
 10
1.3260200000000002
 20
3.1439500000000002
 30
0.0
 10
1.3260200000000002
 20
3.1439500000000002
 30
0.0
 10
1.4454
 20
3.2506300000000001
 30
0.0
 10
1.3895200000000001
 20
3.3827100000000003
 30
0.0
 10
1.4758800000000001
 20
3.4919300000000004
 30
0.0
 10
1.4758800000000001
 20
3.4919300000000004
 30
0.0
 10
1.3869800000000001
 20
4.20059
 30
0.0
 10
0.5818000000000001
 20
4.76701
 30
0.0
 10
-0.09383
 20
4.7644700000000002
 30
0.0
 10
-0.09383
 20
4.7644700000000002
 30
0.0
 10
-0.6932700000000001
 20
4.7822500000000003
 30
0.0
 10
-0.14971
 20
4.9727500000000004
 30
0.0
 10
0.17286
 20
4.9448100000000004
 30
0.0
  0
SPLINE
  5
26
100
AcDbEntity
  8
Ebene 1
100
AcDbSpline
210
0.0
220
0.0
230
1.0
 70
     1
 71
     3
 72
    16
 73
    12
 74
     0
 42
0.0000000001
 43
0.0000000001
 40
0.0
 40
0.0
 40
0.0
 40
0.0
 40
0.3333333333333333
 40
0.3333333333333333
 40
0.3333333333333333
 40
0.3333333333333333
 40
0.6666666666666666
 40
0.6666666666666666
 40
0.6666666666666666
 40
0.6666666666666666
 40
1.0
 40
1.0
 40
1.0
 40
1.0
 10
1.0009000000000001
 20
0.8757300000000001
 30
0.0
 10
1.0872600000000001
 20
0.6293500000000001
 30
0.0
 10
1.1025
 20
0.32201
 30
0.0
 10
1.0491600000000001
 20
0.05277
 30
0.0
 10
1.0491600000000001
 20
0.05277
 30
0.0
 10
1.19394
 20
0.10357
 30
0.0
 10
1.2625200000000001
 20
0.2635900000000001
 30
0.0
 10
1.3031600000000001
 20
0.39313
 30
0.0
 10
1.3031600000000001
 20
0.39313
 30
0.0
 10
1.1634600000000002
 20
0.5252100000000001
 30
0.0
 10
1.1609200000000002
 20
0.78429
 30
0.0
 10
1.0009000000000001
 20
0.8757300000000001
 30
0.0
  0
SPLINE
  5
27
100
AcDbEntity
  8
Ebene 1
100
AcDbSpline
210
0.0
220
0.0
230
1.0
 70
     1
 71
     3
 72
    24
 73
    20
 74
     0
 42
0.0000000001
 43
0.0000000001
 40
0.0
 40
0.0
 40
0.0
 40
0.0
 40
0.2
 40
0.2
 40
0.2
 40
0.2
 40
0.4
 40
0.4
 40
0.4
 40
0.4
 40
0.6000000000000001
 40
0.6000000000000001
 40
0.6000000000000001
 40
0.6000000000000001
 40
0.8
 40
0.8
 40
0.8
 40
0.8
 40
1.0
 40
1.0
 40
1.0
 40
1.0
 10
2.4385400000000002
 20
2.1127100000000003
 30
0.0
 10
2.20994
 20
1.9501500000000001
 30
0.0
 10
2.2810600000000001
 20
1.6301100000000002
 30
0.0
 10
2.1312000000000002
 20
1.4192900000000002
 30
0.0
 10
2.1312000000000002
 20
1.4192900000000002
 30
0.0
 10
2.0296000000000003
 20
1.4319900000000001
 30
0.0
 10
2.1591400000000003
 20
1.61233
 30
0.0
 10
2.09056
 20
1.6758300000000002
 30
0.0
 10
2.09056
 20
1.6758300000000002
 30
0.0
 10
1.9381600000000001
 20
1.49041
 30
0.0
 10
1.8568800000000001
 20
1.1398900000000001
 30
0.0
 10
2.0956400000000004
 20
0.9824100000000001
 30
0.0
 10
2.0956400000000004
 20
0.9824100000000001
 30
0.0
 10
2.4436200000000001
 20
1.1678300000000001
 30
0.0
 10
2.5249000000000001
 20
1.6529700000000001
 30
0.0
 10
2.5528400000000002
 20
2.00603
 30
0.0
 10
2.5528400000000002
 20
2.00603
 30
0.0
 10
2.5198200000000002
 20
2.04413
 30
0.0
 10
2.5045800000000003
 20
2.12033
 30
0.0
 10
2.4385400000000002
 20
2.1127100000000003
 30
0.0
  0
SPLINE
  5
28
100
AcDbEntity
  8
Ebene 1
100
AcDbSpline
210
0.0
220
0.0
230
1.0
 70
     1
 71
     3
 72
    20
 73
    16
 74
     0
 42
0.0000000001
 43
0.0000000001
 40
0.0
 40
0.0
 40
0.0
 40
0.0
 40
0.25
 40
0.25
 40
0.25
 40
0.25
 40
0.5
 40
0.5
 40
0.5
 40
0.5
 40
0.75
 40
0.75
 40
0.75
 40
0.75
 40
1.0
 40
1.0
 40
1.0
 40
1.0
 10
-0.47737
 20
-1.6922000000000001
 30
0.0
 10
-0.47737
 20
-1.6922000000000001
 30
0.0
 10
-0.63231
 20
-1.8115800000000002
 30
0.0
 10
-0.63231
 20
-1.8115800000000002
 30
0.0
 10
-0.63231
 20
-1.8115800000000002
 30
0.0
 10
-0.4824500000000001
 20
-1.9589000000000001
 30
0.0
 10
-0.61199
 20
-2.2967200000000001
 30
0.0
 10
-0.3757700000000001
 20
-2.36022
 30
0.0
 10
-0.3757700000000001
 20
-2.36022
 30
0.0
 10
-0.19543
 20
-2.1773400000000001
 30
0.0
 10
-0.36053
 20
-1.9131800000000001
 30
0.0
 10
-0.42403
 20
-1.7099800000000001
 30
0.0
 10
-0.42403
 20
-1.7099800000000001
 30
0.0
 10
-0.43419
 20
-1.6896600000000002
 30
0.0
 10
-0.45705
 20
-1.6896600000000002
 30
0.0
 10
-0.47737
 20
-1.6922000000000001
 30
0.0
  0
SPLINE
  5
29
100
AcDbEntity
  8
Ebene 1
100
AcDbSpline
210
0.0
220
0.0
230
1.0
 70
     1
 71
     3
 72
    16
 73
    12
 74
     0
 42
0.0000000001
 43
0.0000000001
 40
0.0
 40
0.0
 40
0.0
 40
0.0
 40
0.3333333333333333
 40
0.3333333333333333
 40
0.3333333333333333
 40
0.3333333333333333
 40
0.6666666666666666
 40
0.6666666666666666
 40
0.6666666666666666
 40
0.6666666666666666
 40
1.0
 40
1.0
 40
1.0
 40
1.0
 10
1.6689200000000002
 20
-1.1994400000000001
 30
0.0
 10
1.6409800000000001
 20
-1.2400800000000001
 30
0.0
 10
1.6867000000000001
 20
-1.3035800000000002
 30
0.0
 10
1.7248000000000001
 20
-1.3239000000000001
 30
0.0
 10
1.7248000000000001
 20
-1.3239000000000001
 30
0.0
 10
1.7552800000000002
 20
-1.28834
 30
0.0
 10
1.7933800000000002
 20
-1.2477
 30
0.0
 10
1.7984600000000002
 20
-1.20198
 30
0.0
 10
1.7984600000000002
 20
-1.20198
 30
0.0
 10
1.7984600000000002
 20
-1.20198
 30
0.0
 10
1.6689200000000002
 20
-1.1994400000000001
 30
0.0
 10
1.6689200000000002
 20
-1.1994400000000001
 30
0.0
  0
SPLINE
  5
2A
100
AcDbEntity
  8
Ebene 1
100
AcDbSpline
210
0.0
220
0.0
230
1.0
 70
     1
 71
     3
 72
    16
 73
    12
 74
     0
 42
0.0000000001
 43
0.0000000001
 40
0.0
 40
0.0
 40
0.0
 40
0.0
 40
0.3333333333333333
 40
0.3333333333333333
 40
0.3333333333333333
 40
0.3333333333333333
 40
0.6666666666666666
 40
0.6666666666666666
 40
0.6666666666666666
 40
0.6666666666666666
 40
1.0
 40
1.0
 40
1.0
 40
1.0
 10
1.6994000000000002
 20
-0.76256
 30
0.0
 10
1.5038200000000002
 20
-0.8286000000000001
 30
0.0
 10
1.5317600000000002
 20
-1.1892800000000001
 30
0.0
 10
1.7679800000000001
 20
-1.07752
 30
0.0
 10
1.7679800000000001
 20
-1.07752
 30
0.0
 10
1.7679800000000001
 20
-1.07752
 30
0.0
 10
1.7248000000000001
 20
-0.7651000000000001
 30
0.0
 10
1.7248000000000001
 20
-0.7651000000000001
 30
0.0
 10
1.7248000000000001
 20
-0.7651000000000001
 30
0.0
 10
1.7248000000000001
 20
-0.7651000000000001
 30
0.0
 10
1.6994000000000002
 20
-0.76256
 30
0.0
 10
1.6994000000000002
 20
-0.76256
 30
0.0
  0
SPLINE
  5
2B
100
AcDbEntity
  8
Ebene 1
100
AcDbSpline
210
0.0
220
0.0
230
1.0
 70
     1
 71
     3
 72
    68
 73
    64
 74
     0
 42
0.0000000001
 43
0.0000000001
 40
0.0
 40
0.0
 40
0.0
 40
0.0
 40
0.0625
 40
0.0625
 40
0.0625
 40
0.0625
 40
0.125
 40
0.125
 40
0.125
 40
0.125
 40
0.1875
 40
0.1875
 40
0.1875
 40
0.1875
 40
0.25
 40
0.25
 40
0.25
 40
0.25
 40
0.3125
 40
0.3125
 40
0.3125
 40
0.3125
 40
0.375
 40
0.375
 40
0.375
 40
0.375
 40
0.4375
 40
0.4375
 40
0.4375
 40
0.4375
 40
0.5
 40
0.5
 40
0.5
 40
0.5
 40
0.5625
 40
0.5625
 40
0.5625
 40
0.5625
 40
0.625
 40
0.625
 40
0.625
 40
0.625
 40
0.6875
 40
0.6875
 40
0.6875
 40
0.6875
 40
0.75
 40
0.75
 40
0.75
 40
0.75
 40
0.8125
 40
0.8125
 40
0.8125
 40
0.8125
 40
0.875
 40
0.875
 40
0.875
 40
0.875
 40
0.9375
 40
0.9375
 40
0.9375
 40
0.9375
 40
1.0
 40
1.0
 40
1.0
 40
1.0
 10
1.1177400000000002
 20
-1.3289800000000001
 30
0.0
 10
0.91454
 20
-1.5499600000000002
 30
0.0
 10
0.6478400000000001
 20
-1.4305800000000002
 30
0.0
 10
0.39638
 20
-1.4915400000000001
 30
0.0
 10
0.39638
 20
-1.4915400000000001
 30
0.0
 10
0.3887600000000001
 20
-1.6896600000000002
 30
0.0
 10
0.2897
 20
-2.02494
 30
0.0
 10
0.51068
 20
-2.13924
 30
0.0
 10
0.51068
 20
-2.13924
 30
0.0
 10
0.70372
 20
-2.0808200000000001
 30
0.0
 10
0.6503800000000001
 20
-1.5194800000000002
 30
0.0
 10
0.8129400000000001
 20
-1.6769600000000002
 30
0.0
 10
0.8129400000000001
 20
-1.6769600000000002
 30
0.0
 10
0.8739000000000001
 20
-2.05288
 30
0.0
 10
0.6935600000000001
 20
-2.6218400000000002
 30
0.0
 10
1.3057000000000001
 20
-2.5812000000000004
 30
0.0
 10
1.3057000000000001
 20
-2.5812000000000004
 30
0.0
 10
1.5190600000000001
 20
-2.4669000000000003
 30
0.0
 10
1.4581000000000002
 20
-2.1976600000000004
 30
0.0
 10
1.5647800000000001
 20
-2.0427200000000001
 30
0.0
 10
1.5647800000000001
 20
-2.0427200000000001
 30
0.0
 10
1.6740000000000002
 20
-2.2814800000000002
 30
0.0
 10
1.7476600000000002
 20
-2.5354800000000002
 30
0.0
 10
1.7476600000000002
 20
-2.8047200000000001
 30
0.0
 10
1.7476600000000002
 20
-2.8047200000000001
 30
0.0
 10
1.8975200000000001
 20
-2.9901400000000002
 30
0.0
 10
2.1032600000000001
 20
-3.1019000000000001
 30
0.0
 10
2.3191600000000001
 20
-3.1400000000000001
 30
0.0
 10
2.3191600000000001
 20
-3.1400000000000001
 30
0.0
 10
2.3902800000000002
 20
-2.9799800000000003
 30
0.0
 10
2.3801200000000002
 20
-2.7005800000000004
 30
0.0
 10
2.5528400000000002
 20
-2.6243800000000004
 30
0.0
 10
2.5528400000000002
 20
-2.6243800000000004
 30
0.0
 10
2.5731600000000001
 20
-2.9418800000000003
 30
0.0
 10
2.5807800000000003
 20
-3.4016200000000003
 30
0.0
 10
2.9490800000000004
 20
-3.4930600000000003
 30
0.0
 10
2.9490800000000004
 20
-3.4930600000000003
 30
0.0
 10
3.0329000000000002
 20
-3.3762200000000004
 30
0.0
 10
3.0075000000000003
 20
-3.1654000000000004
 30
0.0
 10
3.1218000000000004
 20
-3.0714200000000003
 30
0.0
 10
3.1218000000000004
 20
-3.0714200000000003
 30
0.0
 10
3.1141800000000002
 20
-3.3305000000000002
 30
0.0
 10
3.1370400000000003
 20
-3.4600400000000002
 30
0.0
 10
3.3123000000000005
 20
-3.5794200000000003
 30
0.0
 10
3.3123000000000005
 20
-3.5794200000000003
 30
0.0
 10
3.3453200000000001
 20
-3.6353000000000004
 30
0.0
 10
3.4545400000000002
 20
-3.6226000000000003
 30
0.0
 10
3.6196400000000004
 20
-3.5692600000000003
 30
0.0
 10
3.6196400000000004
 20
-3.5692600000000003
 30
0.0
 10
3.7974400000000004
 20
-3.4981400000000002
 30
0.0
 10
3.8253800000000004
 20
-3.4041600000000001
 30
0.0
 10
3.8634800000000005
 20
-3.2466800000000005
 30
0.0
 10
3.8634800000000005
 20
-3.2466800000000005
 30
0.0
 10
3.4113600000000002
 20
-2.8529800000000001
 30
0.0
 10
2.8424
 20
-2.6294600000000004
 30
0.0
 10
2.2836000000000003
 20
-2.4719800000000003
 30
0.0
 10
2.2836000000000003
 20
-2.4719800000000003
 30
0.0
 10
2.0880200000000002
 20
-2.1113
 30
0.0
 10
1.65622
 20
-1.9335000000000002
 30
0.0
 10
1.2676000000000001
 20
-1.8903200000000002
 30
0.0
 10
1.2676000000000001
 20
-1.8903200000000002
 30
0.0
 10
1.1736200000000001
 20
-1.7150600000000003
 30
0.0
 10
1.31332
 20
-1.4229600000000002
 30
0.0
 10
1.1177400000000002
 20
-1.3289800000000001
 30
0.0
  0
SPLINE
  5
2C
100
AcDbEntity
  8
Ebene 1
 62
     7
100
AcDbSpline
210
0.0
220
0.0
230
1.0
 70
     1
 71
     3
 72
    56
 73
    52
 74
     0
 42
0.0000000001
 43
0.0000000001
 40
0.0
 40
0.0
 40
0.0
 40
0.0
 40
0.0769230769230769
 40
0.0769230769230769
 40
0.0769230769230769
 40
0.0769230769230769
 40
0.1538461538461539
 40
0.1538461538461539
 40
0.1538461538461539
 40
0.1538461538461539
 40
0.2307692307692308
 40
0.2307692307692308
 40
0.2307692307692308
 40
0.2307692307692308
 40
0.3076923076923077
 40
0.3076923076923077
 40
0.3076923076923077
 40
0.3076923076923077
 40
0.3846153846153846
 40
0.3846153846153846
 40
0.3846153846153846
 40
0.3846153846153846
 40
0.4615384615384616
 40
0.4615384615384616
 40
0.4615384615384616
 40
0.4615384615384616
 40
0.5384615384615386
 40
0.5384615384615386
 40
0.5384615384615386
 40
0.5384615384615386
 40
0.6153846153846154
 40
0.6153846153846154
 40
0.6153846153846154
 40
0.6153846153846154
 40
0.6923076923076923
 40
0.6923076923076923
 40
0.6923076923076923
 40
0.6923076923076923
 40
0.7692307692307692
 40
0.7692307692307692
 40
0.7692307692307692
 40
0.7692307692307692
 40
0.846153846153846
 40
0.846153846153846
 40
0.846153846153846
 40
0.846153846153846
 40
0.9230769230769229
 40
0.9230769230769229
 40
0.9230769230769229
 40
0.9230769230769229
 40
1.0
 40
1.0
 40
1.0
 40
1.0
 10
0.53608
 20
4.8711500000000001
 30
0.0
 10
1.2523600000000001
 20
4.9575100000000001
 30
0.0
 10
1.8441800000000002
 20
4.5993700000000004
 30
0.0
 10
2.4969600000000001
 20
4.50793
 30
0.0
 10
2.4969600000000001
 20
4.50793
 30
0.0
 10
2.34456
 20
4.3656900000000007
 30
0.0
 10
2.1108800000000003
 20
4.4723700000000006
 30
0.0
 10
1.9305400000000001
 20
4.4926900000000005
 30
0.0
 10
1.9305400000000001
 20
4.4926900000000005
 30
0.0
 10
1.9305400000000001
 20
4.4926900000000005
 30
0.0
 10
1.7248000000000001
 20
4.5638100000000001
 30
0.0
 10
1.7248000000000001
 20
4.5638100000000001
 30
0.0
 10
1.7248000000000001
 20
4.5638100000000001
 30
0.0
 10
1.7248000000000001
 20
4.5638100000000001
 30
0.0
 10
1.3057000000000001
 20
4.6374700000000004
 30
0.0
 10
1.3057000000000001
 20
4.6374700000000004
 30
0.0
 10
1.3057000000000001
 20
4.6374700000000004
 30
0.0
 10
1.3057000000000001
 20
4.6374700000000004
 30
0.0
 10
1.8289400000000002
 20
4.4495100000000001
 30
0.0
 10
1.8289400000000002
 20
4.4495100000000001
 30
0.0
 10
1.8289400000000002
 20
4.4495100000000001
 30
0.0
 10
1.9280000000000002
 20
4.38347
 30
0.0
 10
2.1083400000000001
 20
4.4037900000000008
 30
0.0
 10
2.1489800000000003
 20
4.2767900000000001
 30
0.0
 10
2.1489800000000003
 20
4.2767900000000001
 30
0.0
 10
2.05246
 20
4.1167700000000007
 30
0.0
 10
1.8746600000000002
 20
4.0735900000000003
 30
0.0
 10
1.7019400000000002
 20
4.0837500000000002
 30
0.0
 10
1.7019400000000002
 20
4.0837500000000002
 30
0.0
 10
1.7019400000000002
 20
4.0837500000000002
 30
0.0
 10
1.6257400000000002
 20
4.0583499999999999
 30
0.0
 10
1.6257400000000002
 20
4.0583499999999999
 30
0.0
 10
1.6257400000000002
 20
4.0583499999999999
 30
0.0
 10
1.8035400000000001
 20
3.9694500000000001
 30
0.0
 10
1.7451200000000002
 20
3.8094300000000003
 30
0.0
 10
1.6105
 20
3.7078300000000004
 30
0.0
 10
1.6105
 20
3.7078300000000004
 30
0.0
 10
1.4250800000000001
 20
4.08629
 30
0.0
 10
1.0364600000000002
 20
4.33521
 30
0.0
 10
0.7596000000000001
 20
4.6222300000000001
 30
0.0
 10
0.7596000000000001
 20
4.6222300000000001
 30
0.0
 10
0.8840600000000001
 20
4.6501700000000001
 30
0.0
 10
1.06186
 20
4.4799900000000008
 30
0.0
 10
1.14314
 20
4.5790500000000005
 30
0.0
 10
1.14314
 20
4.5790500000000005
 30
0.0
 10
0.80532
 20
4.67049
 30
0.0
 10
0.47004
 20
4.7974900000000007
 30
0.0
 10
0.10428
 20
4.7974900000000007
 30
0.0
 10
0.10428
 20
4.7974900000000007
 30
0.0
 10
0.10428
 20
4.7974900000000007
 30
0.0
 10
0.53608
 20
4.8711500000000001
 30
0.0
 10
0.53608
 20
4.8711500000000001
 30
0.0
  0
SPLINE
  5
2D
100
AcDbEntity
  8
Ebene 1
 62
     7
100
AcDbSpline
210
0.0
220
0.0
230
1.0
 70
     1
 71
     3
 72
   212
 73
   208
 74
     0
 42
0.0000000001
 43
0.0000000001
 40
0.0
 40
0.0
 40
0.0
 40
0.0
 40
0.0192307692307692
 40
0.0192307692307692
 40
0.0192307692307692
 40
0.0192307692307692
 40
0.0384615384615385
 40
0.0384615384615385
 40
0.0384615384615385
 40
0.0384615384615385
 40
0.0576923076923077
 40
0.0576923076923077
 40
0.0576923076923077
 40
0.0576923076923077
 40
0.0769230769230769
 40
0.0769230769230769
 40
0.0769230769230769
 40
0.0769230769230769
 40
0.0961538461538462
 40
0.0961538461538462
 40
0.0961538461538462
 40
0.0961538461538462
 40
0.1153846153846154
 40
0.1153846153846154
 40
0.1153846153846154
 40
0.1153846153846154
 40
0.1346153846153846
 40
0.1346153846153846
 40
0.1346153846153846
 40
0.1346153846153846
 40
0.1538461538461539
 40
0.1538461538461539
 40
0.1538461538461539
 40
0.1538461538461539
 40
0.1730769230769231
 40
0.1730769230769231
 40
0.1730769230769231
 40
0.1730769230769231
 40
0.1923076923076923
 40
0.1923076923076923
 40
0.1923076923076923
 40
0.1923076923076923
 40
0.2115384615384615
 40
0.2115384615384615
 40
0.2115384615384615
 40
0.2115384615384615
 40
0.2307692307692307
 40
0.2307692307692307
 40
0.2307692307692307
 40
0.2307692307692307
 40
0.2499999999999999
 40
0.2499999999999999
 40
0.2499999999999999
 40
0.2499999999999999
 40
0.2692307692307692
 40
0.2692307692307692
 40
0.2692307692307692
 40
0.2692307692307692
 40
0.2884615384615384
 40
0.2884615384615384
 40
0.2884615384615384
 40
0.2884615384615384
 40
0.3076923076923076
 40
0.3076923076923076
 40
0.3076923076923076
 40
0.3076923076923076
 40
0.3269230769230768
 40
0.3269230769230768
 40
0.3269230769230768
 40
0.3269230769230768
 40
0.346153846153846
 40
0.346153846153846
 40
0.346153846153846
 40
0.346153846153846
 40
0.3653846153846153
 40
0.3653846153846153
 40
0.3653846153846153
 40
0.3653846153846153
 40
0.3846153846153845
 40
0.3846153846153845
 40
0.3846153846153845
 40
0.3846153846153845
 40
0.4038461538461537
 40
0.4038461538461537
 40
0.4038461538461537
 40
0.4038461538461537
 40
0.4230769230769229
 40
0.4230769230769229
 40
0.4230769230769229
 40
0.4230769230769229
 40
0.4423076923076921
 40
0.4423076923076921
 40
0.4423076923076921
 40
0.4423076923076921
 40
0.4615384615384613
 40
0.4615384615384613
 40
0.4615384615384613
 40
0.4615384615384613
 40
0.4807692307692306
 40
0.4807692307692306
 40
0.4807692307692306
 40
0.4807692307692306
 40
0.4999999999999998
 40
0.4999999999999998
 40
0.4999999999999998
 40
0.4999999999999998
 40
0.5192307692307691
 40
0.5192307692307691
 40
0.5192307692307691
 40
0.5192307692307691
 40
0.5384615384615383
 40
0.5384615384615383
 40
0.5384615384615383
 40
0.5384615384615383
 40
0.5576923076923076
 40
0.5576923076923076
 40
0.5576923076923076
 40
0.5576923076923076
 40
0.5769230769230769
 40
0.5769230769230769
 40
0.5769230769230769
 40
0.5769230769230769
 40
0.5961538461538462
 40
0.5961538461538462
 40
0.5961538461538462
 40
0.5961538461538462
 40
0.6153846153846154
 40
0.6153846153846154
 40
0.6153846153846154
 40
0.6153846153846154
 40
0.6346153846153847
 40
0.6346153846153847
 40
0.6346153846153847
 40
0.6346153846153847
 40
0.653846153846154
 40
0.653846153846154
 40
0.653846153846154
 40
0.653846153846154
 40
0.6730769230769232
 40
0.6730769230769232
 40
0.6730769230769232
 40
0.6730769230769232
 40
0.6923076923076925
 40
0.6923076923076925
 40
0.6923076923076925
 40
0.6923076923076925
 40
0.7115384615384618
 40
0.7115384615384618
 40
0.7115384615384618
 40
0.7115384615384618
 40
0.7307692307692311
 40
0.7307692307692311
 40
0.7307692307692311
 40
0.7307692307692311
 40
0.7500000000000003
 40
0.7500000000000003
 40
0.7500000000000003
 40
0.7500000000000003
 40
0.7692307692307696
 40
0.7692307692307696
 40
0.7692307692307696
 40
0.7692307692307696
 40
0.7884615384615389
 40
0.7884615384615389
 40
0.7884615384615389
 40
0.7884615384615389
 40
0.8076923076923082
 40
0.8076923076923082
 40
0.8076923076923082
 40
0.8076923076923082
 40
0.8269230769230774
 40
0.8269230769230774
 40
0.8269230769230774
 40
0.8269230769230774
 40
0.8461538461538467
 40
0.8461538461538467
 40
0.8461538461538467
 40
0.8461538461538467
 40
0.865384615384616
 40
0.865384615384616
 40
0.865384615384616
 40
0.865384615384616
 40
0.8846153846153853
 40
0.8846153846153853
 40
0.8846153846153853
 40
0.8846153846153853
 40
0.9038461538461545
 40
0.9038461538461545
 40
0.9038461538461545
 40
0.9038461538461545
 40
0.9230769230769238
 40
0.9230769230769238
 40
0.9230769230769238
 40
0.9230769230769238
 40
0.9423076923076931
 40
0.9423076923076931
 40
0.9423076923076931
 40
0.9423076923076931
 40
0.9615384615384623
 40
0.9615384615384623
 40
0.9615384615384623
 40
0.9615384615384623
 40
0.9807692307692316
 40
0.9807692307692316
 40
0.9807692307692316
 40
0.9807692307692316
 40
1.0
 40
1.0
 40
1.0
 40
1.0
 10
3.3097600000000003
 20
4.7695500000000006
 30
0.0
 10
3.7491800000000004
 20
4.6679500000000003
 30
0.0
 10
2.9109800000000003
 20
4.6933500000000006
 30
0.0
 10
2.7941400000000001
 20
4.4774500000000002
 30
0.0
 10
2.7941400000000001
 20
4.4774500000000002
 30
0.0
 10
2.5477600000000002
 20
4.2818700000000005
 30
0.0
 10
2.2378800000000001
 20
4.0786700000000007
 30
0.0
 10
2.12358
 20
3.8018100000000001
 30
0.0
 10
2.12358
 20
3.8018100000000001
 30
0.0
 10
2.5833200000000001
 20
3.5808300000000002
 30
0.0
 10
2.8805000000000001
 20
4.0558100000000001
 30
0.0
 10
3.3224600000000004
 20
3.9821500000000003
 30
0.0
 10
3.3224600000000004
 20
3.9821500000000003
 30
0.0
 10
3.3859600000000003
 20
3.9694500000000001
 30
0.0
 10
3.7364800000000002
 20
3.8373700000000004
 30
0.0
 10
3.6882200000000003
 20
3.9694500000000001
 30
0.0
 10
3.6882200000000003
 20
3.9694500000000001
 30
0.0
 10
3.2869000000000002
 20
4.2158300000000004
 30
0.0
 10
3.9803200000000003
 20
4.3656900000000007
 30
0.0
 10
4.0235000000000003
 20
3.8678500000000002
 30
0.0
 10
4.0235000000000003
 20
3.8678500000000002
 30
0.0
 10
3.9549200000000004
 20
3.6849700000000003
 30
0.0
 10
3.7237800000000001
 20
3.6722700000000001
 30
0.0
 10
3.6348800000000003
 20
3.4868500000000004
 30
0.0
 10
3.6348800000000003
 20
3.4868500000000004
 30
0.0
 10
3.5993200000000001
 20
3.3700100000000002
 30
0.0
 10
3.4393000000000002
 20
3.2404700000000002
 30
0.0
 10
3.4418400000000005
 20
3.4462100000000002
 30
0.0
 10
3.4418400000000005
 20
3.4462100000000002
 30
0.0
 10
3.4342200000000003
 20
3.5198700000000005
 30
0.0
 10
3.4291400000000003
 20
3.6113100000000005
 30
0.0
 10
3.3554800000000005
 20
3.6519500000000003
 30
0.0
 10
3.3554800000000005
 20
3.6519500000000003
 30
0.0
 10
3.3504000000000005
 20
3.2074500000000001
 30
0.0
 10
3.6526600000000005
 20
2.5318100000000001
 30
0.0
 10
3.4570800000000004
 20
1.8790300000000002
 30
0.0
 10
3.4570800000000004
 20
1.8790300000000002
 30
0.0
 10
3.4570800000000004
 20
1.8790300000000002
 30
0.0
 10
3.2792800000000004
 20
2.4860900000000004
 30
0.0
 10
3.2792800000000004
 20
2.4860900000000004
 30
0.0
 10
3.2792800000000004
 20
2.4860900000000004
 30
0.0
 10
3.2386400000000002
 20
2.6867500000000004
 30
0.0
 10
3.0481400000000001
 20
2.8899500000000002
 30
0.0
 10
3.1268800000000003
 20
3.0956900000000003
 30
0.0
 10
3.1268800000000003
 20
3.0956900000000003
 30
0.0
 10
3.2742000000000004
 20
3.2176100000000001
 30
0.0
 10
3.1218000000000004
 20
3.2150700000000003
 30
0.0
 10
3.0633800000000004
 20
3.0855300000000003
 30
0.0
 10
3.0633800000000004
 20
3.0855300000000003
 30
0.0
 10
2.9541600000000003
 20
2.88741
 30
0.0
 10
2.9821000000000004
 20
3.4385900000000005
 30
0.0
 10
2.9338400000000004
 20
3.5503500000000003
 30
0.0
 10
2.9338400000000004
 20
3.5503500000000003
 30
0.0
 10
2.8322400000000001
 20
3.3827100000000003
 30
0.0
 10
3.0278200000000002
 20
2.9610700000000003
 30
0.0
 10
2.84748
 20
2.9382100000000002
 30
0.0
 10
2.84748
 20
2.9382100000000002
 30
0.0
 10
2.4741000000000004
 20
3.5401900000000004
 30
0.0
 10
3.0837000000000003
 20
2.50387
 30
0.0
 10
2.7712800000000004
 20
2.2320900000000004
 30
0.0
 10
2.7712800000000004
 20
2.2320900000000004
 30
0.0
 10
2.7712800000000004
 20
2.2320900000000004
 30
0.0
 10
2.7408000000000001
 20
2.5165700000000002
 30
0.0
 10
2.7408000000000001
 20
2.5165700000000002
 30
0.0
 10
2.7408000000000001
 20
2.5165700000000002
 30
0.0
 10
2.7103200000000003
 20
2.6638900000000003
 30
0.0
 10
2.5198200000000002
 20
2.88741
 30
0.0
 10
2.7281000000000004
 20
2.9661500000000003
 30
0.0
 10
2.7281000000000004
 20
2.9661500000000003
 30
0.0
 10
2.24804
 20
2.6842100000000002
 30
0.0
 10
2.34456
 20
2.5013300000000003
 30
0.0
 10
2.0651600000000001
 20
2.1152500000000001
 30
0.0
 10
2.0651600000000001
 20
2.1152500000000001
 30
0.0
 10
2.0651600000000001
 20
2.1152500000000001
 30
0.0
 10
2.0981800000000002
 20
2.50387
 30
0.0
 10
2.0981800000000002
 20
2.50387
 30
0.0
 10
2.0981800000000002
 20
2.50387
 30
0.0
 10
1.7883000000000002
 20
3.1718900000000003
 30
0.0
 10
2.2124800000000002
 20
1.8790300000000002
 30
0.0
 10
1.8035400000000001
 20
1.9196700000000002
 30
0.0
 10
1.8035400000000001
 20
1.9196700000000002
 30
0.0
 10
1.7070200000000002
 20
1.7748900000000001
 30
0.0
 10
1.69432
 20
1.8333100000000002
 30
0.0
 10
1.6841600000000001
 20
1.9806300000000001
 30
0.0
 10
1.6841600000000001
 20
1.9806300000000001
 30
0.0
 10
1.6435200000000001
 20
2.16351
 30
0.0
 10
1.61304
 20
1.9679300000000002
 30
0.0
 10
1.56732
 20
1.9196700000000002
 30
0.0
 10
1.56732
 20
1.9196700000000002
 30
0.0
 10
1.4936600000000002
 20
1.8383900000000002
 30
0.0
 10
1.4479400000000002
 20
1.6859900000000001
 30
0.0
 10
1.4962000000000002
 20
1.5589900000000001
 30
0.0
 10
1.4962000000000002
 20
1.5589900000000001
 30
0.0
 10
1.32094
 20
1.5107300000000001
 30
0.0
 10
1.2980800000000001
 20
1.31769
 30
0.0
 10
1.2142600000000001
 20
1.2846700000000002
 30
0.0
 10
1.2142600000000001
 20
1.2846700000000002
 30
0.0
 10
1.18632
 20
1.27451
 30
0.0
 10
1.0974200000000001
 20
1.4675500000000001
 30
0.0
 10
1.1025
 20
1.2694300000000001
 30
0.0
 10
1.1025
 20
1.2694300000000001
 30
0.0
 10
1.2828400000000002
 20
1.03067
 30
0.0
 10
1.2803000000000002
 20
0.68269
 30
0.0
 10
1.3488800000000001
 20
0.42615
 30
0.0
 10
1.3488800000000001
 20
0.42615
 30
0.0
 10
1.2574400000000001
 20
0.49981
 30
0.0
 10
1.23204
 20
0.61919
 30
0.0
 10
1.1761600000000001
 20
0.7157100000000001
 30
0.0
 10
1.1761600000000001
 20
0.7157100000000001
 30
0.0
 10
1.1761600000000001
 20
0.7157100000000001
 30
0.0
 10
1.0313800000000002
 20
1.1221100000000002
 30
0.0
 10
1.0313800000000002
 20
1.1221100000000002
 30
0.0
 10
1.0313800000000002
 20
1.1221100000000002
 30
0.0
 10
0.9983600000000001
 20
0.9087500000000001
 30
0.0
 10
0.785
 20
0.7538100000000001
 30
0.0
 10
0.7215
 20
0.51759
 30
0.0
 10
0.7215
 20
0.51759
 30
0.0
 10
0.4675
 20
0.6750700000000001
 30
0.0
 10
0.51576
 20
0.5658500000000001
 30
0.0
 10
0.6707000000000001
 20
0.3575700000000001
 30
0.0
 10
0.6707000000000001
 20
0.3575700000000001
 30
0.0
 10
0.74182
 20
0.23311
 30
0.0
 10
0.7138800000000001
 20
0.05531
 30
0.0
 10
0.7113400000000001
 20
-0.0793
 30
0.0
 10
0.7113400000000001
 20
-0.0793
 30
0.0
 10
0.7088000000000001
 20
-0.346
 30
0.0
 10
0.6681600000000001
 20
-0.3333
 30
0.0
 10
0.6122800000000001
 20
-0.08946
 30
0.0
 10
0.6122800000000001
 20
-0.08946
 30
0.0
 10
0.48782
 20
0.16453
 30
0.0
 10
0.5030600000000001
 20
0.5861700000000001
 30
0.0
 10
0.42178
 20
0.13659
 30
0.0
 10
0.42178
 20
0.13659
 30
0.0
 10
-0.30973
 20
-0.10724
 30
0.0
 10
-0.26909
 20
-1.08006
 30
0.0
 10
-0.9396500000000001
 20
-1.4051800000000001
 30
0.0
 10
-0.9396500000000001
 20
-1.4051800000000001
 30
0.0
 10
-0.8634500000000001
 20
-1.5347200000000001
 30
0.0
 10
-1.0209300000000001
 20
-1.7938000000000001
 30
0.0
 10
-1.0920500000000002
 20
-1.9639800000000001
 30
0.0
 10
-1.0920500000000002
 20
-1.9639800000000001
 30
0.0
 10
-1.7092700000000001
 20
-1.8598400000000002
 30
0.0
 10
-2.36205
 20
-2.10622
 30
0.0
 10
-2.9132300000000004
 20
-2.3856200000000003
 30
0.0
 10
-2.9132300000000004
 20
-2.3856200000000003
 30
0.0
 10
-2.8573500000000003
 20
-2.4389600000000002
 30
0.0
 10
-2.7938500000000004
 20
-2.35006
 30
0.0
 10
-2.7278100000000003
 20
-2.36022
 30
0.0
 10
-2.7278100000000003
 20
-2.36022
 30
0.0
 10
-2.6744700000000003
 20
-2.3145000000000002
 30
0.0
 10
-2.6566900000000002
 20
-2.35514
 30
0.0
 10
-2.7100300000000002
 20
-2.39324
 30
0.0
 10
-2.7100300000000002
 20
-2.39324
 30
0.0
 10
-2.8700500000000004
 20
-2.5100800000000003
 30
0.0
 10
-3.0910300000000004
 20
-2.6447000000000003
 30
0.0
 10
-3.1367500000000001
 20
-2.73868
 30
0.0
 10
-3.1367500000000001
 20
-2.73868
 30
0.0
 10
-3.2993100000000002
 20
-2.6777200000000003
 30
0.0
 10
-3.2967700000000004
 20
-2.4770600000000003
 30
0.0
 10
-3.3094700000000001
 20
-2.3449800000000001
 30
0.0
 10
-3.3094700000000001
 20
-2.3449800000000001
 30
0.0
 10
-3.4390100000000001
 20
-2.3424400000000003
 30
0.0
 10
-3.6422100000000004
 20
-2.5202400000000003
 30
0.0
 10
-3.7184100000000004
 20
-2.36022
 30
0.0
 10
-3.7184100000000004
 20
-2.36022
 30
0.0
 10
-3.4136100000000003
 20
-2.1138400000000002
 30
0.0
 10
-3.0427700000000004
 20
-2.0706600000000002
 30
0.0
 10
-2.6236700000000002
 20
-2.0376400000000001
 30
0.0
 10
-2.6236700000000002
 20
-2.0376400000000001
 30
0.0
 10
-2.27569
 20
-2.0097
 30
0.0
 10
-2.0445500000000001
 20
-1.7760200000000002
 30
0.0
 10
-1.8388100000000001
 20
-1.5067800000000002
 30
0.0
 10
-1.8388100000000001
 20
-1.5067800000000002
 30
0.0
 10
-1.8134100000000002
 20
-1.4864600000000001
 30
0.0
 10
-1.7092700000000001
 20
-1.4559800000000001
 30
0.0
 10
-1.7854700000000001
 20
-1.4305800000000002
 30
0.0
 10
-1.7854700000000001
 20
-1.4305800000000002
 30
0.0
 10
-1.7854700000000001
 20
-1.4305800000000002
 30
0.0
 10
-2.1588500000000002
 20
-1.6007600000000002
 30
0.0
 10
-2.1588500000000002
 20
-1.6007600000000002
 30
0.0
 10
-2.1588500000000002
 20
-1.6007600000000002
 30
0.0
 10
-2.05979
 20
-1.2324600000000001
 30
0.0
 10
-2.2985500000000001
 20
-0.92766
 30
0.0
 10
-2.3366500000000001
 20
-0.5593600000000001
 30
0.0
 10
-2.3366500000000001
 20
-0.5593600000000001
 30
0.0
 10
-2.22743
 20
-0.26472
 30
0.0
 10
-2.0089900000000003
 20
0.00959
 30
0.0
 10
-1.7676900000000002
 20
0.23311
 30
0.0
 10
-1.7676900000000002
 20
0.23311
 30
0.0
 10
-1.3714500000000001
 20
0.5887100000000001
 30
0.0
 10
-0.8380500000000001
 20
0.7182500000000001
 30
0.0
 10
-0.39355
 20
0.9747900000000001
 30
0.0
 10
-0.39355
 20
0.9747900000000001
 30
0.0
 10
-0.38085
 20
0.9062100000000001
 30
0.0
 10
-0.5434100000000001
 20
0.7792100000000001
 30
0.0
 10
-0.45197
 20
0.76397
 30
0.0
 10
-0.45197
 20
0.76397
 30
0.0
 10
-0.12177
 20
1.1195700000000002
 30
0.0
 10
-0.02525
 20
1.5386700000000002
 30
0.0
 10
0.13476
 20
1.9628500000000002
 30
0.0
 10
0.13476
 20
1.9628500000000002
 30
0.0
 10
0.13476
 20
1.9628500000000002
 30
0.0
 10
1.4200000000000002
 20
3.0880700000000001
 30
0.0
 10
1.4200000000000002
 20
3.0880700000000001
 30
0.0
 10
1.4200000000000002
 20
3.0880700000000001
 30
0.0
 10
1.6740000000000002
 20
3.9440500000000003
 30
0.0
 10
2.5401400000000001
 20
4.45967
 30
0.0
 10
3.3097600000000003
 20
4.7695500000000006
 30
0.0
  0
SPLINE
  5
2E
100
AcDbEntity
  8
Ebene 1
 62
     7
100
AcDbSpline
210
0.0
220
0.0
230
1.0
 70
     1
 71
     3
 72
    16
 73
    12
 74
     0
 42
0.0000000001
 43
0.0000000001
 40
0.0
 40
0.0
 40
0.0
 40
0.0
 40
0.3333333333333333
 40
0.3333333333333333
 40
0.3333333333333333
 40
0.3333333333333333
 40
0.6666666666666666
 40
0.6666666666666666
 40
0.6666666666666666
 40
0.6666666666666666
 40
1.0
 40
1.0
 40
1.0
 40
1.0
 10
3.8787200000000004
 20
3.6367100000000003
 30
0.0
 10
4.2825800000000003
 20
3.4157300000000004
 30
0.0
 10
4.19876
 20
2.7934300000000003
 30
0.0
 10
4.2114600000000006
 20
2.3870300000000002
 30
0.0
 10
4.2114600000000006
 20
2.3870300000000002
 30
0.0
 10
3.9854000000000003
 20
2.7400900000000004
 30
0.0
 10
4.0158800000000001
 20
3.2099900000000003
 30
0.0
 10
3.8050600000000001
 20
3.5782900000000004
 30
0.0
 10
3.8050600000000001
 20
3.5782900000000004
 30
0.0
 10
3.8050600000000001
 20
3.5782900000000004
 30
0.0
 10
3.8787200000000004
 20
3.6367100000000003
 30
0.0
 10
3.8787200000000004
 20
3.6367100000000003
 30
0.0
  0
SPLINE
  5
2F
100
AcDbEntity
  8
Ebene 1
100
AcDbSpline
210
0.0
220
0.0
230
1.0
 70
     1
 71
     3
 72
    28
 73
    24
 74
     0
 42
0.0000000001
 43
0.0000000001
 40
0.0
 40
0.0
 40
0.0
 40
0.0
 40
0.1666666666666667
 40
0.1666666666666667
 40
0.1666666666666667
 40
0.1666666666666667
 40
0.3333333333333333
 40
0.3333333333333333
 40
0.3333333333333333
 40
0.3333333333333333
 40
0.5
 40
0.5
 40
0.5
 40
0.5
 40
0.6666666666666666
 40
0.6666666666666666
 40
0.6666666666666666
 40
0.6666666666666666
 40
0.8333333333333333
 40
0.8333333333333333
 40
0.8333333333333333
 40
0.8333333333333333
 40
1.0
 40
1.0
 40
1.0
 40
1.0
 10
2.0042
 20
3.4335100000000001
 30
0.0
 10
2.0804
 20
3.4411300000000002
 30
0.0
 10
2.1540600000000003
 20
3.4335100000000001
 30
0.0
 10
2.20486
 20
3.3725500000000004
 30
0.0
 10
2.20486
 20
3.3725500000000004
 30
0.0
 10
2.20486
 20
3.3725500000000004
 30
0.0
 10
2.1591400000000003
 20
3.1922100000000002
 30
0.0
 10
2.1591400000000003
 20
3.1922100000000002
 30
0.0
 10
2.1591400000000003
 20
3.1922100000000002
 30
0.0
 10
2.0423
 20
3.0753700000000004
 30
0.0
 10
1.9305400000000001
 20
2.9407500000000004
 30
0.0
 10
1.8695800000000002
 20
2.7832700000000004
 30
0.0
 10
1.8695800000000002
 20
2.7832700000000004
 30
0.0
 10
1.6663800000000002
 20
2.6740500000000003
 30
0.0
 10
1.4911200000000002
 20
2.46577
 30
0.0
 10
1.2523600000000001
 20
2.4505300000000001
 30
0.0
 10
1.2523600000000001
 20
2.4505300000000001
 30
0.0
 10
1.14314
 20
2.7121500000000003
 30
0.0
 10
1.4327000000000001
 20
2.9331300000000002
 30
0.0
 10
1.6384400000000001
 20
3.0601300000000005
 30
0.0
 10
1.6384400000000001
 20
3.0601300000000005
 30
0.0
 10
1.7222600000000001
 20
3.2125300000000001
 30
0.0
 10
1.8568800000000001
 20
3.3496900000000003
 30
0.0
 10
2.0042
 20
3.4335100000000001
 30
0.0
  0
SPLINE
  5
30
100
AcDbEntity
  8
Ebene 1
100
AcDbSpline
210
0.0
220
0.0
230
1.0
 70
     1
 71
     3
 72
    28
 73
    24
 74
     0
 42
0.0000000001
 43
0.0000000001
 40
0.0
 40
0.0
 40
0.0
 40
0.0
 40
0.1666666666666667
 40
0.1666666666666667
 40
0.1666666666666667
 40
0.1666666666666667
 40
0.3333333333333333
 40
0.3333333333333333
 40
0.3333333333333333
 40
0.3333333333333333
 40
0.5
 40
0.5
 40
0.5
 40
0.5
 40
0.6666666666666666
 40
0.6666666666666666
 40
0.6666666666666666
 40
0.6666666666666666
 40
0.8333333333333333
 40
0.8333333333333333
 40
0.8333333333333333
 40
0.8333333333333333
 40
1.0
 40
1.0
 40
1.0
 40
1.0
 10
0.8561200000000001
 20
2.3590900000000001
 30
0.0
 10
0.9628000000000001
 20
2.3438500000000002
 30
0.0
 10
1.0263
 20
2.2371700000000003
 30
0.0
 10
1.0440800000000001
 20
2.1406500000000004
 30
0.0
 10
1.0440800000000001
 20
2.1406500000000004
 30
0.0
 10
1.0440800000000001
 20
2.1406500000000004
 30
0.0
 10
1.0415400000000001
 20
2.0288900000000001
 30
0.0
 10
1.0415400000000001
 20
2.0288900000000001
 30
0.0
 10
1.0415400000000001
 20
2.0288900000000001
 30
0.0
 10
0.7342000000000001
 20
1.61233
 30
0.0
 10
0.7900800000000001
 20
0.53029
 30
0.0
 10
0.01792
 20
0.80969
 30
0.0
 10
0.01792
 20
0.80969
 30
0.0
 10
-0.01001
 20
0.8376300000000001
 30
0.0
 10
-0.04303
 20
0.8655700000000001
 30
0.0
 10
-0.05573
 20
0.9062100000000001
 30
0.0
 10
-0.05573
 20
0.9062100000000001
 30
0.0
 10
-0.06081
 20
1.0103500000000001
 30
0.0
 10
-0.06081
 20
1.11449
 30
0.0
 10
-0.02271
 20
1.2084700000000002
 30
0.0
 10
-0.02271
 20
1.2084700000000002
 30
0.0
 10
0.26684
 20
1.5920100000000001
 30
0.0
 10
0.51322
 20
2.0187300000000001
 30
0.0
 10
0.8561200000000001
 20
2.3590900000000001
 30
0.0
  0
SPLINE
  5
31
100
AcDbEntity
  8
Ebene 1
 62
     7
100
AcDbSpline
210
0.0
220
0.0
230
1.0
 70
     1
 71
     3
 72
    12
 73
     8
 74
     0
 42
0.0000000001
 43
0.0000000001
 40
0.0
 40
0.0
 40
0.0
 40
0.0
 40
0.5
 40
0.5
 40
0.5
 40
0.5
 40
1.0
 40
1.0
 40
1.0
 40
1.0
 10
-0.22591
 20
2.1431900000000002
 30
0.0
 10
-0.13447
 20
2.0949300000000002
 30
0.0
 10
0.023
 20
2.0695300000000003
 30
0.0
 10
0.04586
 20
1.9603100000000002
 30
0.0
 10
0.04586
 20
1.9603100000000002
 30
0.0
 10
-0.07605
 20
1.8917300000000001
 30
0.0
 10
-0.14717
 20
2.0771500000000001
 30
0.0
 10
-0.22591
 20
2.1431900000000002
 30
0.0
  0
SPLINE
  5
32
100
AcDbEntity
  8
Ebene 1
 62
     7
100
AcDbSpline
210
0.0
220
0.0
230
1.0
 70
     1
 71
     3
 72
    24
 73
    20
 74
     0
 42
0.0000000001
 43
0.0000000001
 40
0.0
 40
0.0
 40
0.0
 40
0.0
 40
0.2
 40
0.2
 40
0.2
 40
0.2
 40
0.4
 40
0.4
 40
0.4
 40
0.4
 40
0.6000000000000001
 40
0.6000000000000001
 40
0.6000000000000001
 40
0.6000000000000001
 40
0.8
 40
0.8
 40
0.8
 40
0.8
 40
1.0
 40
1.0
 40
1.0
 40
1.0
 10
2.17692
 20
2.1838300000000004
 30
0.0
 10
2.17692
 20
2.1838300000000004
 30
0.0
 10
2.20486
 20
2.1812900000000002
 30
0.0
 10
2.20486
 20
2.1812900000000002
 30
0.0
 10
2.20486
 20
2.1812900000000002
 30
0.0
 10
2.20486
 20
2.1812900000000002
 30
0.0
 10
2.2353400000000003
 20
1.8942700000000001
 30
0.0
 10
2.2353400000000003
 20
1.8942700000000001
 30
0.0
 10
2.2353400000000003
 20
1.8942700000000001
 30
0.0
 10
2.2353400000000003
 20
1.8942700000000001
 30
0.0
 10
2.16676
 20
1.6809100000000001
 30
0.0
 10
2.16676
 20
1.6809100000000001
 30
0.0
 10
2.16676
 20
1.6809100000000001
 30
0.0
 10
2.16676
 20
1.6809100000000001
 30
0.0
 10
2.0956400000000004
 20
2.0644500000000003
 30
0.0
 10
2.0956400000000004
 20
2.0644500000000003
 30
0.0
 10
2.0956400000000004
 20
2.0644500000000003
 30
0.0
 10
2.0956400000000004
 20
2.0644500000000003
 30
0.0
 10
2.17692
 20
2.1838300000000004
 30
0.0
 10
2.17692
 20
2.1838300000000004
 30
0.0
  0
SPLINE
  5
33
100
AcDbEntity
  8
Ebene 1
 62
     7
100
AcDbSpline
210
0.0
220
0.0
230
1.0
 70
     1
 71
     3
 72
    16
 73
    12
 74
     0
 42
0.0000000001
 43
0.0000000001
 40
0.0
 40
0.0
 40
0.0
 40
0.0
 40
0.3333333333333333
 40
0.3333333333333333
 40
0.3333333333333333
 40
0.3333333333333333
 40
0.6666666666666666
 40
0.6666666666666666
 40
0.6666666666666666
 40
0.6666666666666666
 40
1.0
 40
1.0
 40
1.0
 40
1.0
 10
1.5978000000000001
 20
1.7469500000000002
 30
0.0
 10
1.5978000000000001
 20
1.7469500000000002
 30
0.0
 10
1.6663800000000002
 20
1.7444100000000002
 30
0.0
 10
1.6663800000000002
 20
1.7444100000000002
 30
0.0
 10
1.6663800000000002
 20
1.7444100000000002
 30
0.0
 10
1.6663800000000002
 20
1.7444100000000002
 30
0.0
 10
1.6841600000000001
 20
1.23895
 30
0.0
 10
1.6841600000000001
 20
1.23895
 30
0.0
 10
1.6841600000000001
 20
1.23895
 30
0.0
 10
1.6079600000000001
 20
1.3786500000000002
 30
0.0
 10
1.4936600000000002
 20
1.6047100000000001
 30
0.0
 10
1.5978000000000001
 20
1.7469500000000002
 30
0.0
  0
SPLINE
  5
34
100
AcDbEntity
  8
Ebene 1
 62
     7
100
AcDbSpline
210
0.0
220
0.0
230
1.0
 70
     1
 71
     3
 72
    16
 73
    12
 74
     0
 42
0.0000000001
 43
0.0000000001
 40
0.0
 40
0.0
 40
0.0
 40
0.0
 40
0.3333333333333333
 40
0.3333333333333333
 40
0.3333333333333333
 40
0.3333333333333333
 40
0.6666666666666666
 40
0.6666666666666666
 40
0.6666666666666666
 40
0.6666666666666666
 40
1.0
 40
1.0
 40
1.0
 40
1.0
 10
1.3488800000000001
 20
1.3557900000000001
 30
0.0
 10
1.3488800000000001
 20
1.3557900000000001
 30
0.0
 10
1.4200000000000002
 20
1.2948300000000001
 30
0.0
 10
1.4200000000000002
 20
1.2948300000000001
 30
0.0
 10
1.4200000000000002
 20
1.2948300000000001
 30
0.0
 10
1.44286
 20
1.0840100000000001
 30
0.0
 10
1.5012800000000002
 20
0.8223900000000001
 30
0.0
 10
1.3692000000000002
 20
0.6471300000000001
 30
0.0
 10
1.3692000000000002
 20
0.6471300000000001
 30
0.0
 10
1.3006200000000001
 20
0.8757300000000001
 30
0.0
 10
1.2218800000000001
 20
1.1297300000000001
 30
0.0
 10
1.3488800000000001
 20
1.3557900000000001
 30
0.0
  0
SPLINE
  5
35
100
AcDbEntity
  8
Ebene 1
 62
     7
100
AcDbSpline
210
0.0
220
0.0
230
1.0
 70
     1
 71
     3
 72
    76
 73
    72
 74
     0
 42
0.0000000001
 43
0.0000000001
 40
0.0
 40
0.0
 40
0.0
 40
0.0
 40
0.0555555555555556
 40
0.0555555555555556
 40
0.0555555555555556
 40
0.0555555555555556
 40
0.1111111111111111
 40
0.1111111111111111
 40
0.1111111111111111
 40
0.1111111111111111
 40
0.1666666666666667
 40
0.1666666666666667
 40
0.1666666666666667
 40
0.1666666666666667
 40
0.2222222222222222
 40
0.2222222222222222
 40
0.2222222222222222
 40
0.2222222222222222
 40
0.2777777777777778
 40
0.2777777777777778
 40
0.2777777777777778
 40
0.2777777777777778
 40
0.3333333333333334
 40
0.3333333333333334
 40
0.3333333333333334
 40
0.3333333333333334
 40
0.388888888888889
 40
0.388888888888889
 40
0.388888888888889
 40
0.388888888888889
 40
0.4444444444444445
 40
0.4444444444444445
 40
0.4444444444444445
 40
0.4444444444444445
 40
0.5000000000000001
 40
0.5000000000000001
 40
0.5000000000000001
 40
0.5000000000000001
 40
0.5555555555555557
 40
0.5555555555555557
 40
0.5555555555555557
 40
0.5555555555555557
 40
0.6111111111111113
 40
0.6111111111111113
 40
0.6111111111111113
 40
0.6111111111111113
 40
0.6666666666666669
 40
0.6666666666666669
 40
0.6666666666666669
 40
0.6666666666666669
 40
0.7222222222222224
 40
0.7222222222222224
 40
0.7222222222222224
 40
0.7222222222222224
 40
0.777777777777778
 40
0.777777777777778
 40
0.777777777777778
 40
0.777777777777778
 40
0.8333333333333336
 40
0.8333333333333336
 40
0.8333333333333336
 40
0.8333333333333336
 40
0.8888888888888892
 40
0.8888888888888892
 40
0.8888888888888892
 40
0.8888888888888892
 40
0.9444444444444448
 40
0.9444444444444448
 40
0.9444444444444448
 40
0.9444444444444448
 40
1.0
 40
1.0
 40
1.0
 40
1.0
 10
-4.6759900000000005
 20
1.0941700000000001
 30
0.0
 10
-4.5616900000000005
 20
0.40583
 30
0.0
 10
-4.4956500000000004
 20
-0.56698
 30
0.0
 10
-3.7615900000000004
 20
-0.9225800000000001
 30
0.0
 10
-3.7615900000000004
 20
-0.9225800000000001
 30
0.0
 10
-3.6676100000000003
 20
-0.8311400000000001
 30
0.0
 10
-4.0130500000000007
 20
-0.8082800000000001
 30
0.0
 10
-4.0028900000000007
 20
-0.67874
 30
0.0
 10
-4.0028900000000007
 20
-0.67874
 30
0.0
 10
-3.4847300000000003
 20
-0.9225800000000001
 30
0.0
 10
-2.9259300000000001
 20
-0.63048
 30
0.0
 10
-2.4407900000000002
 20
-0.44506
 30
0.0
 10
-2.4407900000000002
 20
-0.44506
 30
0.0
 10
-2.6312900000000004
 20
-0.6660400000000001
 30
0.0
 10
-2.9614900000000004
 20
-0.76002
 30
0.0
 10
-3.2180300000000002
 20
-0.8590800000000001
 30
0.0
 10
-3.2180300000000002
 20
-0.8590800000000001
 30
0.0
 10
-2.9970500000000002
 20
-0.8514600000000001
 30
0.0
 10
-2.7811500000000002
 20
-0.7879600000000001
 30
0.0
 10
-2.5804900000000002
 20
-0.69398
 30
0.0
 10
-2.5804900000000002
 20
-0.69398
 30
0.0
 10
-2.0902700000000003
 20
-0.73716
 30
0.0
 10
-2.9538700000000002
 20
-1.03942
 30
0.0
 10
-3.1316700000000002
 20
-1.1054600000000001
 30
0.0
 10
-3.1316700000000002
 20
-1.1054600000000001
 30
0.0
 10
-3.1316700000000002
 20
-1.1054600000000001
 30
0.0
 10
-2.85989
 20
-1.03942
 30
0.0
 10
-2.85989
 20
-1.03942
 30
0.0
 10
-2.85989
 20
-1.03942
 30
0.0
 10
-2.85989
 20
-1.03942
 30
0.0
 10
-2.6236700000000002
 20
-0.9556000000000001
 30
0.0
 10
-2.6236700000000002
 20
-0.9556000000000001
 30
0.0
 10
-2.6236700000000002
 20
-0.9556000000000001
 30
0.0
 10
-2.3671300000000004
 20
-0.7981200000000001
 30
0.0
 10
-2.2604500000000001
 20
-0.88448
 30
0.0
 10
-2.5550900000000003
 20
-1.0241800000000001
 30
0.0
 10
-2.5550900000000003
 20
-1.0241800000000001
 30
0.0
 10
-2.4331700000000001
 20
-1.00132
 30
0.0
 10
-2.1258300000000001
 20
-0.95052
 30
0.0
 10
-2.23759
 20
-1.1943600000000001
 30
0.0
 10
-2.23759
 20
-1.1943600000000001
 30
0.0
 10
-2.7252700000000001
 20
-1.4458200000000001
 30
0.0
 10
-3.4542500000000005
 20
-1.58552
 30
0.0
 10
-3.9749500000000002
 20
-1.3162800000000001
 30
0.0
 10
-3.9749500000000002
 20
-1.3162800000000001
 30
0.0
 10
-3.9749500000000002
 20
-1.3162800000000001
 30
0.0
 10
-3.6447500000000002
 20
-1.3289800000000001
 30
0.0
 10
-3.6447500000000002
 20
-1.3289800000000001
 30
0.0
 10
-3.6447500000000002
 20
-1.3289800000000001
 30
0.0
 10
-3.5507700000000004
 20
-1.3010400000000002
 30
0.0
 10
-3.5863300000000002
 20
-1.3112000000000001
 30
0.0
 10
-3.6599900000000005
 20
-1.2858000000000001
 30
0.0
 10
-3.6599900000000005
 20
-1.2858000000000001
 30
0.0
 10
-4.0613100000000006
 20
-1.2731000000000001
 30
0.0
 10
-4.51851
 20
-1.1359400000000002
 30
0.0
 10
-4.6582100000000004
 20
-0.72192
 30
0.0
 10
-4.6582100000000004
 20
-0.72192
 30
0.0
 10
-4.5210500000000007
 20
-0.7879600000000001
 30
0.0
 10
-4.3889700000000005
 20
-0.9733800000000001
 30
0.0
 10
-4.2441900000000006
 20
-0.9835400000000001
 30
0.0
 10
-4.2441900000000006
 20
-0.9835400000000001
 30
0.0
 10
-4.6099500000000004
 20
-0.7041400000000001
 30
0.0
 10
-4.9680900000000001
 20
-0.30282
 30
0.0
 10
-4.8741100000000008
 20
0.17723
 30
0.0
 10
-4.8741100000000008
 20
0.17723
 30
0.0
 10
-4.8055300000000001
 20
-0.0031
 30
0.0
 10
-4.6988500000000002
 20
-0.3104400000000001
 30
0.0
 10
-4.5591500000000007
 20
-0.36886
 30
0.0
 10
-4.5591500000000007
 20
-0.36886
 30
0.0
 10
-4.8461700000000008
 20
0.06547
 30
0.0
 10
-4.9858700000000002
 20
0.63951
 30
0.0
 10
-4.6759900000000005
 20
1.0941700000000001
 30
0.0
  0
SPLINE
  5
36
100
AcDbEntity
  8
Ebene 1
 62
     7
100
AcDbSpline
210
0.0
220
0.0
230
1.0
 70
     1
 71
     3
 72
    36
 73
    32
 74
     0
 42
0.0000000001
 43
0.0000000001
 40
0.0
 40
0.0
 40
0.0
 40
0.0
 40
0.125
 40
0.125
 40
0.125
 40
0.125
 40
0.25
 40
0.25
 40
0.25
 40
0.25
 40
0.375
 40
0.375
 40
0.375
 40
0.375
 40
0.5
 40
0.5
 40
0.5
 40
0.5
 40
0.625
 40
0.625
 40
0.625
 40
0.625
 40
0.75
 40
0.75
 40
0.75
 40
0.75
 40
0.875
 40
0.875
 40
0.875
 40
0.875
 40
1.0
 40
1.0
 40
1.0
 40
1.0
 10
-0.59421
 20
0.97733
 30
0.0
 10
-0.69835
 20
0.8376300000000001
 30
0.0
 10
-0.99553
 20
0.9265300000000001
 30
0.0
 10
-1.2571500000000002
 20
0.9036700000000001
 30
0.0
 10
-1.2571500000000002
 20
0.9036700000000001
 30
0.0
 10
-1.16825
 20
0.8325500000000001
 30
0.0
 10
-1.0133100000000002
 20
0.8630300000000001
 30
0.0
 10
-0.88631
 20
0.8452500000000001
 30
0.0
 10
-0.88631
 20
0.8452500000000001
 30
0.0
 10
-1.1580900000000001
 20
0.6699900000000001
 30
0.0
 10
-1.54671
 20
0.5252100000000001
 30
0.0
 10
-1.8286500000000001
 20
0.7741300000000001
 30
0.0
 10
-1.8286500000000001
 20
0.7741300000000001
 30
0.0
 10
-1.8286500000000001
 20
0.7741300000000001
 30
0.0
 10
-2.0293100000000002
 20
0.7792100000000001
 30
0.0
 10
-2.0293100000000002
 20
0.7792100000000001
 30
0.0
 10
-2.0293100000000002
 20
0.7792100000000001
 30
0.0
 10
-1.9759700000000002
 20
0.8198500000000001
 30
0.0
 10
-1.8870700000000002
 20
0.82747
 30
0.0
 10
-1.8159500000000002
 20
0.85287
 30
0.0
 10
-1.8159500000000002
 20
0.85287
 30
0.0
 10
-1.8159500000000002
 20
0.85287
 30
0.0
 10
-1.6559300000000001
 20
0.9062100000000001
 30
0.0
 10
-1.6559300000000001
 20
0.9062100000000001
 30
0.0
 10
-1.6559300000000001
 20
0.9062100000000001
 30
0.0
 10
-1.7753100000000002
 20
0.9519300000000001
 30
0.0
 10
-1.9175500000000001
 20
0.8604900000000001
 30
0.0
 10
-2.0420100000000003
 20
0.85287
 30
0.0
 10
-2.0420100000000003
 20
0.85287
 30
0.0
 10
-1.6203700000000001
 20
1.1297300000000001
 30
0.0
 10
-1.07935
 20
0.91383
 30
0.0
 10
-0.59421
 20
0.97733
 30
0.0
  0
SPLINE
  5
37
100
AcDbEntity
  8
Ebene 1
 62
     7
100
AcDbSpline
210
0.0
220
0.0
230
1.0
 70
     1
 71
     3
 72
    24
 73
    20
 74
     0
 42
0.0000000001
 43
0.0000000001
 40
0.0
 40
0.0
 40
0.0
 40
0.0
 40
0.2
 40
0.2
 40
0.2
 40
0.2
 40
0.4
 40
0.4
 40
0.4
 40
0.4
 40
0.6000000000000001
 40
0.6000000000000001
 40
0.6000000000000001
 40
0.6000000000000001
 40
0.8
 40
0.8
 40
0.8
 40
0.8
 40
1.0
 40
1.0
 40
1.0
 40
1.0
 10
0.8993000000000001
 20
0.7309500000000001
 30
0.0
 10
1.0034400000000001
 20
0.6064900000000001
 30
0.0
 10
0.9653400000000001
 20
0.37281
 30
0.0
 10
0.9704200000000001
 20
0.19755
 30
0.0
 10
0.9704200000000001
 20
0.19755
 30
0.0
 10
0.9704200000000001
 20
0.19755
 30
0.0
 10
0.9297800000000001
 20
0.3677300000000001
 30
0.0
 10
0.9297800000000001
 20
0.3677300000000001
 30
0.0
 10
0.9297800000000001
 20
0.3677300000000001
 30
0.0
 10
0.9297800000000001
 20
0.3905900000000001
 30
0.0
 10
0.9374000000000001
 20
0.43377
 30
0.0
 10
0.9043800000000001
 20
0.43885
 30
0.0
 10
0.9043800000000001
 20
0.43885
 30
0.0
 10
0.8764400000000001
 20
0.27883
 30
0.0
 10
0.8967600000000001
 20
0.05531
 30
0.0
 10
0.785
 20
-0.0793
 30
0.0
 10
0.785
 20
-0.0793
 30
0.0
 10
0.7113400000000001
 20
0.18739
 30
0.0
 10
0.7951600000000001
 20
0.47949
 30
0.0
 10
0.8993000000000001
 20
0.7309500000000001
 30
0.0
  0
SPLINE
  5
38
100
AcDbEntity
  8
Ebene 1
100
AcDbSpline
210
0.0
220
0.0
230
1.0
 70
     1
 71
     3
 72
    60
 73
    56
 74
     0
 42
0.0000000001
 43
0.0000000001
 40
0.0
 40
0.0
 40
0.0
 40
0.0
 40
0.0714285714285714
 40
0.0714285714285714
 40
0.0714285714285714
 40
0.0714285714285714
 40
0.1428571428571429
 40
0.1428571428571429
 40
0.1428571428571429
 40
0.1428571428571429
 40
0.2142857142857143
 40
0.2142857142857143
 40
0.2142857142857143
 40
0.2142857142857143
 40
0.2857142857142857
 40
0.2857142857142857
 40
0.2857142857142857
 40
0.2857142857142857
 40
0.3571428571428571
 40
0.3571428571428571
 40
0.3571428571428571
 40
0.3571428571428571
 40
0.4285714285714285
 40
0.4285714285714285
 40
0.4285714285714285
 40
0.4285714285714285
 40
0.4999999999999999
 40
0.4999999999999999
 40
0.4999999999999999
 40
0.4999999999999999
 40
0.5714285714285713
 40
0.5714285714285713
 40
0.5714285714285713
 40
0.5714285714285713
 40
0.6428571428571427
 40
0.6428571428571427
 40
0.6428571428571427
 40
0.6428571428571427
 40
0.7142857142857141
 40
0.7142857142857141
 40
0.7142857142857141
 40
0.7142857142857141
 40
0.7857142857142855
 40
0.7857142857142855
 40
0.7857142857142855
 40
0.7857142857142855
 40
0.8571428571428569
 40
0.8571428571428569
 40
0.8571428571428569
 40
0.8571428571428569
 40
0.9285714285714283
 40
0.9285714285714283
 40
0.9285714285714283
 40
0.9285714285714283
 40
1.0
 40
1.0
 40
1.0
 40
1.0
 10
-0.36053
 20
0.6445900000000001
 30
0.0
 10
-0.31481
 20
0.50997
 30
0.0
 10
-0.48753
 20
0.30423
 30
0.0
 10
-0.55357
 20
0.15437
 30
0.0
 10
-0.55357
 20
0.15437
 30
0.0
 10
-0.55357
 20
0.15437
 30
0.0
 10
-0.5383300000000001
 20
0.36519
 30
0.0
 10
-0.5383300000000001
 20
0.36519
 30
0.0
 10
-0.5383300000000001
 20
0.36519
 30
0.0
 10
-0.74153
 20
0.29661
 30
0.0
 10
-0.76439
 20
0.04769
 30
0.0
 10
-0.8380500000000001
 20
-0.1047
 30
0.0
 10
-0.8380500000000001
 20
-0.1047
 30
0.0
 10
-0.8532900000000001
 20
0.01721
 30
0.0
 10
-0.70089
 20
0.3372500000000001
 30
0.0
 10
-0.9396500000000001
 20
0.23311
 30
0.0
 10
-0.9396500000000001
 20
0.23311
 30
0.0
 10
-0.97267
 20
-0.20376
 30
0.0
 10
-0.9244100000000001
 20
-0.7270000000000001
 30
0.0
 10
-1.24953
 20
-1.0622800000000001
 30
0.0
 10
-1.24953
 20
-1.0622800000000001
 30
0.0
 10
-1.2215900000000002
 20
-0.9657600000000001
 30
0.0
 10
-1.07935
 20
-0.82352
 30
0.0
 10
-1.1606300000000001
 20
-0.6889000000000001
 30
0.0
 10
-1.1606300000000001
 20
-0.6889000000000001
 30
0.0
 10
-1.3231900000000001
 20
-0.9327400000000001
 30
0.0
 10
-1.6178300000000001
 20
-0.9733800000000001
 30
0.0
 10
-1.8540500000000002
 20
-0.8667
 30
0.0
 10
-1.8540500000000002
 20
-0.8667
 30
0.0
 10
-1.9175500000000001
 20
-1.1740400000000002
 30
0.0
 10
-1.6940300000000001
 20
-1.37724
 30
0.0
 10
-1.4400300000000001
 20
-1.1562600000000001
 30
0.0
 10
-1.4400300000000001
 20
-1.1562600000000001
 30
0.0
 10
-1.3993900000000001
 20
-1.1867400000000001
 30
0.0
 10
-1.46289
 20
-1.1969000000000001
 30
0.0
 10
-1.4755900000000002
 20
-1.2172200000000002
 30
0.0
 10
-1.4755900000000002
 20
-1.2172200000000002
 30
0.0
 10
-1.4755900000000002
 20
-1.2172200000000002
 30
0.0
 10
-1.7702300000000002
 20
-1.3442200000000002
 30
0.0
 10
-1.7702300000000002
 20
-1.3442200000000002
 30
0.0
 10
-1.7702300000000002
 20
-1.3442200000000002
 30
0.0
 10
-1.9708900000000003
 20
-1.0495800000000002
 30
0.0
 10
-2.0445500000000001
 20
-0.6863600000000001
 30
0.0
 10
-2.05979
 20
-0.32822
 30
0.0
 10
-2.05979
 20
-0.32822
 30
0.0
 10
-1.9429500000000002
 20
0.07309
 30
0.0
 10
-1.5365500000000001
 20
0.36265
 30
0.0
 10
-1.1022100000000001
 20
0.28137
 30
0.0
 10
-1.1022100000000001
 20
0.28137
 30
0.0
 10
-1.1022100000000001
 20
0.28137
 30
0.0
 10
-0.7999500000000001
 20
0.31439
 30
0.0
 10
-0.7999500000000001
 20
0.31439
 30
0.0
 10
-0.7999500000000001
 20
0.31439
 30
0.0
 10
-0.6450100000000001
 20
0.40837
 30
0.0
 10
-0.44435
 20
0.46679
 30
0.0
 10
-0.36053
 20
0.6445900000000001
 30
0.0
  0
SPLINE
  5
39
100
AcDbEntity
  8
Ebene 1
 62
     7
100
AcDbSpline
210
0.0
220
0.0
230
1.0
 70
     1
 71
     3
 72
    20
 73
    16
 74
     0
 42
0.0000000001
 43
0.0000000001
 40
0.0
 40
0.0
 40
0.0
 40
0.0
 40
0.25
 40
0.25
 40
0.25
 40
0.25
 40
0.5
 40
0.5
 40
0.5
 40
0.5
 40
0.75
 40
0.75
 40
0.75
 40
0.75
 40
1.0
 40
1.0
 40
1.0
 40
1.0
 10
-1.75753
 20
0.03499
 30
0.0
 10
-1.71435
 20
0.04261
 30
0.0
 10
-1.7397500000000001
 20
0.01467
 30
0.0
 10
-1.7448300000000001
 20
-0.0031
 30
0.0
 10
-1.7448300000000001
 20
-0.0031
 30
0.0
 10
-2.0140700000000002
 20
-0.26726
 30
0.0
 10
-1.7778500000000002
 20
-0.7651000000000001
 30
0.0
 10
-1.4400300000000001
 20
-0.80066
 30
0.0
 10
-1.4400300000000001
 20
-0.80066
 30
0.0
 10
-1.7067300000000001
 20
-0.9581400000000001
 30
0.0
 10
-1.8997700000000002
 20
-0.6228600000000001
 30
0.0
 10
-1.9886700000000002
 20
-0.4145800000000001
 30
0.0
 10
-1.9886700000000002
 20
-0.4145800000000001
 30
0.0
 10
-1.9785100000000002
 20
-0.23932
 30
0.0
 10
-1.8769100000000001
 20
-0.08946
 30
0.0
 10
-1.75753
 20
0.03499
 30
0.0
  0
SPLINE
  5
3A
100
AcDbEntity
  8
Ebene 1
 62
     7
100
AcDbSpline
210
0.0
220
0.0
230
1.0
 70
     1
 71
     3
 72
   208
 73
   204
 74
     0
 42
0.0000000001
 43
0.0000000001
 40
0.0
 40
0.0
 40
0.0
 40
0.0
 40
0.0196078431372549
 40
0.0196078431372549
 40
0.0196078431372549
 40
0.0196078431372549
 40
0.0392156862745098
 40
0.0392156862745098
 40
0.0392156862745098
 40
0.0392156862745098
 40
0.0588235294117647
 40
0.0588235294117647
 40
0.0588235294117647
 40
0.0588235294117647
 40
0.0784313725490196
 40
0.0784313725490196
 40
0.0784313725490196
 40
0.0784313725490196
 40
0.0980392156862745
 40
0.0980392156862745
 40
0.0980392156862745
 40
0.0980392156862745
 40
0.1176470588235294
 40
0.1176470588235294
 40
0.1176470588235294
 40
0.1176470588235294
 40
0.1372549019607843
 40
0.1372549019607843
 40
0.1372549019607843
 40
0.1372549019607843
 40
0.1568627450980392
 40
0.1568627450980392
 40
0.1568627450980392
 40
0.1568627450980392
 40
0.1764705882352941
 40
0.1764705882352941
 40
0.1764705882352941
 40
0.1764705882352941
 40
0.196078431372549
 40
0.196078431372549
 40
0.196078431372549
 40
0.196078431372549
 40
0.2156862745098039
 40
0.2156862745098039
 40
0.2156862745098039
 40
0.2156862745098039
 40
0.2352941176470588
 40
0.2352941176470588
 40
0.2352941176470588
 40
0.2352941176470588
 40
0.2549019607843137
 40
0.2549019607843137
 40
0.2549019607843137
 40
0.2549019607843137
 40
0.2745098039215685
 40
0.2745098039215685
 40
0.2745098039215685
 40
0.2745098039215685
 40
0.2941176470588234
 40
0.2941176470588234
 40
0.2941176470588234
 40
0.2941176470588234
 40
0.3137254901960783
 40
0.3137254901960783
 40
0.3137254901960783
 40
0.3137254901960783
 40
0.3333333333333332
 40
0.3333333333333332
 40
0.3333333333333332
 40
0.3333333333333332
 40
0.3529411764705881
 40
0.3529411764705881
 40
0.3529411764705881
 40
0.3529411764705881
 40
0.372549019607843
 40
0.372549019607843
 40
0.372549019607843
 40
0.372549019607843
 40
0.3921568627450979
 40
0.3921568627450979
 40
0.3921568627450979
 40
0.3921568627450979
 40
0.4117647058823528
 40
0.4117647058823528
 40
0.4117647058823528
 40
0.4117647058823528
 40
0.4313725490196076
 40
0.4313725490196076
 40
0.4313725490196076
 40
0.4313725490196076
 40
0.4509803921568625
 40
0.4509803921568625
 40
0.4509803921568625
 40
0.4509803921568625
 40
0.4705882352941174
 40
0.4705882352941174
 40
0.4705882352941174
 40
0.4705882352941174
 40
0.4901960784313723
 40
0.4901960784313723
 40
0.4901960784313723
 40
0.4901960784313723
 40
0.5098039215686272
 40
0.5098039215686272
 40
0.5098039215686272
 40
0.5098039215686272
 40
0.5294117647058821
 40
0.5294117647058821
 40
0.5294117647058821
 40
0.5294117647058821
 40
0.5490196078431371
 40
0.5490196078431371
 40
0.5490196078431371
 40
0.5490196078431371
 40
0.568627450980392
 40
0.568627450980392
 40
0.568627450980392
 40
0.568627450980392
 40
0.588235294117647
 40
0.588235294117647
 40
0.588235294117647
 40
0.588235294117647
 40
0.6078431372549019
 40
0.6078431372549019
 40
0.6078431372549019
 40
0.6078431372549019
 40
0.6274509803921569
 40
0.6274509803921569
 40
0.6274509803921569
 40
0.6274509803921569
 40
0.6470588235294118
 40
0.6470588235294118
 40
0.6470588235294118
 40
0.6470588235294118
 40
0.6666666666666667
 40
0.6666666666666667
 40
0.6666666666666667
 40
0.6666666666666667
 40
0.6862745098039217
 40
0.6862745098039217
 40
0.6862745098039217
 40
0.6862745098039217
 40
0.7058823529411766
 40
0.7058823529411766
 40
0.7058823529411766
 40
0.7058823529411766
 40
0.7254901960784316
 40
0.7254901960784316
 40
0.7254901960784316
 40
0.7254901960784316
 40
0.7450980392156865
 40
0.7450980392156865
 40
0.7450980392156865
 40
0.7450980392156865
 40
0.7647058823529415
 40
0.7647058823529415
 40
0.7647058823529415
 40
0.7647058823529415
 40
0.7843137254901964
 40
0.7843137254901964
 40
0.7843137254901964
 40
0.7843137254901964
 40
0.8039215686274513
 40
0.8039215686274513
 40
0.8039215686274513
 40
0.8039215686274513
 40
0.8235294117647063
 40
0.8235294117647063
 40
0.8235294117647063
 40
0.8235294117647063
 40
0.8431372549019612
 40
0.8431372549019612
 40
0.8431372549019612
 40
0.8431372549019612
 40
0.8627450980392162
 40
0.8627450980392162
 40
0.8627450980392162
 40
0.8627450980392162
 40
0.8823529411764711
 40
0.8823529411764711
 40
0.8823529411764711
 40
0.8823529411764711
 40
0.9019607843137261
 40
0.9019607843137261
 40
0.9019607843137261
 40
0.9019607843137261
 40
0.921568627450981
 40
0.921568627450981
 40
0.921568627450981
 40
0.921568627450981
 40
0.941176470588236
 40
0.941176470588236
 40
0.941176470588236
 40
0.941176470588236
 40
0.9607843137254909
 40
0.9607843137254909
 40
0.9607843137254909
 40
0.9607843137254909
 40
0.9803921568627458
 40
0.9803921568627458
 40
0.9803921568627458
 40
0.9803921568627458
 40
1.0
 40
1.0
 40
1.0
 40
1.0
 10
-0.29449
 20
-0.8184400000000001
 30
0.0
 10
-0.07605
 20
-1.1207
 30
0.0
 10
-0.17511
 20
-1.7455400000000001
 30
0.0
 10
0.00776
 20
-2.1671800000000001
 30
0.0
 10
0.00776
 20
-2.1671800000000001
 30
0.0
 10
0.03316
 20
-2.2281400000000002
 30
0.0
 10
0.11952
 20
-2.4084800000000004
 30
0.0
 10
0.15508
 20
-2.2967200000000001
 30
0.0
 10
0.15508
 20
-2.2967200000000001
 30
0.0
 10
0.05094
 20
-2.1417800000000002
 30
0.0
 10
0.05602
 20
-1.8268200000000001
 30
0.0
 10
0.13476
 20
-1.6236200000000001
 30
0.0
 10
0.13476
 20
-1.6236200000000001
 30
0.0
 10
0.2135
 20
-1.5118600000000002
 30
0.0
 10
0.15508
 20
-1.2705600000000001
 30
0.0
 10
0.22874
 20
-1.2172200000000002
 30
0.0
 10
0.22874
 20
-1.2172200000000002
 30
0.0
 10
0.48528
 20
-1.5372600000000001
 30
0.0
 10
0.09666
 20
-2.1773400000000001
 30
0.0
 10
0.53354
 20
-2.1900400000000002
 30
0.0
 10
0.53354
 20
-2.1900400000000002
 30
0.0
 10
0.53354
 20
-2.3043400000000003
 30
0.0
 10
0.5183000000000001
 20
-2.6066000000000003
 30
0.0
 10
0.6935600000000001
 20
-2.5735800000000002
 30
0.0
 10
0.6935600000000001
 20
-2.5735800000000002
 30
0.0
 10
0.5386200000000001
 20
-2.4440400000000002
 30
0.0
 10
0.66054
 20
-2.1214600000000003
 30
0.0
 10
0.7697600000000001
 20
-1.9385800000000002
 30
0.0
 10
0.7697600000000001
 20
-1.9385800000000002
 30
0.0
 10
0.7392800000000001
 20
-2.4923000000000002
 30
0.0
 10
0.8586600000000001
 20
-2.60914
 30
0.0
 10
1.3895200000000001
 20
-2.6548600000000002
 30
0.0
 10
1.3895200000000001
 20
-2.6548600000000002
 30
0.0
 10
1.3946000000000001
 20
-2.7691600000000003
 30
0.0
 10
1.3488800000000001
 20
-2.9952200000000002
 30
0.0
 10
1.5089000000000001
 20
-3.0282400000000003
 30
0.0
 10
1.5089000000000001
 20
-3.0282400000000003
 30
0.0
 10
1.3819000000000001
 20
-2.8733000000000004
 30
0.0
 10
1.4530200000000002
 20
-2.5735800000000002
 30
0.0
 10
1.5800200000000002
 20
-2.4084800000000004
 30
0.0
 10
1.5800200000000002
 20
-2.4084800000000004
 30
0.0
 10
1.7095600000000002
 20
-2.6370800000000001
 30
0.0
 10
1.6587600000000002
 20
-2.9571200000000002
 30
0.0
 10
1.6740000000000002
 20
-3.1857200000000003
 30
0.0
 10
1.6740000000000002
 20
-3.1857200000000003
 30
0.0
 10
1.6740000000000002
 20
-3.1857200000000003
 30
0.0
 10
1.7679800000000001
 20
-2.9850600000000003
 30
0.0
 10
1.7679800000000001
 20
-2.9850600000000003
 30
0.0
 10
1.7679800000000001
 20
-2.9850600000000003
 30
0.0
 10
2.09056
 20
-3.1171400000000005
 30
0.0
 10
2.2328000000000001
 20
-3.2289000000000003
 30
0.0
 10
2.4055200000000001
 20
-3.4625800000000004
 30
0.0
 10
2.4055200000000001
 20
-3.4625800000000004
 30
0.0
 10
2.45886
 20
-3.5362400000000003
 30
0.0
 10
2.5553800000000004
 20
-3.6048200000000001
 30
0.0
 10
2.6112600000000001
 20
-3.6937200000000003
 30
0.0
 10
2.6112600000000001
 20
-3.6937200000000003
 30
0.0
 10
2.6011000000000002
 20
-3.3609800000000001
 30
0.0
 10
2.2734400000000003
 20
-3.2822400000000003
 30
0.0
 10
2.4944200000000003
 20
-2.94442
 30
0.0
 10
2.4944200000000003
 20
-2.94442
 30
0.0
 10
2.4969600000000001
 20
-3.3000200000000004
 30
0.0
 10
2.6569800000000003
 20
-3.4930600000000003
 30
0.0
 10
2.8906600000000005
 20
-3.6505400000000003
 30
0.0
 10
2.8906600000000005
 20
-3.6505400000000003
 30
0.0
 10
2.9694000000000003
 20
-3.7038800000000003
 30
0.0
 10
2.9973400000000003
 20
-3.8054800000000002
 30
0.0
 10
3.2056200000000001
 20
-3.7953200000000002
 30
0.0
 10
3.2056200000000001
 20
-3.7953200000000002
 30
0.0
 10
3.2056200000000001
 20
-3.7953200000000002
 30
0.0
 10
3.0760800000000001
 20
-3.7013400000000005
 30
0.0
 10
3.0760800000000001
 20
-3.7013400000000005
 30
0.0
 10
3.0760800000000001
 20
-3.7013400000000005
 30
0.0
 10
3.01004
 20
-3.6175200000000003
 30
0.0
 10
3.0329000000000002
 20
-3.4981400000000002
 30
0.0
 10
3.0913200000000001
 20
-3.4244800000000004
 30
0.0
 10
3.0913200000000001
 20
-3.4244800000000004
 30
0.0
 10
3.3097600000000003
 20
-3.9680400000000002
 30
0.0
 10
3.8253800000000004
 20
-3.5870400000000005
 30
0.0
 10
4.0666800000000007
 20
-3.3482800000000004
 30
0.0
 10
4.0666800000000007
 20
-3.3482800000000004
 30
0.0
 10
4.0285800000000007
 20
-3.3101800000000003
 30
0.0
 10
3.9854000000000003
 20
-3.4092400000000005
 30
0.0
 10
3.9396800000000005
 20
-3.4016200000000003
 30
0.0
 10
3.9396800000000005
 20
-3.4016200000000003
 30
0.0
 10
3.9498400000000005
 20
-3.0028400000000004
 30
0.0
 10
3.9777800000000005
 20
-2.5304000000000002
 30
0.0
 10
4.0082599999999999
 20
-2.1138400000000002
 30
0.0
 10
4.0082599999999999
 20
-2.1138400000000002
 30
0.0
 10
4.0082599999999999
 20
-2.1138400000000002
 30
0.0
 10
4.0819200000000002
 20
-2.5913600000000003
 30
0.0
 10
4.0819200000000002
 20
-2.5913600000000003
 30
0.0
 10
4.0819200000000002
 20
-2.5913600000000003
 30
0.0
 10
4.1632000000000007
 20
-2.9088600000000002
 30
0.0
 10
3.9854000000000003
 20
-3.6810200000000002
 30
0.0
 10
4.3613200000000001
 20
-3.6048200000000001
 30
0.0
 10
4.3613200000000001
 20
-3.6048200000000001
 30
0.0
 10
4.5010200000000005
 20
-3.7521400000000003
 30
0.0
 10
4.3917999999999999
 20
-3.5819600000000005
 30
0.0
 10
4.37148
 20
-3.4930600000000003
 30
0.0
 10
4.37148
 20
-3.4930600000000003
 30
0.0
 10
4.37148
 20
-3.4524200000000005
 30
0.0
 10
4.3791000000000002
 20
-3.4117800000000003
 30
0.0
 10
4.4045000000000005
 20
-3.3813000000000004
 30
0.0
 10
4.4045000000000005
 20
-3.3813000000000004
 30
0.0
 10
4.5213400000000004
 20
-3.5286200000000001
 30
0.0
 10
4.4298999999999999
 20
-3.6683200000000005
 30
0.0
 10
4.6153200000000005
 20
-3.5845000000000002
 30
0.0
 10
4.6153200000000005
 20
-3.5845000000000002
 30
0.0
 10
4.6153200000000005
 20
-3.5845000000000002
 30
0.0
 10
4.5645200000000008
 20
-3.5260800000000003
 30
0.0
 10
4.5645200000000008
 20
-3.5260800000000003
 30
0.0
 10
4.5645200000000008
 20
-3.5260800000000003
 30
0.0
 10
4.5645200000000008
 20
-3.5260800000000003
 30
0.0
 10
4.5797600000000003
 20
-3.4397200000000003
 30
0.0
 10
4.5797600000000003
 20
-3.4397200000000003
 30
0.0
 10
4.5797600000000003
 20
-3.4397200000000003
 30
0.0
 10
4.9252000000000002
 20
-3.6607000000000003
 30
0.0
 10
4.8083600000000004
 20
-2.6701000000000001
 30
0.0
 10
4.8261400000000005
 20
-2.35006
 30
0.0
 10
4.8261400000000005
 20
-2.35006
 30
0.0
 10
4.8921800000000006
 20
-2.48468
 30
0.0
 10
4.8921800000000006
 20
-2.6624800000000004
 30
0.0
 10
4.8947200000000004
 20
-2.8250400000000004
 30
0.0
 10
4.8947200000000004
 20
-2.8250400000000004
 30
0.0
 10
4.8947200000000004
 20
-3.0003000000000002
 30
0.0
 10
4.8998000000000008
 20
-3.1781000000000001
 30
0.0
 10
4.8617000000000008
 20
-3.3432000000000004
 30
0.0
 10
4.8617000000000008
 20
-3.3432000000000004
 30
0.0
 10
4.8210600000000001
 20
-3.6886400000000004
 30
0.0
 10
4.9937800000000001
 20
-3.9832800000000002
 30
0.0
 10
4.9353600000000002
 20
-4.3312600000000003
 30
0.0
 10
4.9353600000000002
 20
-4.3312600000000003
 30
0.0
 10
4.8693200000000001
 20
-4.2804600000000006
 30
0.0
 10
4.8083600000000004
 20
-4.0670999999999999
 30
0.0
 10
4.6508800000000008
 20
-4.1077400000000006
 30
0.0
 10
4.6508800000000008
 20
-4.1077400000000006
 30
0.0
 10
4.8185200000000004
 20
-4.0798000000000005
 30
0.0
 10
4.87948
 20
-3.9731200000000002
 30
0.0
 10
4.6331000000000007
 20
-3.9578800000000003
 30
0.0
 10
4.6331000000000007
 20
-3.9578800000000003
 30
0.0
 10
4.2749600000000001
 20
-4.0721800000000004
 30
0.0
 10
3.8609400000000003
 20
-4.2423600000000006
 30
0.0
 10
3.8888800000000003
 20
-4.6792400000000001
 30
0.0
 10
3.8888800000000003
 20
-4.6792400000000001
 30
0.0
 10
3.7822000000000005
 20
-4.1687000000000003
 30
0.0
 10
3.1954600000000002
 20
-3.9045400000000003
 30
0.0
 10
2.7458800000000001
 20
-3.8562800000000004
 30
0.0
 10
2.7458800000000001
 20
-3.8562800000000004
 30
0.0
 10
2.9414600000000002
 20
-3.9324800000000004
 30
0.0
 10
3.1827600000000005
 20
-3.9909000000000003
 30
0.0
 10
3.3554800000000005
 20
-4.13314
 30
0.0
 10
3.3554800000000005
 20
-4.13314
 30
0.0
 10
3.3554800000000005
 20
-4.13314
 30
0.0
 10
3.1421200000000002
 20
-4.1153599999999999
 30
0.0
 10
3.1421200000000002
 20
-4.1153599999999999
 30
0.0
 10
3.1421200000000002
 20
-4.1153599999999999
 30
0.0
 10
2.2785200000000003
 20
-3.6378400000000002
 30
0.0
 10
1.11266
 20
-3.8588200000000001
 30
0.0
 10
0.5056000000000001
 20
-2.9596600000000004
 30
0.0
 10
0.5056000000000001
 20
-2.9596600000000004
 30
0.0
 10
0.3354200000000001
 20
-2.8987000000000003
 30
0.0
 10
0.1627
 20
-2.7945600000000002
 30
0.0
 10
-0.01255
 20
-2.7640800000000003
 30
0.0
 10
-0.01255
 20
-2.7640800000000003
 30
0.0
 10
-0.01255
 20
-2.7640800000000003
 30
0.0
 10
-0.17257
 20
-2.8402800000000004
 30
0.0
 10
-0.17257
 20
-2.8402800000000004
 30
0.0
 10
-0.17257
 20
-2.8402800000000004
 30
0.0
 10
0.5868800000000001
 20
-2.90124
 30
0.0
 10
-0.44689
 20
-3.1857200000000003
 30
0.0
 10
-0.71867
 20
-2.9952200000000002
 30
0.0
 10
-0.71867
 20
-2.9952200000000002
 30
0.0
 10
-0.9015500000000001
 20
-2.7158200000000003
 30
0.0
 10
-0.8761500000000001
 20
-2.3526000000000002
 30
0.0
 10
-1.0107700000000002
 20
-2.05796
 30
0.0
 10
-1.0107700000000002
 20
-2.05796
 30
0.0
 10
-0.7897900000000001
 20
-1.7887200000000001
 30
0.0
 10
-0.71867
 20
-2.3322800000000004
 30
0.0
 10
-0.59675
 20
-2.4288000000000003
 30
0.0
 10
-0.59675
 20
-2.4288000000000003
 30
0.0
 10
-0.59675
 20
-2.4288000000000003
 30
0.0
 10
-0.67803
 20
-2.0351000000000004
 30
0.0
 10
-0.67803
 20
-2.0351000000000004
 30
0.0
 10
-0.67803
 20
-2.0351000000000004
 30
0.0
 10
-0.67803
 20
-2.0351000000000004
 30
0.0
 10
-0.8507500000000001
 20
-1.7684000000000002
 30
0.0
 10
-0.8507500000000001
 20
-1.7684000000000002
 30
0.0
 10
-0.8507500000000001
 20
-1.7684000000000002
 30
0.0
 10
-0.46467
 20
-1.7811000000000001
 30
0.0
 10
-0.6653300000000001
 20
-2.6624800000000004
 30
0.0
 10
-0.20305
 20
-2.3424400000000003
 30
0.0
 10
-0.20305
 20
-2.3424400000000003
 30
0.0
 10
0.03062
 20
-1.8801600000000001
 30
0.0
 10
-0.8126500000000001
 20
-1.4483600000000001
 30
0.0
 10
-0.4062500000000001
 20
-1.0826
 30
0.0
 10
-0.4062500000000001
 20
-1.0826
 30
0.0
 10
-0.28179
 20
-1.3035800000000002
 30
0.0
 10
-0.27925
 20
-1.5906000000000002
 30
0.0
 10
-0.18781
 20
-1.8217400000000001
 30
0.0
 10
-0.18781
 20
-1.8217400000000001
 30
0.0
 10
-0.18781
 20
-1.8217400000000001
 30
0.0
 10
-0.29449
 20
-0.8184400000000001
 30
0.0
 10
-0.29449
 20
-0.8184400000000001
 30
0.0
  0
SPLINE
  5
3B
100
AcDbEntity
  8
Ebene 1
 62
     7
100
AcDbSpline
210
0.0
220
0.0
230
1.0
 70
     1
 71
     3
 72
    16
 73
    12
 74
     0
 42
0.0000000001
 43
0.0000000001
 40
0.0
 40
0.0
 40
0.0
 40
0.0
 40
0.3333333333333333
 40
0.3333333333333333
 40
0.3333333333333333
 40
0.3333333333333333
 40
0.6666666666666666
 40
0.6666666666666666
 40
0.6666666666666666
 40
0.6666666666666666
 40
1.0
 40
1.0
 40
1.0
 40
1.0
 10
2.2658200000000002
 20
-0.8362200000000001
 30
0.0
 10
2.2658200000000002
 20
-0.8362200000000001
 30
0.0
 10
2.3928200000000004
 20
-0.8971800000000001
 30
0.0
 10
2.3928200000000004
 20
-0.8971800000000001
 30
0.0
 10
2.3928200000000004
 20
-0.8971800000000001
 30
0.0
 10
2.3725000000000001
 20
-0.9327400000000001
 30
0.0
 10
2.3648800000000003
 20
-0.9886200000000001
 30
0.0
 10
2.3242400000000001
 20
-1.0089400000000002
 30
0.0
 10
2.3242400000000001
 20
-1.0089400000000002
 30
0.0
 10
2.2658200000000002
 20
-0.99116
 30
0.0
 10
2.2785200000000003
 20
-0.8921000000000001
 30
0.0
 10
2.2658200000000002
 20
-0.8362200000000001
 30
0.0
  0
SPLINE
  5
3C
100
AcDbEntity
  8
Ebene 1
 62
     7
100
AcDbSpline
210
0.0
220
0.0
230
1.0
 70
     1
 71
     3
 72
    16
 73
    12
 74
     0
 42
0.0000000001
 43
0.0000000001
 40
0.0
 40
0.0
 40
0.0
 40
0.0
 40
0.3333333333333333
 40
0.3333333333333333
 40
0.3333333333333333
 40
0.3333333333333333
 40
0.6666666666666666
 40
0.6666666666666666
 40
0.6666666666666666
 40
0.6666666666666666
 40
1.0
 40
1.0
 40
1.0
 40
1.0
 10
0.08904
 20
-1.49916
 30
0.0
 10
0.06364
 20
-1.5753600000000001
 30
0.0
 10
0.08396
 20
-1.6922000000000001
 30
0.0
 10
0.01284
 20
-1.7506200000000001
 30
0.0
 10
0.01284
 20
-1.7506200000000001
 30
0.0
 10
-0.03795
 20
-1.6795000000000002
 30
0.0
 10
-0.03795
 20
-1.5017
 30
0.0
 10
-0.04049
 20
-1.4636
 30
0.0
 10
-0.04049
 20
-1.4636
 30
0.0
 10
-0.04557
 20
-1.3899400000000002
 30
0.0
 10
0.00522
 20
-1.2858000000000001
 30
0.0
 10
0.08904
 20
-1.49916
 30
0.0
  0
ENDSEC
  0
SECTION
  2
OBJECTS
  0
DICTIONARY
  5
19
100
AcDbDictionary
280
     0
281
     1
  3
ACAD_GROUP
350
1A
  3
ACAD_MLINESTYLE
350
1B
  3
ACAD_LAYOUT
350
1E
  3
ACAD_PLOTSETTINGS
350
22
  3
ACAD_PLOTSTYLENAME
350
1F
  3
ACAD_WIPEOUT_VARS
350
23
  0
DICTIONARY
  5
1A
102
{ACAD_REACTORS
330
19
102
}
100
AcDbDictionary
280
     0
281
     1
  0
DICTIONARY
  5
1B
102
{ACAD_REACTORS
330
19
102
}
100
AcDbDictionary
280
     0
281
     1
  3
Standard
350
1C
  0
MLINESTYLE
  5
1C
102
{ACAD_REACTORS
330
1B
102
}
100
AcDbMlineStyle
  2
Standard
 70
     0
  3

 62
     0
 51
90.0
 52
90.0
 71
     2
 49
0.5
 62
   256
  6
BYLAYER
 49
-0.5
 62
   256
  6
BYLAYER
  0
ACDBDICTIONARYWDFLT
  5
1F
102
{ACAD_REACTORS
330
19
102
}
100
AcDbDictionary
281
     1
  3
Normal
350
1D
100
AcDbDictionaryWithDefault
340
1D
  0
ACDBPLACEHOLDER
  5
1D
102
{ACAD_REACTORS
330
1F
102
}
  0
LAYOUT
  5
20
102
{ACAD_REACTORS
330
1E
102
}
100
AcDbPlotSettings
  1

  2

  4

  6

 40
0.0
 41
0.0
 42
0.0
 43
0.0
 44
0.0
 45
0.0
 46
0.0
 47
0.0
 48
0.0
 49
0.0
140
0.0
141
0.0
142
1.0
143
1.0
 70
  1024
 72
     0
 73
     0
 74
     0
  7

 75
     0
147
1.0
148
0.0
149
0.0
100
AcDbLayout
  1
Model
 70
     0
 71
     0
 10
0.0
 20
0.0
 11
0.0
 21
0.0
 12
0.0
 22
0.0
 32
0.0
 14
0.0
 24
0.0
 34
0.0
 15
0.0
 25
0.0
 35
0.0
146
0.0
 13
0.0
 23
0.0
 33
0.0
 16
0.0
 26
0.0
 36
0.0
 17
0.0
 27
0.0
 37
0.0
 76
     0
330
A
331
0
345
0
346
0
  0
LAYOUT
  5
21
102
{ACAD_REACTORS
330
1E
102
}
100
AcDbPlotSettings
  1

  2

  4

  6

 40
0.0
 41
0.0
 42
0.0
 43
0.0
 44
0.0
 45
0.0
 46
0.0
 47
0.0
 48
0.0
 49
0.0
140
0.0
141
0.0
142
1.0
143
1.0
 70
     0
 72
     0
 73
     0
 74
     0
  7

 75
     0
147
1.0
148
0.0
149
0.0
100
AcDbLayout
  1
Layout1
 70
     0
 71
     0
 10
0.0
 20
0.0
 11
0.0
 21
0.0
 12
0.0
 22
0.0
 32
0.0
 14
0.0
 24
0.0
 34
0.0
 15
0.0
 25
0.0
 35
0.0
146
0.0
 13
0.0
 23
0.0
 33
0.0
 16
0.0
 26
0.0
 36
0.0
 17
0.0
 27
0.0
 37
0.0
 76
     0
330
B
331
0
345
0
346
0
  0
DICTIONARY
  5
1E
102
{ACAD_REACTORS
330
19
102
}
100
AcDbDictionary
280
     0
281
     1
  3
Layout1
350
21
  3
Model
350
20
  0
DICTIONARY
  5
22
102
{ACAD_REACTORS
330
19
102
}
100
AcDbDictionary
280
     0
281
     1
  0
WIPEOUTVARIABLES
  5
23
100
AcDbWipeoutVariables
 70
     1
  0
ENDSEC
  0
EOF
