  0
SECTION
  2
HEADER
  9
$ACADVER
  1
AC1015
  9
$ACADMAINTVER
 70
     6
  9
$DWGCODEPAGE
  3
DOS850
  9
$INSBASE
 10
0.0
 20
0.0
 30
0.0
  9
$EXTMIN
 10
-4.00543
 20
-5.46918
 30
1.000000E+20
  9
$EXTMAX
 10
4.01063
 20
5.46297
 30
-1.000000E+20
  9
$LIMMIN
 10
0.0
 20
0.0
  9
$LIMMAX
 10
0.0
 20
0.0
  9
$ORTHOMODE
 70
     0
  9
$REGENMODE
 70
     1
  9
$FILLMODE
 70
     1
  9
$QTEXTMODE
 70
     0
  9
$MIRRTEXT
 70
     1
  9
$LTSCALE
 40
1.0
  9
$ATTMODE
 70
     1
  9
$TEXTSIZE
 40
0.2
  9
$TRACEWID
 40
0.05
  9
$TEXTSTYLE
  7
Standard
  9
$CLAYER
  8
0
  9
$CELTYPE
  6
Continuous
  9
$CECOLOR
 62
   256
  9
$CELTSCALE
 40
1.0
  9
$DISPSILH
 70
     0
  9
$DIMSCALE
 40
1.0
  9
$DIMASZ
 40
0.18
  9
$DIMEXO
 40
0.0625
  9
$DIMDLI
 40
0.38
  9
$DIMRND
 40
0.0
  9
$DIMDLE
 40
0.0
  9
$DIMEXE
 40
0.18
  9
$DIMTP
 40
0.0
  9
$DIMTM
 40
0.0
  9
$DIMTXT
 40
0.18
  9
$DIMCEN
 40
0.09
  9
$DIMTSZ
 40
0.0
  9
$DIMTOL
 70
     0
  9
$DIMLIM
 70
     0
  9
$DIMTIH
 70
     1
  9
$DIMTOH
 70
     1
  9
$DIMSE1
 70
     0
  9
$DIMSE2
 70
     0
  9
$DIMTAD
 70
     0
  9
$DIMZIN
 70
     0
  9
$DIMBLK
  1

  9
$DIMASO
 70
     1
  9
$DIMSHO
 70
     1
  9
$DIMPOST
  1

  9
$DIMAPOST
  1

  9
$DIMALT
 70
     0
  9
$DIMALTD
 70
     2
  9
$DIMALTF
 40
25.4
  9
$DIMLFAC
 40
1.0
  9
$DIMTOFL
 70
     0
  9
$DIMTVP
 40
0.0
  9
$DIMTIX
 70
     0
  9
$DIMSOXD
 70
     0
  9
$DIMSAH
 70
     0
  9
$DIMBLK1
  1

  9
$DIMBLK2
  1

  9
$DIMSTYLE
  2
Standard
  9
$DIMCLRD
 70
     0
  9
$DIMCLRE
 70
     0
  9
$DIMCLRT
 70
     0
  9
$DIMTFAC
 40
1.0
  9
$DIMGAP
 40
0.09
  9
$DIMJUST
 70
     0
  9
$DIMSD1
 70
     0
  9
$DIMSD2
 70
     0
  9
$DIMTOLJ
 70
     1
  9
$DIMTZIN
 70
     0
  9
$DIMALTZ
 70
     0
  9
$DIMALTTZ
 70
     0
  9
$DIMUPT
 70
     0
  9
$DIMDEC
 70
     4
  9
$DIMTDEC
 70
     4
  9
$DIMALTU
 70
     2
  9
$DIMALTTD
 70
     2
  9
$DIMTXSTY
  7
Standard
  9
$DIMAUNIT
 70
     0
  9
$DIMADEC
 70
     0
  9
$DIMALTRND
 40
0.0
  9
$DIMAZIN
 70
     0
  9
$DIMDSEP
 70
     0
  9
$DIMATFIT
 70
     3
  9
$DIMFRAC
 70
     0
  9
$DIMLDRBLK
  1

  9
$DIMLUNIT
 70
     2
  9
$DIMLWD
 70
     0
  9
$DIMLWE
 70
     0
  9
$DIMTMOVE
 70
     0
  9
$LUNITS
 70
     2
  9
$LUPREC
 70
     4
  9
$SKETCHINC
 40
0.1
  9
$FILLETRAD
 40
0.0
  9
$AUNITS
 70
     0
  9
$AUPREC
 70
     0
  9
$MENU
  1
acad
  9
$ELEVATION
 40
0.0
  9
$PELEVATION
 40
0.0
  9
$THICKNESS
 40
0.0
  9
$LIMCHECK
 70
     0
  9
$CHAMFERA
 40
0.0
  9
$CHAMFERB
 40
0.0
  9
$CHAMFERC
 40
0.0
  9
$CHAMFERD
 40
0.0
  9
$SKPOLY
 70
     0
  9
$TDCREATE
 40
0.000000000
  9
$TDUCREATE
 40
0.000000000
  9
$TDUPDATE
 40
0.000000000
  9
$TDUUPDATE
 40
0.000000000
  9
$TDINDWG
 40
0.0000000000
  9
$TDUSRTIMER
 40
0.0000000000
  9
$USRTIMER
 70
     1
  9
$ANGBASE
 50
0.0
  9
$ANGDIR
 70
     0
  9
$PDMODE
 70
     0
  9
$PDSIZE
 40
0.0
  9
$PLINEWID
 40
0.0
  9
$SPLFRAME
 70
     0
  9
$SPLINETYPE
 70
     6
  9
$SPLINESEGS
 70
     8
  9
$HANDSEED
  5
43
  9
$SURFTAB1
 70
     6
  9
$SURFTAB2
 70
     6
  9
$SURFTYPE
 70
     6
  9
$SURFU
 70
     6
  9
$SURFV
 70
     6
  9
$UCSBASE
  2

  9
$UCSNAME
  2

  9
$UCSORG
 10
0.0
 20
0.0
 30
0.0
  9
$UCSXDIR
 10
1.0
 20
0.0
 30
0.0
  9
$UCSYDIR
 10
0.0
 20
1.0
 30
0.0
  9
$UCSORTHOREF
  2

  9
$UCSORTHOVIEW
 70
     0
  9
$UCSORGTOP
 10
0.0
 20
0.0
 30
0.0
  9
$UCSORGBOTTOM
 10
0.0
 20
0.0
 30
0.0
  9
$UCSORGLEFT
 10
0.0
 20
0.0
 30
0.0
  9
$UCSORGRIGHT
 10
0.0
 20
0.0
 30
0.0
  9
$UCSORGFRONT
 10
0.0
 20
0.0
 30
0.0
  9
$UCSORGBACK
 10
0.0
 20
0.0
 30
0.0
  9
$PUCSBASE
  2

  9
$PUCSNAME
  2

  9
$PUCSORG
 10
0.0
 20
0.0
 30
0.0
  9
$PUCSXDIR
 10
1.0
 20
0.0
 30
0.0
  9
$PUCSYDIR
 10
0.0
 20
1.0
 30
0.0
  9
$PUCSORTHOREF
  2

  9
$PUCSORTHOVIEW
 70
     0
  9
$PUCSORGTOP
 10
0.0
 20
0.0
 30
0.0
  9
$PUCSORGBOTTOM
 10
0.0
 20
0.0
 30
0.0
  9
$PUCSORGLEFT
 10
0.0
 20
0.0
 30
0.0
  9
$PUCSORGRIGHT
 10
0.0
 20
0.0
 30
0.0
  9
$PUCSORGFRONT
 10
0.0
 20
0.0
 30
0.0
  9
$PUCSORGBACK
 10
0.0
 20
0.0
 30
0.0
  9
$USERI1
 70
     0
  9
$USERI2
 70
     0
  9
$USERI3
 70
     0
  9
$USERI4
 70
     0
  9
$USERI5
 70
     0
  9
$USERR1
 40
0.0
  9
$USERR2
 40
0.0
  9
$USERR3
 40
0.0
  9
$USERR4
 40
0.0
  9
$USERR5
 40
0.0
  9
$WORLDVIEW
 70
     1
  9
$SHADEDGE
 70
     3
  9
$SHADEDIF
 70
    70
  9
$TILEMODE
 70
     1
  9
$MAXACTVP
 70
    16
  9
$PINSBASE
 10
0.0
 20
0.0
 30
0.0
  9
$PLIMCHECK
 70
     0
  9
$PEXTMIN
 10
1.000000E+20
 20
1.000000E+20
 30
1.000000E+20
  9
$PEXTMAX
 10
-1.000000E+20
 20
-1.000000E+20
 30
-1.000000E+20
  9
$PLIMMIN
 10
0.0
 20
0.0
  9
$PLIMMAX
 10
12.0
 20
9.0
  9
$UNITMODE
 70
     0
  9
$VISRETAIN
 70
     0
  9
$PLINEGEN
 70
     1
  9
$PSLTSCALE
 70
     0
  9
$TREEDEPTH
 70
  3020
  9
$CMLSTYLE
  2
Standard
  9
$CMLJUST
 70
     0
  9
$CMLSCALE
 40
1.0
  9
$PROXYGRAPHICS
 70
     0
  9
$MEASUREMENT
 70
     0
  9
$CELWEIGHT
370
     0
  9
$ENDCAPS
280
     0
  9
$JOINSTYLE
280
     0
  9
$LWDISPLAY
290
     0
  9
$INSUNITS
 70
     5
  9
$HYPERLINKBASE
  1

  9
$XEDIT
290
     1
  9
$CEPSNTYPE
380
     0
  9
$PSTYLEMODE
290
     1
  9
$FINGERPRINTGUID
  2

  9
$VERSIONGUID
  2

  9
$EXTNAMES
290
     1
  9
$PSVPSCALE
 40
0.0
  0
ENDSEC
  0
SECTION
  2
CLASSES
  0
CLASS
  1
LWPOLYLINE
  2
AcDbPolyline
  3
AutoCAD 2000
 90
    32768
280
     0
281
     1
  0
CLASS
  1
IMAGE
  2
AcDbRasterImage
  3
ISM
 90
    32895
280
     0
281
     1
  0
CLASS
  1
OLE2FRAME
  2
AcDbOle2Frame
  3
AutoCAD 2000
 90
    32768
280
     0
281
     1
  0
CLASS
  1
HATCH
  2
AcDbHatch
  3
AutoCAD 2000
 90
    32768
280
     0
281
     1
  0
CLASS
  1
DICTIONARYVAR
  2
AcDbDictionaryVar
  3
AutoCAD 2000
 90
    32768
280
     0
281
     0
  0
CLASS
  1
RASTERVARIABLES
  2
AcDbRasterVariables
  3
ISM
 90
    32768
280
     0
281
     0
  0
CLASS
  1
IMAGEDEF
  2
AcDbRasterImageDef
  3
ISM
 90
    32768
280
     0
281
     0
  0
CLASS
  1
IMAGEDEF_REACTOR
  2
AcDbRasterImageDefReactor
  3
ISM
 90
    32769
280
     0
281
     0
  0
CLASS
  1
IDBUFFER
  2
AcDbIdBuffer
  3
AutoCAD 2000
 90
    32768
280
     0
281
     0
  0
CLASS
  1
SPATIAL_FILTER
  2
AcDbSpatialFilter
  3
AutoCAD 2000
 90
    32768
280
     0
281
     0
  0
CLASS
  1
XRECORD
  2
AcDbXrecord
  3
AutoCAD 2000
 90
    32768
280
     0
281
     0
  0
CLASS
  1
SORTENTSTABLE
  2
AcDbSortentsTable
  3
AutoCAD 2000
 90
    32768
280
     0
281
     0
  0
CLASS
  1
LAYER_INDEX
  2
AcDbLayerIndex
  3
AutoCAD 2000
 90
    32768
280
     0
281
     0
  0
CLASS
  1
SPATIAL_INDEX
  2
AcDbSpatialIndex
  3
AutoCAD 2000
 90
    32768
280
     0
281
     0
  0
CLASS
  1
OBJECT_PTR
  2
CAseDLPNTableRecord
  3
"ASE-LPNTableRecord"
 90
    32769
280
     0
281
     0
  0
CLASS
  1
LAYOUT
  2
AcDbLayout
  3
AutoCAD 2000
 90
        0
280
     0
281
     0
  0
CLASS
  1
PLOTSETTINGS
  2
AcDbPlotSettings
  3
AutoCAD 2000
 90
    32768
280
     0
281
     0
  0
CLASS
  1
ACDBDICTIONARYWDFLT
  2
AcDbDictionaryWithDefault
  3
AutoCAD 2000
 90
        0
280
     0
281
     0
  0
CLASS
  1
ACDBPLACEHOLDER
  2
AcDbPlaceHolder
  3
AutoCAD 2000
 90
        0
280
     0
281
     0
  0
CLASS
  1
VBA_PROJECT
  2
AcDbVbaProject
  3
acadvba
 90
    32768
280
     0
281
     0
  0
CLASS
  1
WIPEOUT
  2
AcDbWipeout
  3
WipeOut|AutoCAD Express Tool|expresstools@autodesk.com
 90
    32895
280
     0
281
     1
  0
CLASS
  1
WIPEOUTVARIABLES
  2
AcDbWipeoutVariables
  3
WipeOut|AutoCAD Express Tool|expresstools@autodesk.com
 90
        0
280
     0
281
     0
  0
CLASS
  1
RTEXT
  2
RText
  3
RText|AutoCAD Express Tool|expresstools@autodesk.com
 90
    32768
280
     0
281
     1
  0
CLASS
  1
ARCALIGNEDTEXT
  2
AcDbArcAlignedText
  3
ATEXT|AutoCAD Express Tool|expresstools@autodesk.com
 90
    32768
280
     0
281
     1
  0
ENDSEC
  0
SECTION
  2
TABLES
  0
TABLE
  2
VPORT
  5
7
100
AcDbSymbolTable
 70
     1
  0
VPORT
  5
15
100
AcDbSymbolTableRecord
100
AcDbViewportTableRecord
  2
*ACTIVE
 70
     0
 10
0.0
 20
0.0
 11
1.0
 21
1.0
 12
6.591288
 22
4.579184
 13
0.0
 23
0.0
 14
1.0
 24
1.0
 15
0.0
 25
0.0
 16
0.0
 26
0.0
 36
1.0
 17
0.0
 27
0.0
 37
0.0
 40
9.158369
 41
0.688564
 42
50.0
 43
0.0
 44
0.0
 50
0.0
 51
0.0
 71
     0
 72
   100
 73
     1
 74
     1
 75
     0
 76
     0
 77
     0
 78
     0
281
     0
 65
     0
110
0.0
120
0.0
130
0.0
111
1.0
121
0.0
131
0.0
112
0.0
122
1.0
132
0.0
345
0
346
0
 79
     0
146
0.0
  0
ENDTAB
  0
TABLE
  2
LTYPE
  5
4
100
AcDbSymbolTable
 70
     3
  0
LTYPE
  5
11
100
AcDbSymbolTableRecord
100
AcDbLinetypeTableRecord
  2
ByBlock
 70
    64
  3

 72
    65
 73
     0
 40
0.0
  0
LTYPE
  5
12
100
AcDbSymbolTableRecord
100
AcDbLinetypeTableRecord
  2
ByLayer
 70
    64
  3

 72
    65
 73
     0
 40
0.0
  0
LTYPE
  5
13
100
AcDbSymbolTableRecord
100
AcDbLinetypeTableRecord
  2
Continuous
 70
    64
  3
Solid line
 72
    65
 73
     0
 40
0.0
  0
ENDTAB
  0
TABLE
  2
LAYER
  5
2
100
AcDbSymbolTable
 70
     2
  0
LAYER
  5
14
100
AcDbSymbolTableRecord
100
AcDbLayerTableRecord
  2
0
 70
     0
 62
     7
  6
Continuous
290
     1
370
    -3
390
1D
  0
LAYER
  5
24
100
AcDbSymbolTableRecord
100
AcDbLayerTableRecord
  2
Ebene 1
 70
     0
 62
     7
  6
Continuous
290
     1
370
    -3
390
1F
  0
ENDTAB
  0
TABLE
  2
STYLE
  5
3
100
AcDbSymbolTable
 70
     1
  0
STYLE
  5
17
100
AcDbSymbolTableRecord
100
AcDbTextStyleTableRecord
  2
Standard
 70
     0
 40
0.0
 41
1.0
 50
0.0
 71
     0
 42
0.0
  3
txt
  4

  0
ENDTAB
  0
TABLE
  2
VIEW
  5
5
100
AcDbSymbolTable
 70
     0
  0
ENDTAB
  0
TABLE
  2
UCS
  5
6
100
AcDbSymbolTable
 70
     0
  0
ENDTAB
  0
TABLE
  2
APPID
  5
8
100
AcDbSymbolTable
 70
     1
  0
APPID
  5
16
100
AcDbSymbolTableRecord
100
AcDbRegAppTableRecord
  2
ACAD
 70
     0
  0
ENDTAB
  0
TABLE
  2
DIMSTYLE
  5
9
100
AcDbSymbolTable
 70
     1
100
AcDbDimStyleTable
 71
     0
  0
DIMSTYLE
105
18
100
AcDbSymbolTableRecord
100
AcDbDimStyleTableRecord
  2
Standard
 70
     0
  3

  4

 40
1.0
 41
0.18
 42
0.0625
 43
0.38
 44
0.18
 45
0.0
 46
0.0
 47
0.0
 48
0.0
 71
     0
 72
     0
 73
     1
 74
     1
 75
     0
 76
     0
 77
     0
 78
     0
 79
     0
140
0.18
141
0.09
142
0.0
143
25.4
144
1.0
145
0.0
146
1.0
147
0.09
148
0.0
170
     0
171
     2
172
     0
173
     0
174
     0
175
     0
176
     0
177
     0
178
     0
179
     0
271
     4
272
     4
273
     2
274
     2
275
     0
276
     0
277
     2
278
    46
279
     0
280
     0
281
     0
282
     0
283
     1
284
     0
285
     0
286
     0
288
     0
340
17
341
0
342
0
343
0
344
0
371
    -2
372
    -2
  0
ENDTAB
  0
TABLE
  2
BLOCK_RECORD
  5
1
100
AcDbSymbolTable
 70
     0
  0
BLOCK_RECORD
  5
A
100
AcDbSymbolTableRecord
100
AcDbBlockTableRecord
  2
*MODEL_SPACE
340
20
  0
BLOCK_RECORD
  5
B
100
AcDbSymbolTableRecord
100
AcDbBlockTableRecord
  2
*PAPER_SPACE
340
21
  0
ENDTAB
  0
ENDSEC
  0
SECTION
  2
BLOCKS
  0
BLOCK
  5
D
100
AcDbEntity
  8
0
100
AcDbBlockBegin
  2
*MODEL_SPACE
 70
     0
 10
0.0
 20
0.0
 30
0.0
  3
*MODEL_SPACE
  1

  0
ENDBLK
  5
E
100
AcDbEntity
  8
0
100
AcDbBlockEnd
  0
BLOCK
  5
F
100
AcDbEntity
 67
     1
  8
0
100
AcDbBlockBegin
  2
*PAPER_SPACE
 70
     0
 10
0.0
 20
0.0
 30
0.0
  3
*PAPER_SPACE
  1

  0
ENDBLK
  5
10
100
AcDbEntity
 67
     1
  8
0
100
AcDbBlockEnd
  0
ENDSEC
  0
SECTION
  2
ENTITIES
  0
SPLINE
  5
25
100
AcDbEntity
  8
Ebene 1
100
AcDbSpline
210
0.0
220
0.0
230
1.0
 70
     1
 71
     3
 72
   144
 73
   140
 74
     0
 42
0.0000000001
 43
0.0000000001
 40
0.0
 40
0.0
 40
0.0
 40
0.0
 40
0.0285714285714286
 40
0.0285714285714286
 40
0.0285714285714286
 40
0.0285714285714286
 40
0.0571428571428571
 40
0.0571428571428571
 40
0.0571428571428571
 40
0.0571428571428571
 40
0.0857142857142857
 40
0.0857142857142857
 40
0.0857142857142857
 40
0.0857142857142857
 40
0.1142857142857143
 40
0.1142857142857143
 40
0.1142857142857143
 40
0.1142857142857143
 40
0.1428571428571429
 40
0.1428571428571429
 40
0.1428571428571429
 40
0.1428571428571429
 40
0.1714285714285714
 40
0.1714285714285714
 40
0.1714285714285714
 40
0.1714285714285714
 40
0.2
 40
0.2
 40
0.2
 40
0.2
 40
0.2285714285714286
 40
0.2285714285714286
 40
0.2285714285714286
 40
0.2285714285714286
 40
0.2571428571428572
 40
0.2571428571428572
 40
0.2571428571428572
 40
0.2571428571428572
 40
0.2857142857142858
 40
0.2857142857142858
 40
0.2857142857142858
 40
0.2857142857142858
 40
0.3142857142857143
 40
0.3142857142857143
 40
0.3142857142857143
 40
0.3142857142857143
 40
0.3428571428571429
 40
0.3428571428571429
 40
0.3428571428571429
 40
0.3428571428571429
 40
0.3714285714285715
 40
0.3714285714285715
 40
0.3714285714285715
 40
0.3714285714285715
 40
0.4000000000000001
 40
0.4000000000000001
 40
0.4000000000000001
 40
0.4000000000000001
 40
0.4285714285714287
 40
0.4285714285714287
 40
0.4285714285714287
 40
0.4285714285714287
 40
0.4571428571428572
 40
0.4571428571428572
 40
0.4571428571428572
 40
0.4571428571428572
 40
0.4857142857142858
 40
0.4857142857142858
 40
0.4857142857142858
 40
0.4857142857142858
 40
0.5142857142857144
 40
0.5142857142857144
 40
0.5142857142857144
 40
0.5142857142857144
 40
0.5428571428571429
 40
0.5428571428571429
 40
0.5428571428571429
 40
0.5428571428571429
 40
0.5714285714285715
 40
0.5714285714285715
 40
0.5714285714285715
 40
0.5714285714285715
 40
0.6000000000000001
 40
0.6000000000000001
 40
0.6000000000000001
 40
0.6000000000000001
 40
0.6285714285714287
 40
0.6285714285714287
 40
0.6285714285714287
 40
0.6285714285714287
 40
0.6571428571428573
 40
0.6571428571428573
 40
0.6571428571428573
 40
0.6571428571428573
 40
0.6857142857142858
 40
0.6857142857142858
 40
0.6857142857142858
 40
0.6857142857142858
 40
0.7142857142857144
 40
0.7142857142857144
 40
0.7142857142857144
 40
0.7142857142857144
 40
0.742857142857143
 40
0.742857142857143
 40
0.742857142857143
 40
0.742857142857143
 40
0.7714285714285716
 40
0.7714285714285716
 40
0.7714285714285716
 40
0.7714285714285716
 40
0.8000000000000002
 40
0.8000000000000002
 40
0.8000000000000002
 40
0.8000000000000002
 40
0.8285714285714287
 40
0.8285714285714287
 40
0.8285714285714287
 40
0.8285714285714287
 40
0.8571428571428573
 40
0.8571428571428573
 40
0.8571428571428573
 40
0.8571428571428573
 40
0.8857142857142859
 40
0.8857142857142859
 40
0.8857142857142859
 40
0.8857142857142859
 40
0.9142857142857145
 40
0.9142857142857145
 40
0.9142857142857145
 40
0.9142857142857145
 40
0.9428571428571431
 40
0.9428571428571431
 40
0.9428571428571431
 40
0.9428571428571431
 40
0.9714285714285716
 40
0.9714285714285716
 40
0.9714285714285716
 40
0.9714285714285716
 40
1.0
 40
1.0
 40
1.0
 40
1.0
 10
-1.3612900000000001
 20
5.4629700000000003
 30
0.0
 10
-1.1961900000000001
 20
5.4451900000000002
 30
0.0
 10
-1.4044700000000001
 20
5.2013500000000006
 30
0.0
 10
-1.2673100000000002
 20
5.1378500000000003
 30
0.0
 10
-1.2673100000000002
 20
5.1378500000000003
 30
0.0
 10
0.57418
 20
5.7576100000000006
 30
0.0
 10
2.6722200000000003
 20
5.0870500000000005
 30
0.0
 10
3.3732600000000001
 20
3.5224100000000003
 30
0.0
 10
3.3732600000000001
 20
3.5224100000000003
 30
0.0
 10
3.4850200000000005
 20
3.5706700000000002
 30
0.0
 10
3.4951800000000004
 20
3.7992700000000004
 30
0.0
 10
3.5942400000000001
 20
3.7992700000000004
 30
0.0
 10
3.5942400000000001
 20
3.7992700000000004
 30
0.0
 10
3.6374200000000001
 20
3.4055700000000004
 30
0.0
 10
3.6145600000000004
 20
2.9813900000000002
 30
0.0
 10
3.5637600000000003
 20
2.6080100000000002
 30
0.0
 10
3.5637600000000003
 20
2.6080100000000002
 30
0.0
 10
3.6755200000000001
 20
2.46069
 30
0.0
 10
3.7517200000000002
 20
2.7705700000000002
 30
0.0
 10
3.8711000000000002
 20
2.7883500000000003
 30
0.0
 10
3.8711000000000002
 20
2.7883500000000003
 30
0.0
 10
3.8812600000000002
 20
2.2651100000000004
 30
0.0
 10
3.7212400000000003
 20
1.7266300000000001
 30
0.0
 10
3.5688400000000002
 20
1.23641
 30
0.0
 10
3.5688400000000002
 20
1.23641
 30
0.0
 10
3.7898200000000002
 20
1.4319900000000001
 30
0.0
 10
3.7999800000000001
 20
1.8739500000000002
 30
0.0
 10
3.9879400000000005
 20
2.1330300000000002
 30
0.0
 10
3.9879400000000005
 20
2.1330300000000002
 30
0.0
 10
4.1073200000000005
 20
1.1703700000000001
 30
0.0
 10
3.7364800000000002
 20
0.20771
 30
0.0
 10
3.3351600000000001
 20
-0.6050800000000001
 30
0.0
 10
3.3351600000000001
 20
-0.6050800000000001
 30
0.0
 10
3.3554800000000005
 20
-0.94798
 30
0.0
 10
3.8863400000000001
 20
-1.2426200000000001
 30
0.0
 10
3.5459800000000001
 20
-1.58552
 30
0.0
 10
3.5459800000000001
 20
-1.58552
 30
0.0
 10
3.2640400000000001
 20
-1.8141200000000002
 30
0.0
 10
2.9668600000000001
 20
-2.0097
 30
0.0
 10
2.6671400000000003
 20
-2.2052800000000001
 30
0.0
 10
2.6671400000000003
 20
-2.2052800000000001
 30
0.0
 10
2.1515200000000001
 20
-1.9766800000000002
 30
0.0
 10
1.6740000000000002
 20
-2.22052
 30
0.0
 10
1.1710800000000001
 20
-2.1722600000000001
 30
0.0
 10
1.1710800000000001
 20
-2.1722600000000001
 30
0.0
 10
1.4327000000000001
 20
-2.7920200000000004
 30
0.0
 10
1.2574400000000001
 20
-3.2822400000000003
 30
0.0
 10
1.1329800000000001
 20
-3.8689800000000005
 30
0.0
 10
1.1329800000000001
 20
-3.8689800000000005
 30
0.0
 10
1.0771000000000002
 20
-3.7724600000000001
 30
0.0
 10
1.0898000000000001
 20
-3.3635200000000003
 30
0.0
 10
0.89168
 20
-3.4117800000000003
 30
0.0
 10
0.89168
 20
-3.4117800000000003
 30
0.0
 10
0.9094600000000001
 20
-3.7877000000000005
 30
0.0
 10
0.8002400000000001
 20
-4.1788600000000002
 30
0.0
 10
0.59958
 20
-3.6911800000000001
 30
0.0
 10
0.59958
 20
-3.6911800000000001
 30
0.0
 10
0.55894
 20
-3.9680400000000002
 30
0.0
 10
0.5462400000000001
 20
-4.2601400000000007
 30
0.0
 10
0.39384
 20
-4.5065200000000001
 30
0.0
 10
0.39384
 20
-4.5065200000000001
 30
0.0
 10
0.2135
 20
-4.0010600000000007
 30
0.0
 10
0.10174
 20
-4.5878000000000005
 30
0.0
 10
-0.02779
 20
-4.8646600000000007
 30
0.0
 10
-0.02779
 20
-4.8646600000000007
 30
0.0
 10
-0.15479
 20
-4.8011600000000003
 30
0.0
 10
-0.08367
 20
-4.5065200000000001
 30
0.0
 10
-0.21321
 20
-4.39222
 30
0.0
 10
-0.21321
 20
-4.39222
 30
0.0
 10
-0.29957
 20
-4.7681400000000007
 30
0.0
 10
-0.37069
 20
-5.1745400000000004
 30
0.0
 10
-0.6272300000000001
 20
-5.4691800000000006
 30
0.0
 10
-0.6272300000000001
 20
-5.4691800000000006
 30
0.0
 10
-0.75931
 20
-5.32186
 30
0.0
 10
-0.6678700000000001
 20
-5.0450000000000008
 30
0.0
 10
-0.74153
 20
-4.8494200000000003
 30
0.0
 10
-0.74153
 20
-4.8494200000000003
 30
0.0
 10
-0.8380500000000001
 20
-4.5065200000000001
 30
0.0
 10
-0.8812300000000001
 20
-5.0119800000000003
 30
0.0
 10
-1.03617
 20
-5.0780200000000004
 30
0.0
 10
-1.03617
 20
-5.0780200000000004
 30
0.0
 10
-1.17079
 20
-4.6690800000000001
 30
0.0
 10
-1.3231900000000001
 20
-4.8341800000000008
 30
0.0
 10
-1.4273300000000002
 20
-5.1745400000000004
 30
0.0
 10
-1.4273300000000002
 20
-5.1745400000000004
 30
0.0
 10
-1.4273300000000002
 20
-5.1745400000000004
 30
0.0
 10
-1.6102100000000001
 20
-4.8646600000000007
 30
0.0
 10
-1.6102100000000001
 20
-4.8646600000000007
 30
0.0
 10
-1.6102100000000001
 20
-4.8646600000000007
 30
0.0
 10
-1.7118100000000001
 20
-5.0780200000000004
 30
0.0
 10
-1.8464300000000002
 20
-5.2888400000000004
 30
0.0
 10
-1.9658100000000001
 20
-4.9637200000000004
 30
0.0
 10
-1.9658100000000001
 20
-4.9637200000000004
 30
0.0
 10
-2.0521700000000003
 20
-5.2405800000000005
 30
0.0
 10
-2.18425
 20
-5.1262800000000004
 30
0.0
 10
-2.2299700000000002
 20
-4.8824400000000008
 30
0.0
 10
-2.2299700000000002
 20
-4.8824400000000008
 30
0.0
 10
-2.3239500000000004
 20
-5.2583600000000006
 30
0.0
 10
-2.44333
 20
-4.8164000000000007
 30
0.0
 10
-2.4992100000000002
 20
-4.6690800000000001
 30
0.0
 10
-2.4992100000000002
 20
-4.6690800000000001
 30
0.0
 10
-2.57287
 20
-4.8976800000000003
 30
0.0
 10
-2.44333
 20
-5.2405800000000005
 30
0.0
 10
-2.5652500000000003
 20
-5.4056800000000003
 30
0.0
 10
-2.5652500000000003
 20
-5.4056800000000003
 30
0.0
 10
-3.0834100000000002
 20
-4.5065200000000001
 30
0.0
 10
-2.7405100000000004
 20
-3.4117800000000003
 30
0.0
 10
-2.8319500000000004
 20
-2.4338800000000003
 30
0.0
 10
-2.8319500000000004
 20
-2.4338800000000003
 30
0.0
 10
-2.9157700000000002
 20
-2.05796
 30
0.0
 10
-3.3475700000000002
 20
-1.9766800000000002
 30
0.0
 10
-3.6422100000000004
 20
-1.7150600000000003
 30
0.0
 10
-3.6422100000000004
 20
-1.7150600000000003
 30
0.0
 10
-3.5888700000000004
 20
-1.2578600000000002
 30
0.0
 10
-3.7006300000000003
 20
-0.80066
 30
0.0
 10
-3.8581100000000004
 20
-0.37648
 30
0.0
 10
-3.8581100000000004
 20
-0.37648
 30
0.0
 10
-3.4974300000000005
 20
0.28899
 30
0.0
 10
-3.8708100000000005
 20
0.9265300000000001
 30
0.0
 10
-4.0054300000000005
 20
1.5945500000000001
 30
0.0
 10
-4.0054300000000005
 20
1.5945500000000001
 30
0.0
 10
-3.9774900000000004
 20
1.6936100000000001
 30
0.0
 10
-3.9139900000000005
 20
1.52851
 30
0.0
 10
-3.8758900000000005
 20
1.5945500000000001
 30
0.0
 10
-3.8758900000000005
 20
1.5945500000000001
 30
0.0
 10
-3.7539700000000003
 20
2.2651100000000004
 30
0.0
 10
-3.7844500000000001
 20
3.1464900000000005
 30
0.0
 10
-3.2256500000000004
 20
3.6036900000000003
 30
0.0
 10
-3.2256500000000004
 20
3.6036900000000003
 30
0.0
 10
-3.1951700000000001
 20
3.5376500000000002
 30
0.0
 10
-3.3018500000000004
 20
3.3903300000000001
 30
0.0
 10
-3.2256500000000004
 20
3.4055700000000004
 30
0.0
 10
-3.2256500000000004
 20
3.4055700000000004
 30
0.0
 10
-2.9691100000000001
 20
4.17265
 30
0.0
 10
-2.2909300000000004
 20
4.8584500000000004
 30
0.0
 10
-1.5136900000000002
 20
5.0718100000000002
 30
0.0
 10
-1.5136900000000002
 20
5.0718100000000002
 30
0.0
 10
-1.5136900000000002
 20
5.0718100000000002
 30
0.0
 10
-1.3612900000000001
 20
5.4629700000000003
 30
0.0
 10
-1.3612900000000001
 20
5.4629700000000003
 30
0.0
  0
SPLINE
  5
26
100
AcDbEntity
  8
Ebene 1
 62
     7
100
AcDbSpline
210
0.0
220
0.0
230
1.0
 70
     1
 71
     3
 72
    64
 73
    60
 74
     0
 42
0.0000000001
 43
0.0000000001
 40
0.0
 40
0.0
 40
0.0
 40
0.0
 40
0.0666666666666667
 40
0.0666666666666667
 40
0.0666666666666667
 40
0.0666666666666667
 40
0.1333333333333333
 40
0.1333333333333333
 40
0.1333333333333333
 40
0.1333333333333333
 40
0.2
 40
0.2
 40
0.2
 40
0.2
 40
0.2666666666666667
 40
0.2666666666666667
 40
0.2666666666666667
 40
0.2666666666666667
 40
0.3333333333333333
 40
0.3333333333333333
 40
0.3333333333333333
 40
0.3333333333333333
 40
0.4
 40
0.4
 40
0.4
 40
0.4
 40
0.4666666666666666
 40
0.4666666666666666
 40
0.4666666666666666
 40
0.4666666666666666
 40
0.5333333333333333
 40
0.5333333333333333
 40
0.5333333333333333
 40
0.5333333333333333
 40
0.6
 40
0.6
 40
0.6
 40
0.6
 40
0.6666666666666666
 40
0.6666666666666666
 40
0.6666666666666666
 40
0.6666666666666666
 40
0.7333333333333333
 40
0.7333333333333333
 40
0.7333333333333333
 40
0.7333333333333333
 40
0.7999999999999999
 40
0.7999999999999999
 40
0.7999999999999999
 40
0.7999999999999999
 40
0.8666666666666666
 40
0.8666666666666666
 40
0.8666666666666666
 40
0.8666666666666666
 40
0.9333333333333332
 40
0.9333333333333332
 40
0.9333333333333332
 40
0.9333333333333332
 40
1.0
 40
1.0
 40
1.0
 40
1.0
 10
0.28462
 20
5.2851700000000008
 30
0.0
 10
1.2498200000000002
 20
5.3334300000000008
 30
0.0
 10
2.2404200000000003
 20
5.0057700000000001
 30
0.0
 10
2.6671400000000003
 20
4.1091500000000005
 30
0.0
 10
2.6671400000000003
 20
4.1091500000000005
 30
0.0
 10
2.6011000000000002
 20
3.9135700000000004
 30
0.0
 10
2.5807800000000003
 20
3.6697300000000004
 30
0.0
 10
2.3902800000000002
 20
3.5376500000000002
 30
0.0
 10
2.3902800000000002
 20
3.5376500000000002
 30
0.0
 10
2.00928
 20
3.6367100000000003
 30
0.0
 10
1.7552800000000002
 20
3.9465900000000005
 30
0.0
 10
1.4911200000000002
 20
4.2234500000000006
 30
0.0
 10
1.4911200000000002
 20
4.2234500000000006
 30
0.0
 10
1.31586
 20
3.9948500000000005
 30
0.0
 10
1.4123800000000002
 20
3.5046300000000001
 30
0.0
 10
1.0339200000000002
 20
3.4716100000000001
 30
0.0
 10
1.0339200000000002
 20
3.4716100000000001
 30
0.0
 10
0.57418
 20
3.6189300000000002
 30
0.0
 10
0.5056000000000001
 20
4.17265
 30
0.0
 10
0.2008
 20
4.4850700000000003
 30
0.0
 10
0.2008
 20
4.4850700000000003
 30
0.0
 10
0.01792
 20
3.9948500000000005
 30
0.0
 10
0.32272
 20
3.2125300000000001
 30
0.0
 10
-0.19797
 20
2.8848700000000003
 30
0.0
 10
-0.19797
 20
2.8848700000000003
 30
0.0
 10
-0.29703
 20
2.9001100000000002
 30
0.0
 10
-0.29195
 20
3.1617300000000004
 30
0.0
 10
-0.39355
 20
3.0652100000000004
 30
0.0
 10
-0.39355
 20
3.0652100000000004
 30
0.0
 10
-0.53325
 20
2.8848700000000003
 30
0.0
 10
-0.6018300000000001
 20
2.59023
 30
0.0
 10
-0.7542300000000001
 20
2.46069
 30
0.0
 10
-0.7542300000000001
 20
2.46069
 30
0.0
 10
-1.0133100000000002
 20
2.7553300000000003
 30
0.0
 10
-0.7542300000000001
 20
3.2912700000000004
 30
0.0
 10
-1.03617
 20
3.5706700000000002
 30
0.0
 10
-1.03617
 20
3.5706700000000002
 30
0.0
 10
-1.0996700000000001
 20
3.4893900000000002
 30
0.0
 10
-1.0564900000000002
 20
3.2430100000000004
 30
0.0
 10
-1.2266700000000001
 20
3.2912700000000004
 30
0.0
 10
-1.2266700000000001
 20
3.2912700000000004
 30
0.0
 10
-1.3130300000000001
 20
3.8297500000000002
 30
0.0
 10
-1.3460500000000002
 20
4.3529900000000001
 30
0.0
 10
-1.3257300000000001
 20
4.9092500000000001
 30
0.0
 10
-1.3257300000000001
 20
4.9092500000000001
 30
0.0
 10
-1.2800100000000001
 20
4.9575100000000001
 30
0.0
 10
-1.2012700000000001
 20
4.9575100000000001
 30
0.0
 10
-1.1326900000000002
 20
4.9575100000000001
 30
0.0
 10
-1.1326900000000002
 20
4.9575100000000001
 30
0.0
 10
-1.1022100000000001
 20
4.9422700000000006
 30
0.0
 10
-0.99553
 20
4.9752900000000002
 30
0.0
 10
-1.03617
 20
4.9244900000000005
 30
0.0
 10
-1.03617
 20
4.9244900000000005
 30
0.0
 10
-1.0717300000000001
 20
4.8762300000000005
 30
0.0
 10
-1.13015
 20
4.8279700000000005
 30
0.0
 10
-1.1123700000000001
 20
4.7441500000000003
 30
0.0
 10
-1.1123700000000001
 20
4.7441500000000003
 30
0.0
 10
-0.7059700000000001
 20
5.0210100000000004
 30
0.0
 10
-0.21321
 20
5.2343700000000002
 30
0.0
 10
0.28462
 20
5.2851700000000008
 30
0.0
  0
SPLINE
  5
27
100
AcDbEntity
  8
Ebene 1
 62
     7
100
AcDbSpline
210
0.0
220
0.0
230
1.0
 70
     1
 71
     3
 72
    40
 73
    36
 74
     0
 42
0.0000000001
 43
0.0000000001
 40
0.0
 40
0.0
 40
0.0
 40
0.0
 40
0.1111111111111111
 40
0.1111111111111111
 40
0.1111111111111111
 40
0.1111111111111111
 40
0.2222222222222222
 40
0.2222222222222222
 40
0.2222222222222222
 40
0.2222222222222222
 40
0.3333333333333333
 40
0.3333333333333333
 40
0.3333333333333333
 40
0.3333333333333333
 40
0.4444444444444444
 40
0.4444444444444444
 40
0.4444444444444444
 40
0.4444444444444444
 40
0.5555555555555556
 40
0.5555555555555556
 40
0.5555555555555556
 40
0.5555555555555556
 40
0.6666666666666667
 40
0.6666666666666667
 40
0.6666666666666667
 40
0.6666666666666667
 40
0.7777777777777779
 40
0.7777777777777779
 40
0.7777777777777779
 40
0.7777777777777779
 40
0.8888888888888891
 40
0.8888888888888891
 40
0.8888888888888891
 40
0.8888888888888891
 40
1.0
 40
1.0
 40
1.0
 40
1.0
 10
-1.6559300000000001
 20
4.89147
 30
0.0
 10
-1.6203700000000001
 20
4.9092500000000001
 30
0.0
 10
-1.58735
 20
4.8762300000000005
 30
0.0
 10
-1.5746500000000001
 20
4.84321
 30
0.0
 10
-1.5746500000000001
 20
4.84321
 30
0.0
 10
-1.7219700000000002
 20
4.3707700000000003
 30
0.0
 10
-1.9023100000000002
 20
3.9288100000000004
 30
0.0
 10
-1.9531100000000001
 20
3.4233500000000001
 30
0.0
 10
-1.9531100000000001
 20
3.4233500000000001
 30
0.0
 10
-2.05979
 20
3.4055700000000004
 30
0.0
 10
-1.9937500000000001
 20
3.6849700000000003
 30
0.0
 10
-2.10805
 20
3.5528900000000001
 30
0.0
 10
-2.10805
 20
3.5528900000000001
 30
0.0
 10
-2.2248900000000003
 20
3.0804500000000004
 30
0.0
 10
-2.1639300000000001
 20
2.5572100000000004
 30
0.0
 10
-2.2604500000000001
 20
2.1000100000000002
 30
0.0
 10
-2.2604500000000001
 20
2.1000100000000002
 30
0.0
 10
-2.4280900000000001
 20
2.2803500000000003
 30
0.0
 10
-2.4026900000000002
 20
2.6080100000000002
 30
0.0
 10
-2.4407900000000002
 20
2.8670900000000001
 30
0.0
 10
-2.4407900000000002
 20
2.8670900000000001
 30
0.0
 10
-2.4839700000000002
 20
3.0144100000000003
 30
0.0
 10
-2.5779500000000004
 20
2.8340700000000001
 30
0.0
 10
-2.6465300000000003
 20
2.8188300000000002
 30
0.0
 10
-2.6465300000000003
 20
2.8188300000000002
 30
0.0
 10
-2.7176500000000003
 20
3.2760300000000004
 30
0.0
 10
-2.6363700000000003
 20
3.7484700000000002
 30
0.0
 10
-2.4890500000000002
 20
4.17265
 30
0.0
 10
-2.4890500000000002
 20
4.17265
 30
0.0
 10
-2.4915900000000004
 20
4.2386900000000001
 30
0.0
 10
-2.5804900000000002
 20
4.1574100000000005
 30
0.0
 10
-2.5652500000000003
 20
4.2234500000000006
 30
0.0
 10
-2.5652500000000003
 20
4.2234500000000006
 30
0.0
 10
-2.3442700000000003
 20
4.5333300000000003
 30
0.0
 10
-1.9937500000000001
 20
4.7441500000000003
 30
0.0
 10
-1.6559300000000001
 20
4.89147
 30
0.0
  0
SPLINE
  5
28
100
AcDbEntity
  8
Ebene 1
 62
     7
100
AcDbSpline
210
0.0
220
0.0
230
1.0
 70
     1
 71
     3
 72
   424
 73
   420
 74
     0
 42
0.0000000001
 43
0.0000000001
 40
0.0
 40
0.0
 40
0.0
 40
0.0
 40
0.0095238095238095
 40
0.0095238095238095
 40
0.0095238095238095
 40
0.0095238095238095
 40
0.019047619047619
 40
0.019047619047619
 40
0.019047619047619
 40
0.019047619047619
 40
0.0285714285714286
 40
0.0285714285714286
 40
0.0285714285714286
 40
0.0285714285714286
 40
0.0380952380952381
 40
0.0380952380952381
 40
0.0380952380952381
 40
0.0380952380952381
 40
0.0476190476190476
 40
0.0476190476190476
 40
0.0476190476190476
 40
0.0476190476190476
 40
0.0571428571428571
 40
0.0571428571428571
 40
0.0571428571428571
 40
0.0571428571428571
 40
0.0666666666666667
 40
0.0666666666666667
 40
0.0666666666666667
 40
0.0666666666666667
 40
0.0761904761904762
 40
0.0761904761904762
 40
0.0761904761904762
 40
0.0761904761904762
 40
0.0857142857142857
 40
0.0857142857142857
 40
0.0857142857142857
 40
0.0857142857142857
 40
0.0952380952380952
 40
0.0952380952380952
 40
0.0952380952380952
 40
0.0952380952380952
 40
0.1047619047619048
 40
0.1047619047619048
 40
0.1047619047619048
 40
0.1047619047619048
 40
0.1142857142857143
 40
0.1142857142857143
 40
0.1142857142857143
 40
0.1142857142857143
 40
0.1238095238095238
 40
0.1238095238095238
 40
0.1238095238095238
 40
0.1238095238095238
 40
0.1333333333333333
 40
0.1333333333333333
 40
0.1333333333333333
 40
0.1333333333333333
 40
0.1428571428571428
 40
0.1428571428571428
 40
0.1428571428571428
 40
0.1428571428571428
 40
0.1523809523809523
 40
0.1523809523809523
 40
0.1523809523809523
 40
0.1523809523809523
 40
0.1619047619047619
 40
0.1619047619047619
 40
0.1619047619047619
 40
0.1619047619047619
 40
0.1714285714285714
 40
0.1714285714285714
 40
0.1714285714285714
 40
0.1714285714285714
 40
0.1809523809523809
 40
0.1809523809523809
 40
0.1809523809523809
 40
0.1809523809523809
 40
0.1904761904761904
 40
0.1904761904761904
 40
0.1904761904761904
 40
0.1904761904761904
 40
0.1999999999999999
 40
0.1999999999999999
 40
0.1999999999999999
 40
0.1999999999999999
 40
0.2095238095238095
 40
0.2095238095238095
 40
0.2095238095238095
 40
0.2095238095238095
 40
0.219047619047619
 40
0.219047619047619
 40
0.219047619047619
 40
0.219047619047619
 40
0.2285714285714285
 40
0.2285714285714285
 40
0.2285714285714285
 40
0.2285714285714285
 40
0.238095238095238
 40
0.238095238095238
 40
0.238095238095238
 40
0.238095238095238
 40
0.2476190476190475
 40
0.2476190476190475
 40
0.2476190476190475
 40
0.2476190476190475
 40
0.2571428571428571
 40
0.2571428571428571
 40
0.2571428571428571
 40
0.2571428571428571
 40
0.2666666666666666
 40
0.2666666666666666
 40
0.2666666666666666
 40
0.2666666666666666
 40
0.2761904761904762
 40
0.2761904761904762
 40
0.2761904761904762
 40
0.2761904761904762
 40
0.2857142857142857
 40
0.2857142857142857
 40
0.2857142857142857
 40
0.2857142857142857
 40
0.2952380952380952
 40
0.2952380952380952
 40
0.2952380952380952
 40
0.2952380952380952
 40
0.3047619047619048
 40
0.3047619047619048
 40
0.3047619047619048
 40
0.3047619047619048
 40
0.3142857142857143
 40
0.3142857142857143
 40
0.3142857142857143
 40
0.3142857142857143
 40
0.3238095238095239
 40
0.3238095238095239
 40
0.3238095238095239
 40
0.3238095238095239
 40
0.3333333333333334
 40
0.3333333333333334
 40
0.3333333333333334
 40
0.3333333333333334
 40
0.342857142857143
 40
0.342857142857143
 40
0.342857142857143
 40
0.342857142857143
 40
0.3523809523809525
 40
0.3523809523809525
 40
0.3523809523809525
 40
0.3523809523809525
 40
0.3619047619047621
 40
0.3619047619047621
 40
0.3619047619047621
 40
0.3619047619047621
 40
0.3714285714285716
 40
0.3714285714285716
 40
0.3714285714285716
 40
0.3714285714285716
 40
0.3809523809523812
 40
0.3809523809523812
 40
0.3809523809523812
 40
0.3809523809523812
 40
0.3904761904761907
 40
0.3904761904761907
 40
0.3904761904761907
 40
0.3904761904761907
 40
0.4000000000000002
 40
0.4000000000000002
 40
0.4000000000000002
 40
0.4000000000000002
 40
0.4095238095238098
 40
0.4095238095238098
 40
0.4095238095238098
 40
0.4095238095238098
 40
0.4190476190476193
 40
0.4190476190476193
 40
0.4190476190476193
 40
0.4190476190476193
 40
0.4285714285714289
 40
0.4285714285714289
 40
0.4285714285714289
 40
0.4285714285714289
 40
0.4380952380952384
 40
0.4380952380952384
 40
0.4380952380952384
 40
0.4380952380952384
 40
0.447619047619048
 40
0.447619047619048
 40
0.447619047619048
 40
0.447619047619048
 40
0.4571428571428575
 40
0.4571428571428575
 40
0.4571428571428575
 40
0.4571428571428575
 40
0.4666666666666671
 40
0.4666666666666671
 40
0.4666666666666671
 40
0.4666666666666671
 40
0.4761904761904766
 40
0.4761904761904766
 40
0.4761904761904766
 40
0.4761904761904766
 40
0.4857142857142862
 40
0.4857142857142862
 40
0.4857142857142862
 40
0.4857142857142862
 40
0.4952380952380957
 40
0.4952380952380957
 40
0.4952380952380957
 40
0.4952380952380957
 40
0.5047619047619052
 40
0.5047619047619052
 40
0.5047619047619052
 40
0.5047619047619052
 40
0.5142857142857147
 40
0.5142857142857147
 40
0.5142857142857147
 40
0.5142857142857147
 40
0.5238095238095242
 40
0.5238095238095242
 40
0.5238095238095242
 40
0.5238095238095242
 40
0.5333333333333337
 40
0.5333333333333337
 40
0.5333333333333337
 40
0.5333333333333337
 40
0.5428571428571432
 40
0.5428571428571432
 40
0.5428571428571432
 40
0.5428571428571432
 40
0.5523809523809526
 40
0.5523809523809526
 40
0.5523809523809526
 40
0.5523809523809526
 40
0.5619047619047621
 40
0.5619047619047621
 40
0.5619047619047621
 40
0.5619047619047621
 40
0.5714285714285716
 40
0.5714285714285716
 40
0.5714285714285716
 40
0.5714285714285716
 40
0.5809523809523811
 40
0.5809523809523811
 40
0.5809523809523811
 40
0.5809523809523811
 40
0.5904761904761906
 40
0.5904761904761906
 40
0.5904761904761906
 40
0.5904761904761906
 40
0.6000000000000001
 40
0.6000000000000001
 40
0.6000000000000001
 40
0.6000000000000001
 40
0.6095238095238096
 40
0.6095238095238096
 40
0.6095238095238096
 40
0.6095238095238096
 40
0.6190476190476191
 40
0.6190476190476191
 40
0.6190476190476191
 40
0.6190476190476191
 40
0.6285714285714286
 40
0.6285714285714286
 40
0.6285714285714286
 40
0.6285714285714286
 40
0.6380952380952381
 40
0.6380952380952381
 40
0.6380952380952381
 40
0.6380952380952381
 40
0.6476190476190475
 40
0.6476190476190475
 40
0.6476190476190475
 40
0.6476190476190475
 40
0.657142857142857
 40
0.657142857142857
 40
0.657142857142857
 40
0.657142857142857
 40
0.6666666666666665
 40
0.6666666666666665
 40
0.6666666666666665
 40
0.6666666666666665
 40
0.676190476190476
 40
0.676190476190476
 40
0.676190476190476
 40
0.676190476190476
 40
0.6857142857142855
 40
0.6857142857142855
 40
0.6857142857142855
 40
0.6857142857142855
 40
0.695238095238095
 40
0.695238095238095
 40
0.695238095238095
 40
0.695238095238095
 40
0.7047619047619045
 40
0.7047619047619045
 40
0.7047619047619045
 40
0.7047619047619045
 40
0.714285714285714
 40
0.714285714285714
 40
0.714285714285714
 40
0.714285714285714
 40
0.7238095238095235
 40
0.7238095238095235
 40
0.7238095238095235
 40
0.7238095238095235
 40
0.733333333333333
 40
0.733333333333333
 40
0.733333333333333
 40
0.733333333333333
 40
0.7428571428571424
 40
0.7428571428571424
 40
0.7428571428571424
 40
0.7428571428571424
 40
0.7523809523809519
 40
0.7523809523809519
 40
0.7523809523809519
 40
0.7523809523809519
 40
0.7619047619047614
 40
0.7619047619047614
 40
0.7619047619047614
 40
0.7619047619047614
 40
0.7714285714285709
 40
0.7714285714285709
 40
0.7714285714285709
 40
0.7714285714285709
 40
0.7809523809523804
 40
0.7809523809523804
 40
0.7809523809523804
 40
0.7809523809523804
 40
0.7904761904761899
 40
0.7904761904761899
 40
0.7904761904761899
 40
0.7904761904761899
 40
0.7999999999999994
 40
0.7999999999999994
 40
0.7999999999999994
 40
0.7999999999999994
 40
0.8095238095238089
 40
0.8095238095238089
 40
0.8095238095238089
 40
0.8095238095238089
 40
0.8190476190476184
 40
0.8190476190476184
 40
0.8190476190476184
 40
0.8190476190476184
 40
0.8285714285714279
 40
0.8285714285714279
 40
0.8285714285714279
 40
0.8285714285714279
 40
0.8380952380952373
 40
0.8380952380952373
 40
0.8380952380952373
 40
0.8380952380952373
 40
0.8476190476190468
 40
0.8476190476190468
 40
0.8476190476190468
 40
0.8476190476190468
 40
0.8571428571428563
 40
0.8571428571428563
 40
0.8571428571428563
 40
0.8571428571428563
 40
0.8666666666666658
 40
0.8666666666666658
 40
0.8666666666666658
 40
0.8666666666666658
 40
0.8761904761904753
 40
0.8761904761904753
 40
0.8761904761904753
 40
0.8761904761904753
 40
0.8857142857142848
 40
0.8857142857142848
 40
0.8857142857142848
 40
0.8857142857142848
 40
0.8952380952380943
 40
0.8952380952380943
 40
0.8952380952380943
 40
0.8952380952380943
 40
0.9047619047619038
 40
0.9047619047619038
 40
0.9047619047619038
 40
0.9047619047619038
 40
0.9142857142857133
 40
0.9142857142857133
 40
0.9142857142857133
 40
0.9142857142857133
 40
0.9238095238095228
 40
0.9238095238095228
 40
0.9238095238095228
 40
0.9238095238095228
 40
0.9333333333333322
 40
0.9333333333333322
 40
0.9333333333333322
 40
0.9333333333333322
 40
0.9428571428571417
 40
0.9428571428571417
 40
0.9428571428571417
 40
0.9428571428571417
 40
0.9523809523809512
 40
0.9523809523809512
 40
0.9523809523809512
 40
0.9523809523809512
 40
0.9619047619047607
 40
0.9619047619047607
 40
0.9619047619047607
 40
0.9619047619047607
 40
0.9714285714285702
 40
0.9714285714285702
 40
0.9714285714285702
 40
0.9714285714285702
 40
0.9809523809523797
 40
0.9809523809523797
 40
0.9809523809523797
 40
0.9809523809523797
 40
0.9904761904761892
 40
0.9904761904761892
 40
0.9904761904761892
 40
0.9904761904761892
 40
1.0
 40
1.0
 40
1.0
 40
1.0
 10
1.1812400000000001
 20
2.1990700000000003
 30
0.0
 10
1.1152000000000002
 20
2.1838300000000004
 30
0.0
 10
1.2041000000000002
 20
2.1177900000000003
 30
0.0
 10
1.1812400000000001
 20
2.1990700000000003
 30
0.0
 10
1.1812400000000001
 20
2.1990700000000003
 30
0.0
 10
1.4936600000000002
 20
3.2430100000000004
 30
0.0
 10
2.5249000000000001
 20
1.4497700000000002
 30
0.0
 10
2.0677000000000003
 20
2.4759300000000004
 30
0.0
 10
2.0677000000000003
 20
2.4759300000000004
 30
0.0
 10
2.0880200000000002
 20
2.6562700000000001
 30
0.0
 10
2.1032600000000001
 20
2.8670900000000001
 30
0.0
 10
2.1947000000000001
 20
2.9991700000000003
 30
0.0
 10
2.1947000000000001
 20
2.9991700000000003
 30
0.0
 10
2.7687400000000002
 20
2.3311500000000001
 30
0.0
 10
2.8754200000000001
 20
1.39897
 30
0.0
 10
2.7484200000000003
 20
0.59887
 30
0.0
 10
2.7484200000000003
 20
0.59887
 30
0.0
 10
2.7484200000000003
 20
0.59887
 30
0.0
 10
2.8347800000000003
 20
0.8249300000000001
 30
0.0
 10
2.8347800000000003
 20
0.8249300000000001
 30
0.0
 10
2.8347800000000003
 20
0.8249300000000001
 30
0.0
 10
2.8347800000000003
 20
0.8249300000000001
 30
0.0
 10
2.9617800000000001
 20
1.4802500000000001
 30
0.0
 10
2.9617800000000001
 20
1.4802500000000001
 30
0.0
 10
2.9617800000000001
 20
1.4802500000000001
 30
0.0
 10
2.9211400000000003
 20
1.6758300000000002
 30
0.0
 10
3.1675200000000001
 20
1.8739500000000002
 30
0.0
 10
3.1243400000000001
 20
1.5615300000000001
 30
0.0
 10
3.1243400000000001
 20
1.5615300000000001
 30
0.0
 10
3.1243400000000001
 20
1.5615300000000001
 30
0.0
 10
3.1218000000000004
 20
1.1856100000000001
 30
0.0
 10
3.1218000000000004
 20
1.1856100000000001
 30
0.0
 10
3.1218000000000004
 20
1.1856100000000001
 30
0.0
 10
3.0278200000000002
 20
0.8604900000000001
 30
0.0
 10
2.9770200000000004
 20
0.40329
 30
0.0
 10
3.1624400000000001
 20
0.9747900000000001
 30
0.0
 10
3.1624400000000001
 20
0.9747900000000001
 30
0.0
 10
3.4875600000000002
 20
0.89351
 30
0.0
 10
3.7441000000000004
 20
1.23641
 30
0.0
 10
3.8711000000000002
 20
1.4802500000000001
 30
0.0
 10
3.8711000000000002
 20
1.4802500000000001
 30
0.0
 10
3.8380800000000002
 20
0.5683900000000001
 30
0.0
 10
3.2792800000000004
 20
0.25597
 30
0.0
 10
3.5459800000000001
 20
-0.13264
 30
0.0
 10
3.5459800000000001
 20
-0.13264
 30
0.0
 10
3.2462600000000004
 20
-0.32568
 30
0.0
 10
2.9795600000000002
 20
-0.58984
 30
0.0
 10
2.8195400000000004
 20
-0.90734
 30
0.0
 10
2.8195400000000004
 20
-0.90734
 30
0.0
 10
2.8017600000000003
 20
-0.9403600000000001
 30
0.0
 10
2.7484200000000003
 20
-1.0699000000000001
 30
0.0
 10
2.8017600000000003
 20
-1.0292600000000001
 30
0.0
 10
2.8017600000000003
 20
-1.0292600000000001
 30
0.0
 10
2.9465400000000002
 20
-0.7854200000000001
 30
0.0
 10
3.5002600000000004
 20
-0.6711200000000001
 30
0.0
 10
3.5332800000000004
 20
-1.3086600000000002
 30
0.0
 10
3.5332800000000004
 20
-1.3086600000000002
 30
0.0
 10
3.2716600000000002
 20
-1.8623800000000001
 30
0.0
 10
2.4918800000000001
 20
-2.1570200000000002
 30
0.0
 10
1.9864200000000001
 20
-1.7633200000000002
 30
0.0
 10
1.9864200000000001
 20
-1.7633200000000002
 30
0.0
 10
2.0880200000000002
 20
-1.5753600000000001
 30
0.0
 10
2.3039200000000002
 20
-1.4890000000000001
 30
0.0
 10
2.5147400000000002
 20
-1.4356600000000002
 30
0.0
 10
2.5147400000000002
 20
-1.4356600000000002
 30
0.0
 10
2.59348
 20
-1.41788
 30
0.0
 10
2.8652600000000001
 20
-1.4559800000000001
 30
0.0
 10
2.7458800000000001
 20
-1.3899400000000002
 30
0.0
 10
2.7458800000000001
 20
-1.3899400000000002
 30
0.0
 10
2.1896200000000001
 20
-1.50424
 30
0.0
 10
2.3039200000000002
 20
-1.0622800000000001
 30
0.0
 10
2.3725000000000001
 20
-0.80066
 30
0.0
 10
2.3725000000000001
 20
-0.80066
 30
0.0
 10
2.3166200000000003
 20
-0.69398
 30
0.0
 10
2.3090000000000002
 20
-0.9403600000000001
 30
0.0
 10
2.2836000000000003
 20
-1.0064000000000002
 30
0.0
 10
2.2836000000000003
 20
-1.0064000000000002
 30
0.0
 10
2.0499200000000002
 20
-1.58806
 30
0.0
 10
1.4962000000000002
 20
-1.7912600000000001
 30
0.0
 10
0.8764400000000001
 20
-1.8801600000000001
 30
0.0
 10
0.8764400000000001
 20
-1.8801600000000001
 30
0.0
 10
0.9831200000000001
 20
-1.7150600000000003
 30
0.0
 10
1.2625200000000001
 20
-1.6337800000000002
 30
0.0
 10
1.2955400000000001
 20
-1.4712200000000002
 30
0.0
 10
1.2955400000000001
 20
-1.4712200000000002
 30
0.0
 10
1.2955400000000001
 20
-1.4712200000000002
 30
0.0
 10
-0.08875
 20
-2.3526000000000002
 30
0.0
 10
-0.08875
 20
-2.3526000000000002
 30
0.0
 10
-0.08875
 20
-2.3526000000000002
 30
0.0
 10
-0.3122700000000001
 20
-2.4008600000000002
 30
0.0
 10
-0.44689
 20
-2.13924
 30
0.0
 10
-0.65517
 20
-2.1900400000000002
 30
0.0
 10
-0.65517
 20
-2.1900400000000002
 30
0.0
 10
-0.7542300000000001
 20
-2.3043400000000003
 30
0.0
 10
-0.9040900000000001
 20
-2.4008600000000002
 30
0.0
 10
-0.9371100000000001
 20
-2.5481800000000003
 30
0.0
 10
-0.9371100000000001
 20
-2.5481800000000003
 30
0.0
 10
-0.61453
 20
-2.2383000000000002
 30
0.0
 10
-0.4595900000000001
 20
-2.6447000000000003
 30
0.0
 10
-0.4799100000000001
 20
-3.1349200000000002
 30
0.0
 10
-0.4799100000000001
 20
-3.1349200000000002
 30
0.0
 10
-0.23607
 20
-3.2492200000000002
 30
0.0
 10
-0.5611900000000001
 20
-2.3678400000000002
 30
0.0
 10
-0.01001
 20
-2.4669000000000003
 30
0.0
 10
-0.01001
 20
-2.4669000000000003
 30
0.0
 10
-0.19289
 20
-2.9393400000000001
 30
0.0
 10
-0.24623
 20
-3.4448000000000003
 30
0.0
 10
-0.27163
 20
-3.9680400000000002
 30
0.0
 10
-0.27163
 20
-3.9680400000000002
 30
0.0
 10
-0.5383300000000001
 20
-3.1349200000000002
 30
0.0
 10
-0.71867
 20
-4.0493200000000007
 30
0.0
 10
-0.8177300000000001
 20
-4.4582600000000001
 30
0.0
 10
-0.8177300000000001
 20
-4.4582600000000001
 30
0.0
 10
-0.8812300000000001
 20
-4.2779199999999999
 30
0.0
 10
-0.88631
 20
-4.0010600000000007
 30
0.0
 10
-1.0641100000000001
 20
-3.9020000000000001
 30
0.0
 10
-1.0641100000000001
 20
-3.9020000000000001
 30
0.0
 10
-1.1580900000000001
 20
-4.0670999999999999
 30
0.0
 10
-1.1809500000000002
 20
-4.2779199999999999
 30
0.0
 10
-1.2342900000000001
 20
-4.4582600000000001
 30
0.0
 10
-1.2342900000000001
 20
-4.4582600000000001
 30
0.0
 10
-1.2342900000000001
 20
-4.4582600000000001
 30
0.0
 10
-1.4146300000000001
 20
-3.9680400000000002
 30
0.0
 10
-1.4146300000000001
 20
-3.9680400000000002
 30
0.0
 10
-1.4146300000000001
 20
-3.9680400000000002
 30
0.0
 10
-1.5594100000000002
 20
-4.0163000000000002
 30
0.0
 10
-1.5644900000000002
 20
-4.22966
 30
0.0
 10
-1.6229100000000001
 20
-4.34396
 30
0.0
 10
-1.6229100000000001
 20
-4.34396
 30
0.0
 10
-1.6229100000000001
 20
-4.34396
 30
0.0
 10
-1.75753
 20
-3.9680400000000002
 30
0.0
 10
-1.75753
 20
-3.9680400000000002
 30
0.0
 10
-1.75753
 20
-3.9680400000000002
 30
0.0
 10
-1.8819900000000001
 20
-3.8740600000000005
 30
0.0
 10
-1.9734300000000002
 20
-4.0975800000000007
 30
0.0
 10
-1.9556500000000001
 20
-4.0061400000000003
 30
0.0
 10
-1.9556500000000001
 20
-4.0061400000000003
 30
0.0
 10
-1.9048500000000002
 20
-3.7546800000000005
 30
0.0
 10
-1.9353300000000002
 20
-3.7292800000000002
 30
0.0
 10
-1.9988300000000001
 20
-3.9020000000000001
 30
0.0
 10
-1.9988300000000001
 20
-3.9020000000000001
 30
0.0
 10
-1.9988300000000001
 20
-3.9020000000000001
 30
0.0
 10
-2.0191500000000002
 20
-4.0823400000000003
 30
0.0
 10
-2.0191500000000002
 20
-4.0823400000000003
 30
0.0
 10
-2.0191500000000002
 20
-4.0823400000000003
 30
0.0
 10
-2.2071100000000001
 20
-3.6734000000000004
 30
0.0
 10
-2.1969500000000002
 20
-3.1349200000000002
 30
0.0
 10
-2.10805
 20
-2.6955
 30
0.0
 10
-2.10805
 20
-2.6955
 30
0.0
 10
-1.8337300000000001
 20
-3.1349200000000002
 30
0.0
 10
-1.92517
 20
-2.9723600000000001
 30
0.0
 10
-1.1834900000000002
 20
-2.9393400000000001
 30
0.0
 10
-1.1834900000000002
 20
-2.9393400000000001
 30
0.0
 10
-1.3612900000000001
 20
-2.4669000000000003
 30
0.0
 10
-2.1105900000000002
 20
-0.8997200000000001
 30
0.0
 10
-1.1123700000000001
 20
-1.2756400000000001
 30
0.0
 10
-1.1123700000000001
 20
-1.2756400000000001
 30
0.0
 10
-1.1123700000000001
 20
-1.2756400000000001
 30
0.0
 10
-0.76185
 20
-1.58552
 30
0.0
 10
-0.76185
 20
-1.58552
 30
0.0
 10
-0.76185
 20
-1.58552
 30
0.0
 10
-0.86599
 20
-1.4229600000000002
 30
0.0
 10
-1.0666500000000001
 20
-1.0622800000000001
 30
0.0
 10
-0.7288300000000001
 20
-0.9657600000000001
 30
0.0
 10
-0.7288300000000001
 20
-0.9657600000000001
 30
0.0
 10
-0.7364500000000001
 20
-1.08006
 30
0.0
 10
-0.7135900000000001
 20
-1.6668000000000001
 30
0.0
 10
-0.6932700000000001
 20
-1.3569200000000001
 30
0.0
 10
-0.6932700000000001
 20
-1.3569200000000001
 30
0.0
 10
-0.8126500000000001
 20
-0.36124
 30
0.0
 10
0.6732400000000001
 20
-0.6228600000000001
 30
0.0
 10
0.9170800000000001
 20
-1.3239000000000001
 30
0.0
 10
0.9170800000000001
 20
-1.3239000000000001
 30
0.0
 10
1.0440800000000001
 20
-1.3645400000000001
 30
0.0
 10
0.9043800000000001
 20
-1.1003800000000001
 30
0.0
 10
0.8231000000000001
 20
-0.9886200000000001
 30
0.0
 10
0.8231000000000001
 20
-0.9886200000000001
 30
0.0
 10
0.7342000000000001
 20
-0.86416
 30
0.0
 10
0.5005200000000001
 20
-0.7473200000000001
 30
0.0
 10
0.3659
 20
-0.6863600000000001
 30
0.0
 10
0.3659
 20
-0.6863600000000001
 30
0.0
 10
0.59196
 20
-0.4272800000000001
 30
0.0
 10
1.8416400000000002
 20
-0.8184400000000001
 30
0.0
 10
1.0390000000000001
 20
-0.5746
 30
0.0
 10
1.0390000000000001
 20
-0.5746
 30
0.0
 10
0.8231000000000001
 20
-0.34346
 30
0.0
 10
1.5343000000000002
 20
-0.19868
 30
0.0
 10
1.7527400000000002
 20
-0.27996
 30
0.0
 10
1.7527400000000002
 20
-0.27996
 30
0.0
 10
2.1794600000000002
 20
-0.3942600000000001
 30
0.0
 10
2.2023200000000003
 20
-0.2952
 30
0.0
 10
1.7705200000000001
 20
-0.21392
 30
0.0
 10
1.7705200000000001
 20
-0.21392
 30
0.0
 10
1.7705200000000001
 20
-0.21392
 30
0.0
 10
1.6511400000000001
 20
-0.14788
 30
0.0
 10
1.6511400000000001
 20
-0.14788
 30
0.0
 10
1.6511400000000001
 20
-0.14788
 30
0.0
 10
1.6028800000000001
 20
0.17469
 30
0.0
 10
2.1261200000000002
 20
0.02737
 30
0.0
 10
2.3217000000000003
 20
0.14421
 30
0.0
 10
2.3217000000000003
 20
0.14421
 30
0.0
 10
1.8594200000000001
 20
0.09087
 30
0.0
 10
2.0118200000000002
 20
0.38551
 30
0.0
 10
2.2734400000000003
 20
0.53029
 30
0.0
 10
2.2734400000000003
 20
0.53029
 30
0.0
 10
2.3344
 20
0.5633100000000001
 30
0.0
 10
2.5528400000000002
 20
0.62173
 30
0.0
 10
2.4537800000000001
 20
0.6318900000000001
 30
0.0
 10
2.4537800000000001
 20
0.6318900000000001
 30
0.0
 10
1.8746600000000002
 20
0.46933
 30
0.0
 10
2.1413600000000002
 20
1.1856100000000001
 30
0.0
 10
2.4512400000000003
 20
1.3507100000000001
 30
0.0
 10
2.4512400000000003
 20
1.3507100000000001
 30
0.0
 10
2.0727800000000003
 20
1.3024500000000001
 30
0.0
 10
2.08548
 20
0.9265300000000001
 30
0.0
 10
1.7044800000000002
 20
0.89351
 30
0.0
 10
1.7044800000000002
 20
0.89351
 30
0.0
 10
1.6105
 20
0.9417700000000001
 30
0.0
 10
1.8162400000000001
 20
1.23641
 30
0.0
 10
1.8797400000000002
 20
1.3659500000000002
 30
0.0
 10
1.8797400000000002
 20
1.3659500000000002
 30
0.0
 10
1.9051400000000001
 20
1.4319900000000001
 30
0.0
 10
2.0143600000000004
 20
1.4497700000000002
 30
0.0
 10
1.9940400000000003
 20
1.5462900000000002
 30
0.0
 10
1.9940400000000003
 20
1.5462900000000002
 30
0.0
 10
1.5622400000000001
 20
1.3659500000000002
 30
0.0
 10
1.5952600000000001
 20
0.6496700000000001
 30
0.0
 10
1.0059800000000001
 20
0.6496700000000001
 30
0.0
 10
1.0059800000000001
 20
0.6496700000000001
 30
0.0
 10
0.8637400000000001
 20
0.6979300000000001
 30
0.0
 10
1.10504
 20
1.31769
 30
0.0
 10
1.14568
 20
1.5615300000000001
 30
0.0
 10
1.14568
 20
1.5615300000000001
 30
0.0
 10
0.7164200000000001
 20
1.2033900000000002
 30
0.0
 10
1.0085200000000001
 20
0.66491
 30
0.0
 10
0.4929000000000001
 20
0.28899
 30
0.0
 10
0.4929000000000001
 20
0.28899
 30
0.0
 10
0.4929000000000001
 20
0.28899
 30
0.0
 10
0.2008
 20
0.12643
 30
0.0
 10
0.2008
 20
0.12643
 30
0.0
 10
0.2008
 20
0.12643
 30
0.0
 10
0.023
 20
0.32201
 30
0.0
 10
0.27954
 20
0.8452500000000001
 30
0.0
 10
0.2008
 20
1.1373500000000001
 30
0.0
 10
0.2008
 20
1.1373500000000001
 30
0.0
 10
0.2008
 20
1.1373500000000001
 30
0.0
 10
-0.05573
 20
0.53537
 30
0.0
 10
-0.05573
 20
0.53537
 30
0.0
 10
-0.05573
 20
0.53537
 30
0.0
 10
0.37606
 20
0.04515
 30
0.0
 10
-1.1149100000000001
 20
-1.6337800000000002
 30
0.0
 10
-1.6889500000000002
 20
-0.7041400000000001
 30
0.0
 10
-1.6889500000000002
 20
-0.7041400000000001
 30
0.0
 10
-1.5949700000000002
 20
-0.4272800000000001
 30
0.0
 10
-1.6533900000000001
 20
-0.13264
 30
0.0
 10
-1.7524500000000001
 20
-0.5568200000000001
 30
0.0
 10
-1.7524500000000001
 20
-0.5568200000000001
 30
0.0
 10
-1.9785100000000002
 20
-1.3391400000000002
 30
0.0
 10
-1.7956300000000001
 20
0.30423
 30
0.0
 10
-1.9658100000000001
 20
-0.24694
 30
0.0
 10
-1.9658100000000001
 20
-0.24694
 30
0.0
 10
-1.8388100000000001
 20
-1.6998200000000001
 30
0.0
 10
-3.3120100000000003
 20
-0.09962
 30
0.0
 10
-2.6008100000000001
 20
0.14421
 30
0.0
 10
-2.6008100000000001
 20
0.14421
 30
0.0
 10
-2.6008100000000001
 20
0.14421
 30
0.0
 10
-2.6846300000000003
 20
0.53537
 30
0.0
 10
-2.6846300000000003
 20
0.53537
 30
0.0
 10
-2.6846300000000003
 20
0.53537
 30
0.0
 10
-2.7151100000000001
 20
0.5683900000000001
 30
0.0
 10
-2.6820900000000001
 20
0.68015
 30
0.0
 10
-2.7608300000000003
 20
0.66491
 30
0.0
 10
-2.7608300000000003
 20
0.66491
 30
0.0
 10
-2.7608300000000003
 20
0.66491
 30
0.0
 10
-2.8014700000000001
 20
0.28899
 30
0.0
 10
-2.8014700000000001
 20
0.28899
 30
0.0
 10
-2.8014700000000001
 20
0.28899
 30
0.0
 10
-3.0351500000000002
 20
-0.6228600000000001
 30
0.0
 10
-2.9386300000000003
 20
1.4497700000000002
 30
0.0
 10
-3.0580100000000003
 20
0.66491
 30
0.0
 10
-3.0580100000000003
 20
0.66491
 30
0.0
 10
-3.0300700000000003
 20
0.53537
 30
0.0
 10
-3.0478500000000004
 20
0.40329
 30
0.0
 10
-3.0580100000000003
 20
0.2737500000000001
 30
0.0
 10
-3.0580100000000003
 20
0.2737500000000001
 30
0.0
 10
-3.1672300000000004
 20
0.12643
 30
0.0
 10
-3.2891500000000002
 20
0.55061
 30
0.0
 10
-3.2713700000000001
 20
0.68015
 30
0.0
 10
-3.2713700000000001
 20
0.68015
 30
0.0
 10
-3.3424900000000002
 20
1.1703700000000001
 30
0.0
 10
-3.4390100000000001
 20
1.0078100000000001
 30
0.0
 10
-3.3704300000000003
 20
0.5683900000000001
 30
0.0
 10
-3.3704300000000003
 20
0.5683900000000001
 30
0.0
 10
-3.3551900000000003
 20
0.46933
 30
0.0
 10
-3.3882100000000004
 20
0.4515500000000001
 30
0.0
 10
-3.4313900000000004
 20
0.53537
 30
0.0
 10
-3.4313900000000004
 20
0.53537
 30
0.0
 10
-3.4821900000000001
 20
0.74619
 30
0.0
 10
-3.5990300000000004
 20
0.7792100000000001
 30
0.0
 10
-3.5126700000000004
 20
0.53537
 30
0.0
 10
-3.5126700000000004
 20
0.53537
 30
0.0
 10
-3.1697700000000002
 20
-0.4272800000000001
 30
0.0
 10
-3.7768300000000004
 20
0.46933
 30
0.0
 10
-3.7133300000000005
 20
1.02559
 30
0.0
 10
-3.7133300000000005
 20
1.02559
 30
0.0
 10
-3.3704300000000003
 20
0.5023500000000001
 30
0.0
 10
-3.8276300000000005
 20
1.3507100000000001
 30
0.0
 10
-3.7717500000000004
 20
1.5945500000000001
 30
0.0
 10
-3.7717500000000004
 20
1.5945500000000001
 30
0.0
 10
-3.7514300000000005
 20
1.9374500000000001
 30
0.0
 10
-3.6904700000000004
 20
2.3616300000000003
 30
0.0
 10
-3.4821900000000001
 20
2.6410300000000002
 30
0.0
 10
-3.4821900000000001
 20
2.6410300000000002
 30
0.0
 10
-3.4771100000000001
 20
2.2803500000000003
 30
0.0
 10
-3.4390100000000001
 20
1.9069700000000001
 30
0.0
 10
-3.3475700000000002
 20
1.5615300000000001
 30
0.0
 10
-3.3475700000000002
 20
1.5615300000000001
 30
0.0
 10
-3.2231100000000001
 20
1.6428100000000001
 30
0.0
 10
-3.4339300000000001
 20
1.8561700000000001
 30
0.0
 10
-3.2713700000000001
 20
1.9374500000000001
 30
0.0
 10
-3.2713700000000001
 20
1.9374500000000001
 30
0.0
 10
-3.2713700000000001
 20
1.9374500000000001
 30
0.0
 10
-3.0224500000000001
 20
1.1221100000000002
 30
0.0
 10
-3.0224500000000001
 20
1.1221100000000002
 30
0.0
 10
-3.0224500000000001
 20
1.1221100000000002
 30
0.0
 10
-2.9792700000000001
 20
1.2033900000000002
 30
0.0
 10
-3.1011900000000003
 20
1.3329300000000002
 30
0.0
 10
-3.0554700000000001
 20
1.4167500000000002
 30
0.0
 10
-3.0554700000000001
 20
1.4167500000000002
 30
0.0
 10
-2.5703300000000002
 20
0.8122300000000001
 30
0.0
 10
-2.3290300000000004
 20
0.7792100000000001
 30
0.0
 10
-1.9531100000000001
 20
0.32201
 30
0.0
 10
-1.9531100000000001
 20
0.32201
 30
0.0
 10
-1.8870700000000002
 20
0.4515500000000001
 30
0.0
 10
-1.8743700000000001
 20
0.61665
 30
0.0
 10
-1.8515100000000002
 20
0.7614300000000001
 30
0.0
 10
-1.8515100000000002
 20
0.7614300000000001
 30
0.0
 10
-1.9454900000000002
 20
0.8782700000000001
 30
0.0
 10
-1.9302500000000002
 20
0.66491
 30
0.0
 10
-1.9607300000000001
 20
0.61665
 30
0.0
 10
-1.9607300000000001
 20
0.61665
 30
0.0
 10
-2.1232900000000003
 20
1.0738500000000002
 30
0.0
 10
-2.0496300000000001
 20
1.5793100000000002
 30
0.0
 10
-2.09789
 20
2.0669900000000001
 30
0.0
 10
-2.09789
 20
2.0669900000000001
 30
0.0
 10
-2.0877300000000001
 20
2.46069
 30
0.0
 10
-2.2172700000000001
 20
2.9001100000000002
 30
0.0
 10
-2.0674100000000002
 20
3.2607900000000001
 30
0.0
 10
-2.0674100000000002
 20
3.2607900000000001
 30
0.0
 10
-1.8311900000000001
 20
2.7553300000000003
 30
0.0
 10
-1.9378700000000002
 20
2.1508100000000003
 30
0.0
 10
-1.8515100000000002
 20
1.5945500000000001
 30
0.0
 10
-1.8515100000000002
 20
1.5945500000000001
 30
0.0
 10
-1.8515100000000002
 20
1.5945500000000001
 30
0.0
 10
-1.8134100000000002
 20
0.8604900000000001
 30
0.0
 10
-1.8134100000000002
 20
0.8604900000000001
 30
0.0
 10
-1.8134100000000002
 20
0.8604900000000001
 30
0.0
 10
-1.7803900000000001
 20
1.1373500000000001
 30
0.0
 10
-1.75753
 20
1.2668900000000001
 30
0.0
 10
-1.7702300000000002
 20
1.4370700000000001
 30
0.0
 10
-1.7702300000000002
 20
1.4370700000000001
 30
0.0
 10
-1.6584700000000001
 20
2.1381100000000002
 30
0.0
 10
-1.8819900000000001
 20
2.8188300000000002
 30
0.0
 10
-1.8616700000000002
 20
3.5224100000000003
 30
0.0
 10
-1.8616700000000002
 20
3.5224100000000003
 30
0.0
 10
-1.79817
 20
3.9135700000000004
 30
0.0
 10
-1.6152900000000001
 20
4.3199700000000005
 30
0.0
 10
-1.4933700000000001
 20
4.6958900000000003
 30
0.0
 10
-1.4933700000000001
 20
4.6958900000000003
 30
0.0
 10
-1.4933700000000001
 20
4.6958900000000003
 30
0.0
 10
-1.4273300000000002
 20
4.12439
 30
0.0
 10
-1.4273300000000002
 20
4.12439
 30
0.0
 10
-1.4273300000000002
 20
4.12439
 30
0.0
 10
-1.3612900000000001
 20
3.7002100000000002
 30
0.0
 10
-1.4705100000000002
 20
3.1617300000000004
 30
0.0
 10
-1.3003300000000002
 20
2.8340700000000001
 30
0.0
 10
-1.3003300000000002
 20
2.8340700000000001
 30
0.0
 10
-1.3003300000000002
 20
2.8340700000000001
 30
0.0
 10
-1.29525
 20
3.0474300000000003
 30
0.0
 10
-1.29525
 20
3.0474300000000003
 30
0.0
 10
-1.29525
 20
3.0474300000000003
 30
0.0
 10
-1.3003300000000002
 20
3.1947500000000004
 30
0.0
 10
-1.0539500000000002
 20
3.0956900000000003
 30
0.0
 10
-1.0234700000000001
 20
3.2760300000000004
 30
0.0
 10
-1.0234700000000001
 20
3.2760300000000004
 30
0.0
 10
-1.0234700000000001
 20
3.2760300000000004
 30
0.0
 10
-1.00315
 20
3.2430100000000004
 30
0.0
 10
-1.00315
 20
3.2430100000000004
 30
0.0
 10
-1.00315
 20
3.2430100000000004
 30
0.0
 10
-1.04125
 20
2.3616300000000003
 30
0.0
 10
-1.3104900000000002
 20
1.5462900000000002
 30
0.0
 10
-1.42225
 20
0.68015
 30
0.0
 10
-1.42225
 20
0.68015
 30
0.0
 10
-1.3257300000000001
 20
0.6979300000000001
 30
0.0
 10
-1.3663700000000001
 20
1.0078100000000001
 30
0.0
 10
-1.2165100000000002
 20
0.89351
 30
0.0
 10
-1.2165100000000002
 20
0.89351
 30
0.0
 10
-1.2165100000000002
 20
0.89351
 30
0.0
 10
-1.4552700000000001
 20
0.55061
 30
0.0
 10
-1.4552700000000001
 20
0.55061
 30
0.0
 10
-1.4552700000000001
 20
0.55061
 30
0.0
 10
-1.0209300000000001
 20
0.8604900000000001
 30
0.0
 10
-0.6627900000000001
 20
1.3024500000000001
 30
0.0
 10
-0.22337
 20
1.61233
 30
0.0
 10
-0.22337
 20
1.61233
 30
0.0
 10
-0.22337
 20
1.61233
 30
0.0
 10
-0.02271
 20
1.7596500000000002
 30
0.0
 10
-0.02271
 20
1.7596500000000002
 30
0.0
 10
-0.02271
 20
1.7596500000000002
 30
0.0
 10
-0.02271
 20
1.7596500000000002
 30
0.0
 10
0.07634
 20
1.82315
 30
0.0
 10
0.07634
 20
1.82315
 30
0.0
 10
0.07634
 20
1.82315
 30
0.0
 10
0.16778
 20
1.7418700000000003
 30
0.0
 10
-0.16241
 20
1.5945500000000001
 30
0.0
 10
-0.19797
 20
1.4650100000000001
 30
0.0
 10
-0.19797
 20
1.4650100000000001
 30
0.0
 10
0.18302
 20
1.8409300000000002
 30
0.0
 10
0.7291200000000001
 20
2.0517500000000002
 30
0.0
 10
1.1812400000000001
 20
2.1990700000000003
 30
0.0
  0
SPLINE
  5
29
100
AcDbEntity
  8
Ebene 1
 62
     7
100
AcDbSpline
210
0.0
220
0.0
230
1.0
 70
     1
 71
     3
 72
   160
 73
   156
 74
     0
 42
0.0000000001
 43
0.0000000001
 40
0.0
 40
0.0
 40
0.0
 40
0.0
 40
0.0256410256410256
 40
0.0256410256410256
 40
0.0256410256410256
 40
0.0256410256410256
 40
0.0512820512820513
 40
0.0512820512820513
 40
0.0512820512820513
 40
0.0512820512820513
 40
0.0769230769230769
 40
0.0769230769230769
 40
0.0769230769230769
 40
0.0769230769230769
 40
0.1025641025641026
 40
0.1025641025641026
 40
0.1025641025641026
 40
0.1025641025641026
 40
0.1282051282051282
 40
0.1282051282051282
 40
0.1282051282051282
 40
0.1282051282051282
 40
0.1538461538461538
 40
0.1538461538461538
 40
0.1538461538461538
 40
0.1538461538461538
 40
0.1794871794871795
 40
0.1794871794871795
 40
0.1794871794871795
 40
0.1794871794871795
 40
0.2051282051282051
 40
0.2051282051282051
 40
0.2051282051282051
 40
0.2051282051282051
 40
0.2307692307692307
 40
0.2307692307692307
 40
0.2307692307692307
 40
0.2307692307692307
 40
0.2564102564102564
 40
0.2564102564102564
 40
0.2564102564102564
 40
0.2564102564102564
 40
0.2820512820512821
 40
0.2820512820512821
 40
0.2820512820512821
 40
0.2820512820512821
 40
0.3076923076923077
 40
0.3076923076923077
 40
0.3076923076923077
 40
0.3076923076923077
 40
0.3333333333333334
 40
0.3333333333333334
 40
0.3333333333333334
 40
0.3333333333333334
 40
0.358974358974359
 40
0.358974358974359
 40
0.358974358974359
 40
0.358974358974359
 40
0.3846153846153847
 40
0.3846153846153847
 40
0.3846153846153847
 40
0.3846153846153847
 40
0.4102564102564104
 40
0.4102564102564104
 40
0.4102564102564104
 40
0.4102564102564104
 40
0.435897435897436
 40
0.435897435897436
 40
0.435897435897436
 40
0.435897435897436
 40
0.4615384615384617
 40
0.4615384615384617
 40
0.4615384615384617
 40
0.4615384615384617
 40
0.4871794871794873
 40
0.4871794871794873
 40
0.4871794871794873
 40
0.4871794871794873
 40
0.512820512820513
 40
0.512820512820513
 40
0.512820512820513
 40
0.512820512820513
 40
0.5384615384615387
 40
0.5384615384615387
 40
0.5384615384615387
 40
0.5384615384615387
 40
0.5641025641025643
 40
0.5641025641025643
 40
0.5641025641025643
 40
0.5641025641025643
 40
0.58974358974359
 40
0.58974358974359
 40
0.58974358974359
 40
0.58974358974359
 40
0.6153846153846156
 40
0.6153846153846156
 40
0.6153846153846156
 40
0.6153846153846156
 40
0.6410256410256413
 40
0.6410256410256413
 40
0.6410256410256413
 40
0.6410256410256413
 40
0.666666666666667
 40
0.666666666666667
 40
0.666666666666667
 40
0.666666666666667
 40
0.6923076923076926
 40
0.6923076923076926
 40
0.6923076923076926
 40
0.6923076923076926
 40
0.7179487179487183
 40
0.7179487179487183
 40
0.7179487179487183
 40
0.7179487179487183
 40
0.743589743589744
 40
0.743589743589744
 40
0.743589743589744
 40
0.743589743589744
 40
0.7692307692307696
 40
0.7692307692307696
 40
0.7692307692307696
 40
0.7692307692307696
 40
0.7948717948717953
 40
0.7948717948717953
 40
0.7948717948717953
 40
0.7948717948717953
 40
0.8205128205128209
 40
0.8205128205128209
 40
0.8205128205128209
 40
0.8205128205128209
 40
0.8461538461538466
 40
0.8461538461538466
 40
0.8461538461538466
 40
0.8461538461538466
 40
0.8717948717948723
 40
0.8717948717948723
 40
0.8717948717948723
 40
0.8717948717948723
 40
0.8974358974358979
 40
0.8974358974358979
 40
0.8974358974358979
 40
0.8974358974358979
 40
0.9230769230769236
 40
0.9230769230769236
 40
0.9230769230769236
 40
0.9230769230769236
 40
0.9487179487179492
 40
0.9487179487179492
 40
0.9487179487179492
 40
0.9487179487179492
 40
0.9743589743589749
 40
0.9743589743589749
 40
0.9743589743589749
 40
0.9743589743589749
 40
1.0
 40
1.0
 40
1.0
 40
1.0
 10
2.8144600000000004
 20
4.0431100000000004
 30
0.0
 10
3.0456000000000003
 20
3.5859100000000002
 30
0.0
 10
3.0659200000000002
 20
2.9661500000000003
 30
0.0
 10
3.13958
 20
2.42767
 30
0.0
 10
3.13958
 20
2.42767
 30
0.0
 10
3.1903800000000002
 20
2.6080100000000002
 30
0.0
 10
3.1726000000000001
 20
2.7705700000000002
 30
0.0
 10
3.1726000000000001
 20
2.9813900000000002
 30
0.0
 10
3.1726000000000001
 20
2.9813900000000002
 30
0.0
 10
3.1421200000000002
 20
3.1287100000000003
 30
0.0
 10
3.1497400000000004
 20
3.4385900000000005
 30
0.0
 10
3.3021400000000001
 20
3.2277700000000005
 30
0.0
 10
3.3021400000000001
 20
3.2277700000000005
 30
0.0
 10
3.3961200000000002
 20
3.1617300000000004
 30
0.0
 10
3.4367600000000005
 20
3.4233500000000001
 30
0.0
 10
3.5129600000000001
 20
3.4563700000000002
 30
0.0
 10
3.5129600000000001
 20
3.4563700000000002
 30
0.0
 10
3.5256600000000002
 20
3.2125300000000001
 30
0.0
 10
3.4951800000000004
 20
2.9991700000000003
 30
0.0
 10
3.4824800000000002
 20
2.7705700000000002
 30
0.0
 10
3.4824800000000002
 20
2.7705700000000002
 30
0.0
 10
3.4824800000000002
 20
2.7705700000000002
 30
0.0
 10
3.4697800000000001
 20
2.1838300000000004
 30
0.0
 10
3.4697800000000001
 20
2.1838300000000004
 30
0.0
 10
3.4697800000000001
 20
2.1838300000000004
 30
0.0
 10
3.7085400000000002
 20
2.6232500000000001
 30
0.0
 10
3.6729800000000004
 20
1.82315
 30
0.0
 10
3.3580200000000002
 20
1.7748900000000001
 30
0.0
 10
3.3580200000000002
 20
1.7748900000000001
 30
0.0
 10
3.2437200000000002
 20
1.8409300000000002
 30
0.0
 10
3.2437200000000002
 20
1.9704700000000002
 30
0.0
 10
3.2183200000000003
 20
2.0847700000000002
 30
0.0
 10
3.2183200000000003
 20
2.0847700000000002
 30
0.0
 10
3.1624400000000001
 20
2.0187300000000001
 30
0.0
 10
3.0760800000000001
 20
1.9552300000000002
 30
0.0
 10
2.9973400000000003
 20
2.0034900000000002
 30
0.0
 10
2.9973400000000003
 20
2.0034900000000002
 30
0.0
 10
2.92876
 20
2.1177900000000003
 30
0.0
 10
2.8906600000000005
 20
2.2473300000000003
 30
0.0
 10
2.9236800000000001
 20
2.37941
 30
0.0
 10
2.9236800000000001
 20
2.37941
 30
0.0
 10
2.8093800000000004
 20
2.4098900000000003
 30
0.0
 10
2.9313000000000002
 20
2.2320900000000004
 30
0.0
 10
2.8297000000000003
 20
2.1990700000000003
 30
0.0
 10
2.8297000000000003
 20
2.1990700000000003
 30
0.0
 10
2.4944200000000003
 20
2.5749900000000001
 30
0.0
 10
2.30138
 20
3.1617300000000004
 30
0.0
 10
1.9635600000000002
 20
3.5528900000000001
 30
0.0
 10
1.9635600000000002
 20
3.5528900000000001
 30
0.0
 10
1.9610200000000002
 20
3.2912700000000004
 30
0.0
 10
2.0600800000000001
 20
2.9178900000000003
 30
0.0
 10
1.8797400000000002
 20
2.6410300000000002
 30
0.0
 10
1.8797400000000002
 20
2.6410300000000002
 30
0.0
 10
1.2676000000000001
 20
2.8340700000000001
 30
0.0
 10
0.87136
 20
1.9704700000000002
 30
0.0
 10
0.19064
 20
1.9374500000000001
 30
0.0
 10
0.19064
 20
1.9374500000000001
 30
0.0
 10
0.19064
 20
1.9374500000000001
 30
0.0
 10
0.14238
 20
2.1838300000000004
 30
0.0
 10
0.14238
 20
2.1838300000000004
 30
0.0
 10
0.14238
 20
2.1838300000000004
 30
0.0
 10
0.07888
 20
1.7418700000000003
 30
0.0
 10
-0.58913
 20
1.52851
 30
0.0
 10
-0.9548900000000001
 20
1.2516500000000002
 30
0.0
 10
-0.9548900000000001
 20
1.2516500000000002
 30
0.0
 10
-1.3968500000000001
 20
1.3837300000000001
 30
0.0
 10
-0.7085100000000001
 20
2.4098900000000003
 30
0.0
 10
-0.7262900000000001
 20
1.9374500000000001
 30
0.0
 10
-0.7262900000000001
 20
1.9374500000000001
 30
0.0
 10
-0.74407
 20
1.8739500000000002
 30
0.0
 10
-0.75931
 20
1.7748900000000001
 30
0.0
 10
-0.7262900000000001
 20
1.7088500000000002
 30
0.0
 10
-0.7262900000000001
 20
1.7088500000000002
 30
0.0
 10
-0.6196100000000001
 20
2.0847700000000002
 30
0.0
 10
-0.5434100000000001
 20
2.5572100000000004
 30
0.0
 10
-0.3656100000000001
 20
2.9331300000000002
 30
0.0
 10
-0.3656100000000001
 20
2.9331300000000002
 30
0.0
 10
-0.20051
 20
2.7223100000000002
 30
0.0
 10
-0.32751
 20
2.42767
 30
0.0
 10
-0.36053
 20
2.2320900000000004
 30
0.0
 10
-0.36053
 20
2.2320900000000004
 30
0.0
 10
-0.24369
 20
2.3946500000000004
 30
0.0
 10
0.02554
 20
2.4937100000000001
 30
0.0
 10
-0.17511
 20
2.7045300000000001
 30
0.0
 10
-0.17511
 20
2.7045300000000001
 30
0.0
 10
-0.24623
 20
2.8340700000000001
 30
0.0
 10
0.00268
 20
2.8188300000000002
 30
0.0
 10
0.02808
 20
2.9661500000000003
 30
0.0
 10
0.02808
 20
2.9661500000000003
 30
0.0
 10
0.11698
 20
2.8670900000000001
 30
0.0
 10
-0.00239
 20
2.6410300000000002
 30
0.0
 10
0.06872
 20
2.5241900000000004
 30
0.0
 10
0.06872
 20
2.5241900000000004
 30
0.0
 10
0.13476
 20
2.6232500000000001
 30
0.0
 10
0.03316
 20
2.9331300000000002
 30
0.0
 10
0.15762
 20
2.8848700000000003
 30
0.0
 10
0.15762
 20
2.8848700000000003
 30
0.0
 10
0.15762
 20
2.8848700000000003
 30
0.0
 10
0.29732
 20
2.7375500000000001
 30
0.0
 10
0.29732
 20
2.7375500000000001
 30
0.0
 10
0.29732
 20
2.7375500000000001
 30
0.0
 10
0.09412
 20
3.0956900000000003
 30
0.0
 10
0.2262
 20
3.7002100000000002
 30
0.0
 10
0.3455800000000001
 20
3.9770700000000003
 30
0.0
 10
0.3455800000000001
 20
3.9770700000000003
 30
0.0
 10
0.70372
 20
3.6849700000000003
 30
0.0
 10
0.6910200000000001
 20
3.2125300000000001
 30
0.0
 10
0.53354
 20
2.8035900000000002
 30
0.0
 10
0.53354
 20
2.8035900000000002
 30
0.0
 10
0.53354
 20
2.8035900000000002
 30
0.0
 10
0.59958
 20
2.8696300000000003
 30
0.0
 10
0.59958
 20
2.8696300000000003
 30
0.0
 10
0.59958
 20
2.8696300000000003
 30
0.0
 10
0.59958
 20
2.8696300000000003
 30
0.0
 10
0.7291200000000001
 20
3.1947500000000004
 30
0.0
 10
0.7291200000000001
 20
3.1947500000000004
 30
0.0
 10
0.7291200000000001
 20
3.1947500000000004
 30
0.0
 10
0.8002400000000001
 20
3.1287100000000003
 30
0.0
 10
0.7799200000000001
 20
2.8670900000000001
 30
0.0
 10
0.85104
 20
2.7553300000000003
 30
0.0
 10
0.85104
 20
2.7553300000000003
 30
0.0
 10
0.85104
 20
2.7553300000000003
 30
0.0
 10
0.7900800000000001
 20
3.3090500000000005
 30
0.0
 10
0.7900800000000001
 20
3.3090500000000005
 30
0.0
 10
0.7900800000000001
 20
3.3090500000000005
 30
0.0
 10
0.7342000000000001
 20
3.5859100000000002
 30
0.0
 10
1.0898000000000001
 20
3.3242900000000004
 30
0.0
 10
1.2295
 20
3.4716100000000001
 30
0.0
 10
1.2295
 20
3.4716100000000001
 30
0.0
 10
1.31586
 20
3.4385900000000005
 30
0.0
 10
1.1660000000000001
 20
2.7400900000000004
 30
0.0
 10
1.31332
 20
3.1947500000000004
 30
0.0
 10
1.31332
 20
3.1947500000000004
 30
0.0
 10
1.3260200000000002
 20
3.3725500000000004
 30
0.0
 10
1.3311000000000002
 20
3.3903300000000001
 30
0.0
 10
1.39968
 20
3.2277700000000005
 30
0.0
 10
1.39968
 20
3.2277700000000005
 30
0.0
 10
1.4911200000000002
 20
3.0804500000000004
 30
0.0
 10
1.7222600000000001
 20
2.8670900000000001
 30
0.0
 10
1.5470000000000002
 20
3.1464900000000005
 30
0.0
 10
1.5470000000000002
 20
3.1464900000000005
 30
0.0
 10
1.31586
 20
3.3420700000000001
 30
0.0
 10
1.3920600000000001
 20
3.6849700000000003
 30
0.0
 10
1.5393800000000002
 20
3.8957900000000003
 30
0.0
 10
1.5393800000000002
 20
3.8957900000000003
 30
0.0
 10
2.04738
 20
3.6849700000000003
 30
0.0
 10
2.3420200000000002
 20
3.1617300000000004
 30
0.0
 10
2.67984
 20
2.7883500000000003
 30
0.0
 10
2.67984
 20
2.7883500000000003
 30
0.0
 10
2.6011000000000002
 20
2.9813900000000002
 30
0.0
 10
2.42076
 20
3.2277700000000005
 30
0.0
 10
2.2963
 20
3.4233500000000001
 30
0.0
 10
2.2963
 20
3.4233500000000001
 30
0.0
 10
2.7839800000000001
 20
3.4385900000000005
 30
0.0
 10
2.7433400000000003
 20
3.7332300000000003
 30
0.0
 10
2.8144600000000004
 20
4.0431100000000004
 30
0.0
  0
SPLINE
  5
2A
100
AcDbEntity
  8
Ebene 1
 62
     7
100
AcDbSpline
210
0.0
220
0.0
230
1.0
 70
     1
 71
     3
 72
    76
 73
    72
 74
     0
 42
0.0000000001
 43
0.0000000001
 40
0.0
 40
0.0
 40
0.0
 40
0.0
 40
0.0555555555555556
 40
0.0555555555555556
 40
0.0555555555555556
 40
0.0555555555555556
 40
0.1111111111111111
 40
0.1111111111111111
 40
0.1111111111111111
 40
0.1111111111111111
 40
0.1666666666666667
 40
0.1666666666666667
 40
0.1666666666666667
 40
0.1666666666666667
 40
0.2222222222222222
 40
0.2222222222222222
 40
0.2222222222222222
 40
0.2222222222222222
 40
0.2777777777777778
 40
0.2777777777777778
 40
0.2777777777777778
 40
0.2777777777777778
 40
0.3333333333333334
 40
0.3333333333333334
 40
0.3333333333333334
 40
0.3333333333333334
 40
0.388888888888889
 40
0.388888888888889
 40
0.388888888888889
 40
0.388888888888889
 40
0.4444444444444445
 40
0.4444444444444445
 40
0.4444444444444445
 40
0.4444444444444445
 40
0.5000000000000001
 40
0.5000000000000001
 40
0.5000000000000001
 40
0.5000000000000001
 40
0.5555555555555557
 40
0.5555555555555557
 40
0.5555555555555557
 40
0.5555555555555557
 40
0.6111111111111113
 40
0.6111111111111113
 40
0.6111111111111113
 40
0.6111111111111113
 40
0.6666666666666669
 40
0.6666666666666669
 40
0.6666666666666669
 40
0.6666666666666669
 40
0.7222222222222224
 40
0.7222222222222224
 40
0.7222222222222224
 40
0.7222222222222224
 40
0.777777777777778
 40
0.777777777777778
 40
0.777777777777778
 40
0.777777777777778
 40
0.8333333333333336
 40
0.8333333333333336
 40
0.8333333333333336
 40
0.8333333333333336
 40
0.8888888888888892
 40
0.8888888888888892
 40
0.8888888888888892
 40
0.8888888888888892
 40
0.9444444444444448
 40
0.9444444444444448
 40
0.9444444444444448
 40
0.9444444444444448
 40
1.0
 40
1.0
 40
1.0
 40
1.0
 10
-2.6338300000000001
 20
4.0278700000000001
 30
0.0
 10
-2.7608300000000003
 20
3.5935300000000003
 30
0.0
 10
-2.8192500000000003
 20
2.9915500000000002
 30
0.0
 10
-2.9818100000000003
 20
2.51403
 30
0.0
 10
-2.9818100000000003
 20
2.51403
 30
0.0
 10
-2.9970500000000002
 20
2.4683100000000002
 30
0.0
 10
-3.0961100000000004
 20
2.2854300000000003
 30
0.0
 10
-3.0046700000000004
 20
2.3616300000000003
 30
0.0
 10
-3.0046700000000004
 20
2.3616300000000003
 30
0.0
 10
-3.0046700000000004
 20
2.3616300000000003
 30
0.0
 10
-2.8802100000000004
 20
2.5749900000000001
 30
0.0
 10
-2.8802100000000004
 20
2.5749900000000001
 30
0.0
 10
-2.8802100000000004
 20
2.5749900000000001
 30
0.0
 10
-2.8141700000000003
 20
2.6410300000000002
 30
0.0
 10
-2.8624300000000003
 20
2.4098900000000003
 30
0.0
 10
-2.8471900000000003
 20
2.34639
 30
0.0
 10
-2.8471900000000003
 20
2.34639
 30
0.0
 10
-2.8573500000000003
 20
2.1330300000000002
 30
0.0
 10
-2.8421100000000004
 20
1.9222100000000002
 30
0.0
 10
-2.7811500000000002
 20
1.7418700000000003
 30
0.0
 10
-2.7811500000000002
 20
1.7418700000000003
 30
0.0
 10
-2.6770100000000001
 20
2.0187300000000001
 30
0.0
 10
-2.6516100000000002
 20
2.2651100000000004
 30
0.0
 10
-2.6389100000000001
 20
2.5749900000000001
 30
0.0
 10
-2.6389100000000001
 20
2.5749900000000001
 30
0.0
 10
-2.6160500000000004
 20
2.59023
 30
0.0
 10
-2.5931900000000003
 20
2.6410300000000002
 30
0.0
 10
-2.5576300000000001
 20
2.6232500000000001
 30
0.0
 10
-2.5576300000000001
 20
2.6232500000000001
 30
0.0
 10
-2.5576300000000001
 20
2.6232500000000001
 30
0.0
 10
-2.4712700000000001
 20
1.8891900000000001
 30
0.0
 10
-2.4712700000000001
 20
1.8891900000000001
 30
0.0
 10
-2.4712700000000001
 20
1.8891900000000001
 30
0.0
 10
-2.4738100000000003
 20
1.8079100000000001
 30
0.0
 10
-2.4738100000000003
 20
1.7266300000000001
 30
0.0
 10
-2.4509500000000002
 20
1.6428100000000001
 30
0.0
 10
-2.4509500000000002
 20
1.6428100000000001
 30
0.0
 10
-2.3417300000000001
 20
1.5945500000000001
 30
0.0
 10
-2.4077700000000002
 20
1.8079100000000001
 30
0.0
 10
-2.3417300000000001
 20
1.8409300000000002
 30
0.0
 10
-2.3417300000000001
 20
1.8409300000000002
 30
0.0
 10
-2.2071100000000001
 20
1.5462900000000002
 30
0.0
 10
-2.1436100000000002
 20
1.1703700000000001
 30
0.0
 10
-2.3112500000000002
 20
0.8604900000000001
 30
0.0
 10
-2.3112500000000002
 20
0.8604900000000001
 30
0.0
 10
-2.5855700000000001
 20
0.9417700000000001
 30
0.0
 10
-2.6846300000000003
 20
1.23641
 30
0.0
 10
-2.7532100000000002
 20
1.4802500000000001
 30
0.0
 10
-2.7532100000000002
 20
1.4802500000000001
 30
0.0
 10
-2.8319500000000004
 20
1.4980300000000002
 30
0.0
 10
-2.7709900000000003
 20
1.3659500000000002
 30
0.0
 10
-2.8141700000000003
 20
1.3507100000000001
 30
0.0
 10
-2.8141700000000003
 20
1.3507100000000001
 30
0.0
 10
-3.0757900000000005
 20
1.5615300000000001
 30
0.0
 10
-3.1951700000000001
 20
1.8891900000000001
 30
0.0
 10
-3.1900900000000001
 20
2.2143100000000002
 30
0.0
 10
-3.1900900000000001
 20
2.2143100000000002
 30
0.0
 10
-3.4237700000000002
 20
2.1330300000000002
 30
0.0
 10
-3.3729700000000005
 20
2.6715100000000001
 30
0.0
 10
-3.3704300000000003
 20
2.8670900000000001
 30
0.0
 10
-3.3704300000000003
 20
2.8670900000000001
 30
0.0
 10
-3.1850100000000001
 20
2.8848700000000003
 30
0.0
 10
-3.1875500000000003
 20
2.3946500000000004
 30
0.0
 10
-3.0910300000000004
 20
2.4937100000000001
 30
0.0
 10
-3.0910300000000004
 20
2.4937100000000001
 30
0.0
 10
-3.1164300000000003
 20
2.7223100000000002
 30
0.0
 10
-3.2561300000000002
 20
2.9178900000000003
 30
0.0
 10
-3.2891500000000002
 20
3.1464900000000005
 30
0.0
 10
-3.2891500000000002
 20
3.1464900000000005
 30
0.0
 10
-3.1519900000000001
 20
3.4893900000000002
 30
0.0
 10
-2.9132300000000004
 20
3.7814900000000002
 30
0.0
 10
-2.6338300000000001
 20
4.0278700000000001
 30
0.0
  0
SPLINE
  5
2B
100
AcDbEntity
  8
Ebene 1
 62
     7
100
AcDbSpline
210
0.0
220
0.0
230
1.0
 70
     1
 71
     3
 72
    12
 73
     8
 74
     0
 42
0.0000000001
 43
0.0000000001
 40
0.0
 40
0.0
 40
0.0
 40
0.0
 40
0.5
 40
0.5
 40
0.5
 40
0.5
 40
1.0
 40
1.0
 40
1.0
 40
1.0
 10
3.1243400000000001
 20
3.6036900000000003
 30
0.0
 10
3.1243400000000001
 20
3.6036900000000003
 30
0.0
 10
3.3021400000000001
 20
3.4233500000000001
 30
0.0
 10
3.3021400000000001
 20
3.4233500000000001
 30
0.0
 10
3.3021400000000001
 20
3.4233500000000001
 30
0.0
 10
3.1649800000000003
 20
3.3420700000000001
 30
0.0
 10
3.1446600000000005
 20
3.5046300000000001
 30
0.0
 10
3.1243400000000001
 20
3.6036900000000003
 30
0.0
  0
SPLINE
  5
2C
100
AcDbEntity
  8
Ebene 1
 62
     7
100
AcDbSpline
210
0.0
220
0.0
230
1.0
 70
     1
 71
     3
 72
    20
 73
    16
 74
     0
 42
0.0000000001
 43
0.0000000001
 40
0.0
 40
0.0
 40
0.0
 40
0.0
 40
0.25
 40
0.25
 40
0.25
 40
0.25
 40
0.5
 40
0.5
 40
0.5
 40
0.5
 40
0.75
 40
0.75
 40
0.75
 40
0.75
 40
1.0
 40
1.0
 40
1.0
 40
1.0
 10
-3.3856700000000002
 20
3.2607900000000001
 30
0.0
 10
-3.3856700000000002
 20
3.2607900000000001
 30
0.0
 10
-3.3551900000000003
 20
3.2607900000000001
 30
0.0
 10
-3.3551900000000003
 20
3.2607900000000001
 30
0.0
 10
-3.3551900000000003
 20
3.2607900000000001
 30
0.0
 10
-3.3551900000000003
 20
3.2607900000000001
 30
0.0
 10
-3.3882100000000004
 20
2.8848700000000003
 30
0.0
 10
-3.3882100000000004
 20
2.8848700000000003
 30
0.0
 10
-3.3882100000000004
 20
2.8848700000000003
 30
0.0
 10
-3.3882100000000004
 20
2.8848700000000003
 30
0.0
 10
-3.4517100000000003
 20
2.8670900000000001
 30
0.0
 10
-3.4517100000000003
 20
2.8670900000000001
 30
0.0
 10
-3.4517100000000003
 20
2.8670900000000001
 30
0.0
 10
-3.5355300000000005
 20
2.9813900000000002
 30
0.0
 10
-3.3704300000000003
 20
3.1287100000000003
 30
0.0
 10
-3.3856700000000002
 20
3.2607900000000001
 30
0.0
  0
SPLINE
  5
2D
100
AcDbEntity
  8
Ebene 1
100
AcDbSpline
210
0.0
220
0.0
230
1.0
 70
     1
 71
     3
 72
     8
 73
     4
 74
     0
 42
0.0000000001
 43
0.0000000001
 40
0.0
 40
0.0
 40
0.0
 40
0.0
 40
1.0
 40
1.0
 40
1.0
 40
1.0
 10
1.1812400000000001
 20
2.1990700000000003
 30
0.0
 10
1.2041000000000002
 20
2.1177900000000003
 30
0.0
 10
1.1152000000000002
 20
2.1838300000000004
 30
0.0
 10
1.1812400000000001
 20
2.1990700000000003
 30
0.0
  0
SPLINE
  5
2E
100
AcDbEntity
  8
Ebene 1
 62
     7
100
AcDbSpline
210
0.0
220
0.0
230
1.0
 70
     1
 71
     3
 72
     8
 73
     4
 74
     0
 42
0.0000000001
 43
0.0000000001
 40
0.0
 40
0.0
 40
0.0
 40
0.0
 40
1.0
 40
1.0
 40
1.0
 40
1.0
 10
-3.7133300000000005
 20
1.02559
 30
0.0
 10
-3.7438100000000003
 20
1.02559
 30
0.0
 10
-3.7107900000000003
 20
1.0560700000000001
 30
0.0
 10
-3.7133300000000005
 20
1.02559
 30
0.0
  0
SPLINE
  5
2F
100
AcDbEntity
  8
Ebene 1
100
AcDbSpline
210
0.0
220
0.0
230
1.0
 70
     1
 71
     3
 72
    20
 73
    16
 74
     0
 42
0.0000000001
 43
0.0000000001
 40
0.0
 40
0.0
 40
0.0
 40
0.0
 40
0.25
 40
0.25
 40
0.25
 40
0.25
 40
0.5
 40
0.5
 40
0.5
 40
0.5
 40
0.75
 40
0.75
 40
0.75
 40
0.75
 40
1.0
 40
1.0
 40
1.0
 40
1.0
 10
2.6519000000000004
 20
0.6496700000000001
 30
0.0
 10
2.75604
 20
0.4515500000000001
 30
0.0
 10
2.5325200000000003
 20
0.07817
 30
0.0
 10
2.7204800000000002
 20
-0.1174
 30
0.0
 10
2.7204800000000002
 20
-0.1174
 30
0.0
 10
2.9033600000000002
 20
-0.14788
 30
0.0
 10
3.0151200000000005
 20
0.11119
 30
0.0
 10
3.1853000000000002
 20
0.14421
 30
0.0
 10
3.1853000000000002
 20
0.14421
 30
0.0
 10
2.9871800000000004
 20
-0.05136
 30
0.0
 10
2.8119200000000002
 20
-0.37648
 30
0.0
 10
2.5579200000000002
 20
-0.47554
 30
0.0
 10
2.5579200000000002
 20
-0.47554
 30
0.0
 10
2.38266
 20
-0.13264
 30
0.0
 10
2.54522
 20
0.30423
 30
0.0
 10
2.6519000000000004
 20
0.6496700000000001
 30
0.0
  0
SPLINE
  5
30
100
AcDbEntity
  8
Ebene 1
100
AcDbSpline
210
0.0
220
0.0
230
1.0
 70
     1
 71
     3
 72
    16
 73
    12
 74
     0
 42
0.0000000001
 43
0.0000000001
 40
0.0
 40
0.0
 40
0.0
 40
0.0
 40
0.3333333333333333
 40
0.3333333333333333
 40
0.3333333333333333
 40
0.3333333333333333
 40
0.6666666666666666
 40
0.6666666666666666
 40
0.6666666666666666
 40
0.6666666666666666
 40
1.0
 40
1.0
 40
1.0
 40
1.0
 10
-1.6406900000000002
 20
0.43631
 30
0.0
 10
-1.6203700000000001
 20
0.43631
 30
0.0
 10
-1.6051300000000002
 20
0.43631
 30
0.0
 10
-1.5949700000000002
 20
0.4210700000000001
 30
0.0
 10
-1.5949700000000002
 20
0.4210700000000001
 30
0.0
 10
-1.5949700000000002
 20
0.4210700000000001
 30
0.0
 10
-1.6432300000000002
 20
0.09341
 30
0.0
 10
-1.6432300000000002
 20
0.09341
 30
0.0
 10
-1.6432300000000002
 20
0.09341
 30
0.0
 10
-1.7016500000000001
 20
0.17469
 30
0.0
 10
-1.6457700000000002
 20
0.3372500000000001
 30
0.0
 10
-1.6406900000000002
 20
0.43631
 30
0.0
  0
SPLINE
  5
31
100
AcDbEntity
  8
Ebene 1
 62
     7
100
AcDbSpline
210
0.0
220
0.0
230
1.0
 70
     1
 71
     3
 72
    28
 73
    24
 74
     0
 42
0.0000000001
 43
0.0000000001
 40
0.0
 40
0.0
 40
0.0
 40
0.0
 40
0.1666666666666667
 40
0.1666666666666667
 40
0.1666666666666667
 40
0.1666666666666667
 40
0.3333333333333333
 40
0.3333333333333333
 40
0.3333333333333333
 40
0.3333333333333333
 40
0.5
 40
0.5
 40
0.5
 40
0.5
 40
0.6666666666666666
 40
0.6666666666666666
 40
0.6666666666666666
 40
0.6666666666666666
 40
0.8333333333333333
 40
0.8333333333333333
 40
0.8333333333333333
 40
0.8333333333333333
 40
1.0
 40
1.0
 40
1.0
 40
1.0
 10
-3.5152100000000002
 20
-0.01834
 30
0.0
 10
-3.3551900000000003
 20
-0.01834
 30
0.0
 10
-3.3475700000000002
 20
-0.19868
 30
0.0
 10
-3.3399500000000004
 20
-0.3104400000000001
 30
0.0
 10
-3.3399500000000004
 20
-0.3104400000000001
 30
0.0
 10
-3.4110700000000005
 20
-0.36124
 30
0.0
 10
-3.5710900000000003
 20
-0.36124
 30
0.0
 10
-3.5812500000000003
 20
-0.47554
 30
0.0
 10
-3.5812500000000003
 20
-0.47554
 30
0.0
 10
-3.5075900000000004
 20
-0.4907800000000001
 30
0.0
 10
-3.4110700000000005
 20
-0.36124
 30
0.0
 10
-3.3069300000000004
 20
-0.3942600000000001
 30
0.0
 10
-3.3069300000000004
 20
-0.3942600000000001
 30
0.0
 10
-3.3069300000000004
 20
-0.3942600000000001
 30
0.0
 10
-3.1926300000000003
 20
-0.65588
 30
0.0
 10
-3.1926300000000003
 20
-0.65588
 30
0.0
 10
-3.1926300000000003
 20
-0.65588
 30
0.0
 10
-3.3247100000000001
 20
-0.6863600000000001
 30
0.0
 10
-3.4644100000000004
 20
-0.71938
 30
0.0
 10
-3.5812500000000003
 20
-0.7854200000000001
 30
0.0
 10
-3.5812500000000003
 20
-0.7854200000000001
 30
0.0
 10
-3.7184100000000004
 20
-0.5568200000000001
 30
0.0
 10
-3.8174700000000001
 20
-0.16566
 30
0.0
 10
-3.5152100000000002
 20
-0.01834
 30
0.0
  0
SPLINE
  5
32
100
AcDbEntity
  8
Ebene 1
 62
     7
100
AcDbSpline
210
0.0
220
0.0
230
1.0
 70
     1
 71
     3
 72
    80
 73
    76
 74
     0
 42
0.0000000001
 43
0.0000000001
 40
0.0
 40
0.0
 40
0.0
 40
0.0
 40
0.0526315789473684
 40
0.0526315789473684
 40
0.0526315789473684
 40
0.0526315789473684
 40
0.1052631578947368
 40
0.1052631578947368
 40
0.1052631578947368
 40
0.1052631578947368
 40
0.1578947368421053
 40
0.1578947368421053
 40
0.1578947368421053
 40
0.1578947368421053
 40
0.2105263157894737
 40
0.2105263157894737
 40
0.2105263157894737
 40
0.2105263157894737
 40
0.2631578947368421
 40
0.2631578947368421
 40
0.2631578947368421
 40
0.2631578947368421
 40
0.3157894736842105
 40
0.3157894736842105
 40
0.3157894736842105
 40
0.3157894736842105
 40
0.3684210526315789
 40
0.3684210526315789
 40
0.3684210526315789
 40
0.3684210526315789
 40
0.4210526315789474
 40
0.4210526315789474
 40
0.4210526315789474
 40
0.4210526315789474
 40
0.4736842105263158
 40
0.4736842105263158
 40
0.4736842105263158
 40
0.4736842105263158
 40
0.5263157894736842
 40
0.5263157894736842
 40
0.5263157894736842
 40
0.5263157894736842
 40
0.5789473684210527
 40
0.5789473684210527
 40
0.5789473684210527
 40
0.5789473684210527
 40
0.631578947368421
 40
0.631578947368421
 40
0.631578947368421
 40
0.631578947368421
 40
0.6842105263157894
 40
0.6842105263157894
 40
0.6842105263157894
 40
0.6842105263157894
 40
0.7368421052631577
 40
0.7368421052631577
 40
0.7368421052631577
 40
0.7368421052631577
 40
0.7894736842105261
 40
0.7894736842105261
 40
0.7894736842105261
 40
0.7894736842105261
 40
0.8421052631578945
 40
0.8421052631578945
 40
0.8421052631578945
 40
0.8421052631578945
 40
0.8947368421052628
 40
0.8947368421052628
 40
0.8947368421052628
 40
0.8947368421052628
 40
0.9473684210526312
 40
0.9473684210526312
 40
0.9473684210526312
 40
0.9473684210526312
 40
1.0
 40
1.0
 40
1.0
 40
1.0
 10
-3.3043900000000002
 20
-0.71938
 30
0.0
 10
-3.1494500000000003
 20
-0.7041400000000001
 30
0.0
 10
-2.9945100000000004
 20
-0.80066
 30
0.0
 10
-2.9614900000000004
 20
-0.94798
 30
0.0
 10
-2.9614900000000004
 20
-0.94798
 30
0.0
 10
-3.0351500000000002
 20
-1.0470400000000002
 30
0.0
 10
-3.2180300000000002
 20
-1.0622800000000001
 30
0.0
 10
-3.2332700000000001
 20
-1.2096
 30
0.0
 10
-3.2332700000000001
 20
-1.2096
 30
0.0
 10
-3.0681700000000003
 20
-1.0953000000000002
 30
0.0
 10
-2.86497
 20
-0.8997200000000001
 30
0.0
 10
-2.6846300000000003
 20
-1.1105400000000001
 30
0.0
 10
-2.6846300000000003
 20
-1.1105400000000001
 30
0.0
 10
-2.6846300000000003
 20
-1.1105400000000001
 30
0.0
 10
-2.9614900000000004
 20
-1.3899400000000002
 30
0.0
 10
-2.9614900000000004
 20
-1.3899400000000002
 30
0.0
 10
-2.9614900000000004
 20
-1.3899400000000002
 30
0.0
 10
-2.81671
 20
-1.3569200000000001
 30
0.0
 10
-2.6795500000000003
 20
-1.1105400000000001
 30
0.0
 10
-2.4915900000000004
 20
-1.12832
 30
0.0
 10
-2.4915900000000004
 20
-1.12832
 30
0.0
 10
-2.5373100000000002
 20
-1.2578600000000002
 30
0.0
 10
-2.6135100000000002
 20
-1.4229600000000002
 30
0.0
 10
-2.5982700000000003
 20
-1.5525000000000002
 30
0.0
 10
-2.5982700000000003
 20
-1.5525000000000002
 30
0.0
 10
-2.4458700000000002
 20
-1.4051800000000001
 30
0.0
 10
-2.4128500000000002
 20
-1.1435600000000001
 30
0.0
 10
-2.2147300000000003
 20
-1.0470400000000002
 30
0.0
 10
-2.2147300000000003
 20
-1.0470400000000002
 30
0.0
 10
-2.27569
 20
-1.2756400000000001
 30
0.0
 10
-2.2426700000000004
 20
-1.6337800000000002
 30
0.0
 10
-2.19441
 20
-1.2096
 30
0.0
 10
-2.19441
 20
-1.2096
 30
0.0
 10
-2.1740900000000001
 20
-1.0140200000000001
 30
0.0
 10
-2.0394700000000001
 20
-0.8997200000000001
 30
0.0
 10
-1.8515100000000002
 20
-0.8667
 30
0.0
 10
-1.8515100000000002
 20
-0.8667
 30
0.0
 10
-1.3028700000000002
 20
-1.0140200000000001
 30
0.0
 10
-1.9454900000000002
 20
-1.8141200000000002
 30
0.0
 10
-2.1817100000000003
 20
-1.4712200000000002
 30
0.0
 10
-2.1817100000000003
 20
-1.4712200000000002
 30
0.0
 10
-2.1817100000000003
 20
-1.4712200000000002
 30
0.0
 10
-2.2858500000000004
 20
-1.4864600000000001
 30
0.0
 10
-2.2858500000000004
 20
-1.4864600000000001
 30
0.0
 10
-2.2858500000000004
 20
-1.4864600000000001
 30
0.0
 10
-2.5017500000000004
 20
-1.8141200000000002
 30
0.0
 10
-2.4661900000000001
 20
-2.1671800000000001
 30
0.0
 10
-2.57287
 20
-2.52786
 30
0.0
 10
-2.57287
 20
-2.52786
 30
0.0
 10
-2.6516100000000002
 20
-2.2967200000000001
 30
0.0
 10
-2.6947900000000002
 20
-2.02494
 30
0.0
 10
-2.98943
 20
-2.0909800000000001
 30
0.0
 10
-2.98943
 20
-2.0909800000000001
 30
0.0
 10
-2.98943
 20
-2.0909800000000001
 30
0.0
 10
-3.0707100000000001
 20
-1.9436600000000002
 30
0.0
 10
-3.0707100000000001
 20
-1.9436600000000002
 30
0.0
 10
-3.0707100000000001
 20
-1.9436600000000002
 30
0.0
 10
-3.0681700000000003
 20
-1.8471400000000002
 30
0.0
 10
-2.9691100000000001
 20
-1.9436600000000002
 30
0.0
 10
-2.9157700000000002
 20
-1.9284200000000002
 30
0.0
 10
-2.9157700000000002
 20
-1.9284200000000002
 30
0.0
 10
-3.0630900000000003
 20
-1.7811000000000001
 30
0.0
 10
-3.4059900000000001
 20
-1.8471400000000002
 30
0.0
 10
-3.5456900000000005
 20
-1.6337800000000002
 30
0.0
 10
-3.5456900000000005
 20
-1.6337800000000002
 30
0.0
 10
-3.5355300000000005
 20
-1.4559800000000001
 30
0.0
 10
-3.4872700000000001
 20
-1.3086600000000002
 30
0.0
 10
-3.3221700000000003
 20
-1.4051800000000001
 30
0.0
 10
-3.3221700000000003
 20
-1.4051800000000001
 30
0.0
 10
-3.4237700000000002
 20
-1.2248400000000002
 30
0.0
 10
-3.4999700000000002
 20
-1.0292600000000001
 30
0.0
 10
-3.5609300000000004
 20
-0.8336800000000001
 30
0.0
 10
-3.5609300000000004
 20
-0.8336800000000001
 30
0.0
 10
-3.5609300000000004
 20
-0.8336800000000001
 30
0.0
 10
-3.3043900000000002
 20
-0.71938
 30
0.0
 10
-3.3043900000000002
 20
-0.71938
 30
0.0
  0
SPLINE
  5
33
100
AcDbEntity
  8
Ebene 1
 62
     7
100
AcDbSpline
210
0.0
220
0.0
230
1.0
 70
     1
 71
     3
 72
    24
 73
    20
 74
     0
 42
0.0000000001
 43
0.0000000001
 40
0.0
 40
0.0
 40
0.0
 40
0.0
 40
0.2
 40
0.2
 40
0.2
 40
0.2
 40
0.4
 40
0.4
 40
0.4
 40
0.4
 40
0.6000000000000001
 40
0.6000000000000001
 40
0.6000000000000001
 40
0.6000000000000001
 40
0.8
 40
0.8
 40
0.8
 40
0.8
 40
1.0
 40
1.0
 40
1.0
 40
1.0
 10
0.8231000000000001
 20
-2.10622
 30
0.0
 10
0.8332600000000001
 20
-2.10622
 30
0.0
 10
0.8586600000000001
 20
-2.10622
 30
0.0
 10
0.8561200000000001
 20
-2.1240000000000001
 30
0.0
 10
0.8561200000000001
 20
-2.1240000000000001
 30
0.0
 10
0.7748400000000001
 20
-2.3856200000000003
 30
0.0
 10
0.80786
 20
-2.6624800000000004
 30
0.0
 10
0.78754
 20
-2.9545800000000004
 30
0.0
 10
0.78754
 20
-2.9545800000000004
 30
0.0
 10
0.7265800000000001
 20
-2.9241000000000001
 30
0.0
 10
0.69864
 20
-2.7437600000000004
 30
0.0
 10
0.61482
 20
-2.7920200000000004
 30
0.0
 10
0.61482
 20
-2.7920200000000004
 30
0.0
 10
0.61482
 20
-2.7920200000000004
 30
0.0
 10
0.5487800000000001
 20
-2.9876
 30
0.0
 10
0.5487800000000001
 20
-2.9876
 30
0.0
 10
0.5487800000000001
 20
-2.9876
 30
0.0
 10
0.5030600000000001
 20
-2.6777200000000003
 30
0.0
 10
0.55386
 20
-2.3043400000000003
 30
0.0
 10
0.8231000000000001
 20
-2.10622
 30
0.0
  0
SPLINE
  5
34
100
AcDbEntity
  8
Ebene 1
 62
     7
100
AcDbSpline
210
0.0
220
0.0
230
1.0
 70
     1
 71
     3
 72
    44
 73
    40
 74
     0
 42
0.0000000001
 43
0.0000000001
 40
0.0
 40
0.0
 40
0.0
 40
0.0
 40
0.1
 40
0.1
 40
0.1
 40
0.1
 40
0.2
 40
0.2
 40
0.2
 40
0.2
 40
0.3
 40
0.3
 40
0.3
 40
0.3
 40
0.4
 40
0.4
 40
0.4
 40
0.4
 40
0.5
 40
0.5
 40
0.5
 40
0.5
 40
0.6
 40
0.6
 40
0.6
 40
0.6
 40
0.7
 40
0.7
 40
0.7
 40
0.7
 40
0.7999999999999999
 40
0.7999999999999999
 40
0.7999999999999999
 40
0.7999999999999999
 40
0.8999999999999999
 40
0.8999999999999999
 40
0.8999999999999999
 40
0.8999999999999999
 40
1.0
 40
1.0
 40
1.0
 40
1.0
 10
0.5614800000000001
 20
-2.13924
 30
0.0
 10
0.49036
 20
-2.4161000000000001
 30
0.0
 10
0.4624200000000001
 20
-2.8733000000000004
 30
0.0
 10
0.45988
 20
-3.2339800000000003
 30
0.0
 10
0.45988
 20
-3.2339800000000003
 30
0.0
 10
0.4192400000000001
 20
-3.2009600000000002
 30
0.0
 10
0.41162
 20
-3.1349200000000002
 30
0.0
 10
0.39384
 20
-3.0866600000000002
 30
0.0
 10
0.39384
 20
-3.0866600000000002
 30
0.0
 10
0.24652
 20
-3.0714200000000003
 30
0.0
 10
0.277
 20
-3.5108400000000004
 30
0.0
 10
0.2516000000000001
 20
-3.2009600000000002
 30
0.0
 10
0.2516000000000001
 20
-3.2009600000000002
 30
0.0
 10
0.24652
 20
-3.1857200000000003
 30
0.0
 10
0.2262
 20
-3.1527000000000003
 30
0.0
 10
0.20842
 20
-3.1679400000000002
 30
0.0
 10
0.20842
 20
-3.1679400000000002
 30
0.0
 10
0.22112
 20
-3.3482800000000004
 30
0.0
 10
0.22874
 20
-3.5260800000000003
 30
0.0
 10
0.18302
 20
-3.6911800000000001
 30
0.0
 10
0.18302
 20
-3.6911800000000001
 30
0.0
 10
0.18302
 20
-3.6911800000000001
 30
0.0
 10
0.023
 20
-3.4448000000000003
 30
0.0
 10
0.023
 20
-3.4448000000000003
 30
0.0
 10
0.023
 20
-3.4448000000000003
 30
0.0
 10
-0.05319
 20
-3.3482800000000004
 30
0.0
 10
-0.04811
 20
-3.5768800000000005
 30
0.0
 10
-0.11669
 20
-3.5591000000000004
 30
0.0
 10
-0.11669
 20
-3.5591000000000004
 30
0.0
 10
-0.13701
 20
-3.1527000000000003
 30
0.0
 10
-0.06843
 20
-2.7285200000000001
 30
0.0
 10
0.19826
 20
-2.4338800000000003
 30
0.0
 10
0.19826
 20
-2.4338800000000003
 30
0.0
 10
0.24652
 20
-2.5634200000000003
 30
0.0
 10
0.16778
 20
-2.7285200000000001
 30
0.0
 10
0.21604
 20
-2.8733000000000004
 30
0.0
 10
0.21604
 20
-2.8733000000000004
 30
0.0
 10
0.23128
 20
-2.5964400000000003
 30
0.0
 10
0.30494
 20
-2.2865600000000001
 30
0.0
 10
0.5614800000000001
 20
-2.13924
 30
0.0
  0
SPLINE
  5
35
100
AcDbEntity
  8
Ebene 1
 62
     7
100
AcDbSpline
210
0.0
220
0.0
230
1.0
 70
     1
 71
     3
 72
    16
 73
    12
 74
     0
 42
0.0000000001
 43
0.0000000001
 40
0.0
 40
0.0
 40
0.0
 40
0.0
 40
0.3333333333333333
 40
0.3333333333333333
 40
0.3333333333333333
 40
0.3333333333333333
 40
0.6666666666666666
 40
0.6666666666666666
 40
0.6666666666666666
 40
0.6666666666666666
 40
1.0
 40
1.0
 40
1.0
 40
1.0
 10
0.9678800000000001
 20
-2.1570200000000002
 30
0.0
 10
1.0517000000000001
 20
-2.2865600000000001
 30
0.0
 10
1.0517000000000001
 20
-2.5151600000000003
 30
0.0
 10
1.0796400000000002
 20
-2.6777200000000003
 30
0.0
 10
1.0796400000000002
 20
-2.6777200000000003
 30
0.0
 10
0.9704200000000001
 20
-2.4669000000000003
 30
0.0
 10
0.9247000000000001
 20
-2.7285200000000001
 30
0.0
 10
0.8764400000000001
 20
-2.8250400000000004
 30
0.0
 10
0.8764400000000001
 20
-2.8250400000000004
 30
0.0
 10
0.87136
 20
-2.5964400000000003
 30
0.0
 10
0.8459600000000001
 20
-2.3526000000000002
 30
0.0
 10
0.9678800000000001
 20
-2.1570200000000002
 30
0.0
  0
SPLINE
  5
36
100
AcDbEntity
  8
Ebene 1
 62
     7
100
AcDbSpline
210
0.0
220
0.0
230
1.0
 70
     1
 71
     3
 72
    60
 73
    56
 74
     0
 42
0.0000000001
 43
0.0000000001
 40
0.0
 40
0.0
 40
0.0
 40
0.0
 40
0.0714285714285714
 40
0.0714285714285714
 40
0.0714285714285714
 40
0.0714285714285714
 40
0.1428571428571429
 40
0.1428571428571429
 40
0.1428571428571429
 40
0.1428571428571429
 40
0.2142857142857143
 40
0.2142857142857143
 40
0.2142857142857143
 40
0.2142857142857143
 40
0.2857142857142857
 40
0.2857142857142857
 40
0.2857142857142857
 40
0.2857142857142857
 40
0.3571428571428571
 40
0.3571428571428571
 40
0.3571428571428571
 40
0.3571428571428571
 40
0.4285714285714285
 40
0.4285714285714285
 40
0.4285714285714285
 40
0.4285714285714285
 40
0.4999999999999999
 40
0.4999999999999999
 40
0.4999999999999999
 40
0.4999999999999999
 40
0.5714285714285713
 40
0.5714285714285713
 40
0.5714285714285713
 40
0.5714285714285713
 40
0.6428571428571427
 40
0.6428571428571427
 40
0.6428571428571427
 40
0.6428571428571427
 40
0.7142857142857141
 40
0.7142857142857141
 40
0.7142857142857141
 40
0.7142857142857141
 40
0.7857142857142855
 40
0.7857142857142855
 40
0.7857142857142855
 40
0.7857142857142855
 40
0.8571428571428569
 40
0.8571428571428569
 40
0.8571428571428569
 40
0.8571428571428569
 40
0.9285714285714283
 40
0.9285714285714283
 40
0.9285714285714283
 40
0.9285714285714283
 40
1.0
 40
1.0
 40
1.0
 40
1.0
 10
-2.7328900000000003
 20
-2.5481800000000003
 30
0.0
 10
-2.6846300000000003
 20
-2.5481800000000003
 30
0.0
 10
-2.6566900000000002
 20
-2.5964400000000003
 30
0.0
 10
-2.6668500000000002
 20
-2.6447000000000003
 30
0.0
 10
-2.6668500000000002
 20
-2.6447000000000003
 30
0.0
 10
-2.6668500000000002
 20
-2.6447000000000003
 30
0.0
 10
-2.6465300000000003
 20
-2.7615400000000001
 30
0.0
 10
-2.6465300000000003
 20
-2.7615400000000001
 30
0.0
 10
-2.6465300000000003
 20
-2.7615400000000001
 30
0.0
 10
-2.6135100000000002
 20
-2.7285200000000001
 30
0.0
 10
-2.6668500000000002
 20
-2.6294600000000004
 30
0.0
 10
-2.5855700000000001
 20
-2.6294600000000004
 30
0.0
 10
-2.5855700000000001
 20
-2.6294600000000004
 30
0.0
 10
-2.5423900000000001
 20
-2.7107400000000004
 30
0.0
 10
-2.6363700000000003
 20
-2.8250400000000004
 30
0.0
 10
-2.5982700000000003
 20
-2.9393400000000001
 30
0.0
 10
-2.5982700000000003
 20
-2.9393400000000001
 30
0.0
 10
-2.5322300000000002
 20
-3.0536400000000001
 30
0.0
 10
-2.4026900000000002
 20
-2.9876
 30
0.0
 10
-2.3112500000000002
 20
-3.0206200000000001
 30
0.0
 10
-2.3112500000000002
 20
-3.0206200000000001
 30
0.0
 10
-2.27569
 20
-3.4117800000000003
 30
0.0
 10
-2.1436100000000002
 20
-3.8054800000000002
 30
0.0
 10
-2.2147300000000003
 20
-4.1788600000000002
 30
0.0
 10
-2.2147300000000003
 20
-4.1788600000000002
 30
0.0
 10
-2.2147300000000003
 20
-4.1788600000000002
 30
0.0
 10
-2.27569
 20
-4.0493200000000007
 30
0.0
 10
-2.27569
 20
-4.0493200000000007
 30
0.0
 10
-2.27569
 20
-4.0493200000000007
 30
0.0
 10
-2.27061
 20
-4.0163000000000002
 30
0.0
 10
-2.3010900000000003
 20
-4.0010600000000007
 30
0.0
 10
-2.3239500000000004
 20
-3.9832800000000002
 30
0.0
 10
-2.3239500000000004
 20
-3.9832800000000002
 30
0.0
 10
-2.35697
 20
-3.9832800000000002
 30
0.0
 10
-2.36205
 20
-4.0163000000000002
 30
0.0
 10
-2.35697
 20
-4.0493200000000007
 30
0.0
 10
-2.35697
 20
-4.0493200000000007
 30
0.0
 10
-2.4534900000000004
 20
-4.2601400000000007
 30
0.0
 10
-2.3772900000000003
 20
-3.7216600000000004
 30
0.0
 10
-2.4230100000000001
 20
-3.8689800000000005
 30
0.0
 10
-2.4230100000000001
 20
-3.8689800000000005
 30
0.0
 10
-2.4230100000000001
 20
-3.8689800000000005
 30
0.0
 10
-2.4915900000000004
 20
-4.3261799999999999
 30
0.0
 10
-2.4915900000000004
 20
-4.3261799999999999
 30
0.0
 10
-2.4915900000000004
 20
-4.3261799999999999
 30
0.0
 10
-2.51953
 20
-4.0493200000000007
 30
0.0
 10
-2.7049500000000002
 20
-3.7546800000000005
 30
0.0
 10
-2.6871700000000001
 20
-3.4778200000000004
 30
0.0
 10
-2.6871700000000001
 20
-3.4778200000000004
 30
0.0
 10
-2.7684500000000001
 20
-3.4778200000000004
 30
0.0
 10
-2.7278100000000003
 20
-3.6911800000000001
 30
0.0
 10
-2.7989300000000004
 20
-3.6581600000000001
 30
0.0
 10
-2.7989300000000004
 20
-3.6581600000000001
 30
0.0
 10
-2.7735300000000001
 20
-3.2974800000000002
 30
0.0
 10
-2.6897100000000003
 20
-2.9241000000000001
 30
0.0
 10
-2.7328900000000003
 20
-2.5481800000000003
 30
0.0
  0
SPLINE
  5
37
100
AcDbEntity
  8
Ebene 1
 62
     7
100
AcDbSpline
210
0.0
220
0.0
230
1.0
 70
     1
 71
     3
 72
    12
 73
     8
 74
     0
 42
0.0000000001
 43
0.0000000001
 40
0.0
 40
0.0
 40
0.0
 40
0.0
 40
0.5
 40
0.5
 40
0.5
 40
0.5
 40
1.0
 40
1.0
 40
1.0
 40
1.0
 10
1.14822
 20
-2.6142200000000004
 30
0.0
 10
1.2295
 20
-2.6624800000000004
 30
0.0
 10
1.2168000000000001
 20
-2.7920200000000004
 30
0.0
 10
1.2269600000000001
 20
-2.8910800000000001
 30
0.0
 10
1.2269600000000001
 20
-2.8910800000000001
 30
0.0
 10
1.1253600000000001
 20
-2.85806
 30
0.0
 10
1.11012
 20
-2.6955
 30
0.0
 10
1.14822
 20
-2.6142200000000004
 30
0.0
  0
SPLINE
  5
38
100
AcDbEntity
  8
Ebene 1
 62
     7
100
AcDbSpline
210
0.0
220
0.0
230
1.0
 70
     1
 71
     3
 72
    12
 73
     8
 74
     0
 42
0.0000000001
 43
0.0000000001
 40
0.0
 40
0.0
 40
0.0
 40
0.0
 40
0.5
 40
0.5
 40
0.5
 40
0.5
 40
1.0
 40
1.0
 40
1.0
 40
1.0
 10
0.9856600000000001
 20
-2.7107400000000004
 30
0.0
 10
1.0948800000000001
 20
-2.9063200000000005
 30
0.0
 10
1.1228200000000002
 20
-3.1349200000000002
 30
0.0
 10
1.1279000000000001
 20
-3.3635200000000003
 30
0.0
 10
1.1279000000000001
 20
-3.3635200000000003
 30
0.0
 10
0.8662800000000001
 20
-3.2492200000000002
 30
0.0
 10
0.88914
 20
-2.9241000000000001
 30
0.0
 10
0.9856600000000001
 20
-2.7107400000000004
 30
0.0
  0
SPLINE
  5
39
100
AcDbEntity
  8
Ebene 1
 62
     7
100
AcDbSpline
210
0.0
220
0.0
230
1.0
 70
     1
 71
     3
 72
    12
 73
     8
 74
     0
 42
0.0000000001
 43
0.0000000001
 40
0.0
 40
0.0
 40
0.0
 40
0.0
 40
0.5
 40
0.5
 40
0.5
 40
0.5
 40
1.0
 40
1.0
 40
1.0
 40
1.0
 10
0.658
 20
-2.9393400000000001
 30
0.0
 10
0.7469
 20
-3.1196800000000002
 30
0.0
 10
0.8104000000000001
 20
-3.3787600000000002
 30
0.0
 10
0.7570600000000001
 20
-3.5921200000000004
 30
0.0
 10
0.7570600000000001
 20
-3.5921200000000004
 30
0.0
 10
0.64276
 20
-3.4117800000000003
 30
0.0
 10
0.6021200000000001
 20
-3.1527000000000003
 30
0.0
 10
0.658
 20
-2.9393400000000001
 30
0.0
  0
SPLINE
  5
3A
100
AcDbEntity
  8
Ebene 1
 62
     7
100
AcDbSpline
210
0.0
220
0.0
230
1.0
 70
     1
 71
     3
 72
    12
 73
     8
 74
     0
 42
0.0000000001
 43
0.0000000001
 40
0.0
 40
0.0
 40
0.0
 40
0.0
 40
0.5
 40
0.5
 40
0.5
 40
0.5
 40
1.0
 40
1.0
 40
1.0
 40
1.0
 10
0.38114
 20
-3.3152600000000003
 30
0.0
 10
0.5208400000000001
 20
-3.5438600000000005
 30
0.0
 10
0.5183000000000001
 20
-3.9197800000000003
 30
0.0
 10
0.38622
 20
-4.1636200000000008
 30
0.0
 10
0.38622
 20
-4.1636200000000008
 30
0.0
 10
0.29224
 20
-3.8867600000000002
 30
0.0
 10
0.277
 20
-3.5921200000000004
 30
0.0
 10
0.38114
 20
-3.3152600000000003
 30
0.0
  0
SPLINE
  5
3B
100
AcDbEntity
  8
Ebene 1
 62
     7
100
AcDbSpline
210
0.0
220
0.0
230
1.0
 70
     1
 71
     3
 72
    12
 73
     8
 74
     0
 42
0.0000000001
 43
0.0000000001
 40
0.0
 40
0.0
 40
0.0
 40
0.0
 40
0.5
 40
0.5
 40
0.5
 40
0.5
 40
1.0
 40
1.0
 40
1.0
 40
1.0
 10
0.023
 20
-3.6099000000000001
 30
0.0
 10
0.15254
 20
-3.8867600000000002
 30
0.0
 10
0.15762
 20
-4.2449000000000003
 30
0.0
 10
-0.02271
 20
-4.5065200000000001
 30
0.0
 10
-0.02271
 20
-4.5065200000000001
 30
0.0
 10
-0.16241
 20
-4.22966
 30
0.0
 10
-0.12177
 20
-3.8867600000000002
 30
0.0
 10
0.023
 20
-3.6099000000000001
 30
0.0
  0
SPLINE
  5
3C
100
AcDbEntity
  8
Ebene 1
 62
     7
100
AcDbSpline
210
0.0
220
0.0
230
1.0
 70
     1
 71
     3
 72
    12
 73
     8
 74
     0
 42
0.0000000001
 43
0.0000000001
 40
0.0
 40
0.0
 40
0.0
 40
0.0
 40
0.5
 40
0.5
 40
0.5
 40
0.5
 40
1.0
 40
1.0
 40
1.0
 40
1.0
 10
-0.49769
 20
-3.6911800000000001
 30
0.0
 10
-0.19543
 20
-4.0493200000000007
 30
0.0
 10
-0.28941
 20
-4.6538400000000006
 30
0.0
 10
-0.58913
 20
-4.9815000000000005
 30
0.0
 10
-0.58913
 20
-4.9815000000000005
 30
0.0
 10
-0.7339100000000001
 20
-4.5395400000000006
 30
0.0
 10
-0.5815100000000001
 20
-4.1153599999999999
 30
0.0
 10
-0.49769
 20
-3.6911800000000001
 30
0.0
  0
SPLINE
  5
3D
100
AcDbEntity
  8
Ebene 1
 62
     7
100
AcDbSpline
210
0.0
220
0.0
230
1.0
 70
     1
 71
     3
 72
    12
 73
     8
 74
     0
 42
0.0000000001
 43
0.0000000001
 40
0.0
 40
0.0
 40
0.0
 40
0.0
 40
0.5
 40
0.5
 40
0.5
 40
0.5
 40
1.0
 40
1.0
 40
1.0
 40
1.0
 10
-2.7176500000000003
 20
-3.7877000000000005
 30
0.0
 10
-2.6008100000000001
 20
-4.0823400000000003
 30
0.0
 10
-2.5220700000000003
 20
-4.4074600000000004
 30
0.0
 10
-2.6211300000000004
 20
-4.7351200000000002
 30
0.0
 10
-2.6211300000000004
 20
-4.7351200000000002
 30
0.0
 10
-2.7582900000000001
 20
-4.4582600000000001
 30
0.0
 10
-2.8040100000000003
 20
-4.1001200000000004
 30
0.0
 10
-2.7176500000000003
 20
-3.7877000000000005
 30
0.0
  0
SPLINE
  5
3E
100
AcDbEntity
  8
Ebene 1
 62
     7
100
AcDbSpline
210
0.0
220
0.0
230
1.0
 70
     1
 71
     3
 72
    16
 73
    12
 74
     0
 42
0.0000000001
 43
0.0000000001
 40
0.0
 40
0.0
 40
0.0
 40
0.0
 40
0.3333333333333333
 40
0.3333333333333333
 40
0.3333333333333333
 40
0.3333333333333333
 40
0.6666666666666666
 40
0.6666666666666666
 40
0.6666666666666666
 40
0.6666666666666666
 40
1.0
 40
1.0
 40
1.0
 40
1.0
 10
-1.8515100000000002
 20
-4.0010600000000007
 30
0.0
 10
-1.8515100000000002
 20
-4.0010600000000007
 30
0.0
 10
-1.8235700000000001
 20
-4.0010600000000007
 30
0.0
 10
-1.8235700000000001
 20
-4.0010600000000007
 30
0.0
 10
-1.8235700000000001
 20
-4.0010600000000007
 30
0.0
 10
-1.7829300000000001
 20
-4.3109400000000004
 30
0.0
 10
-1.6102100000000001
 20
-4.6868600000000002
 30
0.0
 10
-1.8032500000000002
 20
-4.9637200000000004
 30
0.0
 10
-1.8032500000000002
 20
-4.9637200000000004
 30
0.0
 10
-1.9861300000000002
 20
-4.6868600000000002
 30
0.0
 10
-2.05471
 20
-4.2779199999999999
 30
0.0
 10
-1.8515100000000002
 20
-4.0010600000000007
 30
0.0
  0
SPLINE
  5
3F
100
AcDbEntity
  8
Ebene 1
 62
     7
100
AcDbSpline
210
0.0
220
0.0
230
1.0
 70
     1
 71
     3
 72
    16
 73
    12
 74
     0
 42
0.0000000001
 43
0.0000000001
 40
0.0
 40
0.0
 40
0.0
 40
0.0
 40
0.3333333333333333
 40
0.3333333333333333
 40
0.3333333333333333
 40
0.3333333333333333
 40
0.6666666666666666
 40
0.6666666666666666
 40
0.6666666666666666
 40
0.6666666666666666
 40
1.0
 40
1.0
 40
1.0
 40
1.0
 10
-1.0514100000000002
 20
-4.0010600000000007
 30
0.0
 10
-0.9345700000000001
 20
-4.2118800000000007
 30
0.0
 10
-0.8177300000000001
 20
-4.60304
 30
0.0
 10
-1.0183900000000001
 20
-4.8341800000000008
 30
0.0
 10
-1.0183900000000001
 20
-4.8341800000000008
 30
0.0
 10
-1.0183900000000001
 20
-4.8341800000000008
 30
0.0
 10
-1.1987300000000001
 20
-4.5243000000000002
 30
0.0
 10
-1.1987300000000001
 20
-4.5243000000000002
 30
0.0
 10
-1.1987300000000001
 20
-4.5243000000000002
 30
0.0
 10
-1.1580900000000001
 20
-4.34396
 30
0.0
 10
-1.1149100000000001
 20
-4.1636200000000008
 30
0.0
 10
-1.0514100000000002
 20
-4.0010600000000007
 30
0.0
  0
SPLINE
  5
40
100
AcDbEntity
  8
Ebene 1
 62
     7
100
AcDbSpline
210
0.0
220
0.0
230
1.0
 70
     1
 71
     3
 72
    12
 73
     8
 74
     0
 42
0.0000000001
 43
0.0000000001
 40
0.0
 40
0.0
 40
0.0
 40
0.0
 40
0.5
 40
0.5
 40
0.5
 40
0.5
 40
1.0
 40
1.0
 40
1.0
 40
1.0
 10
-2.11313
 20
-4.0670999999999999
 30
0.0
 10
-1.9912100000000001
 20
-4.3109400000000004
 30
0.0
 10
-2.0089900000000003
 20
-4.6538400000000006
 30
0.0
 10
-2.0826500000000001
 20
-4.9307000000000007
 30
0.0
 10
-2.0826500000000001
 20
-4.9307000000000007
 30
0.0
 10
-2.2985500000000001
 20
-4.6868600000000002
 30
0.0
 10
-2.1766300000000003
 20
-4.34396
 30
0.0
 10
-2.11313
 20
-4.0670999999999999
 30
0.0
  0
SPLINE
  5
41
100
AcDbEntity
  8
Ebene 1
 62
     7
100
AcDbSpline
210
0.0
220
0.0
230
1.0
 70
     1
 71
     3
 72
    12
 73
     8
 74
     0
 42
0.0000000001
 43
0.0000000001
 40
0.0
 40
0.0
 40
0.0
 40
0.0
 40
0.5
 40
0.5
 40
0.5
 40
0.5
 40
1.0
 40
1.0
 40
1.0
 40
1.0
 10
-1.4933700000000001
 20
-4.0823400000000003
 30
0.0
 10
-1.2647700000000002
 20
-4.2931600000000003
 30
0.0
 10
-1.3155700000000001
 20
-4.6868600000000002
 30
0.0
 10
-1.4298700000000002
 20
-4.9637200000000004
 30
0.0
 10
-1.4298700000000002
 20
-4.9637200000000004
 30
0.0
 10
-1.6533900000000001
 20
-4.7173400000000001
 30
0.0
 10
-1.5975100000000002
 20
-4.3592000000000004
 30
0.0
 10
-1.4933700000000001
 20
-4.0823400000000003
 30
0.0
  0
SPLINE
  5
42
100
AcDbEntity
  8
Ebene 1
 62
     7
100
AcDbSpline
210
0.0
220
0.0
230
1.0
 70
     1
 71
     3
 72
    16
 73
    12
 74
     0
 42
0.0000000001
 43
0.0000000001
 40
0.0
 40
0.0
 40
0.0
 40
0.0
 40
0.3333333333333333
 40
0.3333333333333333
 40
0.3333333333333333
 40
0.3333333333333333
 40
0.6666666666666666
 40
0.6666666666666666
 40
0.6666666666666666
 40
0.6666666666666666
 40
1.0
 40
1.0
 40
1.0
 40
1.0
 10
-2.3239500000000004
 20
-4.1458400000000006
 30
0.0
 10
-2.3239500000000004
 20
-4.1458400000000006
 30
0.0
 10
-2.2960100000000003
 20
-4.1458400000000006
 30
0.0
 10
-2.2960100000000003
 20
-4.1458400000000006
 30
0.0
 10
-2.2960100000000003
 20
-4.1458400000000006
 30
0.0
 10
-2.2782300000000002
 20
-4.3592000000000004
 30
0.0
 10
-2.2528300000000003
 20
-4.60304
 30
0.0
 10
-2.3112500000000002
 20
-4.8164000000000007
 30
0.0
 10
-2.3112500000000002
 20
-4.8164000000000007
 30
0.0
 10
-2.4560300000000002
 20
-4.6208200000000001
 30
0.0
 10
-2.4585700000000004
 20
-4.3592000000000004
 30
0.0
 10
-2.3239500000000004
 20
-4.1458400000000006
 30
0.0
  0
ENDSEC
  0
SECTION
  2
OBJECTS
  0
DICTIONARY
  5
19
100
AcDbDictionary
280
     0
281
     1
  3
ACAD_GROUP
350
1A
  3
ACAD_MLINESTYLE
350
1B
  3
ACAD_LAYOUT
350
1E
  3
ACAD_PLOTSETTINGS
350
22
  3
ACAD_PLOTSTYLENAME
350
1F
  3
ACAD_WIPEOUT_VARS
350
23
  0
DICTIONARY
  5
1A
102
{ACAD_REACTORS
330
19
102
}
100
AcDbDictionary
280
     0
281
     1
  0
DICTIONARY
  5
1B
102
{ACAD_REACTORS
330
19
102
}
100
AcDbDictionary
280
     0
281
     1
  3
Standard
350
1C
  0
MLINESTYLE
  5
1C
102
{ACAD_REACTORS
330
1B
102
}
100
AcDbMlineStyle
  2
Standard
 70
     0
  3

 62
     0
 51
90.0
 52
90.0
 71
     2
 49
0.5
 62
   256
  6
BYLAYER
 49
-0.5
 62
   256
  6
BYLAYER
  0
ACDBDICTIONARYWDFLT
  5
1F
102
{ACAD_REACTORS
330
19
102
}
100
AcDbDictionary
281
     1
  3
Normal
350
1D
100
AcDbDictionaryWithDefault
340
1D
  0
ACDBPLACEHOLDER
  5
1D
102
{ACAD_REACTORS
330
1F
102
}
  0
LAYOUT
  5
20
102
{ACAD_REACTORS
330
1E
102
}
100
AcDbPlotSettings
  1

  2

  4

  6

 40
0.0
 41
0.0
 42
0.0
 43
0.0
 44
0.0
 45
0.0
 46
0.0
 47
0.0
 48
0.0
 49
0.0
140
0.0
141
0.0
142
1.0
143
1.0
 70
  1024
 72
     0
 73
     0
 74
     0
  7

 75
     0
147
1.0
148
0.0
149
0.0
100
AcDbLayout
  1
Model
 70
     0
 71
     0
 10
0.0
 20
0.0
 11
0.0
 21
0.0
 12
0.0
 22
0.0
 32
0.0
 14
0.0
 24
0.0
 34
0.0
 15
0.0
 25
0.0
 35
0.0
146
0.0
 13
0.0
 23
0.0
 33
0.0
 16
0.0
 26
0.0
 36
0.0
 17
0.0
 27
0.0
 37
0.0
 76
     0
330
A
331
0
345
0
346
0
  0
LAYOUT
  5
21
102
{ACAD_REACTORS
330
1E
102
}
100
AcDbPlotSettings
  1

  2

  4

  6

 40
0.0
 41
0.0
 42
0.0
 43
0.0
 44
0.0
 45
0.0
 46
0.0
 47
0.0
 48
0.0
 49
0.0
140
0.0
141
0.0
142
1.0
143
1.0
 70
     0
 72
     0
 73
     0
 74
     0
  7

 75
     0
147
1.0
148
0.0
149
0.0
100
AcDbLayout
  1
Layout1
 70
     0
 71
     0
 10
0.0
 20
0.0
 11
0.0
 21
0.0
 12
0.0
 22
0.0
 32
0.0
 14
0.0
 24
0.0
 34
0.0
 15
0.0
 25
0.0
 35
0.0
146
0.0
 13
0.0
 23
0.0
 33
0.0
 16
0.0
 26
0.0
 36
0.0
 17
0.0
 27
0.0
 37
0.0
 76
     0
330
B
331
0
345
0
346
0
  0
DICTIONARY
  5
1E
102
{ACAD_REACTORS
330
19
102
}
100
AcDbDictionary
280
     0
281
     1
  3
Layout1
350
21
  3
Model
350
20
  0
DICTIONARY
  5
22
102
{ACAD_REACTORS
330
19
102
}
100
AcDbDictionary
280
     0
281
     1
  0
WIPEOUTVARIABLES
  5
23
100
AcDbWipeoutVariables
 70
     1
  0
ENDSEC
  0
EOF
