  0
SECTION
  2
HEADER
  9
$ACADVER
  1
AC1015
  9
$ACADMAINTVER
 70
     6
  9
$DWGCODEPAGE
  3
DOS850
  9
$INSBASE
 10
0.0
 20
0.0
 30
0.0
  9
$EXTMIN
 10
-2.94973
 20
-6.30992
 30
1.000000E+20
  9
$EXTMAX
 10
2.95574
 20
6.30371
 30
-1.000000E+20
  9
$LIMMIN
 10
0.0
 20
0.0
  9
$LIMMAX
 10
0.0
 20
0.0
  9
$ORTHOMODE
 70
     0
  9
$REGENMODE
 70
     1
  9
$FILLMODE
 70
     1
  9
$QTEXTMODE
 70
     0
  9
$MIRRTEXT
 70
     1
  9
$LTSCALE
 40
1.0
  9
$ATTMODE
 70
     1
  9
$TEXTSIZE
 40
0.2
  9
$TRACEWID
 40
0.05
  9
$TEXTSTYLE
  7
Standard
  9
$CLAYER
  8
0
  9
$CELTYPE
  6
Continuous
  9
$CECOLOR
 62
   256
  9
$CELTSCALE
 40
1.0
  9
$DISPSILH
 70
     0
  9
$DIMSCALE
 40
1.0
  9
$DIMASZ
 40
0.18
  9
$DIMEXO
 40
0.0625
  9
$DIMDLI
 40
0.38
  9
$DIMRND
 40
0.0
  9
$DIMDLE
 40
0.0
  9
$DIMEXE
 40
0.18
  9
$DIMTP
 40
0.0
  9
$DIMTM
 40
0.0
  9
$DIMTXT
 40
0.18
  9
$DIMCEN
 40
0.09
  9
$DIMTSZ
 40
0.0
  9
$DIMTOL
 70
     0
  9
$DIMLIM
 70
     0
  9
$DIMTIH
 70
     1
  9
$DIMTOH
 70
     1
  9
$DIMSE1
 70
     0
  9
$DIMSE2
 70
     0
  9
$DIMTAD
 70
     0
  9
$DIMZIN
 70
     0
  9
$DIMBLK
  1

  9
$DIMASO
 70
     1
  9
$DIMSHO
 70
     1
  9
$DIMPOST
  1

  9
$DIMAPOST
  1

  9
$DIMALT
 70
     0
  9
$DIMALTD
 70
     2
  9
$DIMALTF
 40
25.4
  9
$DIMLFAC
 40
1.0
  9
$DIMTOFL
 70
     0
  9
$DIMTVP
 40
0.0
  9
$DIMTIX
 70
     0
  9
$DIMSOXD
 70
     0
  9
$DIMSAH
 70
     0
  9
$DIMBLK1
  1

  9
$DIMBLK2
  1

  9
$DIMSTYLE
  2
Standard
  9
$DIMCLRD
 70
     0
  9
$DIMCLRE
 70
     0
  9
$DIMCLRT
 70
     0
  9
$DIMTFAC
 40
1.0
  9
$DIMGAP
 40
0.09
  9
$DIMJUST
 70
     0
  9
$DIMSD1
 70
     0
  9
$DIMSD2
 70
     0
  9
$DIMTOLJ
 70
     1
  9
$DIMTZIN
 70
     0
  9
$DIMALTZ
 70
     0
  9
$DIMALTTZ
 70
     0
  9
$DIMUPT
 70
     0
  9
$DIMDEC
 70
     4
  9
$DIMTDEC
 70
     4
  9
$DIMALTU
 70
     2
  9
$DIMALTTD
 70
     2
  9
$DIMTXSTY
  7
Standard
  9
$DIMAUNIT
 70
     0
  9
$DIMADEC
 70
     0
  9
$DIMALTRND
 40
0.0
  9
$DIMAZIN
 70
     0
  9
$DIMDSEP
 70
     0
  9
$DIMATFIT
 70
     3
  9
$DIMFRAC
 70
     0
  9
$DIMLDRBLK
  1

  9
$DIMLUNIT
 70
     2
  9
$DIMLWD
 70
     0
  9
$DIMLWE
 70
     0
  9
$DIMTMOVE
 70
     0
  9
$LUNITS
 70
     2
  9
$LUPREC
 70
     4
  9
$SKETCHINC
 40
0.1
  9
$FILLETRAD
 40
0.0
  9
$AUNITS
 70
     0
  9
$AUPREC
 70
     0
  9
$MENU
  1
acad
  9
$ELEVATION
 40
0.0
  9
$PELEVATION
 40
0.0
  9
$THICKNESS
 40
0.0
  9
$LIMCHECK
 70
     0
  9
$CHAMFERA
 40
0.0
  9
$CHAMFERB
 40
0.0
  9
$CHAMFERC
 40
0.0
  9
$CHAMFERD
 40
0.0
  9
$SKPOLY
 70
     0
  9
$TDCREATE
 40
0.000000000
  9
$TDUCREATE
 40
0.000000000
  9
$TDUPDATE
 40
0.000000000
  9
$TDUUPDATE
 40
0.000000000
  9
$TDINDWG
 40
0.0000000000
  9
$TDUSRTIMER
 40
0.0000000000
  9
$USRTIMER
 70
     1
  9
$ANGBASE
 50
0.0
  9
$ANGDIR
 70
     0
  9
$PDMODE
 70
     0
  9
$PDSIZE
 40
0.0
  9
$PLINEWID
 40
0.0
  9
$SPLFRAME
 70
     0
  9
$SPLINETYPE
 70
     6
  9
$SPLINESEGS
 70
     8
  9
$HANDSEED
  5
42
  9
$SURFTAB1
 70
     6
  9
$SURFTAB2
 70
     6
  9
$SURFTYPE
 70
     6
  9
$SURFU
 70
     6
  9
$SURFV
 70
     6
  9
$UCSBASE
  2

  9
$UCSNAME
  2

  9
$UCSORG
 10
0.0
 20
0.0
 30
0.0
  9
$UCSXDIR
 10
1.0
 20
0.0
 30
0.0
  9
$UCSYDIR
 10
0.0
 20
1.0
 30
0.0
  9
$UCSORTHOREF
  2

  9
$UCSORTHOVIEW
 70
     0
  9
$UCSORGTOP
 10
0.0
 20
0.0
 30
0.0
  9
$UCSORGBOTTOM
 10
0.0
 20
0.0
 30
0.0
  9
$UCSORGLEFT
 10
0.0
 20
0.0
 30
0.0
  9
$UCSORGRIGHT
 10
0.0
 20
0.0
 30
0.0
  9
$UCSORGFRONT
 10
0.0
 20
0.0
 30
0.0
  9
$UCSORGBACK
 10
0.0
 20
0.0
 30
0.0
  9
$PUCSBASE
  2

  9
$PUCSNAME
  2

  9
$PUCSORG
 10
0.0
 20
0.0
 30
0.0
  9
$PUCSXDIR
 10
1.0
 20
0.0
 30
0.0
  9
$PUCSYDIR
 10
0.0
 20
1.0
 30
0.0
  9
$PUCSORTHOREF
  2

  9
$PUCSORTHOVIEW
 70
     0
  9
$PUCSORGTOP
 10
0.0
 20
0.0
 30
0.0
  9
$PUCSORGBOTTOM
 10
0.0
 20
0.0
 30
0.0
  9
$PUCSORGLEFT
 10
0.0
 20
0.0
 30
0.0
  9
$PUCSORGRIGHT
 10
0.0
 20
0.0
 30
0.0
  9
$PUCSORGFRONT
 10
0.0
 20
0.0
 30
0.0
  9
$PUCSORGBACK
 10
0.0
 20
0.0
 30
0.0
  9
$USERI1
 70
     0
  9
$USERI2
 70
     0
  9
$USERI3
 70
     0
  9
$USERI4
 70
     0
  9
$USERI5
 70
     0
  9
$USERR1
 40
0.0
  9
$USERR2
 40
0.0
  9
$USERR3
 40
0.0
  9
$USERR4
 40
0.0
  9
$USERR5
 40
0.0
  9
$WORLDVIEW
 70
     1
  9
$SHADEDGE
 70
     3
  9
$SHADEDIF
 70
    70
  9
$TILEMODE
 70
     1
  9
$MAXACTVP
 70
    16
  9
$PINSBASE
 10
0.0
 20
0.0
 30
0.0
  9
$PLIMCHECK
 70
     0
  9
$PEXTMIN
 10
1.000000E+20
 20
1.000000E+20
 30
1.000000E+20
  9
$PEXTMAX
 10
-1.000000E+20
 20
-1.000000E+20
 30
-1.000000E+20
  9
$PLIMMIN
 10
0.0
 20
0.0
  9
$PLIMMAX
 10
12.0
 20
9.0
  9
$UNITMODE
 70
     0
  9
$VISRETAIN
 70
     0
  9
$PLINEGEN
 70
     1
  9
$PSLTSCALE
 70
     0
  9
$TREEDEPTH
 70
  3020
  9
$CMLSTYLE
  2
Standard
  9
$CMLJUST
 70
     0
  9
$CMLSCALE
 40
1.0
  9
$PROXYGRAPHICS
 70
     0
  9
$MEASUREMENT
 70
     0
  9
$CELWEIGHT
370
     0
  9
$ENDCAPS
280
     0
  9
$JOINSTYLE
280
     0
  9
$LWDISPLAY
290
     0
  9
$INSUNITS
 70
     5
  9
$HYPERLINKBASE
  1

  9
$XEDIT
290
     1
  9
$CEPSNTYPE
380
     0
  9
$PSTYLEMODE
290
     1
  9
$FINGERPRINTGUID
  2

  9
$VERSIONGUID
  2

  9
$EXTNAMES
290
     1
  9
$PSVPSCALE
 40
0.0
  0
ENDSEC
  0
SECTION
  2
CLASSES
  0
CLASS
  1
LWPOLYLINE
  2
AcDbPolyline
  3
AutoCAD 2000
 90
    32768
280
     0
281
     1
  0
CLASS
  1
IMAGE
  2
AcDbRasterImage
  3
ISM
 90
    32895
280
     0
281
     1
  0
CLASS
  1
OLE2FRAME
  2
AcDbOle2Frame
  3
AutoCAD 2000
 90
    32768
280
     0
281
     1
  0
CLASS
  1
HATCH
  2
AcDbHatch
  3
AutoCAD 2000
 90
    32768
280
     0
281
     1
  0
CLASS
  1
DICTIONARYVAR
  2
AcDbDictionaryVar
  3
AutoCAD 2000
 90
    32768
280
     0
281
     0
  0
CLASS
  1
RASTERVARIABLES
  2
AcDbRasterVariables
  3
ISM
 90
    32768
280
     0
281
     0
  0
CLASS
  1
IMAGEDEF
  2
AcDbRasterImageDef
  3
ISM
 90
    32768
280
     0
281
     0
  0
CLASS
  1
IMAGEDEF_REACTOR
  2
AcDbRasterImageDefReactor
  3
ISM
 90
    32769
280
     0
281
     0
  0
CLASS
  1
IDBUFFER
  2
AcDbIdBuffer
  3
AutoCAD 2000
 90
    32768
280
     0
281
     0
  0
CLASS
  1
SPATIAL_FILTER
  2
AcDbSpatialFilter
  3
AutoCAD 2000
 90
    32768
280
     0
281
     0
  0
CLASS
  1
XRECORD
  2
AcDbXrecord
  3
AutoCAD 2000
 90
    32768
280
     0
281
     0
  0
CLASS
  1
SORTENTSTABLE
  2
AcDbSortentsTable
  3
AutoCAD 2000
 90
    32768
280
     0
281
     0
  0
CLASS
  1
LAYER_INDEX
  2
AcDbLayerIndex
  3
AutoCAD 2000
 90
    32768
280
     0
281
     0
  0
CLASS
  1
SPATIAL_INDEX
  2
AcDbSpatialIndex
  3
AutoCAD 2000
 90
    32768
280
     0
281
     0
  0
CLASS
  1
OBJECT_PTR
  2
CAseDLPNTableRecord
  3
"ASE-LPNTableRecord"
 90
    32769
280
     0
281
     0
  0
CLASS
  1
LAYOUT
  2
AcDbLayout
  3
AutoCAD 2000
 90
        0
280
     0
281
     0
  0
CLASS
  1
PLOTSETTINGS
  2
AcDbPlotSettings
  3
AutoCAD 2000
 90
    32768
280
     0
281
     0
  0
CLASS
  1
ACDBDICTIONARYWDFLT
  2
AcDbDictionaryWithDefault
  3
AutoCAD 2000
 90
        0
280
     0
281
     0
  0
CLASS
  1
ACDBPLACEHOLDER
  2
AcDbPlaceHolder
  3
AutoCAD 2000
 90
        0
280
     0
281
     0
  0
CLASS
  1
VBA_PROJECT
  2
AcDbVbaProject
  3
acadvba
 90
    32768
280
     0
281
     0
  0
CLASS
  1
WIPEOUT
  2
AcDbWipeout
  3
WipeOut|AutoCAD Express Tool|expresstools@autodesk.com
 90
    32895
280
     0
281
     1
  0
CLASS
  1
WIPEOUTVARIABLES
  2
AcDbWipeoutVariables
  3
WipeOut|AutoCAD Express Tool|expresstools@autodesk.com
 90
        0
280
     0
281
     0
  0
CLASS
  1
RTEXT
  2
RText
  3
RText|AutoCAD Express Tool|expresstools@autodesk.com
 90
    32768
280
     0
281
     1
  0
CLASS
  1
ARCALIGNEDTEXT
  2
AcDbArcAlignedText
  3
ATEXT|AutoCAD Express Tool|expresstools@autodesk.com
 90
    32768
280
     0
281
     1
  0
ENDSEC
  0
SECTION
  2
TABLES
  0
TABLE
  2
VPORT
  5
7
100
AcDbSymbolTable
 70
     1
  0
VPORT
  5
15
100
AcDbSymbolTableRecord
100
AcDbViewportTableRecord
  2
*ACTIVE
 70
     0
 10
0.0
 20
0.0
 11
1.0
 21
1.0
 12
6.591288
 22
4.579184
 13
0.0
 23
0.0
 14
1.0
 24
1.0
 15
0.0
 25
0.0
 16
0.0
 26
0.0
 36
1.0
 17
0.0
 27
0.0
 37
0.0
 40
9.158369
 41
0.688564
 42
50.0
 43
0.0
 44
0.0
 50
0.0
 51
0.0
 71
     0
 72
   100
 73
     1
 74
     1
 75
     0
 76
     0
 77
     0
 78
     0
281
     0
 65
     0
110
0.0
120
0.0
130
0.0
111
1.0
121
0.0
131
0.0
112
0.0
122
1.0
132
0.0
345
0
346
0
 79
     0
146
0.0
  0
ENDTAB
  0
TABLE
  2
LTYPE
  5
4
100
AcDbSymbolTable
 70
     3
  0
LTYPE
  5
11
100
AcDbSymbolTableRecord
100
AcDbLinetypeTableRecord
  2
ByBlock
 70
    64
  3

 72
    65
 73
     0
 40
0.0
  0
LTYPE
  5
12
100
AcDbSymbolTableRecord
100
AcDbLinetypeTableRecord
  2
ByLayer
 70
    64
  3

 72
    65
 73
     0
 40
0.0
  0
LTYPE
  5
13
100
AcDbSymbolTableRecord
100
AcDbLinetypeTableRecord
  2
Continuous
 70
    64
  3
Solid line
 72
    65
 73
     0
 40
0.0
  0
ENDTAB
  0
TABLE
  2
LAYER
  5
2
100
AcDbSymbolTable
 70
     2
  0
LAYER
  5
14
100
AcDbSymbolTableRecord
100
AcDbLayerTableRecord
  2
0
 70
     0
 62
     7
  6
Continuous
290
     1
370
    -3
390
1D
  0
LAYER
  5
24
100
AcDbSymbolTableRecord
100
AcDbLayerTableRecord
  2
Ebene 1
 70
     0
 62
     7
  6
Continuous
290
     1
370
    -3
390
1F
  0
ENDTAB
  0
TABLE
  2
STYLE
  5
3
100
AcDbSymbolTable
 70
     1
  0
STYLE
  5
17
100
AcDbSymbolTableRecord
100
AcDbTextStyleTableRecord
  2
Standard
 70
     0
 40
0.0
 41
1.0
 50
0.0
 71
     0
 42
0.0
  3
txt
  4

  0
ENDTAB
  0
TABLE
  2
VIEW
  5
5
100
AcDbSymbolTable
 70
     0
  0
ENDTAB
  0
TABLE
  2
UCS
  5
6
100
AcDbSymbolTable
 70
     0
  0
ENDTAB
  0
TABLE
  2
APPID
  5
8
100
AcDbSymbolTable
 70
     1
  0
APPID
  5
16
100
AcDbSymbolTableRecord
100
AcDbRegAppTableRecord
  2
ACAD
 70
     0
  0
ENDTAB
  0
TABLE
  2
DIMSTYLE
  5
9
100
AcDbSymbolTable
 70
     1
100
AcDbDimStyleTable
 71
     0
  0
DIMSTYLE
105
18
100
AcDbSymbolTableRecord
100
AcDbDimStyleTableRecord
  2
Standard
 70
     0
  3

  4

 40
1.0
 41
0.18
 42
0.0625
 43
0.38
 44
0.18
 45
0.0
 46
0.0
 47
0.0
 48
0.0
 71
     0
 72
     0
 73
     1
 74
     1
 75
     0
 76
     0
 77
     0
 78
     0
 79
     0
140
0.18
141
0.09
142
0.0
143
25.4
144
1.0
145
0.0
146
1.0
147
0.09
148
0.0
170
     0
171
     2
172
     0
173
     0
174
     0
175
     0
176
     0
177
     0
178
     0
179
     0
271
     4
272
     4
273
     2
274
     2
275
     0
276
     0
277
     2
278
    46
279
     0
280
     0
281
     0
282
     0
283
     1
284
     0
285
     0
286
     0
288
     0
340
17
341
0
342
0
343
0
344
0
371
    -2
372
    -2
  0
ENDTAB
  0
TABLE
  2
BLOCK_RECORD
  5
1
100
AcDbSymbolTable
 70
     0
  0
BLOCK_RECORD
  5
A
100
AcDbSymbolTableRecord
100
AcDbBlockTableRecord
  2
*MODEL_SPACE
340
20
  0
BLOCK_RECORD
  5
B
100
AcDbSymbolTableRecord
100
AcDbBlockTableRecord
  2
*PAPER_SPACE
340
21
  0
ENDTAB
  0
ENDSEC
  0
SECTION
  2
BLOCKS
  0
BLOCK
  5
D
100
AcDbEntity
  8
0
100
AcDbBlockBegin
  2
*MODEL_SPACE
 70
     0
 10
0.0
 20
0.0
 30
0.0
  3
*MODEL_SPACE
  1

  0
ENDBLK
  5
E
100
AcDbEntity
  8
0
100
AcDbBlockEnd
  0
BLOCK
  5
F
100
AcDbEntity
 67
     1
  8
0
100
AcDbBlockBegin
  2
*PAPER_SPACE
 70
     0
 10
0.0
 20
0.0
 30
0.0
  3
*PAPER_SPACE
  1

  0
ENDBLK
  5
10
100
AcDbEntity
 67
     1
  8
0
100
AcDbBlockEnd
  0
ENDSEC
  0
SECTION
  2
ENTITIES
  0
SPLINE
  5
25
100
AcDbEntity
  8
Ebene 1
100
AcDbSpline
210
0.0
220
0.0
230
1.0
 70
     1
 71
     3
 72
   132
 73
   128
 74
     0
 42
0.0000000001
 43
0.0000000001
 40
0.0
 40
0.0
 40
0.0
 40
0.0
 40
0.03125
 40
0.03125
 40
0.03125
 40
0.03125
 40
0.0625
 40
0.0625
 40
0.0625
 40
0.0625
 40
0.09375
 40
0.09375
 40
0.09375
 40
0.09375
 40
0.125
 40
0.125
 40
0.125
 40
0.125
 40
0.15625
 40
0.15625
 40
0.15625
 40
0.15625
 40
0.1875
 40
0.1875
 40
0.1875
 40
0.1875
 40
0.21875
 40
0.21875
 40
0.21875
 40
0.21875
 40
0.25
 40
0.25
 40
0.25
 40
0.25
 40
0.28125
 40
0.28125
 40
0.28125
 40
0.28125
 40
0.3125
 40
0.3125
 40
0.3125
 40
0.3125
 40
0.34375
 40
0.34375
 40
0.34375
 40
0.34375
 40
0.375
 40
0.375
 40
0.375
 40
0.375
 40
0.40625
 40
0.40625
 40
0.40625
 40
0.40625
 40
0.4375
 40
0.4375
 40
0.4375
 40
0.4375
 40
0.46875
 40
0.46875
 40
0.46875
 40
0.46875
 40
0.5
 40
0.5
 40
0.5
 40
0.5
 40
0.53125
 40
0.53125
 40
0.53125
 40
0.53125
 40
0.5625
 40
0.5625
 40
0.5625
 40
0.5625
 40
0.59375
 40
0.59375
 40
0.59375
 40
0.59375
 40
0.625
 40
0.625
 40
0.625
 40
0.625
 40
0.65625
 40
0.65625
 40
0.65625
 40
0.65625
 40
0.6875
 40
0.6875
 40
0.6875
 40
0.6875
 40
0.71875
 40
0.71875
 40
0.71875
 40
0.71875
 40
0.75
 40
0.75
 40
0.75
 40
0.75
 40
0.78125
 40
0.78125
 40
0.78125
 40
0.78125
 40
0.8125
 40
0.8125
 40
0.8125
 40
0.8125
 40
0.84375
 40
0.84375
 40
0.84375
 40
0.84375
 40
0.875
 40
0.875
 40
0.875
 40
0.875
 40
0.90625
 40
0.90625
 40
0.90625
 40
0.90625
 40
0.9375
 40
0.9375
 40
0.9375
 40
0.9375
 40
0.96875
 40
0.96875
 40
0.96875
 40
0.96875
 40
1.0
 40
1.0
 40
1.0
 40
1.0
 10
0.40146
 20
6.3037100000000006
 30
0.0
 10
2.37758
 20
6.3240300000000005
 30
0.0
 10
3.4977200000000002
 20
3.8856300000000004
 30
0.0
 10
2.6925400000000002
 20
2.2447900000000001
 30
0.0
 10
2.6925400000000002
 20
2.2447900000000001
 30
0.0
 10
2.6925400000000002
 20
2.0695300000000003
 30
0.0
 10
2.7154000000000003
 20
1.8841100000000002
 30
0.0
 10
2.6138000000000003
 20
1.73933
 30
0.0
 10
2.6138000000000003
 20
1.73933
 30
0.0
 10
2.6138000000000003
 20
1.6199500000000002
 30
0.0
 10
2.7814400000000004
 20
1.5615300000000001
 30
0.0
 10
2.7433400000000003
 20
1.4294500000000001
 30
0.0
 10
2.7433400000000003
 20
1.4294500000000001
 30
0.0
 10
2.3521800000000002
 20
1.3380100000000001
 30
0.0
 10
2.0804
 20
1.2618100000000001
 30
0.0
 10
1.6765400000000001
 20
1.1246500000000001
 30
0.0
 10
1.6765400000000001
 20
1.1246500000000001
 30
0.0
 10
1.5216000000000001
 20
0.9722500000000001
 30
0.0
 10
1.4301600000000001
 20
0.7614300000000001
 30
0.0
 10
1.2218800000000001
 20
0.6699900000000001
 30
0.0
 10
1.2218800000000001
 20
0.6699900000000001
 30
0.0
 10
1.1558400000000002
 20
0.15183
 30
0.0
 10
1.44286
 20
-0.35616
 30
0.0
 10
1.0644
 20
-0.74224
 30
0.0
 10
1.0644
 20
-0.74224
 30
0.0
 10
1.1812400000000001
 20
-0.95052
 30
0.0
 10
1.0517000000000001
 20
-1.46106
 30
0.0
 10
0.7519800000000001
 20
-1.3569200000000001
 30
0.0
 10
0.7519800000000001
 20
-1.3569200000000001
 30
0.0
 10
0.6757800000000001
 20
-1.4915400000000001
 30
0.0
 10
0.66308
 20
-1.7226800000000002
 30
0.0
 10
0.4548
 20
-1.5906000000000002
 30
0.0
 10
0.4548
 20
-1.5906000000000002
 30
0.0
 10
0.36336
 20
-1.6668000000000001
 30
0.0
 10
0.40146
 20
-1.8420600000000003
 30
0.0
 10
0.27192
 20
-1.8649200000000001
 30
0.0
 10
0.27192
 20
-1.8649200000000001
 30
0.0
 10
0.6249800000000001
 20
-2.8402800000000004
 30
0.0
 10
-0.8710700000000001
 20
-3.1679400000000002
 30
0.0
 10
-0.28433
 20
-4.7605200000000005
 30
0.0
 10
-0.28433
 20
-4.7605200000000005
 30
0.0
 10
-0.22083
 20
-5.1440600000000005
 30
0.0
 10
-0.14209
 20
-5.5936400000000006
 30
0.0
 10
-0.32497
 20
-5.9416200000000003
 30
0.0
 10
-0.32497
 20
-5.9416200000000003
 30
0.0
 10
-0.33767
 20
-5.4615600000000004
 30
0.0
 10
-0.46721
 20
-5.0196000000000005
 30
0.0
 10
-0.70089
 20
-4.6157400000000006
 30
0.0
 10
-0.70089
 20
-4.6157400000000006
 30
0.0
 10
-0.8431300000000001
 20
-4.09504
 30
0.0
 10
-0.6907300000000001
 20
-4.9815000000000005
 30
0.0
 10
-0.67549
 20
-5.1770800000000001
 30
0.0
 10
-0.67549
 20
-5.1770800000000001
 30
0.0
 10
-0.6094500000000001
 20
-5.5936400000000006
 30
0.0
 10
-0.7262900000000001
 20
-6.0330600000000008
 30
0.0
 10
-1.03871
 20
-6.3099200000000009
 30
0.0
 10
-1.03871
 20
-6.3099200000000009
 30
0.0
 10
-0.6094500000000001
 20
-5.6139600000000005
 30
0.0
 10
-1.3003300000000002
 20
-4.4836600000000004
 30
0.0
 10
-1.0260100000000001
 20
-4.01884
 30
0.0
 10
-1.0260100000000001
 20
-4.01884
 30
0.0
 10
-0.7466100000000001
 20
-3.3305000000000002
 30
0.0
 10
0.06872
 20
-2.9317200000000003
 30
0.0
 10
-0.02525
 20
-2.1087600000000002
 30
0.0
 10
-0.02525
 20
-2.1087600000000002
 30
0.0
 10
0.03824
 20
-1.8420600000000003
 30
0.0
 10
-0.24623
 20
-1.8827000000000003
 30
0.0
 10
-0.27163
 20
-1.6414000000000002
 30
0.0
 10
-0.27163
 20
-1.6414000000000002
 30
0.0
 10
-0.35037
 20
-1.58552
 30
0.0
 10
-0.3757700000000001
 20
-1.7582400000000002
 30
0.0
 10
-0.46721
 20
-1.7303000000000002
 30
0.0
 10
-0.46721
 20
-1.7303000000000002
 30
0.0
 10
-0.53325
 20
-1.67188
 30
0.0
 10
-0.5586500000000001
 20
-1.5702800000000001
 30
0.0
 10
-0.5840500000000001
 20
-1.4864600000000001
 30
0.0
 10
-0.5840500000000001
 20
-1.4864600000000001
 30
0.0
 10
-0.6704100000000001
 20
-1.4763000000000002
 30
0.0
 10
-0.7135900000000001
 20
-1.6160000000000001
 30
0.0
 10
-0.74153
 20
-1.5550400000000002
 30
0.0
 10
-0.74153
 20
-1.5550400000000002
 30
0.0
 10
-0.7796300000000001
 20
-1.4712200000000002
 30
0.0
 10
-0.80503
 20
-1.3594600000000001
 30
0.0
 10
-0.82789
 20
-1.2375400000000001
 30
0.0
 10
-0.82789
 20
-1.2375400000000001
 30
0.0
 10
-0.84821
 20
-1.1080000000000001
 30
0.0
 10
-0.95235
 20
-1.29342
 30
0.0
 10
-0.9802900000000001
 20
-1.1562600000000001
 30
0.0
 10
-0.9802900000000001
 20
-1.1562600000000001
 30
0.0
 10
-1.0260100000000001
 20
-0.9302
 30
0.0
 10
-1.0158500000000001
 20
-0.39172
 30
0.0
 10
-1.16825
 20
-0.27488
 30
0.0
 10
-1.16825
 20
-0.27488
 30
0.0
 10
-1.0641100000000001
 20
0.00705
 30
0.0
 10
-1.0641100000000001
 20
0.33217
 30
0.0
 10
-1.11999
 20
0.6293500000000001
 30
0.0
 10
-1.11999
 20
0.6293500000000001
 30
0.0
 10
-1.17079
 20
0.63697
 30
0.0
 10
-1.2266700000000001
 20
0.6496700000000001
 30
0.0
 10
-1.2825500000000001
 20
0.6776100000000001
 30
0.0
 10
-1.2825500000000001
 20
0.6776100000000001
 30
0.0
 10
-1.5111500000000002
 20
1.0128900000000001
 30
0.0
 10
-2.0191500000000002
 20
0.9265300000000001
 30
0.0
 10
-2.1690100000000001
 20
0.8427100000000001
 30
0.0
 10
-2.1690100000000001
 20
0.8427100000000001
 30
0.0
 10
-2.2985500000000001
 20
0.76651
 30
0.0
 10
-2.31887
 20
1.0078100000000001
 30
0.0
 10
-2.44333
 20
1.2567300000000001
 30
0.0
 10
-2.44333
 20
1.2567300000000001
 30
0.0
 10
-2.5703300000000002
 20
1.2186300000000001
 30
0.0
 10
-2.73543
 20
1.1652900000000002
 30
0.0
 10
-2.8421100000000004
 20
1.27451
 30
0.0
 10
-2.8421100000000004
 20
1.27451
 30
0.0
 10
-2.8903700000000003
 20
1.4523100000000002
 30
0.0
 10
-2.7125700000000004
 20
1.56915
 30
0.0
 10
-2.7176500000000003
 20
1.73933
 30
0.0
 10
-2.7176500000000003
 20
1.73933
 30
0.0
 10
-2.8090900000000003
 20
1.9679300000000002
 30
0.0
 10
-2.73543
 20
2.22193
 30
0.0
 10
-2.7811500000000002
 20
2.46577
 30
0.0
 10
-2.7811500000000002
 20
2.46577
 30
0.0
 10
-3.4339300000000001
 20
4.2082100000000002
 30
0.0
 10
-2.1207500000000001
 20
6.3951500000000001
 30
0.0
 10
-0.16749
 20
6.2122700000000002
 30
0.0
 10
-0.16749
 20
6.2122700000000002
 30
0.0
 10
0.0103
 20
6.2783100000000003
 30
0.0
 10
0.22112
 20
6.2783100000000003
 30
0.0
 10
0.40146
 20
6.3037100000000006
 30
0.0
  0
SPLINE
  5
26
100
AcDbEntity
  8
Ebene 1
 62
     7
100
AcDbSpline
210
0.0
220
0.0
230
1.0
 70
     1
 71
     3
 72
   212
 73
   208
 74
     0
 42
0.0000000001
 43
0.0000000001
 40
0.0
 40
0.0
 40
0.0
 40
0.0
 40
0.0192307692307692
 40
0.0192307692307692
 40
0.0192307692307692
 40
0.0192307692307692
 40
0.0384615384615385
 40
0.0384615384615385
 40
0.0384615384615385
 40
0.0384615384615385
 40
0.0576923076923077
 40
0.0576923076923077
 40
0.0576923076923077
 40
0.0576923076923077
 40
0.0769230769230769
 40
0.0769230769230769
 40
0.0769230769230769
 40
0.0769230769230769
 40
0.0961538461538462
 40
0.0961538461538462
 40
0.0961538461538462
 40
0.0961538461538462
 40
0.1153846153846154
 40
0.1153846153846154
 40
0.1153846153846154
 40
0.1153846153846154
 40
0.1346153846153846
 40
0.1346153846153846
 40
0.1346153846153846
 40
0.1346153846153846
 40
0.1538461538461539
 40
0.1538461538461539
 40
0.1538461538461539
 40
0.1538461538461539
 40
0.1730769230769231
 40
0.1730769230769231
 40
0.1730769230769231
 40
0.1730769230769231
 40
0.1923076923076923
 40
0.1923076923076923
 40
0.1923076923076923
 40
0.1923076923076923
 40
0.2115384615384615
 40
0.2115384615384615
 40
0.2115384615384615
 40
0.2115384615384615
 40
0.2307692307692307
 40
0.2307692307692307
 40
0.2307692307692307
 40
0.2307692307692307
 40
0.2499999999999999
 40
0.2499999999999999
 40
0.2499999999999999
 40
0.2499999999999999
 40
0.2692307692307692
 40
0.2692307692307692
 40
0.2692307692307692
 40
0.2692307692307692
 40
0.2884615384615384
 40
0.2884615384615384
 40
0.2884615384615384
 40
0.2884615384615384
 40
0.3076923076923076
 40
0.3076923076923076
 40
0.3076923076923076
 40
0.3076923076923076
 40
0.3269230769230768
 40
0.3269230769230768
 40
0.3269230769230768
 40
0.3269230769230768
 40
0.346153846153846
 40
0.346153846153846
 40
0.346153846153846
 40
0.346153846153846
 40
0.3653846153846153
 40
0.3653846153846153
 40
0.3653846153846153
 40
0.3653846153846153
 40
0.3846153846153845
 40
0.3846153846153845
 40
0.3846153846153845
 40
0.3846153846153845
 40
0.4038461538461537
 40
0.4038461538461537
 40
0.4038461538461537
 40
0.4038461538461537
 40
0.4230769230769229
 40
0.4230769230769229
 40
0.4230769230769229
 40
0.4230769230769229
 40
0.4423076923076921
 40
0.4423076923076921
 40
0.4423076923076921
 40
0.4423076923076921
 40
0.4615384615384613
 40
0.4615384615384613
 40
0.4615384615384613
 40
0.4615384615384613
 40
0.4807692307692306
 40
0.4807692307692306
 40
0.4807692307692306
 40
0.4807692307692306
 40
0.4999999999999998
 40
0.4999999999999998
 40
0.4999999999999998
 40
0.4999999999999998
 40
0.5192307692307691
 40
0.5192307692307691
 40
0.5192307692307691
 40
0.5192307692307691
 40
0.5384615384615383
 40
0.5384615384615383
 40
0.5384615384615383
 40
0.5384615384615383
 40
0.5576923076923076
 40
0.5576923076923076
 40
0.5576923076923076
 40
0.5576923076923076
 40
0.5769230769230769
 40
0.5769230769230769
 40
0.5769230769230769
 40
0.5769230769230769
 40
0.5961538461538462
 40
0.5961538461538462
 40
0.5961538461538462
 40
0.5961538461538462
 40
0.6153846153846154
 40
0.6153846153846154
 40
0.6153846153846154
 40
0.6153846153846154
 40
0.6346153846153847
 40
0.6346153846153847
 40
0.6346153846153847
 40
0.6346153846153847
 40
0.653846153846154
 40
0.653846153846154
 40
0.653846153846154
 40
0.653846153846154
 40
0.6730769230769232
 40
0.6730769230769232
 40
0.6730769230769232
 40
0.6730769230769232
 40
0.6923076923076925
 40
0.6923076923076925
 40
0.6923076923076925
 40
0.6923076923076925
 40
0.7115384615384618
 40
0.7115384615384618
 40
0.7115384615384618
 40
0.7115384615384618
 40
0.7307692307692311
 40
0.7307692307692311
 40
0.7307692307692311
 40
0.7307692307692311
 40
0.7500000000000003
 40
0.7500000000000003
 40
0.7500000000000003
 40
0.7500000000000003
 40
0.7692307692307696
 40
0.7692307692307696
 40
0.7692307692307696
 40
0.7692307692307696
 40
0.7884615384615389
 40
0.7884615384615389
 40
0.7884615384615389
 40
0.7884615384615389
 40
0.8076923076923082
 40
0.8076923076923082
 40
0.8076923076923082
 40
0.8076923076923082
 40
0.8269230769230774
 40
0.8269230769230774
 40
0.8269230769230774
 40
0.8269230769230774
 40
0.8461538461538467
 40
0.8461538461538467
 40
0.8461538461538467
 40
0.8461538461538467
 40
0.865384615384616
 40
0.865384615384616
 40
0.865384615384616
 40
0.865384615384616
 40
0.8846153846153853
 40
0.8846153846153853
 40
0.8846153846153853
 40
0.8846153846153853
 40
0.9038461538461545
 40
0.9038461538461545
 40
0.9038461538461545
 40
0.9038461538461545
 40
0.9230769230769238
 40
0.9230769230769238
 40
0.9230769230769238
 40
0.9230769230769238
 40
0.9423076923076931
 40
0.9423076923076931
 40
0.9423076923076931
 40
0.9423076923076931
 40
0.9615384615384623
 40
0.9615384615384623
 40
0.9615384615384623
 40
0.9615384615384623
 40
0.9807692307692316
 40
0.9807692307692316
 40
0.9807692307692316
 40
0.9807692307692316
 40
1.0
 40
1.0
 40
1.0
 40
1.0
 10
0.6097400000000001
 20
-0.17328
 30
0.0
 10
0.5945
 20
-0.34092
 30
0.0
 10
0.6732400000000001
 20
-0.5619000000000001
 30
0.0
 10
0.59958
 20
-0.7092200000000001
 30
0.0
 10
0.59958
 20
-0.7092200000000001
 30
0.0
 10
0.59196
 20
-0.84638
 30
0.0
 10
0.531
 20
-0.7549400000000001
 30
0.0
 10
0.4929000000000001
 20
-0.8489200000000001
 30
0.0
 10
0.4929000000000001
 20
-0.8489200000000001
 30
0.0
 10
0.29224
 20
-1.5271000000000001
 30
0.0
 10
0.4090800000000001
 20
0.3372500000000001
 30
0.0
 10
0.31002
 20
-0.36632
 30
0.0
 10
0.31002
 20
-0.36632
 30
0.0
 10
0.31002
 20
-0.49332
 30
0.0
 10
0.3887600000000001
 20
-1.2807200000000001
 30
0.0
 10
0.24652
 20
-0.8692400000000001
 30
0.0
 10
0.24652
 20
-0.8692400000000001
 30
0.0
 10
0.23382
 20
-0.8413000000000001
 30
0.0
 10
0.19318
 20
-0.8387600000000001
 30
0.0
 10
0.16778
 20
-0.8565400000000001
 30
0.0
 10
0.16778
 20
-0.8565400000000001
 30
0.0
 10
0.02554
 20
-1.3874000000000002
 30
0.0
 10
0.07634
 20
-0.12502
 30
0.0
 10
0.03824
 20
-0.65334
 30
0.0
 10
0.03824
 20
-0.65334
 30
0.0
 10
0.05094
 20
-0.86416
 30
0.0
 10
0.07634
 20
-0.9683000000000001
 30
0.0
 10
-0.07605
 20
-0.8286000000000001
 30
0.0
 10
-0.07605
 20
-0.8286000000000001
 30
0.0
 10
-0.12939
 20
-0.8692400000000001
 30
0.0
 10
-0.15479
 20
-0.9225800000000001
 30
0.0
 10
-0.18019
 20
-0.9759200000000001
 30
0.0
 10
-0.18019
 20
-0.9759200000000001
 30
0.0
 10
-0.28433
 20
-1.3391400000000002
 30
0.0
 10
-0.18019
 20
-0.50602
 30
0.0
 10
-0.28433
 20
-0.9454400000000001
 30
0.0
 10
-0.28433
 20
-0.9454400000000001
 30
0.0
 10
-0.29703
 20
-0.8565400000000001
 30
0.0
 10
-0.41387
 20
-0.82352
 30
0.0
 10
-0.46721
 20
-0.9149600000000001
 30
0.0
 10
-0.46721
 20
-0.9149600000000001
 30
0.0
 10
-0.5459500000000001
 20
-1.00386
 30
0.0
 10
-0.46721
 20
-0.5238
 30
0.0
 10
-0.4926100000000001
 20
-0.38156
 30
0.0
 10
-0.4926100000000001
 20
-0.38156
 30
0.0
 10
-0.4926100000000001
 20
-0.38156
 30
0.0
 10
-0.5459500000000001
 20
-0.8997200000000001
 30
0.0
 10
-0.5459500000000001
 20
-0.8997200000000001
 30
0.0
 10
-0.5459500000000001
 20
-0.8997200000000001
 30
0.0
 10
-0.7923300000000001
 20
-0.6889000000000001
 30
0.0
 10
-0.43165
 20
-0.36632
 30
0.0
 10
-0.6094500000000001
 20
-0.03866
 30
0.0
 10
-0.6094500000000001
 20
-0.03866
 30
0.0
 10
-0.6094500000000001
 20
-0.14534
 30
0.0
 10
-0.6094500000000001
 20
-0.21138
 30
0.0
 10
-0.63485
 20
-0.3104400000000001
 30
0.0
 10
-0.63485
 20
-0.3104400000000001
 30
0.0
 10
-0.63485
 20
-0.3104400000000001
 30
0.0
 10
-0.7669300000000001
 20
-0.5873
 30
0.0
 10
-0.7669300000000001
 20
-0.5873
 30
0.0
 10
-0.7669300000000001
 20
-0.5873
 30
0.0
 10
-0.80503
 20
-0.06914
 30
0.0
 10
-1.0133100000000002
 20
-0.15296
 30
0.0
 10
-0.9472700000000001
 20
0.4617100000000001
 30
0.0
 10
-0.9472700000000001
 20
0.4617100000000001
 30
0.0
 10
-0.90917
 20
0.38805
 30
0.0
 10
-0.8431300000000001
 20
0.30423
 30
0.0
 10
-0.8710700000000001
 20
0.20517
 30
0.0
 10
-0.8710700000000001
 20
0.20517
 30
0.0
 10
-0.7542300000000001
 20
-0.4145800000000001
 30
0.0
 10
-0.9218700000000001
 20
1.3278500000000002
 30
0.0
 10
-0.6500900000000001
 20
0.6064900000000001
 30
0.0
 10
-0.6500900000000001
 20
0.6064900000000001
 30
0.0
 10
-0.6500900000000001
 20
0.6064900000000001
 30
0.0
 10
-0.6221500000000001
 20
0.03753
 30
0.0
 10
-0.6221500000000001
 20
0.03753
 30
0.0
 10
-0.6221500000000001
 20
0.03753
 30
0.0
 10
-0.5586500000000001
 20
0.22295
 30
0.0
 10
-0.57135
 20
0.4439300000000001
 30
0.0
 10
-0.59675
 20
0.6445900000000001
 30
0.0
 10
-0.59675
 20
0.6445900000000001
 30
0.0
 10
-0.5840500000000001
 20
0.7182500000000001
 30
0.0
 10
-0.59675
 20
0.8198500000000001
 30
0.0
 10
-0.63485
 20
0.89097
 30
0.0
 10
-0.63485
 20
0.89097
 30
0.0
 10
-0.70089
 20
0.9163700000000001
 30
0.0
 10
-0.7542300000000001
 20
0.9239900000000001
 30
0.0
 10
-0.8177300000000001
 20
0.9189100000000001
 30
0.0
 10
-0.8177300000000001
 20
0.9189100000000001
 30
0.0
 10
-1.2673100000000002
 20
0.49981
 30
0.0
 10
-1.6660900000000001
 20
1.3405500000000001
 30
0.0
 10
-2.1791700000000001
 20
0.9747900000000001
 30
0.0
 10
-2.1791700000000001
 20
0.9747900000000001
 30
0.0
 10
-2.7532100000000002
 20
1.6453500000000001
 30
0.0
 10
-2.0572500000000002
 20
2.4098900000000003
 30
0.0
 10
-2.3798300000000001
 20
3.1947500000000004
 30
0.0
 10
-2.3798300000000001
 20
3.1947500000000004
 30
0.0
 10
-2.3112500000000002
 20
3.3141300000000005
 30
0.0
 10
-2.2680700000000003
 20
3.4436700000000005
 30
0.0
 10
-2.1613900000000004
 20
3.5376500000000002
 30
0.0
 10
-2.1613900000000004
 20
3.5376500000000002
 30
0.0
 10
-2.6516100000000002
 20
3.3573100000000005
 30
0.0
 10
-2.2477500000000004
 20
2.67659
 30
0.0
 10
-2.52461
 20
2.3159100000000001
 30
0.0
 10
-2.52461
 20
2.3159100000000001
 30
0.0
 10
-3.4567900000000003
 20
3.9161100000000002
 30
0.0
 10
-2.0572500000000002
 20
6.3824500000000004
 30
0.0
 10
-0.15479
 20
6.0547900000000006
 30
0.0
 10
-0.15479
 20
6.0547900000000006
 30
0.0
 10
-0.11415
 20
5.8058700000000005
 30
0.0
 10
-0.22083
 20
5.5036100000000001
 30
0.0
 10
-0.41387
 20
5.3156500000000007
 30
0.0
 10
-0.41387
 20
5.3156500000000007
 30
0.0
 10
-0.19289
 20
5.4197900000000008
 30
0.0
 10
-0.20813
 20
4.96767
 30
0.0
 10
-0.4291100000000001
 20
4.8635300000000008
 30
0.0
 10
-0.4291100000000001
 20
4.8635300000000008
 30
0.0
 10
-0.5840500000000001
 20
4.7619300000000004
 30
0.0
 10
-1.24953
 20
4.2513900000000007
 30
0.0
 10
-0.9218700000000001
 20
4.4469700000000003
 30
0.0
 10
-0.9218700000000001
 20
4.4469700000000003
 30
0.0
 10
-0.8964700000000001
 20
4.5003100000000007
 30
0.0
 10
-0.8558300000000001
 20
4.4774500000000002
 30
0.0
 10
-0.8710700000000001
 20
4.4190300000000002
 30
0.0
 10
-0.8710700000000001
 20
4.4190300000000002
 30
0.0
 10
-0.9345700000000001
 20
4.2310700000000008
 30
0.0
 10
-0.8710700000000001
 20
4.1396300000000004
 30
0.0
 10
-0.8304300000000001
 20
4.3783900000000004
 30
0.0
 10
-0.8304300000000001
 20
4.3783900000000004
 30
0.0
 10
-0.7796300000000001
 20
4.6933500000000006
 30
0.0
 10
-0.38847
 20
4.7771700000000008
 30
0.0
 10
-0.19289
 20
5.0006900000000005
 30
0.0
 10
-0.19289
 20
5.0006900000000005
 30
0.0
 10
0.05094
 20
4.7212900000000007
 30
0.0
 10
-0.38847
 20
4.2844100000000003
 30
0.0
 10
-0.20813
 20
3.9999300000000004
 30
0.0
 10
-0.20813
 20
3.9999300000000004
 30
0.0
 10
-0.18019
 20
4.1878900000000003
 30
0.0
 10
-0.18019
 20
4.3809300000000002
 30
0.0
 10
-0.12939
 20
4.5612700000000004
 30
0.0
 10
-0.12939
 20
4.5612700000000004
 30
0.0
 10
0.16778
 20
4.9143300000000005
 30
0.0
 10
0.02554
 20
3.9237300000000004
 30
0.0
 10
0.24652
 20
3.7383100000000002
 30
0.0
 10
0.24652
 20
3.7383100000000002
 30
0.0
 10
0.29732
 20
3.5681300000000005
 30
0.0
 10
0.33796
 20
3.7383100000000002
 30
0.0
 10
0.25922
 20
3.8170500000000005
 30
0.0
 10
0.25922
 20
3.8170500000000005
 30
0.0
 10
0.63514
 20
3.5706700000000002
 30
0.0
 10
0.5183000000000001
 20
3.7459300000000004
 30
0.0
 10
0.23382
 20
3.9491300000000003
 30
0.0
 10
0.23382
 20
3.9491300000000003
 30
0.0
 10
0.15508
 20
4.4799900000000008
 30
0.0
 10
-0.14209
 20
4.9829100000000004
 30
0.0
 10
-0.15479
 20
5.5061500000000008
 30
0.0
 10
-0.15479
 20
5.5061500000000008
 30
0.0
 10
0.03824
 20
5.5137700000000001
 30
0.0
 10
0.06364
 20
5.1530900000000006
 30
0.0
 10
0.20588
 20
5.1708700000000007
 30
0.0
 10
0.20588
 20
5.1708700000000007
 30
0.0
 10
-0.03795
 20
5.4451900000000002
 30
0.0
 10
-0.14209
 20
5.7118900000000004
 30
0.0
 10
-0.05065
 20
6.0674900000000003
 30
0.0
 10
-0.05065
 20
6.0674900000000003
 30
0.0
 10
2.0397600000000002
 20
6.9158500000000007
 30
0.0
 10
3.7187000000000001
 20
3.7687900000000005
 30
0.0
 10
2.4309200000000004
 20
2.20669
 30
0.0
 10
2.4309200000000004
 20
2.20669
 30
0.0
 10
2.0804
 20
2.5851500000000001
 30
0.0
 10
2.46902
 20
3.2709500000000005
 30
0.0
 10
1.9889600000000001
 20
3.5605100000000003
 30
0.0
 10
1.9889600000000001
 20
3.5605100000000003
 30
0.0
 10
2.33948
 20
3.0194900000000002
 30
0.0
 10
2.05246
 20
2.33623
 30
0.0
 10
2.4436200000000001
 20
1.8028300000000002
 30
0.0
 10
2.4436200000000001
 20
1.8028300000000002
 30
0.0
 10
2.2734400000000003
 20
1.5005700000000002
 30
0.0
 10
2.1185
 20
1.1856100000000001
 30
0.0
 10
1.7146400000000002
 20
1.22879
 30
0.0
 10
1.7146400000000002
 20
1.22879
 30
0.0
 10
1.44286
 20
0.87319
 30
0.0
 10
1.14314
 20
0.7284100000000001
 30
0.0
 10
0.7392800000000001
 20
0.95447
 30
0.0
 10
0.7392800000000001
 20
0.95447
 30
0.0
 10
0.7392800000000001
 20
0.95447
 30
0.0
 10
0.6884800000000001
 20
0.76651
 30
0.0
 10
0.6884800000000001
 20
0.76651
 30
0.0
 10
0.6884800000000001
 20
0.76651
 30
0.0
 10
1.0263
 20
1.0484500000000001
 30
0.0
 10
0.8561200000000001
 20
0.33217
 30
0.0
 10
0.8840600000000001
 20
0.09087
 30
0.0
 10
0.8840600000000001
 20
0.09087
 30
0.0
 10
0.93486
 20
0.2737500000000001
 30
0.0
 10
0.9094600000000001
 20
0.5226700000000001
 30
0.0
 10
1.0390000000000001
 20
0.68269
 30
0.0
 10
1.0390000000000001
 20
0.68269
 30
0.0
 10
1.0771000000000002
 20
0.19501
 30
0.0
 10
0.9882000000000001
 20
-0.09708
 30
0.0
 10
0.93486
 20
-0.4171200000000001
 30
0.0
 10
0.93486
 20
-0.4171200000000001
 30
0.0
 10
0.9221600000000001
 20
-0.5974600000000001
 30
0.0
 10
0.7392800000000001
 20
-0.61016
 30
0.0
 10
0.70118
 20
-0.9225800000000001
 30
0.0
 10
0.70118
 20
-0.9225800000000001
 30
0.0
 10
0.67832
 20
-0.72192
 30
0.0
 10
0.6935600000000001
 20
-0.3536200000000001
 30
0.0
 10
0.6097400000000001
 20
-0.17328
 30
0.0
  0
SPLINE
  5
27
100
AcDbEntity
  8
Ebene 1
100
AcDbSpline
210
0.0
220
0.0
230
1.0
 70
     1
 71
     3
 72
    36
 73
    32
 74
     0
 42
0.0000000001
 43
0.0000000001
 40
0.0
 40
0.0
 40
0.0
 40
0.0
 40
0.125
 40
0.125
 40
0.125
 40
0.125
 40
0.25
 40
0.25
 40
0.25
 40
0.25
 40
0.375
 40
0.375
 40
0.375
 40
0.375
 40
0.5
 40
0.5
 40
0.5
 40
0.5
 40
0.625
 40
0.625
 40
0.625
 40
0.625
 40
0.75
 40
0.75
 40
0.75
 40
0.75
 40
0.875
 40
0.875
 40
0.875
 40
0.875
 40
1.0
 40
1.0
 40
1.0
 40
1.0
 10
2.37758
 20
4.75685
 30
0.0
 10
2.4055200000000001
 20
4.7543100000000003
 30
0.0
 10
2.4436200000000001
 20
4.76701
 30
0.0
 10
2.4563200000000003
 20
4.7289099999999999
 30
0.0
 10
2.4563200000000003
 20
4.7289099999999999
 30
0.0
 10
2.2226400000000002
 20
4.5104700000000006
 30
0.0
 10
2.3267800000000003
 20
4.0888300000000006
 30
0.0
 10
2.05246
 20
3.9364300000000005
 30
0.0
 10
2.05246
 20
3.9364300000000005
 30
0.0
 10
2.05246
 20
3.9364300000000005
 30
0.0
 10
2.1185
 20
3.7840300000000004
 30
0.0
 10
2.1185
 20
3.7840300000000004
 30
0.0
 10
2.1185
 20
3.7840300000000004
 30
0.0
 10
2.0296000000000003
 20
3.8424500000000004
 30
0.0
 10
1.9356200000000001
 20
3.9491300000000003
 30
0.0
 10
1.8365600000000002
 20
3.9364300000000005
 30
0.0
 10
1.8365600000000002
 20
3.9364300000000005
 30
0.0
 10
1.8035400000000001
 20
3.9338900000000003
 30
0.0
 10
1.7375
 20
3.7230700000000003
 30
0.0
 10
1.7146400000000002
 20
3.8881700000000001
 30
0.0
 10
1.7146400000000002
 20
3.8881700000000001
 30
0.0
 10
1.7552800000000002
 20
3.9872300000000003
 30
0.0
 10
1.7146400000000002
 20
4.07613
 30
0.0
 10
1.7019400000000002
 20
4.1802700000000002
 30
0.0
 10
1.7019400000000002
 20
4.1802700000000002
 30
0.0
 10
1.6384400000000001
 20
4.1980500000000003
 30
0.0
 10
1.5597000000000001
 20
4.0558100000000001
 30
0.0
 10
1.5597000000000001
 20
4.1447100000000008
 30
0.0
 10
1.5597000000000001
 20
4.1447100000000008
 30
0.0
 10
1.8187800000000001
 20
4.3529900000000001
 30
0.0
 10
2.0143600000000004
 20
4.7035100000000005
 30
0.0
 10
2.37758
 20
4.75685
 30
0.0
  0
SPLINE
  5
28
100
AcDbEntity
  8
Ebene 1
100
AcDbSpline
210
0.0
220
0.0
230
1.0
 70
     1
 71
     3
 72
    36
 73
    32
 74
     0
 42
0.0000000001
 43
0.0000000001
 40
0.0
 40
0.0
 40
0.0
 40
0.0
 40
0.125
 40
0.125
 40
0.125
 40
0.125
 40
0.25
 40
0.25
 40
0.25
 40
0.25
 40
0.375
 40
0.375
 40
0.375
 40
0.375
 40
0.5
 40
0.5
 40
0.5
 40
0.5
 40
0.625
 40
0.625
 40
0.625
 40
0.625
 40
0.75
 40
0.75
 40
0.75
 40
0.75
 40
0.875
 40
0.875
 40
0.875
 40
0.875
 40
1.0
 40
1.0
 40
1.0
 40
1.0
 10
-2.48143
 20
4.5993700000000004
 30
0.0
 10
-2.1334500000000003
 20
4.6476300000000004
 30
0.0
 10
-1.8159500000000002
 20
4.4164900000000005
 30
0.0
 10
-1.6457700000000002
 20
4.1345499999999999
 30
0.0
 10
-1.6457700000000002
 20
4.1345499999999999
 30
0.0
 10
-1.6457700000000002
 20
4.1345499999999999
 30
0.0
 10
-1.5086100000000002
 20
4.0913700000000004
 30
0.0
 10
-1.5086100000000002
 20
4.0913700000000004
 30
0.0
 10
-1.5086100000000002
 20
4.0913700000000004
 30
0.0
 10
-1.5086100000000002
 20
4.0913700000000004
 30
0.0
 10
-1.6457700000000002
 20
4.0913700000000004
 30
0.0
 10
-1.6457700000000002
 20
4.0913700000000004
 30
0.0
 10
-1.6457700000000002
 20
4.0913700000000004
 30
0.0
 10
-1.7397500000000001
 20
4.0075500000000002
 30
0.0
 10
-1.6229100000000001
 20
3.9110300000000002
 30
0.0
 10
-1.6660900000000001
 20
3.8373700000000004
 30
0.0
 10
-1.6660900000000001
 20
3.8373700000000004
 30
0.0
 10
-1.6660900000000001
 20
3.8373700000000004
 30
0.0
 10
-1.75499
 20
3.9237300000000004
 30
0.0
 10
-1.75499
 20
3.9237300000000004
 30
0.0
 10
-1.75499
 20
3.9237300000000004
 30
0.0
 10
-1.8972300000000002
 20
3.8043500000000003
 30
0.0
 10
-2.1105900000000002
 20
3.8653100000000005
 30
0.0
 10
-2.2452100000000002
 20
3.7459300000000004
 30
0.0
 10
-2.2452100000000002
 20
3.7459300000000004
 30
0.0
 10
-2.3696700000000002
 20
3.6443300000000005
 30
0.0
 10
-2.26553
 20
3.8043500000000003
 30
0.0
 10
-2.2579100000000003
 20
3.8246700000000002
 30
0.0
 10
-2.2579100000000003
 20
3.8246700000000002
 30
0.0
 10
-2.1385300000000003
 20
4.0964499999999999
 30
0.0
 10
-2.3417300000000001
 20
4.38347
 30
0.0
 10
-2.48143
 20
4.5993700000000004
 30
0.0
  0
SPLINE
  5
29
100
AcDbEntity
  8
Ebene 1
 62
     7
100
AcDbSpline
210
0.0
220
0.0
230
1.0
 70
     1
 71
     3
 72
    52
 73
    48
 74
     0
 42
0.0000000001
 43
0.0000000001
 40
0.0
 40
0.0
 40
0.0
 40
0.0
 40
0.0833333333333333
 40
0.0833333333333333
 40
0.0833333333333333
 40
0.0833333333333333
 40
0.1666666666666667
 40
0.1666666666666667
 40
0.1666666666666667
 40
0.1666666666666667
 40
0.25
 40
0.25
 40
0.25
 40
0.25
 40
0.3333333333333333
 40
0.3333333333333333
 40
0.3333333333333333
 40
0.3333333333333333
 40
0.4166666666666666
 40
0.4166666666666666
 40
0.4166666666666666
 40
0.4166666666666666
 40
0.4999999999999999
 40
0.4999999999999999
 40
0.4999999999999999
 40
0.4999999999999999
 40
0.5833333333333333
 40
0.5833333333333333
 40
0.5833333333333333
 40
0.5833333333333333
 40
0.6666666666666666
 40
0.6666666666666666
 40
0.6666666666666666
 40
0.6666666666666666
 40
0.75
 40
0.75
 40
0.75
 40
0.75
 40
0.8333333333333334
 40
0.8333333333333334
 40
0.8333333333333334
 40
0.8333333333333334
 40
0.9166666666666667
 40
0.9166666666666667
 40
0.9166666666666667
 40
0.9166666666666667
 40
1.0
 40
1.0
 40
1.0
 40
1.0
 10
2.2353400000000003
 20
4.5612700000000004
 30
0.0
 10
2.20994
 20
4.42157
 30
0.0
 10
2.20994
 20
4.0685100000000007
 30
0.0
 10
2.0016600000000002
 20
4.0050100000000004
 30
0.0
 10
2.0016600000000002
 20
4.0050100000000004
 30
0.0
 10
2.0397600000000002
 20
4.0685100000000007
 30
0.0
 10
2.0804
 20
4.1396300000000004
 30
0.0
 10
2.0804
 20
4.2209099999999999
 30
0.0
 10
2.0804
 20
4.2209099999999999
 30
0.0
 10
2.0143600000000004
 20
4.1955100000000005
 30
0.0
 10
2.0143600000000004
 20
4.0634300000000003
 30
0.0
 10
1.9229200000000002
 20
4.03803
 30
0.0
 10
1.9229200000000002
 20
4.03803
 30
0.0
 10
1.8975200000000001
 20
4.0227900000000005
 30
0.0
 10
1.8721200000000002
 20
3.9923100000000002
 30
0.0
 10
1.8314800000000002
 20
4.0177100000000001
 30
0.0
 10
1.8314800000000002
 20
4.0177100000000001
 30
0.0
 10
1.7146400000000002
 20
4.2082100000000002
 30
0.0
 10
2.0677000000000003
 20
4.3656900000000007
 30
0.0
 10
2.0270600000000001
 20
4.5206300000000006
 30
0.0
 10
2.0270600000000001
 20
4.5206300000000006
 30
0.0
 10
2.0270600000000001
 20
4.5206300000000006
 30
0.0
 10
2.1058000000000003
 20
4.5485700000000007
 30
0.0
 10
2.1058000000000003
 20
4.5485700000000007
 30
0.0
 10
2.1058000000000003
 20
4.5485700000000007
 30
0.0
 10
2.1566000000000001
 20
4.5028500000000005
 30
0.0
 10
2.0270600000000001
 20
4.3910900000000002
 30
0.0
 10
2.0804
 20
4.3631500000000001
 30
0.0
 10
2.0804
 20
4.3631500000000001
 30
0.0
 10
2.0804
 20
4.3631500000000001
 30
0.0
 10
2.1185
 20
4.4088700000000003
 30
0.0
 10
2.1185
 20
4.4088700000000003
 30
0.0
 10
2.1185
 20
4.4088700000000003
 30
0.0
 10
2.1185
 20
4.4088700000000003
 30
0.0
 10
2.1566000000000001
 20
4.4469700000000003
 30
0.0
 10
2.1566000000000001
 20
4.4469700000000003
 30
0.0
 10
2.1566000000000001
 20
4.4469700000000003
 30
0.0
 10
2.1566000000000001
 20
4.4469700000000003
 30
0.0
 10
2.1845400000000001
 20
4.4825300000000006
 30
0.0
 10
2.1845400000000001
 20
4.4825300000000006
 30
0.0
 10
2.1845400000000001
 20
4.4825300000000006
 30
0.0
 10
2.1845400000000001
 20
4.4825300000000006
 30
0.0
 10
2.20994
 20
4.5206300000000006
 30
0.0
 10
2.20994
 20
4.5206300000000006
 30
0.0
 10
2.20994
 20
4.5206300000000006
 30
0.0
 10
2.20994
 20
4.5206300000000006
 30
0.0
 10
2.2353400000000003
 20
4.5612700000000004
 30
0.0
 10
2.2353400000000003
 20
4.5612700000000004
 30
0.0
  0
SPLINE
  5
2A
100
AcDbEntity
  8
Ebene 1
 62
     7
100
AcDbSpline
210
0.0
220
0.0
230
1.0
 70
     1
 71
     3
 72
    16
 73
    12
 74
     0
 42
0.0000000001
 43
0.0000000001
 40
0.0
 40
0.0
 40
0.0
 40
0.0
 40
0.3333333333333333
 40
0.3333333333333333
 40
0.3333333333333333
 40
0.3333333333333333
 40
0.6666666666666666
 40
0.6666666666666666
 40
0.6666666666666666
 40
0.6666666666666666
 40
1.0
 40
1.0
 40
1.0
 40
1.0
 10
2.0016600000000002
 20
4.50793
 30
0.0
 10
2.0016600000000002
 20
4.50793
 30
0.0
 10
2.0143600000000004
 20
4.4952300000000003
 30
0.0
 10
2.0143600000000004
 20
4.4952300000000003
 30
0.0
 10
2.0143600000000004
 20
4.4952300000000003
 30
0.0
 10
2.0143600000000004
 20
4.4952300000000003
 30
0.0
 10
1.8594200000000001
 20
4.3174300000000008
 30
0.0
 10
1.8594200000000001
 20
4.3174300000000008
 30
0.0
 10
1.8594200000000001
 20
4.3174300000000008
 30
0.0
 10
1.8721200000000002
 20
4.4063300000000005
 30
0.0
 10
1.9356200000000001
 20
4.4723700000000006
 30
0.0
 10
2.0016600000000002
 20
4.50793
 30
0.0
  0
SPLINE
  5
2B
100
AcDbEntity
  8
Ebene 1
 62
     7
100
AcDbSpline
210
0.0
220
0.0
230
1.0
 70
     1
 71
     3
 72
    24
 73
    20
 74
     0
 42
0.0000000001
 43
0.0000000001
 40
0.0
 40
0.0
 40
0.0
 40
0.0
 40
0.2
 40
0.2
 40
0.2
 40
0.2
 40
0.4
 40
0.4
 40
0.4
 40
0.4
 40
0.6000000000000001
 40
0.6000000000000001
 40
0.6000000000000001
 40
0.6000000000000001
 40
0.8
 40
0.8
 40
0.8
 40
0.8
 40
1.0
 40
1.0
 40
1.0
 40
1.0
 10
-2.2350500000000002
 20
4.4825300000000006
 30
0.0
 10
-2.0064500000000001
 20
4.4520500000000007
 30
0.0
 10
-1.8235700000000001
 20
4.24885
 30
0.0
 10
-1.7829300000000001
 20
4.0304100000000007
 30
0.0
 10
-1.7829300000000001
 20
4.0304100000000007
 30
0.0
 10
-1.7829300000000001
 20
4.0304100000000007
 30
0.0
 10
-1.9099300000000001
 20
3.9618300000000004
 30
0.0
 10
-1.9099300000000001
 20
3.9618300000000004
 30
0.0
 10
-1.9099300000000001
 20
3.9618300000000004
 30
0.0
 10
-1.9099300000000001
 20
3.9618300000000004
 30
0.0
 10
-2.0496300000000001
 20
4.1802700000000002
 30
0.0
 10
-2.0496300000000001
 20
4.1802700000000002
 30
0.0
 10
-2.0496300000000001
 20
4.1802700000000002
 30
0.0
 10
-2.10297
 20
4.1497900000000003
 30
0.0
 10
-1.9937500000000001
 20
4.0634300000000003
 30
0.0
 10
-2.0623300000000002
 20
4.0583499999999999
 30
0.0
 10
-2.0623300000000002
 20
4.0583499999999999
 30
0.0
 10
-2.1385300000000003
 20
4.1878900000000003
 30
0.0
 10
-2.2248900000000003
 20
4.3377500000000007
 30
0.0
 10
-2.2350500000000002
 20
4.4825300000000006
 30
0.0
  0
SPLINE
  5
2C
100
AcDbEntity
  8
Ebene 1
100
AcDbSpline
210
0.0
220
0.0
230
1.0
 70
     1
 71
     3
 72
    28
 73
    24
 74
     0
 42
0.0000000001
 43
0.0000000001
 40
0.0
 40
0.0
 40
0.0
 40
0.0
 40
0.1666666666666667
 40
0.1666666666666667
 40
0.1666666666666667
 40
0.1666666666666667
 40
0.3333333333333333
 40
0.3333333333333333
 40
0.3333333333333333
 40
0.3333333333333333
 40
0.5
 40
0.5
 40
0.5
 40
0.5
 40
0.6666666666666666
 40
0.6666666666666666
 40
0.6666666666666666
 40
0.6666666666666666
 40
0.8333333333333333
 40
0.8333333333333333
 40
0.8333333333333333
 40
0.8333333333333333
 40
1.0
 40
1.0
 40
1.0
 40
1.0
 10
-1.3638300000000001
 20
3.5325700000000002
 30
0.0
 10
-1.2317500000000001
 20
3.3903300000000001
 30
0.0
 10
-1.0260100000000001
 20
3.2404700000000002
 30
0.0
 10
-0.8304300000000001
 20
3.2988900000000001
 30
0.0
 10
-0.8304300000000001
 20
3.2988900000000001
 30
0.0
 10
-0.67549
 20
3.1871300000000002
 30
0.0
 10
-0.46721
 20
3.1439500000000002
 30
0.0
 10
-0.36307
 20
2.97377
 30
0.0
 10
-0.36307
 20
2.97377
 30
0.0
 10
-0.36307
 20
2.97377
 30
0.0
 10
-0.40117
 20
2.8620100000000002
 30
0.0
 10
-0.40117
 20
2.8620100000000002
 30
0.0
 10
-0.40117
 20
2.8620100000000002
 30
0.0
 10
-0.44181
 20
2.8569300000000002
 30
0.0
 10
-0.46721
 20
2.8899500000000002
 30
0.0
 10
-0.4926100000000001
 20
2.9128100000000003
 30
0.0
 10
-0.4926100000000001
 20
2.9128100000000003
 30
0.0
 10
-0.6881900000000001
 20
3.2277700000000005
 30
0.0
 10
-1.0920500000000002
 20
3.2074500000000001
 30
0.0
 10
-1.3485900000000002
 20
3.4335100000000001
 30
0.0
 10
-1.3485900000000002
 20
3.4335100000000001
 30
0.0
 10
-1.3485900000000002
 20
3.4335100000000001
 30
0.0
 10
-1.3638300000000001
 20
3.5325700000000002
 30
0.0
 10
-1.3638300000000001
 20
3.5325700000000002
 30
0.0
  0
SPLINE
  5
2D
100
AcDbEntity
  8
Ebene 1
100
AcDbSpline
210
0.0
220
0.0
230
1.0
 70
     1
 71
     3
 72
    20
 73
    16
 74
     0
 42
0.0000000001
 43
0.0000000001
 40
0.0
 40
0.0
 40
0.0
 40
0.0
 40
0.25
 40
0.25
 40
0.25
 40
0.25
 40
0.5
 40
0.5
 40
0.5
 40
0.5
 40
0.75
 40
0.75
 40
0.75
 40
0.75
 40
1.0
 40
1.0
 40
1.0
 40
1.0
 10
1.2980800000000001
 20
3.5325700000000002
 30
0.0
 10
1.3260200000000002
 20
3.5452700000000004
 30
0.0
 10
1.3768200000000002
 20
3.5071700000000003
 30
0.0
 10
1.3387200000000001
 20
3.4868500000000004
 30
0.0
 10
1.3387200000000001
 20
3.4868500000000004
 30
0.0
 10
0.9221600000000001
 20
3.3954100000000005
 30
0.0
 10
0.5462400000000001
 20
3.14141
 30
0.0
 10
0.24652
 20
2.8340700000000001
 30
0.0
 10
0.24652
 20
2.8340700000000001
 30
0.0
 10
0.23382
 20
2.8543900000000004
 30
0.0
 10
0.20588
 20
2.8670900000000001
 30
0.0
 10
0.20588
 20
2.8975700000000004
 30
0.0
 10
0.20588
 20
2.8975700000000004
 30
0.0
 10
0.4675
 20
3.2582500000000003
 30
0.0
 10
0.8967600000000001
 20
3.4385900000000005
 30
0.0
 10
1.2980800000000001
 20
3.5325700000000002
 30
0.0
  0
SPLINE
  5
2E
100
AcDbEntity
  8
Ebene 1
100
AcDbSpline
210
0.0
220
0.0
230
1.0
 70
     1
 71
     3
 72
    84
 73
    80
 74
     0
 42
0.0000000001
 43
0.0000000001
 40
0.0
 40
0.0
 40
0.0
 40
0.0
 40
0.05
 40
0.05
 40
0.05
 40
0.05
 40
0.1
 40
0.1
 40
0.1
 40
0.1
 40
0.15
 40
0.15
 40
0.15
 40
0.15
 40
0.2
 40
0.2
 40
0.2
 40
0.2
 40
0.25
 40
0.25
 40
0.25
 40
0.25
 40
0.3
 40
0.3
 40
0.3
 40
0.3
 40
0.35
 40
0.35
 40
0.35
 40
0.35
 40
0.4
 40
0.4
 40
0.4
 40
0.4
 40
0.45
 40
0.45
 40
0.45
 40
0.45
 40
0.4999999999999999
 40
0.4999999999999999
 40
0.4999999999999999
 40
0.4999999999999999
 40
0.5499999999999999
 40
0.5499999999999999
 40
0.5499999999999999
 40
0.5499999999999999
 40
0.6
 40
0.6
 40
0.6
 40
0.6
 40
0.65
 40
0.65
 40
0.65
 40
0.65
 40
0.7000000000000001
 40
0.7000000000000001
 40
0.7000000000000001
 40
0.7000000000000001
 40
0.7500000000000001
 40
0.7500000000000001
 40
0.7500000000000001
 40
0.7500000000000001
 40
0.8000000000000002
 40
0.8000000000000002
 40
0.8000000000000002
 40
0.8000000000000002
 40
0.8500000000000002
 40
0.8500000000000002
 40
0.8500000000000002
 40
0.8500000000000002
 40
0.9000000000000002
 40
0.9000000000000002
 40
0.9000000000000002
 40
0.9000000000000002
 40
0.9500000000000003
 40
0.9500000000000003
 40
0.9500000000000003
 40
0.9500000000000003
 40
1.0
 40
1.0
 40
1.0
 40
1.0
 10
-2.1182100000000004
 20
3.1820500000000003
 30
0.0
 10
-2.3417300000000001
 20
2.7477100000000001
 30
0.0
 10
-1.6406900000000002
 20
2.7502500000000003
 30
0.0
 10
-1.3993900000000001
 20
2.47085
 30
0.0
 10
-1.3993900000000001
 20
2.47085
 30
0.0
 10
-1.2393700000000001
 20
2.38449
 30
0.0
 10
-1.2800100000000001
 20
2.5292700000000004
 30
0.0
 10
-1.3917700000000002
 20
2.5800700000000001
 30
0.0
 10
-1.3917700000000002
 20
2.5800700000000001
 30
0.0
 10
-1.4019300000000001
 20
2.59531
 30
0.0
 10
-1.4324100000000002
 20
2.6283300000000001
 30
0.0
 10
-1.4019300000000001
 20
2.6359500000000002
 30
0.0
 10
-1.4019300000000001
 20
2.6359500000000002
 30
0.0
 10
-1.0920500000000002
 20
2.4556100000000001
 30
0.0
 10
-0.6729500000000001
 20
2.0898500000000002
 30
0.0
 10
-0.34783
 20
2.4251300000000002
 30
0.0
 10
-0.34783
 20
2.4251300000000002
 30
0.0
 10
-0.34783
 20
2.4251300000000002
 30
0.0
 10
-0.23607
 20
2.46069
 30
0.0
 10
-0.23607
 20
2.46069
 30
0.0
 10
-0.23607
 20
2.46069
 30
0.0
 10
-0.23607
 20
2.46069
 30
0.0
 10
-0.14209
 20
2.4251300000000002
 30
0.0
 10
-0.14209
 20
2.4251300000000002
 30
0.0
 10
-0.14209
 20
2.4251300000000002
 30
0.0
 10
-0.35037
 20
2.37941
 30
0.0
 10
-0.3122700000000001
 20
1.8917300000000001
 30
0.0
 10
-0.15479
 20
2.0619100000000001
 30
0.0
 10
-0.15479
 20
2.0619100000000001
 30
0.0
 10
-0.15479
 20
1.9374500000000001
 30
0.0
 10
-0.25893
 20
1.8180700000000001
 30
0.0
 10
-0.3122700000000001
 20
1.69869
 30
0.0
 10
-0.3122700000000001
 20
1.69869
 30
0.0
 10
-0.29703
 20
1.8409300000000002
 30
0.0
 10
-0.28433
 20
2.0517500000000002
 30
0.0
 10
-0.41387
 20
2.1558900000000003
 30
0.0
 10
-0.41387
 20
2.1558900000000003
 30
0.0
 10
-0.5840500000000001
 20
2.0263500000000003
 30
0.0
 10
-0.6627900000000001
 20
1.7952100000000002
 30
0.0
 10
-0.8558300000000001
 20
1.6834500000000001
 30
0.0
 10
-0.8558300000000001
 20
1.6834500000000001
 30
0.0
 10
-0.8964700000000001
 20
1.4777100000000001
 30
0.0
 10
-0.6221500000000001
 20
1.48787
 30
0.0
 10
-0.63485
 20
1.2872100000000002
 30
0.0
 10
-0.63485
 20
1.2872100000000002
 30
0.0
 10
-0.7135900000000001
 20
1.4396100000000001
 30
0.0
 10
-0.9752100000000001
 20
1.49041
 30
0.0
 10
-0.9599700000000001
 20
1.7113900000000002
 30
0.0
 10
-0.9599700000000001
 20
1.7113900000000002
 30
0.0
 10
-1.0971300000000002
 20
1.7037700000000002
 30
0.0
 10
-1.1987300000000001
 20
1.5767700000000002
 30
0.0
 10
-1.2723900000000001
 20
1.4777100000000001
 30
0.0
 10
-1.2723900000000001
 20
1.4777100000000001
 30
0.0
 10
-1.3485900000000002
 20
1.5462900000000002
 30
0.0
 10
-1.1809500000000002
 20
1.61487
 30
0.0
 10
-1.17079
 20
1.6834500000000001
 30
0.0
 10
-1.17079
 20
1.6834500000000001
 30
0.0
 10
-1.41717
 20
1.6631300000000002
 30
0.0
 10
-1.6838700000000002
 20
1.6504300000000001
 30
0.0
 10
-1.8667500000000001
 20
1.4827900000000001
 30
0.0
 10
-1.8667500000000001
 20
1.4827900000000001
 30
0.0
 10
-1.8616700000000002
 20
1.5640700000000001
 30
0.0
 10
-1.7524500000000001
 20
1.6072500000000001
 30
0.0
 10
-1.7016500000000001
 20
1.6605900000000002
 30
0.0
 10
-1.7016500000000001
 20
1.6605900000000002
 30
0.0
 10
-1.8362700000000001
 20
1.7063100000000002
 30
0.0
 10
-1.8870700000000002
 20
1.8612500000000001
 30
0.0
 10
-1.9912100000000001
 20
1.9323700000000001
 30
0.0
 10
-1.9912100000000001
 20
1.9323700000000001
 30
0.0
 10
-2.0572500000000002
 20
1.8739500000000002
 30
0.0
 10
-2.0623300000000002
 20
1.7520300000000002
 30
0.0
 10
-2.14107
 20
1.7037700000000002
 30
0.0
 10
-2.14107
 20
1.7037700000000002
 30
0.0
 10
-2.0623300000000002
 20
2.0034900000000002
 30
0.0
 10
-2.0902700000000003
 20
2.3514700000000004
 30
0.0
 10
-2.0394700000000001
 20
2.6740500000000003
 30
0.0
 10
-2.0394700000000001
 20
2.6740500000000003
 30
0.0
 10
-2.27061
 20
2.7400900000000004
 30
0.0
 10
-2.2833100000000002
 20
3.0347300000000001
 30
0.0
 10
-2.1182100000000004
 20
3.1820500000000003
 30
0.0
  0
SPLINE
  5
2F
100
AcDbEntity
  8
Ebene 1
100
AcDbSpline
210
0.0
220
0.0
230
1.0
 70
     1
 71
     3
 72
    80
 73
    76
 74
     0
 42
0.0000000001
 43
0.0000000001
 40
0.0
 40
0.0
 40
0.0
 40
0.0
 40
0.0526315789473684
 40
0.0526315789473684
 40
0.0526315789473684
 40
0.0526315789473684
 40
0.1052631578947368
 40
0.1052631578947368
 40
0.1052631578947368
 40
0.1052631578947368
 40
0.1578947368421053
 40
0.1578947368421053
 40
0.1578947368421053
 40
0.1578947368421053
 40
0.2105263157894737
 40
0.2105263157894737
 40
0.2105263157894737
 40
0.2105263157894737
 40
0.2631578947368421
 40
0.2631578947368421
 40
0.2631578947368421
 40
0.2631578947368421
 40
0.3157894736842105
 40
0.3157894736842105
 40
0.3157894736842105
 40
0.3157894736842105
 40
0.3684210526315789
 40
0.3684210526315789
 40
0.3684210526315789
 40
0.3684210526315789
 40
0.4210526315789474
 40
0.4210526315789474
 40
0.4210526315789474
 40
0.4210526315789474
 40
0.4736842105263158
 40
0.4736842105263158
 40
0.4736842105263158
 40
0.4736842105263158
 40
0.5263157894736842
 40
0.5263157894736842
 40
0.5263157894736842
 40
0.5263157894736842
 40
0.5789473684210527
 40
0.5789473684210527
 40
0.5789473684210527
 40
0.5789473684210527
 40
0.631578947368421
 40
0.631578947368421
 40
0.631578947368421
 40
0.631578947368421
 40
0.6842105263157894
 40
0.6842105263157894
 40
0.6842105263157894
 40
0.6842105263157894
 40
0.7368421052631577
 40
0.7368421052631577
 40
0.7368421052631577
 40
0.7368421052631577
 40
0.7894736842105261
 40
0.7894736842105261
 40
0.7894736842105261
 40
0.7894736842105261
 40
0.8421052631578945
 40
0.8421052631578945
 40
0.8421052631578945
 40
0.8421052631578945
 40
0.8947368421052628
 40
0.8947368421052628
 40
0.8947368421052628
 40
0.8947368421052628
 40
0.9473684210526312
 40
0.9473684210526312
 40
0.9473684210526312
 40
0.9473684210526312
 40
1.0
 40
1.0
 40
1.0
 40
1.0
 10
1.9889600000000001
 20
3.0906100000000003
 30
0.0
 10
1.9889600000000001
 20
3.0906100000000003
 30
0.0
 10
2.05246
 20
3.0245700000000002
 30
0.0
 10
2.05246
 20
3.0245700000000002
 30
0.0
 10
2.05246
 20
3.0245700000000002
 30
0.0
 10
1.9102200000000003
 20
2.6918300000000004
 30
0.0
 10
2.0143600000000004
 20
2.3514700000000004
 30
0.0
 10
2.1312000000000002
 20
2.01111
 30
0.0
 10
2.1312000000000002
 20
2.01111
 30
0.0
 10
2.05246
 20
1.9933300000000003
 30
0.0
 10
2.05246
 20
2.1584300000000001
 30
0.0
 10
2.0016600000000002
 20
2.2041500000000003
 30
0.0
 10
2.0016600000000002
 20
2.2041500000000003
 30
0.0
 10
1.9508600000000003
 20
2.0568300000000002
 30
0.0
 10
1.7933800000000002
 20
1.9679300000000002
 30
0.0
 10
1.6892400000000001
 20
1.8688700000000003
 30
0.0
 10
1.6892400000000001
 20
1.8688700000000003
 30
0.0
 10
1.78068
 20
1.8104500000000001
 30
0.0
 10
1.9356200000000001
 20
1.8460100000000002
 30
0.0
 10
2.0143600000000004
 20
1.7952100000000002
 30
0.0
 10
2.0143600000000004
 20
1.7952100000000002
 30
0.0
 10
1.8060800000000001
 20
1.7723500000000001
 30
0.0
 10
1.2599800000000001
 20
1.8434700000000002
 30
0.0
 10
1.3641200000000002
 20
1.5970900000000001
 30
0.0
 10
1.3641200000000002
 20
1.5970900000000001
 30
0.0
 10
1.23458
 20
1.6834500000000001
 30
0.0
 10
1.0771000000000002
 20
1.8002900000000002
 30
0.0
 10
0.9094600000000001
 20
1.7494900000000002
 30
0.0
 10
0.9094600000000001
 20
1.7494900000000002
 30
0.0
 10
0.86882
 20
1.57169
 30
0.0
 10
0.7138800000000001
 20
1.5107300000000001
 30
0.0
 10
0.66308
 20
1.36087
 30
0.0
 10
0.66308
 20
1.36087
 30
0.0
 10
0.5843400000000001
 20
1.4954900000000002
 30
0.0
 10
0.8180200000000001
 20
1.61233
 30
0.0
 10
0.80532
 20
1.7621900000000001
 30
0.0
 10
0.80532
 20
1.7621900000000001
 30
0.0
 10
0.6097400000000001
 20
1.8460100000000002
 30
0.0
 10
0.5056000000000001
 20
2.04413
 30
0.0
 10
0.3887600000000001
 20
2.21685
 30
0.0
 10
0.3887600000000001
 20
2.21685
 30
0.0
 10
0.3887600000000001
 20
2.21685
 30
0.0
 10
0.3252600000000001
 20
2.08223
 30
0.0
 10
0.3252600000000001
 20
2.08223
 30
0.0
 10
0.3252600000000001
 20
2.08223
 30
0.0
 10
0.27192
 20
2.0034900000000002
 30
0.0
 10
0.29732
 20
1.9298300000000002
 30
0.0
 10
0.33796
 20
1.8536300000000001
 30
0.0
 10
0.33796
 20
1.8536300000000001
 30
0.0
 10
0.33796
 20
1.8536300000000001
 30
0.0
 10
0.37606
 20
1.7164700000000002
 30
0.0
 10
0.37606
 20
1.7164700000000002
 30
0.0
 10
0.37606
 20
1.7164700000000002
 30
0.0
 10
0.17032
 20
1.8587100000000001
 30
0.0
 10
0.2516000000000001
 20
2.1228700000000003
 30
0.0
 10
0.18556
 20
2.29813
 30
0.0
 10
0.18556
 20
2.29813
 30
0.0
 10
0.1627
 20
2.3590900000000001
 30
0.0
 10
-0.05065
 20
2.4403700000000002
 30
0.0
 10
0.08904
 20
2.4530700000000003
 30
0.0
 10
0.08904
 20
2.4530700000000003
 30
0.0
 10
0.59704
 20
2.08731
 30
0.0
 10
1.0263
 20
2.8086700000000002
 30
0.0
 10
1.5089000000000001
 20
2.9661500000000003
 30
0.0
 10
1.5089000000000001
 20
2.9661500000000003
 30
0.0
 10
1.5851000000000002
 20
3.0448900000000001
 30
0.0
 10
1.7019400000000002
 20
2.9864700000000002
 30
0.0
 10
1.5597000000000001
 20
2.9331300000000002
 30
0.0
 10
1.5597000000000001
 20
2.9331300000000002
 30
0.0
 10
1.40476
 20
2.8213700000000004
 30
0.0
 10
1.1812400000000001
 20
2.7604100000000003
 30
0.0
 10
1.0517000000000001
 20
2.6130900000000001
 30
0.0
 10
1.0517000000000001
 20
2.6130900000000001
 30
0.0
 10
1.3641200000000002
 20
2.7400900000000004
 30
0.0
 10
2.0143600000000004
 20
2.6181700000000001
 30
0.0
 10
1.9889600000000001
 20
3.0906100000000003
 30
0.0
  0
SPLINE
  5
30
100
AcDbEntity
  8
Ebene 1
100
AcDbSpline
210
0.0
220
0.0
230
1.0
 70
     1
 71
     3
 72
    16
 73
    12
 74
     0
 42
0.0000000001
 43
0.0000000001
 40
0.0
 40
0.0
 40
0.0
 40
0.0
 40
0.3333333333333333
 40
0.3333333333333333
 40
0.3333333333333333
 40
0.3333333333333333
 40
0.6666666666666666
 40
0.6666666666666666
 40
0.6666666666666666
 40
0.6666666666666666
 40
1.0
 40
1.0
 40
1.0
 40
1.0
 10
-0.02525
 20
2.6486500000000004
 30
0.0
 10
0.06364
 20
2.6257900000000003
 30
0.0
 10
-0.07605
 20
2.5343500000000003
 30
0.0
 10
-0.03795
 20
2.46577
 30
0.0
 10
-0.03795
 20
2.46577
 30
0.0
 10
-0.03795
 20
2.46577
 30
0.0
 10
-0.05065
 20
2.4530700000000003
 30
0.0
 10
-0.05065
 20
2.4530700000000003
 30
0.0
 10
-0.05065
 20
2.4530700000000003
 30
0.0
 10
-0.09129
 20
2.50895
 30
0.0
 10
-0.05065
 20
2.59023
 30
0.0
 10
-0.02525
 20
2.6486500000000004
 30
0.0
  0
SPLINE
  5
31
100
AcDbEntity
  8
Ebene 1
100
AcDbSpline
210
0.0
220
0.0
230
1.0
 70
     1
 71
     3
 72
    44
 73
    40
 74
     0
 42
0.0000000001
 43
0.0000000001
 40
0.0
 40
0.0
 40
0.0
 40
0.0
 40
0.1
 40
0.1
 40
0.1
 40
0.1
 40
0.2
 40
0.2
 40
0.2
 40
0.2
 40
0.3
 40
0.3
 40
0.3
 40
0.3
 40
0.4
 40
0.4
 40
0.4
 40
0.4
 40
0.5
 40
0.5
 40
0.5
 40
0.5
 40
0.6
 40
0.6
 40
0.6
 40
0.6
 40
0.7
 40
0.7
 40
0.7
 40
0.7
 40
0.7999999999999999
 40
0.7999999999999999
 40
0.7999999999999999
 40
0.7999999999999999
 40
0.8999999999999999
 40
0.8999999999999999
 40
0.8999999999999999
 40
0.8999999999999999
 40
1.0
 40
1.0
 40
1.0
 40
1.0
 10
-0.35037
 20
1.4929500000000002
 30
0.0
 10
-0.29703
 20
1.3862700000000001
 30
0.0
 10
-0.10399
 20
1.3659500000000002
 30
0.0
 10
0.02554
 20
1.3100700000000001
 30
0.0
 10
0.02554
 20
1.3100700000000001
 30
0.0
 10
0.02554
 20
1.3100700000000001
 30
0.0
 10
0.36336
 20
1.4396100000000001
 30
0.0
 10
0.36336
 20
1.4396100000000001
 30
0.0
 10
0.36336
 20
1.4396100000000001
 30
0.0
 10
0.4929000000000001
 20
1.3329300000000002
 30
0.0
 10
0.531
 20
1.15513
 30
0.0
 10
0.6097400000000001
 20
1.0154300000000001
 30
0.0
 10
0.6097400000000001
 20
1.0154300000000001
 30
0.0
 10
0.6656200000000001
 20
0.8401700000000001
 30
0.0
 10
0.55132
 20
0.9824100000000001
 30
0.0
 10
0.52846
 20
1.0027300000000001
 30
0.0
 10
0.52846
 20
1.0027300000000001
 30
0.0
 10
0.3151000000000001
 20
1.2110100000000001
 30
0.0
 10
-0.01509
 20
0.9646300000000001
 30
0.0
 10
0.03824
 20
0.6064900000000001
 30
0.0
 10
0.03824
 20
0.6064900000000001
 30
0.0
 10
0.03824
 20
0.6064900000000001
 30
0.0
 10
0.02554
 20
0.55569
 30
0.0
 10
0.02554
 20
0.55569
 30
0.0
 10
0.02554
 20
0.55569
 30
0.0
 10
0.02554
 20
0.55569
 30
0.0
 10
-0.04049
 20
0.6445900000000001
 30
0.0
 10
-0.04049
 20
0.6445900000000001
 30
0.0
 10
-0.04049
 20
0.6445900000000001
 30
0.0
 10
0.02554
 20
0.9087500000000001
 30
0.0
 10
-0.26401
 20
1.2694300000000001
 30
0.0
 10
-0.4367300000000001
 20
1.0840100000000001
 30
0.0
 10
-0.4367300000000001
 20
1.0840100000000001
 30
0.0
 10
-0.4595900000000001
 20
1.0586100000000001
 30
0.0
 10
-0.51039
 20
0.85287
 30
0.0
 10
-0.5459500000000001
 20
0.9747900000000001
 30
0.0
 10
-0.5459500000000001
 20
0.9747900000000001
 30
0.0
 10
-0.5180100000000001
 20
1.1576700000000002
 30
0.0
 10
-0.4291100000000001
 20
1.3278500000000002
 30
0.0
 10
-0.35037
 20
1.4929500000000002
 30
0.0
  0
SPLINE
  5
32
100
AcDbEntity
  8
Ebene 1
 62
     7
100
AcDbSpline
210
0.0
220
0.0
230
1.0
 70
     1
 71
     3
 72
    16
 73
    12
 74
     0
 42
0.0000000001
 43
0.0000000001
 40
0.0
 40
0.0
 40
0.0
 40
0.0
 40
0.3333333333333333
 40
0.3333333333333333
 40
0.3333333333333333
 40
0.3333333333333333
 40
0.6666666666666666
 40
0.6666666666666666
 40
0.6666666666666666
 40
0.6666666666666666
 40
1.0
 40
1.0
 40
1.0
 40
1.0
 10
1.10504
 20
0.5023500000000001
 30
0.0
 10
1.1177400000000002
 20
0.5023500000000001
 30
0.0
 10
1.1304400000000001
 20
0.5048900000000001
 30
0.0
 10
1.1304400000000001
 20
0.48965
 30
0.0
 10
1.1304400000000001
 20
0.48965
 30
0.0
 10
1.10504
 20
0.33471
 30
0.0
 10
1.19394
 20
0.14421
 30
0.0
 10
1.0898000000000001
 20
0.02483
 30
0.0
 10
1.0898000000000001
 20
0.02483
 30
0.0
 10
1.0263
 20
0.17977
 30
0.0
 10
1.10504
 20
0.34233
 30
0.0
 10
1.10504
 20
0.5023500000000001
 30
0.0
  0
SPLINE
  5
33
100
AcDbEntity
  8
Ebene 1
 62
     7
100
AcDbSpline
210
0.0
220
0.0
230
1.0
 70
     1
 71
     3
 72
    12
 73
     8
 74
     0
 42
0.0000000001
 43
0.0000000001
 40
0.0
 40
0.0
 40
0.0
 40
0.0
 40
0.5
 40
0.5
 40
0.5
 40
0.5
 40
1.0
 40
1.0
 40
1.0
 40
1.0
 10
-1.0514100000000002
 20
0.23057
 30
0.0
 10
-1.0133100000000002
 20
0.21279
 30
0.0
 10
-0.9879100000000001
 20
0.08833
 30
0.0
 10
-1.0260100000000001
 20
0.06039
 30
0.0
 10
-1.0260100000000001
 20
0.06039
 30
0.0
 10
-1.0260100000000001
 20
0.06039
 30
0.0
 10
-1.0514100000000002
 20
0.23057
 30
0.0
 10
-1.0514100000000002
 20
0.23057
 30
0.0
  0
SPLINE
  5
34
100
AcDbEntity
  8
Ebene 1
 62
     7
100
AcDbSpline
210
0.0
220
0.0
230
1.0
 70
     1
 71
     3
 72
    16
 73
    12
 74
     0
 42
0.0000000001
 43
0.0000000001
 40
0.0
 40
0.0
 40
0.0
 40
0.0
 40
0.3333333333333333
 40
0.3333333333333333
 40
0.3333333333333333
 40
0.3333333333333333
 40
0.6666666666666666
 40
0.6666666666666666
 40
0.6666666666666666
 40
0.6666666666666666
 40
1.0
 40
1.0
 40
1.0
 40
1.0
 10
-1.03871
 20
0.02229
 30
0.0
 10
-1.0260100000000001
 20
0.02483
 30
0.0
 10
-1.0133100000000002
 20
0.01721
 30
0.0
 10
-1.00061
 20
0.00705
 30
0.0
 10
-1.00061
 20
0.00705
 30
0.0
 10
-1.0133100000000002
 20
-0.09708
 30
0.0
 10
-1.0133100000000002
 20
-0.22408
 30
0.0
 10
-1.0514100000000002
 20
-0.31298
 30
0.0
 10
-1.0514100000000002
 20
-0.31298
 30
0.0
 10
-1.1758700000000002
 20
-0.25202
 30
0.0
 10
-1.0514100000000002
 20
-0.0793
 30
0.0
 10
-1.03871
 20
0.02229
 30
0.0
  0
SPLINE
  5
35
100
AcDbEntity
  8
Ebene 1
 62
     7
100
AcDbSpline
210
0.0
220
0.0
230
1.0
 70
     1
 71
     3
 72
    12
 73
     8
 74
     0
 42
0.0000000001
 43
0.0000000001
 40
0.0
 40
0.0
 40
0.0
 40
0.0
 40
0.5
 40
0.5
 40
0.5
 40
0.5
 40
1.0
 40
1.0
 40
1.0
 40
1.0
 10
1.14314
 20
-0.0539
 30
0.0
 10
1.1812400000000001
 20
-0.12502
 30
0.0
 10
1.2472800000000002
 20
-0.2698
 30
0.0
 10
1.1685400000000001
 20
-0.34092
 30
0.0
 10
1.1685400000000001
 20
-0.34092
 30
0.0
 10
1.1304400000000001
 20
-0.25964
 30
0.0
 10
1.1177400000000002
 20
-0.14534
 30
0.0
 10
1.14314
 20
-0.0539
 30
0.0
  0
SPLINE
  5
36
100
AcDbEntity
  8
Ebene 1
100
AcDbSpline
210
0.0
220
0.0
230
1.0
 70
     1
 71
     3
 72
    12
 73
     8
 74
     0
 42
0.0000000001
 43
0.0000000001
 40
0.0
 40
0.0
 40
0.0
 40
0.0
 40
0.5
 40
0.5
 40
0.5
 40
0.5
 40
1.0
 40
1.0
 40
1.0
 40
1.0
 10
0.63514
 20
-0.37902
 30
0.0
 10
0.6097400000000001
 20
-0.32314
 30
0.0
 10
0.6097400000000001
 20
-0.24186
 30
0.0
 10
0.6097400000000001
 20
-0.17328
 30
0.0
 10
0.6097400000000001
 20
-0.17328
 30
0.0
 10
0.63514
 20
-0.22916
 30
0.0
 10
0.63514
 20
-0.3104400000000001
 30
0.0
 10
0.63514
 20
-0.37902
 30
0.0
  0
SPLINE
  5
37
100
AcDbEntity
  8
Ebene 1
 62
     7
100
AcDbSpline
210
0.0
220
0.0
230
1.0
 70
     1
 71
     3
 72
    12
 73
     8
 74
     0
 42
0.0000000001
 43
0.0000000001
 40
0.0
 40
0.0
 40
0.0
 40
0.0
 40
0.5
 40
0.5
 40
0.5
 40
0.5
 40
1.0
 40
1.0
 40
1.0
 40
1.0
 10
1.0517000000000001
 20
-0.23678
 30
0.0
 10
1.0898000000000001
 20
-0.3307600000000001
 30
0.0
 10
1.1685400000000001
 20
-0.50602
 30
0.0
 10
1.0898000000000001
 20
-0.6000000000000001
 30
0.0
 10
1.0898000000000001
 20
-0.6000000000000001
 30
0.0
 10
1.0136000000000001
 20
-0.50348
 30
0.0
 10
1.0263
 20
-0.35108
 30
0.0
 10
1.0517000000000001
 20
-0.23678
 30
0.0
  0
SPLINE
  5
38
100
AcDbEntity
  8
Ebene 1
 62
     7
100
AcDbSpline
210
0.0
220
0.0
230
1.0
 70
     1
 71
     3
 72
    20
 73
    16
 74
     0
 42
0.0000000001
 43
0.0000000001
 40
0.0
 40
0.0
 40
0.0
 40
0.0
 40
0.25
 40
0.25
 40
0.25
 40
0.25
 40
0.5
 40
0.5
 40
0.5
 40
0.5
 40
0.75
 40
0.75
 40
0.75
 40
0.75
 40
1.0
 40
1.0
 40
1.0
 40
1.0
 10
-0.9472700000000001
 20
-0.26218
 30
0.0
 10
-0.8431300000000001
 20
-0.35108
 30
0.0
 10
-0.9472700000000001
 20
-0.52888
 30
0.0
 10
-0.9345700000000001
 20
-0.6660400000000001
 30
0.0
 10
-0.9345700000000001
 20
-0.6660400000000001
 30
0.0
 10
-0.9345700000000001
 20
-0.67874
 30
0.0
 10
-0.9472700000000001
 20
-0.6889000000000001
 30
0.0
 10
-0.9599700000000001
 20
-0.6914400000000001
 30
0.0
 10
-0.9599700000000001
 20
-0.6914400000000001
 30
0.0
 10
-0.9752100000000001
 20
-0.6889000000000001
 30
0.0
 10
-0.9879100000000001
 20
-0.67874
 30
0.0
 10
-0.9879100000000001
 20
-0.6660400000000001
 30
0.0
 10
-0.9879100000000001
 20
-0.6660400000000001
 30
0.0
 10
-0.9599700000000001
 20
-0.53396
 30
0.0
 10
-0.9345700000000001
 20
-0.40188
 30
0.0
 10
-0.9472700000000001
 20
-0.26218
 30
0.0
  0
SPLINE
  5
39
100
AcDbEntity
  8
Ebene 1
 62
     7
100
AcDbSpline
210
0.0
220
0.0
230
1.0
 70
     1
 71
     3
 72
    20
 73
    16
 74
     0
 42
0.0000000001
 43
0.0000000001
 40
0.0
 40
0.0
 40
0.0
 40
0.0
 40
0.25
 40
0.25
 40
0.25
 40
0.25
 40
0.5
 40
0.5
 40
0.5
 40
0.5
 40
0.75
 40
0.75
 40
0.75
 40
0.75
 40
1.0
 40
1.0
 40
1.0
 40
1.0
 10
-0.8304300000000001
 20
-0.6127
 30
0.0
 10
-0.8304300000000001
 20
-0.6127
 30
0.0
 10
-0.80503
 20
-0.61524
 30
0.0
 10
-0.80503
 20
-0.61524
 30
0.0
 10
-0.80503
 20
-0.61524
 30
0.0
 10
-0.80503
 20
-0.7752600000000001
 30
0.0
 10
-0.80503
 20
-0.9835400000000001
 30
0.0
 10
-0.8964700000000001
 20
-1.1156200000000001
 30
0.0
 10
-0.8964700000000001
 20
-1.1156200000000001
 30
0.0
 10
-0.8964700000000001
 20
-1.1156200000000001
 30
0.0
 10
-0.9040900000000001
 20
-0.9149600000000001
 30
0.0
 10
-0.9040900000000001
 20
-0.9149600000000001
 30
0.0
 10
-0.9040900000000001
 20
-0.9149600000000001
 30
0.0
 10
-0.9040900000000001
 20
-0.9149600000000001
 30
0.0
 10
-0.8304300000000001
 20
-0.6127
 30
0.0
 10
-0.8304300000000001
 20
-0.6127
 30
0.0
  0
SPLINE
  5
3A
100
AcDbEntity
  8
Ebene 1
 62
     7
100
AcDbSpline
210
0.0
220
0.0
230
1.0
 70
     1
 71
     3
 72
    20
 73
    16
 74
     0
 42
0.0000000001
 43
0.0000000001
 40
0.0
 40
0.0
 40
0.0
 40
0.0
 40
0.25
 40
0.25
 40
0.25
 40
0.25
 40
0.5
 40
0.5
 40
0.5
 40
0.5
 40
0.75
 40
0.75
 40
0.75
 40
0.75
 40
1.0
 40
1.0
 40
1.0
 40
1.0
 10
0.9602600000000001
 20
-0.6508000000000001
 30
0.0
 10
0.9602600000000001
 20
-0.6508000000000001
 30
0.0
 10
0.9882000000000001
 20
-0.65334
 30
0.0
 10
0.9882000000000001
 20
-0.65334
 30
0.0
 10
0.9882000000000001
 20
-0.65334
 30
0.0
 10
0.9882000000000001
 20
-0.7752600000000001
 30
0.0
 10
1.0898000000000001
 20
-0.8921000000000001
 30
0.0
 10
1.0771000000000002
 20
-0.9987800000000001
 30
0.0
 10
1.0771000000000002
 20
-0.9987800000000001
 30
0.0
 10
1.0771000000000002
 20
-0.9987800000000001
 30
0.0
 10
1.0263
 20
-0.9987800000000001
 30
0.0
 10
1.0263
 20
-0.9987800000000001
 30
0.0
 10
1.0263
 20
-0.9987800000000001
 30
0.0
 10
0.9882000000000001
 20
-0.8921000000000001
 30
0.0
 10
0.9602600000000001
 20
-0.7752600000000001
 30
0.0
 10
0.9602600000000001
 20
-0.6508000000000001
 30
0.0
  0
SPLINE
  5
3B
100
AcDbEntity
  8
Ebene 1
 62
     7
100
AcDbSpline
210
0.0
220
0.0
230
1.0
 70
     1
 71
     3
 72
    16
 73
    12
 74
     0
 42
0.0000000001
 43
0.0000000001
 40
0.0
 40
0.0
 40
0.0
 40
0.0
 40
0.3333333333333333
 40
0.3333333333333333
 40
0.3333333333333333
 40
0.3333333333333333
 40
0.6666666666666666
 40
0.6666666666666666
 40
0.6666666666666666
 40
0.6666666666666666
 40
1.0
 40
1.0
 40
1.0
 40
1.0
 10
0.8180200000000001
 20
-0.6914400000000001
 30
0.0
 10
0.9221600000000001
 20
-0.8590800000000001
 30
0.0
 10
1.0517000000000001
 20
-1.1384800000000002
 30
0.0
 10
0.9094600000000001
 20
-1.3137400000000001
 30
0.0
 10
0.9094600000000001
 20
-1.3137400000000001
 30
0.0
 10
0.6757800000000001
 20
-1.2426200000000001
 30
0.0
 10
0.80532
 20
-0.9530600000000001
 30
0.0
 10
0.7799200000000001
 20
-0.7676400000000001
 30
0.0
 10
0.7799200000000001
 20
-0.7676400000000001
 30
0.0
 10
0.7799200000000001
 20
-0.7676400000000001
 30
0.0
 10
0.8180200000000001
 20
-0.6914400000000001
 30
0.0
 10
0.8180200000000001
 20
-0.6914400000000001
 30
0.0
  0
SPLINE
  5
3C
100
AcDbEntity
  8
Ebene 1
 62
     7
100
AcDbSpline
210
0.0
220
0.0
230
1.0
 70
     1
 71
     3
 72
    24
 73
    20
 74
     0
 42
0.0000000001
 43
0.0000000001
 40
0.0
 40
0.0
 40
0.0
 40
0.0
 40
0.2
 40
0.2
 40
0.2
 40
0.2
 40
0.4
 40
0.4
 40
0.4
 40
0.4
 40
0.6000000000000001
 40
0.6000000000000001
 40
0.6000000000000001
 40
0.6000000000000001
 40
0.8
 40
0.8
 40
0.8
 40
0.8
 40
1.0
 40
1.0
 40
1.0
 40
1.0
 10
-0.6881900000000001
 20
-0.8590800000000001
 30
0.0
 10
-0.6627900000000001
 20
-0.8540000000000001
 30
0.0
 10
-0.6500900000000001
 20
-0.8768600000000001
 30
0.0
 10
-0.63485
 20
-0.88956
 30
0.0
 10
-0.63485
 20
-0.88956
 30
0.0
 10
-0.6094500000000001
 20
-1.0546600000000002
 30
0.0
 10
-0.5459500000000001
 20
-1.3289800000000001
 30
0.0
 10
-0.6881900000000001
 20
-1.4458200000000001
 30
0.0
 10
-0.6881900000000001
 20
-1.4458200000000001
 30
0.0
 10
-0.70089
 20
-1.4432800000000001
 30
0.0
 10
-0.7135900000000001
 20
-1.4305800000000002
 30
0.0
 10
-0.7135900000000001
 20
-1.42042
 30
0.0
 10
-0.7135900000000001
 20
-1.42042
 30
0.0
 10
-0.70089
 20
-1.2705600000000001
 30
0.0
 10
-0.8177300000000001
 20
-1.0902200000000002
 30
0.0
 10
-0.70089
 20
-0.9632200000000001
 30
0.0
 10
-0.70089
 20
-0.9632200000000001
 30
0.0
 10
-0.70089
 20
-0.9251200000000001
 30
0.0
 10
-0.70089
 20
-0.8921000000000001
 30
0.0
 10
-0.6881900000000001
 20
-0.8590800000000001
 30
0.0
  0
SPLINE
  5
3D
100
AcDbEntity
  8
Ebene 1
 62
     7
100
AcDbSpline
210
0.0
220
0.0
230
1.0
 70
     1
 71
     3
 72
    16
 73
    12
 74
     0
 42
0.0000000001
 43
0.0000000001
 40
0.0
 40
0.0
 40
0.0
 40
0.0
 40
0.3333333333333333
 40
0.3333333333333333
 40
0.3333333333333333
 40
0.3333333333333333
 40
0.6666666666666666
 40
0.6666666666666666
 40
0.6666666666666666
 40
0.6666666666666666
 40
1.0
 40
1.0
 40
1.0
 40
1.0
 10
0.531
 20
-0.8717800000000001
 30
0.0
 10
0.70118
 20
-1.0495800000000002
 30
0.0
 10
0.7799200000000001
 20
-1.3569200000000001
 30
0.0
 10
0.59704
 20
-1.5575800000000002
 30
0.0
 10
0.59704
 20
-1.5575800000000002
 30
0.0
 10
0.59704
 20
-1.5575800000000002
 30
0.0
 10
0.4421000000000001
 20
-1.4813800000000001
 30
0.0
 10
0.4421000000000001
 20
-1.4813800000000001
 30
0.0
 10
0.4421000000000001
 20
-1.4813800000000001
 30
0.0
 10
0.41416
 20
-1.2756400000000001
 30
0.0
 10
0.42686
 20
-1.0495800000000002
 30
0.0
 10
0.531
 20
-0.8717800000000001
 30
0.0
  0
SPLINE
  5
3E
100
AcDbEntity
  8
Ebene 1
 62
     7
100
AcDbSpline
210
0.0
220
0.0
230
1.0
 70
     1
 71
     3
 72
    16
 73
    12
 74
     0
 42
0.0000000001
 43
0.0000000001
 40
0.0
 40
0.0
 40
0.0
 40
0.0
 40
0.3333333333333333
 40
0.3333333333333333
 40
0.3333333333333333
 40
0.3333333333333333
 40
0.6666666666666666
 40
0.6666666666666666
 40
0.6666666666666666
 40
0.6666666666666666
 40
1.0
 40
1.0
 40
1.0
 40
1.0
 10
-0.05065
 20
-0.88702
 30
0.0
 10
0.07634
 20
-1.08514
 30
0.0
 10
0.02554
 20
-1.3569200000000001
 30
0.0
 10
0.03824
 20
-1.6007600000000002
 30
0.0
 10
0.03824
 20
-1.6007600000000002
 30
0.0
 10
0.03824
 20
-1.6007600000000002
 30
0.0
 10
-0.07605
 20
-1.7709400000000002
 30
0.0
 10
-0.07605
 20
-1.7709400000000002
 30
0.0
 10
-0.07605
 20
-1.7709400000000002
 30
0.0
 10
-0.3757700000000001
 20
-1.5728200000000001
 30
0.0
 10
-0.15479
 20
-1.1410200000000001
 30
0.0
 10
-0.05065
 20
-0.88702
 30
0.0
  0
SPLINE
  5
3F
100
AcDbEntity
  8
Ebene 1
 62
     7
100
AcDbSpline
210
0.0
220
0.0
230
1.0
 70
     1
 71
     3
 72
    16
 73
    12
 74
     0
 42
0.0000000001
 43
0.0000000001
 40
0.0
 40
0.0
 40
0.0
 40
0.0
 40
0.3333333333333333
 40
0.3333333333333333
 40
0.3333333333333333
 40
0.3333333333333333
 40
0.6666666666666666
 40
0.6666666666666666
 40
0.6666666666666666
 40
0.6666666666666666
 40
1.0
 40
1.0
 40
1.0
 40
1.0
 10
-0.38847
 20
-0.9251200000000001
 30
0.0
 10
-0.3757700000000001
 20
-0.9225800000000001
 30
0.0
 10
-0.36307
 20
-0.9302
 30
0.0
 10
-0.35037
 20
-0.9403600000000001
 30
0.0
 10
-0.35037
 20
-0.9403600000000001
 30
0.0
 10
-0.32497
 20
-1.16642
 30
0.0
 10
-0.16749
 20
-1.49916
 30
0.0
 10
-0.4291100000000001
 20
-1.62616
 30
0.0
 10
-0.4291100000000001
 20
-1.62616
 30
0.0
 10
-0.5586500000000001
 20
-1.4280400000000002
 30
0.0
 10
-0.53325
 20
-1.1105400000000001
 30
0.0
 10
-0.38847
 20
-0.9251200000000001
 30
0.0
  0
SPLINE
  5
40
100
AcDbEntity
  8
Ebene 1
 62
     7
100
AcDbSpline
210
0.0
220
0.0
230
1.0
 70
     1
 71
     3
 72
    16
 73
    12
 74
     0
 42
0.0000000001
 43
0.0000000001
 40
0.0
 40
0.0
 40
0.0
 40
0.0
 40
0.3333333333333333
 40
0.3333333333333333
 40
0.3333333333333333
 40
0.3333333333333333
 40
0.6666666666666666
 40
0.6666666666666666
 40
0.6666666666666666
 40
0.6666666666666666
 40
1.0
 40
1.0
 40
1.0
 40
1.0
 10
0.19318
 20
-0.9632200000000001
 30
0.0
 10
0.19318
 20
-0.9632200000000001
 30
0.0
 10
0.25922
 20
-1.0318000000000001
 30
0.0
 10
0.25922
 20
-1.0318000000000001
 30
0.0
 10
0.25922
 20
-1.0318000000000001
 30
0.0
 10
0.28462
 20
-1.2629400000000002
 30
0.0
 10
0.4675
 20
-1.5245600000000001
 30
0.0
 10
0.31002
 20
-1.7455400000000001
 30
0.0
 10
0.31002
 20
-1.7455400000000001
 30
0.0
 10
0.05094
 20
-1.58806
 30
0.0
 10
0.06364
 20
-1.20198
 30
0.0
 10
0.19318
 20
-0.9632200000000001
 30
0.0
  0
SPLINE
  5
41
100
AcDbEntity
  8
Ebene 1
 62
     7
100
AcDbSpline
210
0.0
220
0.0
230
1.0
 70
     1
 71
     3
 72
    32
 73
    28
 74
     0
 42
0.0000000001
 43
0.0000000001
 40
0.0
 40
0.0
 40
0.0
 40
0.0
 40
0.1428571428571429
 40
0.1428571428571429
 40
0.1428571428571429
 40
0.1428571428571429
 40
0.2857142857142857
 40
0.2857142857142857
 40
0.2857142857142857
 40
0.2857142857142857
 40
0.4285714285714286
 40
0.4285714285714286
 40
0.4285714285714286
 40
0.4285714285714286
 40
0.5714285714285714
 40
0.5714285714285714
 40
0.5714285714285714
 40
0.5714285714285714
 40
0.7142857142857142
 40
0.7142857142857142
 40
0.7142857142857142
 40
0.7142857142857142
 40
0.857142857142857
 40
0.857142857142857
 40
0.857142857142857
 40
0.857142857142857
 40
1.0
 40
1.0
 40
1.0
 40
1.0
 10
0.13222
 20
-2.2891000000000004
 30
0.0
 10
0.21604
 20
-2.5354800000000002
 30
0.0
 10
-0.18019
 20
-3.11206
 30
0.0
 10
-0.24115
 20
-3.2289000000000003
 30
0.0
 10
-0.24115
 20
-3.2289000000000003
 30
0.0
 10
-0.8736100000000001
 20
-4.0213800000000006
 30
0.0
 10
-0.33767
 20
-4.5547800000000001
 30
0.0
 10
-0.3122700000000001
 20
-5.2380400000000007
 30
0.0
 10
-0.3122700000000001
 20
-5.2380400000000007
 30
0.0
 10
-0.50785
 20
-5.0170600000000007
 30
0.0
 10
-0.67549
 20
-4.5293800000000006
 30
0.0
 10
-0.7796300000000001
 20
-4.2068000000000003
 30
0.0
 10
-0.7796300000000001
 20
-4.2068000000000003
 30
0.0
 10
-0.8964700000000001
 20
-4.5547800000000001
 30
0.0
 10
-0.7135900000000001
 20
-4.9815000000000005
 30
0.0
 10
-0.7542300000000001
 20
-5.3294800000000002
 30
0.0
 10
-0.7542300000000001
 20
-5.3294800000000002
 30
0.0
 10
-0.7542300000000001
 20
-5.3294800000000002
 30
0.0
 10
-0.8837700000000001
 20
-5.0170600000000007
 30
0.0
 10
-0.8837700000000001
 20
-5.0170600000000007
 30
0.0
 10
-0.8837700000000001
 20
-5.0170600000000007
 30
0.0
 10
-1.00061
 20
-4.6563800000000004
 30
0.0
 10
-1.1149100000000001
 20
-4.2703000000000007
 30
0.0
 10
-0.9167900000000001
 20
-3.9096200000000003
 30
0.0
 10
-0.9167900000000001
 20
-3.9096200000000003
 30
0.0
 10
-0.6094500000000001
 20
-3.4651200000000002
 30
0.0
 10
0.00268
 20
-2.8834600000000004
 30
0.0
 10
0.13222
 20
-2.2891000000000004
 30
0.0
  0
ENDSEC
  0
SECTION
  2
OBJECTS
  0
DICTIONARY
  5
19
100
AcDbDictionary
280
     0
281
     1
  3
ACAD_GROUP
350
1A
  3
ACAD_MLINESTYLE
350
1B
  3
ACAD_LAYOUT
350
1E
  3
ACAD_PLOTSETTINGS
350
22
  3
ACAD_PLOTSTYLENAME
350
1F
  3
ACAD_WIPEOUT_VARS
350
23
  0
DICTIONARY
  5
1A
102
{ACAD_REACTORS
330
19
102
}
100
AcDbDictionary
280
     0
281
     1
  0
DICTIONARY
  5
1B
102
{ACAD_REACTORS
330
19
102
}
100
AcDbDictionary
280
     0
281
     1
  3
Standard
350
1C
  0
MLINESTYLE
  5
1C
102
{ACAD_REACTORS
330
1B
102
}
100
AcDbMlineStyle
  2
Standard
 70
     0
  3

 62
     0
 51
90.0
 52
90.0
 71
     2
 49
0.5
 62
   256
  6
BYLAYER
 49
-0.5
 62
   256
  6
BYLAYER
  0
ACDBDICTIONARYWDFLT
  5
1F
102
{ACAD_REACTORS
330
19
102
}
100
AcDbDictionary
281
     1
  3
Normal
350
1D
100
AcDbDictionaryWithDefault
340
1D
  0
ACDBPLACEHOLDER
  5
1D
102
{ACAD_REACTORS
330
1F
102
}
  0
LAYOUT
  5
20
102
{ACAD_REACTORS
330
1E
102
}
100
AcDbPlotSettings
  1

  2

  4

  6

 40
0.0
 41
0.0
 42
0.0
 43
0.0
 44
0.0
 45
0.0
 46
0.0
 47
0.0
 48
0.0
 49
0.0
140
0.0
141
0.0
142
1.0
143
1.0
 70
  1024
 72
     0
 73
     0
 74
     0
  7

 75
     0
147
1.0
148
0.0
149
0.0
100
AcDbLayout
  1
Model
 70
     0
 71
     0
 10
0.0
 20
0.0
 11
0.0
 21
0.0
 12
0.0
 22
0.0
 32
0.0
 14
0.0
 24
0.0
 34
0.0
 15
0.0
 25
0.0
 35
0.0
146
0.0
 13
0.0
 23
0.0
 33
0.0
 16
0.0
 26
0.0
 36
0.0
 17
0.0
 27
0.0
 37
0.0
 76
     0
330
A
331
0
345
0
346
0
  0
LAYOUT
  5
21
102
{ACAD_REACTORS
330
1E
102
}
100
AcDbPlotSettings
  1

  2

  4

  6

 40
0.0
 41
0.0
 42
0.0
 43
0.0
 44
0.0
 45
0.0
 46
0.0
 47
0.0
 48
0.0
 49
0.0
140
0.0
141
0.0
142
1.0
143
1.0
 70
     0
 72
     0
 73
     0
 74
     0
  7

 75
     0
147
1.0
148
0.0
149
0.0
100
AcDbLayout
  1
Layout1
 70
     0
 71
     0
 10
0.0
 20
0.0
 11
0.0
 21
0.0
 12
0.0
 22
0.0
 32
0.0
 14
0.0
 24
0.0
 34
0.0
 15
0.0
 25
0.0
 35
0.0
146
0.0
 13
0.0
 23
0.0
 33
0.0
 16
0.0
 26
0.0
 36
0.0
 17
0.0
 27
0.0
 37
0.0
 76
     0
330
B
331
0
345
0
346
0
  0
DICTIONARY
  5
1E
102
{ACAD_REACTORS
330
19
102
}
100
AcDbDictionary
280
     0
281
     1
  3
Layout1
350
21
  3
Model
350
20
  0
DICTIONARY
  5
22
102
{ACAD_REACTORS
330
19
102
}
100
AcDbDictionary
280
     0
281
     1
  0
WIPEOUTVARIABLES
  5
23
100
AcDbWipeoutVariables
 70
     1
  0
ENDSEC
  0
EOF
