  0
SECTION
  2
HEADER
  9
$ACADVER
  1
AC1015
  9
$ACADMAINTVER
 70
     6
  9
$DWGCODEPAGE
  3
DOS850
  9
$INSBASE
 10
0.0
 20
0.0
 30
0.0
  9
$EXTMIN
 10
-5.92598
 20
-4.5878
 30
1.000000E+20
  9
$EXTMAX
 10
5.93117
 20
4.5821
 30
-1.000000E+20
  9
$LIMMIN
 10
0.0
 20
0.0
  9
$LIMMAX
 10
0.0
 20
0.0
  9
$ORTHOMODE
 70
     0
  9
$REGENMODE
 70
     1
  9
$FILLMODE
 70
     1
  9
$QTEXTMODE
 70
     0
  9
$MIRRTEXT
 70
     1
  9
$LTSCALE
 40
1.0
  9
$ATTMODE
 70
     1
  9
$TEXTSIZE
 40
0.2
  9
$TRACEWID
 40
0.05
  9
$TEXTSTYLE
  7
Standard
  9
$CLAYER
  8
0
  9
$CELTYPE
  6
Continuous
  9
$CECOLOR
 62
   256
  9
$CELTSCALE
 40
1.0
  9
$DISPSILH
 70
     0
  9
$DIMSCALE
 40
1.0
  9
$DIMASZ
 40
0.18
  9
$DIMEXO
 40
0.0625
  9
$DIMDLI
 40
0.38
  9
$DIMRND
 40
0.0
  9
$DIMDLE
 40
0.0
  9
$DIMEXE
 40
0.18
  9
$DIMTP
 40
0.0
  9
$DIMTM
 40
0.0
  9
$DIMTXT
 40
0.18
  9
$DIMCEN
 40
0.09
  9
$DIMTSZ
 40
0.0
  9
$DIMTOL
 70
     0
  9
$DIMLIM
 70
     0
  9
$DIMTIH
 70
     1
  9
$DIMTOH
 70
     1
  9
$DIMSE1
 70
     0
  9
$DIMSE2
 70
     0
  9
$DIMTAD
 70
     0
  9
$DIMZIN
 70
     0
  9
$DIMBLK
  1

  9
$DIMASO
 70
     1
  9
$DIMSHO
 70
     1
  9
$DIMPOST
  1

  9
$DIMAPOST
  1

  9
$DIMALT
 70
     0
  9
$DIMALTD
 70
     2
  9
$DIMALTF
 40
25.4
  9
$DIMLFAC
 40
1.0
  9
$DIMTOFL
 70
     0
  9
$DIMTVP
 40
0.0
  9
$DIMTIX
 70
     0
  9
$DIMSOXD
 70
     0
  9
$DIMSAH
 70
     0
  9
$DIMBLK1
  1

  9
$DIMBLK2
  1

  9
$DIMSTYLE
  2
Standard
  9
$DIMCLRD
 70
     0
  9
$DIMCLRE
 70
     0
  9
$DIMCLRT
 70
     0
  9
$DIMTFAC
 40
1.0
  9
$DIMGAP
 40
0.09
  9
$DIMJUST
 70
     0
  9
$DIMSD1
 70
     0
  9
$DIMSD2
 70
     0
  9
$DIMTOLJ
 70
     1
  9
$DIMTZIN
 70
     0
  9
$DIMALTZ
 70
     0
  9
$DIMALTTZ
 70
     0
  9
$DIMUPT
 70
     0
  9
$DIMDEC
 70
     4
  9
$DIMTDEC
 70
     4
  9
$DIMALTU
 70
     2
  9
$DIMALTTD
 70
     2
  9
$DIMTXSTY
  7
Standard
  9
$DIMAUNIT
 70
     0
  9
$DIMADEC
 70
     0
  9
$DIMALTRND
 40
0.0
  9
$DIMAZIN
 70
     0
  9
$DIMDSEP
 70
     0
  9
$DIMATFIT
 70
     3
  9
$DIMFRAC
 70
     0
  9
$DIMLDRBLK
  1

  9
$DIMLUNIT
 70
     2
  9
$DIMLWD
 70
     0
  9
$DIMLWE
 70
     0
  9
$DIMTMOVE
 70
     0
  9
$LUNITS
 70
     2
  9
$LUPREC
 70
     4
  9
$SKETCHINC
 40
0.1
  9
$FILLETRAD
 40
0.0
  9
$AUNITS
 70
     0
  9
$AUPREC
 70
     0
  9
$MENU
  1
acad
  9
$ELEVATION
 40
0.0
  9
$PELEVATION
 40
0.0
  9
$THICKNESS
 40
0.0
  9
$LIMCHECK
 70
     0
  9
$CHAMFERA
 40
0.0
  9
$CHAMFERB
 40
0.0
  9
$CHAMFERC
 40
0.0
  9
$CHAMFERD
 40
0.0
  9
$SKPOLY
 70
     0
  9
$TDCREATE
 40
0.000000000
  9
$TDUCREATE
 40
0.000000000
  9
$TDUPDATE
 40
0.000000000
  9
$TDUUPDATE
 40
0.000000000
  9
$TDINDWG
 40
0.0000000000
  9
$TDUSRTIMER
 40
0.0000000000
  9
$USRTIMER
 70
     1
  9
$ANGBASE
 50
0.0
  9
$ANGDIR
 70
     0
  9
$PDMODE
 70
     0
  9
$PDSIZE
 40
0.0
  9
$PLINEWID
 40
0.0
  9
$SPLFRAME
 70
     0
  9
$SPLINETYPE
 70
     6
  9
$SPLINESEGS
 70
     8
  9
$HANDSEED
  5
54
  9
$SURFTAB1
 70
     6
  9
$SURFTAB2
 70
     6
  9
$SURFTYPE
 70
     6
  9
$SURFU
 70
     6
  9
$SURFV
 70
     6
  9
$UCSBASE
  2

  9
$UCSNAME
  2

  9
$UCSORG
 10
0.0
 20
0.0
 30
0.0
  9
$UCSXDIR
 10
1.0
 20
0.0
 30
0.0
  9
$UCSYDIR
 10
0.0
 20
1.0
 30
0.0
  9
$UCSORTHOREF
  2

  9
$UCSORTHOVIEW
 70
     0
  9
$UCSORGTOP
 10
0.0
 20
0.0
 30
0.0
  9
$UCSORGBOTTOM
 10
0.0
 20
0.0
 30
0.0
  9
$UCSORGLEFT
 10
0.0
 20
0.0
 30
0.0
  9
$UCSORGRIGHT
 10
0.0
 20
0.0
 30
0.0
  9
$UCSORGFRONT
 10
0.0
 20
0.0
 30
0.0
  9
$UCSORGBACK
 10
0.0
 20
0.0
 30
0.0
  9
$PUCSBASE
  2

  9
$PUCSNAME
  2

  9
$PUCSORG
 10
0.0
 20
0.0
 30
0.0
  9
$PUCSXDIR
 10
1.0
 20
0.0
 30
0.0
  9
$PUCSYDIR
 10
0.0
 20
1.0
 30
0.0
  9
$PUCSORTHOREF
  2

  9
$PUCSORTHOVIEW
 70
     0
  9
$PUCSORGTOP
 10
0.0
 20
0.0
 30
0.0
  9
$PUCSORGBOTTOM
 10
0.0
 20
0.0
 30
0.0
  9
$PUCSORGLEFT
 10
0.0
 20
0.0
 30
0.0
  9
$PUCSORGRIGHT
 10
0.0
 20
0.0
 30
0.0
  9
$PUCSORGFRONT
 10
0.0
 20
0.0
 30
0.0
  9
$PUCSORGBACK
 10
0.0
 20
0.0
 30
0.0
  9
$USERI1
 70
     0
  9
$USERI2
 70
     0
  9
$USERI3
 70
     0
  9
$USERI4
 70
     0
  9
$USERI5
 70
     0
  9
$USERR1
 40
0.0
  9
$USERR2
 40
0.0
  9
$USERR3
 40
0.0
  9
$USERR4
 40
0.0
  9
$USERR5
 40
0.0
  9
$WORLDVIEW
 70
     1
  9
$SHADEDGE
 70
     3
  9
$SHADEDIF
 70
    70
  9
$TILEMODE
 70
     1
  9
$MAXACTVP
 70
    16
  9
$PINSBASE
 10
0.0
 20
0.0
 30
0.0
  9
$PLIMCHECK
 70
     0
  9
$PEXTMIN
 10
1.000000E+20
 20
1.000000E+20
 30
1.000000E+20
  9
$PEXTMAX
 10
-1.000000E+20
 20
-1.000000E+20
 30
-1.000000E+20
  9
$PLIMMIN
 10
0.0
 20
0.0
  9
$PLIMMAX
 10
12.0
 20
9.0
  9
$UNITMODE
 70
     0
  9
$VISRETAIN
 70
     0
  9
$PLINEGEN
 70
     1
  9
$PSLTSCALE
 70
     0
  9
$TREEDEPTH
 70
  3020
  9
$CMLSTYLE
  2
Standard
  9
$CMLJUST
 70
     0
  9
$CMLSCALE
 40
1.0
  9
$PROXYGRAPHICS
 70
     0
  9
$MEASUREMENT
 70
     0
  9
$CELWEIGHT
370
     0
  9
$ENDCAPS
280
     0
  9
$JOINSTYLE
280
     0
  9
$LWDISPLAY
290
     0
  9
$INSUNITS
 70
     5
  9
$HYPERLINKBASE
  1

  9
$XEDIT
290
     1
  9
$CEPSNTYPE
380
     0
  9
$PSTYLEMODE
290
     1
  9
$FINGERPRINTGUID
  2

  9
$VERSIONGUID
  2

  9
$EXTNAMES
290
     1
  9
$PSVPSCALE
 40
0.0
  0
ENDSEC
  0
SECTION
  2
CLASSES
  0
CLASS
  1
LWPOLYLINE
  2
AcDbPolyline
  3
AutoCAD 2000
 90
    32768
280
     0
281
     1
  0
CLASS
  1
IMAGE
  2
AcDbRasterImage
  3
ISM
 90
    32895
280
     0
281
     1
  0
CLASS
  1
OLE2FRAME
  2
AcDbOle2Frame
  3
AutoCAD 2000
 90
    32768
280
     0
281
     1
  0
CLASS
  1
HATCH
  2
AcDbHatch
  3
AutoCAD 2000
 90
    32768
280
     0
281
     1
  0
CLASS
  1
DICTIONARYVAR
  2
AcDbDictionaryVar
  3
AutoCAD 2000
 90
    32768
280
     0
281
     0
  0
CLASS
  1
RASTERVARIABLES
  2
AcDbRasterVariables
  3
ISM
 90
    32768
280
     0
281
     0
  0
CLASS
  1
IMAGEDEF
  2
AcDbRasterImageDef
  3
ISM
 90
    32768
280
     0
281
     0
  0
CLASS
  1
IMAGEDEF_REACTOR
  2
AcDbRasterImageDefReactor
  3
ISM
 90
    32769
280
     0
281
     0
  0
CLASS
  1
IDBUFFER
  2
AcDbIdBuffer
  3
AutoCAD 2000
 90
    32768
280
     0
281
     0
  0
CLASS
  1
SPATIAL_FILTER
  2
AcDbSpatialFilter
  3
AutoCAD 2000
 90
    32768
280
     0
281
     0
  0
CLASS
  1
XRECORD
  2
AcDbXrecord
  3
AutoCAD 2000
 90
    32768
280
     0
281
     0
  0
CLASS
  1
SORTENTSTABLE
  2
AcDbSortentsTable
  3
AutoCAD 2000
 90
    32768
280
     0
281
     0
  0
CLASS
  1
LAYER_INDEX
  2
AcDbLayerIndex
  3
AutoCAD 2000
 90
    32768
280
     0
281
     0
  0
CLASS
  1
SPATIAL_INDEX
  2
AcDbSpatialIndex
  3
AutoCAD 2000
 90
    32768
280
     0
281
     0
  0
CLASS
  1
OBJECT_PTR
  2
CAseDLPNTableRecord
  3
"ASE-LPNTableRecord"
 90
    32769
280
     0
281
     0
  0
CLASS
  1
LAYOUT
  2
AcDbLayout
  3
AutoCAD 2000
 90
        0
280
     0
281
     0
  0
CLASS
  1
PLOTSETTINGS
  2
AcDbPlotSettings
  3
AutoCAD 2000
 90
    32768
280
     0
281
     0
  0
CLASS
  1
ACDBDICTIONARYWDFLT
  2
AcDbDictionaryWithDefault
  3
AutoCAD 2000
 90
        0
280
     0
281
     0
  0
CLASS
  1
ACDBPLACEHOLDER
  2
AcDbPlaceHolder
  3
AutoCAD 2000
 90
        0
280
     0
281
     0
  0
CLASS
  1
VBA_PROJECT
  2
AcDbVbaProject
  3
acadvba
 90
    32768
280
     0
281
     0
  0
CLASS
  1
WIPEOUT
  2
AcDbWipeout
  3
WipeOut|AutoCAD Express Tool|expresstools@autodesk.com
 90
    32895
280
     0
281
     1
  0
CLASS
  1
WIPEOUTVARIABLES
  2
AcDbWipeoutVariables
  3
WipeOut|AutoCAD Express Tool|expresstools@autodesk.com
 90
        0
280
     0
281
     0
  0
CLASS
  1
RTEXT
  2
RText
  3
RText|AutoCAD Express Tool|expresstools@autodesk.com
 90
    32768
280
     0
281
     1
  0
CLASS
  1
ARCALIGNEDTEXT
  2
AcDbArcAlignedText
  3
ATEXT|AutoCAD Express Tool|expresstools@autodesk.com
 90
    32768
280
     0
281
     1
  0
ENDSEC
  0
SECTION
  2
TABLES
  0
TABLE
  2
VPORT
  5
7
100
AcDbSymbolTable
 70
     1
  0
VPORT
  5
15
100
AcDbSymbolTableRecord
100
AcDbViewportTableRecord
  2
*ACTIVE
 70
     0
 10
0.0
 20
0.0
 11
1.0
 21
1.0
 12
6.591288
 22
4.579184
 13
0.0
 23
0.0
 14
1.0
 24
1.0
 15
0.0
 25
0.0
 16
0.0
 26
0.0
 36
1.0
 17
0.0
 27
0.0
 37
0.0
 40
9.158369
 41
0.688564
 42
50.0
 43
0.0
 44
0.0
 50
0.0
 51
0.0
 71
     0
 72
   100
 73
     1
 74
     1
 75
     0
 76
     0
 77
     0
 78
     0
281
     0
 65
     0
110
0.0
120
0.0
130
0.0
111
1.0
121
0.0
131
0.0
112
0.0
122
1.0
132
0.0
345
0
346
0
 79
     0
146
0.0
  0
ENDTAB
  0
TABLE
  2
LTYPE
  5
4
100
AcDbSymbolTable
 70
     3
  0
LTYPE
  5
11
100
AcDbSymbolTableRecord
100
AcDbLinetypeTableRecord
  2
ByBlock
 70
    64
  3

 72
    65
 73
     0
 40
0.0
  0
LTYPE
  5
12
100
AcDbSymbolTableRecord
100
AcDbLinetypeTableRecord
  2
ByLayer
 70
    64
  3

 72
    65
 73
     0
 40
0.0
  0
LTYPE
  5
13
100
AcDbSymbolTableRecord
100
AcDbLinetypeTableRecord
  2
Continuous
 70
    64
  3
Solid line
 72
    65
 73
     0
 40
0.0
  0
ENDTAB
  0
TABLE
  2
LAYER
  5
2
100
AcDbSymbolTable
 70
     2
  0
LAYER
  5
14
100
AcDbSymbolTableRecord
100
AcDbLayerTableRecord
  2
0
 70
     0
 62
     7
  6
Continuous
290
     1
370
    -3
390
1D
  0
LAYER
  5
24
100
AcDbSymbolTableRecord
100
AcDbLayerTableRecord
  2
Ebene 1
 70
     0
 62
     7
  6
Continuous
290
     1
370
    -3
390
1F
  0
ENDTAB
  0
TABLE
  2
STYLE
  5
3
100
AcDbSymbolTable
 70
     1
  0
STYLE
  5
17
100
AcDbSymbolTableRecord
100
AcDbTextStyleTableRecord
  2
Standard
 70
     0
 40
0.0
 41
1.0
 50
0.0
 71
     0
 42
0.0
  3
txt
  4

  0
ENDTAB
  0
TABLE
  2
VIEW
  5
5
100
AcDbSymbolTable
 70
     0
  0
ENDTAB
  0
TABLE
  2
UCS
  5
6
100
AcDbSymbolTable
 70
     0
  0
ENDTAB
  0
TABLE
  2
APPID
  5
8
100
AcDbSymbolTable
 70
     1
  0
APPID
  5
16
100
AcDbSymbolTableRecord
100
AcDbRegAppTableRecord
  2
ACAD
 70
     0
  0
ENDTAB
  0
TABLE
  2
DIMSTYLE
  5
9
100
AcDbSymbolTable
 70
     1
100
AcDbDimStyleTable
 71
     0
  0
DIMSTYLE
105
18
100
AcDbSymbolTableRecord
100
AcDbDimStyleTableRecord
  2
Standard
 70
     0
  3

  4

 40
1.0
 41
0.18
 42
0.0625
 43
0.38
 44
0.18
 45
0.0
 46
0.0
 47
0.0
 48
0.0
 71
     0
 72
     0
 73
     1
 74
     1
 75
     0
 76
     0
 77
     0
 78
     0
 79
     0
140
0.18
141
0.09
142
0.0
143
25.4
144
1.0
145
0.0
146
1.0
147
0.09
148
0.0
170
     0
171
     2
172
     0
173
     0
174
     0
175
     0
176
     0
177
     0
178
     0
179
     0
271
     4
272
     4
273
     2
274
     2
275
     0
276
     0
277
     2
278
    46
279
     0
280
     0
281
     0
282
     0
283
     1
284
     0
285
     0
286
     0
288
     0
340
17
341
0
342
0
343
0
344
0
371
    -2
372
    -2
  0
ENDTAB
  0
TABLE
  2
BLOCK_RECORD
  5
1
100
AcDbSymbolTable
 70
     0
  0
BLOCK_RECORD
  5
A
100
AcDbSymbolTableRecord
100
AcDbBlockTableRecord
  2
*MODEL_SPACE
340
20
  0
BLOCK_RECORD
  5
B
100
AcDbSymbolTableRecord
100
AcDbBlockTableRecord
  2
*PAPER_SPACE
340
21
  0
ENDTAB
  0
ENDSEC
  0
SECTION
  2
BLOCKS
  0
BLOCK
  5
D
100
AcDbEntity
  8
0
100
AcDbBlockBegin
  2
*MODEL_SPACE
 70
     0
 10
0.0
 20
0.0
 30
0.0
  3
*MODEL_SPACE
  1

  0
ENDBLK
  5
E
100
AcDbEntity
  8
0
100
AcDbBlockEnd
  0
BLOCK
  5
F
100
AcDbEntity
 67
     1
  8
0
100
AcDbBlockBegin
  2
*PAPER_SPACE
 70
     0
 10
0.0
 20
0.0
 30
0.0
  3
*PAPER_SPACE
  1

  0
ENDBLK
  5
10
100
AcDbEntity
 67
     1
  8
0
100
AcDbBlockEnd
  0
ENDSEC
  0
SECTION
  2
ENTITIES
  0
SPLINE
  5
25
100
AcDbEntity
  8
Ebene 1
100
AcDbSpline
210
0.0
220
0.0
230
1.0
 70
     1
 71
     3
 72
   232
 73
   228
 74
     0
 42
0.0000000001
 43
0.0000000001
 40
0.0
 40
0.0
 40
0.0
 40
0.0
 40
0.0175438596491228
 40
0.0175438596491228
 40
0.0175438596491228
 40
0.0175438596491228
 40
0.0350877192982456
 40
0.0350877192982456
 40
0.0350877192982456
 40
0.0350877192982456
 40
0.0526315789473684
 40
0.0526315789473684
 40
0.0526315789473684
 40
0.0526315789473684
 40
0.0701754385964912
 40
0.0701754385964912
 40
0.0701754385964912
 40
0.0701754385964912
 40
0.087719298245614
 40
0.087719298245614
 40
0.087719298245614
 40
0.087719298245614
 40
0.1052631578947368
 40
0.1052631578947368
 40
0.1052631578947368
 40
0.1052631578947368
 40
0.1228070175438596
 40
0.1228070175438596
 40
0.1228070175438596
 40
0.1228070175438596
 40
0.1403508771929825
 40
0.1403508771929825
 40
0.1403508771929825
 40
0.1403508771929825
 40
0.1578947368421053
 40
0.1578947368421053
 40
0.1578947368421053
 40
0.1578947368421053
 40
0.1754385964912281
 40
0.1754385964912281
 40
0.1754385964912281
 40
0.1754385964912281
 40
0.1929824561403509
 40
0.1929824561403509
 40
0.1929824561403509
 40
0.1929824561403509
 40
0.2105263157894737
 40
0.2105263157894737
 40
0.2105263157894737
 40
0.2105263157894737
 40
0.2280701754385965
 40
0.2280701754385965
 40
0.2280701754385965
 40
0.2280701754385965
 40
0.2456140350877193
 40
0.2456140350877193
 40
0.2456140350877193
 40
0.2456140350877193
 40
0.2631578947368421
 40
0.2631578947368421
 40
0.2631578947368421
 40
0.2631578947368421
 40
0.2807017543859649
 40
0.2807017543859649
 40
0.2807017543859649
 40
0.2807017543859649
 40
0.2982456140350877
 40
0.2982456140350877
 40
0.2982456140350877
 40
0.2982456140350877
 40
0.3157894736842105
 40
0.3157894736842105
 40
0.3157894736842105
 40
0.3157894736842105
 40
0.3333333333333333
 40
0.3333333333333333
 40
0.3333333333333333
 40
0.3333333333333333
 40
0.3508771929824561
 40
0.3508771929824561
 40
0.3508771929824561
 40
0.3508771929824561
 40
0.3684210526315789
 40
0.3684210526315789
 40
0.3684210526315789
 40
0.3684210526315789
 40
0.3859649122807017
 40
0.3859649122807017
 40
0.3859649122807017
 40
0.3859649122807017
 40
0.4035087719298245
 40
0.4035087719298245
 40
0.4035087719298245
 40
0.4035087719298245
 40
0.4210526315789474
 40
0.4210526315789474
 40
0.4210526315789474
 40
0.4210526315789474
 40
0.4385964912280702
 40
0.4385964912280702
 40
0.4385964912280702
 40
0.4385964912280702
 40
0.456140350877193
 40
0.456140350877193
 40
0.456140350877193
 40
0.456140350877193
 40
0.4736842105263158
 40
0.4736842105263158
 40
0.4736842105263158
 40
0.4736842105263158
 40
0.4912280701754386
 40
0.4912280701754386
 40
0.4912280701754386
 40
0.4912280701754386
 40
0.5087719298245614
 40
0.5087719298245614
 40
0.5087719298245614
 40
0.5087719298245614
 40
0.5263157894736843
 40
0.5263157894736843
 40
0.5263157894736843
 40
0.5263157894736843
 40
0.5438596491228072
 40
0.5438596491228072
 40
0.5438596491228072
 40
0.5438596491228072
 40
0.56140350877193
 40
0.56140350877193
 40
0.56140350877193
 40
0.56140350877193
 40
0.5789473684210529
 40
0.5789473684210529
 40
0.5789473684210529
 40
0.5789473684210529
 40
0.5964912280701757
 40
0.5964912280701757
 40
0.5964912280701757
 40
0.5964912280701757
 40
0.6140350877192986
 40
0.6140350877192986
 40
0.6140350877192986
 40
0.6140350877192986
 40
0.6315789473684215
 40
0.6315789473684215
 40
0.6315789473684215
 40
0.6315789473684215
 40
0.6491228070175443
 40
0.6491228070175443
 40
0.6491228070175443
 40
0.6491228070175443
 40
0.6666666666666672
 40
0.6666666666666672
 40
0.6666666666666672
 40
0.6666666666666672
 40
0.6842105263157901
 40
0.6842105263157901
 40
0.6842105263157901
 40
0.6842105263157901
 40
0.7017543859649129
 40
0.7017543859649129
 40
0.7017543859649129
 40
0.7017543859649129
 40
0.7192982456140358
 40
0.7192982456140358
 40
0.7192982456140358
 40
0.7192982456140358
 40
0.7368421052631586
 40
0.7368421052631586
 40
0.7368421052631586
 40
0.7368421052631586
 40
0.7543859649122815
 40
0.7543859649122815
 40
0.7543859649122815
 40
0.7543859649122815
 40
0.7719298245614044
 40
0.7719298245614044
 40
0.7719298245614044
 40
0.7719298245614044
 40
0.7894736842105272
 40
0.7894736842105272
 40
0.7894736842105272
 40
0.7894736842105272
 40
0.8070175438596501
 40
0.8070175438596501
 40
0.8070175438596501
 40
0.8070175438596501
 40
0.8245614035087729
 40
0.8245614035087729
 40
0.8245614035087729
 40
0.8245614035087729
 40
0.8421052631578958
 40
0.8421052631578958
 40
0.8421052631578958
 40
0.8421052631578958
 40
0.8596491228070187
 40
0.8596491228070187
 40
0.8596491228070187
 40
0.8596491228070187
 40
0.8771929824561415
 40
0.8771929824561415
 40
0.8771929824561415
 40
0.8771929824561415
 40
0.8947368421052644
 40
0.8947368421052644
 40
0.8947368421052644
 40
0.8947368421052644
 40
0.9122807017543873
 40
0.9122807017543873
 40
0.9122807017543873
 40
0.9122807017543873
 40
0.9298245614035101
 40
0.9298245614035101
 40
0.9298245614035101
 40
0.9298245614035101
 40
0.947368421052633
 40
0.947368421052633
 40
0.947368421052633
 40
0.947368421052633
 40
0.9649122807017558
 40
0.9649122807017558
 40
0.9649122807017558
 40
0.9649122807017558
 40
0.9824561403508787
 40
0.9824561403508787
 40
0.9824561403508787
 40
0.9824561403508787
 40
1.0
 40
1.0
 40
1.0
 40
1.0
 10
-2.8294100000000002
 20
4.5688900000000006
 30
0.0
 10
-2.4915900000000004
 20
4.6374700000000004
 30
0.0
 10
-1.7499100000000001
 20
4.4190300000000002
 30
0.0
 10
-2.4611100000000001
 20
4.3987100000000003
 30
0.0
 10
-2.4611100000000001
 20
4.3987100000000003
 30
0.0
 10
-3.15707
 20
4.3529900000000001
 30
0.0
 10
-3.3831300000000004
 20
3.4081100000000002
 30
0.0
 10
-2.8827500000000001
 20
2.97377
 30
0.0
 10
-2.8827500000000001
 20
2.97377
 30
0.0
 10
-2.69225
 20
2.8670900000000001
 30
0.0
 10
-2.43825
 20
2.8518500000000002
 30
0.0
 10
-2.22235
 20
2.8721700000000001
 30
0.0
 10
-2.22235
 20
2.8721700000000001
 30
0.0
 10
-1.8997700000000002
 20
2.9991700000000003
 30
0.0
 10
-1.5517900000000002
 20
3.1718900000000003
 30
0.0
 10
-1.3866900000000002
 20
3.4944700000000002
 30
0.0
 10
-1.3866900000000002
 20
3.4944700000000002
 30
0.0
 10
-1.2342900000000001
 20
2.9356700000000004
 30
0.0
 10
-0.8532900000000001
 20
3.1693500000000001
 30
0.0
 10
-0.56881
 20
3.3522300000000005
 30
0.0
 10
-0.56881
 20
3.3522300000000005
 30
0.0
 10
-0.5408700000000001
 20
3.3700100000000002
 30
0.0
 10
-0.46467
 20
3.2125300000000001
 30
0.0
 10
-0.45451
 20
3.05505
 30
0.0
 10
-0.45451
 20
3.05505
 30
0.0
 10
-0.20813
 20
3.0601300000000005
 30
0.0
 10
-0.08113
 20
3.3192100000000004
 30
0.0
 10
0.12206
 20
3.4081100000000002
 30
0.0
 10
0.12206
 20
3.4081100000000002
 30
0.0
 10
0.24144
 20
3.1515700000000004
 30
0.0
 10
0.5894200000000001
 20
3.0906100000000003
 30
0.0
 10
0.82818
 20
3.1845900000000005
 30
0.0
 10
0.82818
 20
3.1845900000000005
 30
0.0
 10
0.8764400000000001
 20
2.9255100000000001
 30
0.0
 10
1.2396600000000002
 20
2.8696300000000003
 30
0.0
 10
1.4631800000000001
 20
2.8543900000000004
 30
0.0
 10
1.4631800000000001
 20
2.8543900000000004
 30
0.0
 10
1.8187800000000001
 20
2.3311500000000001
 30
0.0
 10
2.38774
 20
1.6580500000000002
 30
0.0
 10
3.0913200000000001
 20
2.1660500000000003
 30
0.0
 10
3.0913200000000001
 20
2.1660500000000003
 30
0.0
 10
3.4774000000000003
 20
2.0415900000000002
 30
0.0
 10
3.8838000000000004
 20
1.9628500000000002
 30
0.0
 10
4.3029000000000002
 20
1.9933300000000003
 30
0.0
 10
4.3029000000000002
 20
1.9933300000000003
 30
0.0
 10
4.2368600000000001
 20
1.7774300000000001
 30
0.0
 10
3.9092000000000002
 20
1.86633
 30
0.0
 10
3.7441000000000004
 20
1.7799700000000001
 30
0.0
 10
3.7441000000000004
 20
1.7799700000000001
 30
0.0
 10
4.1809799999999999
 20
0.5429900000000001
 30
0.0
 10
5.2147600000000001
 20
1.4116700000000002
 30
0.0
 10
5.8726200000000004
 20
0.62173
 30
0.0
 10
5.8726200000000004
 20
0.62173
 30
0.0
 10
5.9005600000000005
 20
0.31439
 30
0.0
 10
6.0021600000000008
 20
-0.05644
 30
0.0
 10
5.8472200000000001
 20
-0.3206000000000001
 30
0.0
 10
5.8472200000000001
 20
-0.3206000000000001
 30
0.0
 10
5.7888000000000002
 20
-0.16058
 30
0.0
 10
5.8091200000000001
 20
0.06039
 30
0.0
 10
5.7227600000000001
 20
0.21279
 30
0.0
 10
5.7227600000000001
 20
0.21279
 30
0.0
 10
5.7430800000000009
 20
-0.0666
 30
0.0
 10
5.6643400000000002
 20
-0.34346
 30
0.0
 10
5.6033800000000005
 20
-0.6127
 30
0.0
 10
5.6033800000000005
 20
-0.6127
 30
0.0
 10
5.4840000000000009
 20
-0.52634
 30
0.0
 10
5.5144800000000007
 20
-0.24694
 30
0.0
 10
5.4230400000000003
 20
-0.09454
 30
0.0
 10
5.4230400000000003
 20
-0.09454
 30
0.0
 10
5.38748
 20
0.01721
 30
0.0
 10
5.3290600000000001
 20
0.12389
 30
0.0
 10
5.2655600000000007
 20
0.22549
 30
0.0
 10
5.2655600000000007
 20
0.22549
 30
0.0
 10
5.1690400000000007
 20
0.11881
 30
0.0
 10
4.9709200000000004
 20
-0.7270000000000001
 30
0.0
 10
4.9429800000000004
 20
-0.09454
 30
0.0
 10
4.9429800000000004
 20
-0.09454
 30
0.0
 10
4.7753400000000008
 20
-0.2444
 30
0.0
 10
4.71692
 20
-0.11232
 30
0.0
 10
4.6991400000000008
 20
0.22549
 30
0.0
 10
4.6991400000000008
 20
0.22549
 30
0.0
 10
4.3486200000000004
 20
0.28899
 30
0.0
 10
4.4502200000000007
 20
-0.2571
 30
0.0
 10
4.2216200000000006
 20
-0.43236
 30
0.0
 10
4.2216200000000006
 20
-0.43236
 30
0.0
 10
4.2698800000000006
 20
0.12897
 30
0.0
 10
3.8152200000000005
 20
0.5277500000000001
 30
0.0
 10
3.5993200000000001
 20
-0.22662
 30
0.0
 10
3.5993200000000001
 20
-0.22662
 30
0.0
 10
3.4774000000000003
 20
-0.092
 30
0.0
 10
3.5434400000000004
 20
0.07817
 30
0.0
 10
3.4875600000000002
 20
0.17215
 30
0.0
 10
3.4875600000000002
 20
0.17215
 30
0.0
 10
3.3123000000000005
 20
0.6776100000000001
 30
0.0
 10
3.2869000000000002
 20
-0.42982
 30
0.0
 10
3.1472000000000002
 20
-0.05136
 30
0.0
 10
3.1472000000000002
 20
-0.05136
 30
0.0
 10
3.1472000000000002
 20
-0.05136
 30
0.0
 10
3.1091000000000002
 20
0.12135
 30
0.0
 10
3.1091000000000002
 20
0.12135
 30
0.0
 10
3.1091000000000002
 20
0.12135
 30
0.0
 10
3.0075000000000003
 20
0.39567
 30
0.0
 10
3.0659200000000002
 20
-0.32314
 30
0.0
 10
2.8830400000000003
 20
-0.4145800000000001
 30
0.0
 10
2.8830400000000003
 20
-0.4145800000000001
 30
0.0
 10
2.8373200000000001
 20
-0.23678
 30
0.0
 10
2.8932000000000002
 20
-0.00818
 30
0.0
 10
2.8220800000000001
 20
0.15691
 30
0.0
 10
2.8220800000000001
 20
0.15691
 30
0.0
 10
2.7382600000000004
 20
0.10611
 30
0.0
 10
2.7712800000000004
 20
0.01975
 30
0.0
 10
2.6061800000000002
 20
-0.1555
 30
0.0
 10
2.6061800000000002
 20
-0.1555
 30
0.0
 10
2.5350600000000001
 20
0.42615
 30
0.0
 10
2.2886800000000003
 20
-0.07422
 30
0.0
 10
2.33948
 20
-0.3587
 30
0.0
 10
2.33948
 20
-0.3587
 30
0.0
 10
2.1794600000000002
 20
-0.29266
 30
0.0
 10
2.1515200000000001
 20
-0.06152
 30
0.0
 10
2.08548
 20
0.08325
 30
0.0
 10
2.08548
 20
0.08325
 30
0.0
 10
2.0423
 20
0.20771
 30
0.0
 10
1.9813400000000001
 20
0.37281
 30
0.0
 10
2.0169000000000001
 20
0.14421
 30
0.0
 10
2.0169000000000001
 20
0.14421
 30
0.0
 10
2.0118200000000002
 20
0.06547
 30
0.0
 10
2.0296000000000003
 20
-0.00564
 30
0.0
 10
2.0448400000000002
 20
-0.0793
 30
0.0
 10
2.0448400000000002
 20
-0.0793
 30
0.0
 10
2.1413600000000002
 20
-0.23678
 30
0.0
 10
1.9559400000000002
 20
-0.18598
 30
0.0
 10
1.9203800000000002
 20
-0.07676
 30
0.0
 10
1.9203800000000002
 20
-0.07676
 30
0.0
 10
1.7273400000000001
 20
0.20009
 30
0.0
 10
1.7095600000000002
 20
0.01721
 30
0.0
 10
1.6486000000000001
 20
-0.05898
 30
0.0
 10
1.6486000000000001
 20
-0.05898
 30
0.0
 10
1.6282800000000002
 20
-0.08692
 30
0.0
 10
1.5444600000000002
 20
0.04515
 30
0.0
 10
1.4987400000000002
 20
0.24073
 30
0.0
 10
1.4987400000000002
 20
0.24073
 30
0.0
 10
1.4555600000000002
 20
0.02737
 30
0.0
 10
1.4149200000000002
 20
-0.20122
 30
0.0
 10
1.2955400000000001
 20
-0.37648
 30
0.0
 10
1.2955400000000001
 20
-0.37648
 30
0.0
 10
1.2549000000000001
 20
0.08833
 30
0.0
 10
1.1609200000000002
 20
-0.4374400000000001
 30
0.0
 10
1.1406000000000001
 20
-0.6457200000000001
 30
0.0
 10
1.1406000000000001
 20
-0.6457200000000001
 30
0.0
 10
1.2117200000000001
 20
-0.9530600000000001
 30
0.0
 10
1.39714
 20
-0.6660400000000001
 30
0.0
 10
1.5190600000000001
 20
-0.5771400000000001
 30
0.0
 10
1.5190600000000001
 20
-0.5771400000000001
 30
0.0
 10
1.3387200000000001
 20
-1.1715
 30
0.0
 10
1.6384400000000001
 20
-1.08514
 30
0.0
 10
1.4987400000000002
 20
-1.58806
 30
0.0
 10
1.4987400000000002
 20
-1.58806
 30
0.0
 10
1.7197200000000001
 20
-1.29088
 30
0.0
 10
1.5774800000000002
 20
-1.8293600000000001
 30
0.0
 10
1.7908400000000002
 20
-1.6337800000000002
 30
0.0
 10
1.7908400000000002
 20
-1.6337800000000002
 30
0.0
 10
1.7400400000000003
 20
-1.9512800000000001
 30
0.0
 10
1.6079600000000001
 20
-2.09606
 30
0.0
 10
1.6816200000000001
 20
-2.3221200000000004
 30
0.0
 10
1.6816200000000001
 20
-2.3221200000000004
 30
0.0
 10
1.9559400000000002
 20
-1.9919200000000001
 30
0.0
 10
1.8543400000000001
 20
-2.3907000000000003
 30
0.0
 10
1.8086200000000001
 20
-2.6066000000000003
 30
0.0
 10
1.8086200000000001
 20
-2.6066000000000003
 30
0.0
 10
1.8746600000000002
 20
-2.5735800000000002
 30
0.0
 10
1.8670400000000003
 20
-2.43642
 30
0.0
 10
1.9559400000000002
 20
-2.4440400000000002
 30
0.0
 10
1.9559400000000002
 20
-2.4440400000000002
 30
0.0
 10
1.8416400000000002
 20
-3.4321000000000002
 30
0.0
 10
2.4817200000000001
 20
-3.1501600000000001
 30
0.0
 10
2.0702400000000001
 20
-4.43032
 30
0.0
 10
2.0702400000000001
 20
-4.43032
 30
0.0
 10
1.9635600000000002
 20
-4.5014400000000006
 30
0.0
 10
1.8137000000000001
 20
-4.4735000000000005
 30
0.0
 10
1.7197200000000001
 20
-4.5878000000000005
 30
0.0
 10
1.7197200000000001
 20
-4.5878000000000005
 30
0.0
 10
0.8231000000000001
 20
-4.2906200000000005
 30
0.0
 10
0.8662800000000001
 20
-3.0460200000000004
 30
0.0
 10
-0.11161
 20
-2.8174200000000003
 30
0.0
 10
-0.11161
 20
-2.8174200000000003
 30
0.0
 10
-0.33767
 20
-2.1367000000000003
 30
0.0
 10
-0.8710700000000001
 20
-1.6439400000000002
 30
0.0
 10
-1.3841500000000002
 20
-1.1791200000000002
 30
0.0
 10
-1.3841500000000002
 20
-1.1791200000000002
 30
0.0
 10
-1.4273300000000002
 20
-0.82352
 30
0.0
 10
-1.1352300000000002
 20
-0.3968
 30
0.0
 10
-1.4476500000000001
 20
-0.08184
 30
0.0
 10
-1.4476500000000001
 20
-0.08184
 30
0.0
 10
-1.6483100000000002
 20
-0.15042
 30
0.0
 10
-2.1613900000000004
 20
-0.08438
 30
0.0
 10
-1.9150100000000001
 20
0.24073
 30
0.0
 10
-1.9150100000000001
 20
0.24073
 30
0.0
 10
-2.4560300000000002
 20
-0.02596
 30
0.0
 10
-2.57287
 20
0.7792100000000001
 30
0.0
 10
-3.0275300000000001
 20
0.7792100000000001
 30
0.0
 10
-3.0275300000000001
 20
0.7792100000000001
 30
0.0
 10
-3.6676100000000003
 20
0.33979
 30
0.0
 10
-3.9317700000000002
 20
-0.58984
 30
0.0
 10
-4.7521900000000006
 20
-0.75748
 30
0.0
 10
-4.7521900000000006
 20
-0.75748
 30
0.0
 10
-5.2271700000000001
 20
-0.8413000000000001
 30
0.0
 10
-5.8139100000000008
 20
-0.5746
 30
0.0
 10
-5.9256700000000002
 20
-0.0666
 30
0.0
 10
-5.9256700000000002
 20
-0.0666
 30
0.0
 10
-5.9332900000000004
 20
0.20771
 30
0.0
 10
-5.8037500000000009
 20
0.5912500000000001
 30
0.0
 10
-5.5421300000000002
 20
0.6674500000000001
 30
0.0
 10
-5.5421300000000002
 20
0.6674500000000001
 30
0.0
 10
-5.5675300000000005
 20
0.5074300000000001
 30
0.0
 10
-5.6945300000000003
 20
0.36011
 30
0.0
 10
-5.6284900000000002
 20
0.18739
 30
0.0
 10
-5.6284900000000002
 20
0.18739
 30
0.0
 10
-5.6386500000000002
 20
-0.08692
 30
0.0
 10
-5.1331900000000008
 20
-0.2571
 30
0.0
 10
-4.9477700000000002
 20
-0.15042
 30
0.0
 10
-4.9477700000000002
 20
-0.15042
 30
0.0
 10
-4.43215
 20
0.13659
 30
0.0
 10
-4.1273500000000007
 20
1.6859900000000001
 30
0.0
 10
-3.4796500000000004
 20
2.0949300000000002
 30
0.0
 10
-3.4796500000000004
 20
2.0949300000000002
 30
0.0
 10
-4.6074100000000007
 20
2.7273900000000002
 30
0.0
 10
-4.1146500000000001
 20
4.54603
 30
0.0
 10
-2.8294100000000002
 20
4.5688900000000006
 30
0.0
  0
SPLINE
  5
26
100
AcDbEntity
  8
Ebene 1
 62
     7
100
AcDbSpline
210
0.0
220
0.0
230
1.0
 70
     1
 71
     3
 72
    60
 73
    56
 74
     0
 42
0.0000000001
 43
0.0000000001
 40
0.0
 40
0.0
 40
0.0
 40
0.0
 40
0.0714285714285714
 40
0.0714285714285714
 40
0.0714285714285714
 40
0.0714285714285714
 40
0.1428571428571429
 40
0.1428571428571429
 40
0.1428571428571429
 40
0.1428571428571429
 40
0.2142857142857143
 40
0.2142857142857143
 40
0.2142857142857143
 40
0.2142857142857143
 40
0.2857142857142857
 40
0.2857142857142857
 40
0.2857142857142857
 40
0.2857142857142857
 40
0.3571428571428571
 40
0.3571428571428571
 40
0.3571428571428571
 40
0.3571428571428571
 40
0.4285714285714285
 40
0.4285714285714285
 40
0.4285714285714285
 40
0.4285714285714285
 40
0.4999999999999999
 40
0.4999999999999999
 40
0.4999999999999999
 40
0.4999999999999999
 40
0.5714285714285713
 40
0.5714285714285713
 40
0.5714285714285713
 40
0.5714285714285713
 40
0.6428571428571427
 40
0.6428571428571427
 40
0.6428571428571427
 40
0.6428571428571427
 40
0.7142857142857141
 40
0.7142857142857141
 40
0.7142857142857141
 40
0.7142857142857141
 40
0.7857142857142855
 40
0.7857142857142855
 40
0.7857142857142855
 40
0.7857142857142855
 40
0.8571428571428569
 40
0.8571428571428569
 40
0.8571428571428569
 40
0.8571428571428569
 40
0.9285714285714283
 40
0.9285714285714283
 40
0.9285714285714283
 40
0.9285714285714283
 40
1.0
 40
1.0
 40
1.0
 40
1.0
 10
-2.8725900000000002
 20
4.4418900000000008
 30
0.0
 10
-2.8725900000000002
 20
4.4418900000000008
 30
0.0
 10
-2.6897100000000003
 20
4.4393500000000001
 30
0.0
 10
-2.6897100000000003
 20
4.4393500000000001
 30
0.0
 10
-2.6897100000000003
 20
4.4393500000000001
 30
0.0
 10
-2.9183100000000004
 20
4.2209099999999999
 30
0.0
 10
-3.2866100000000005
 20
4.0558100000000001
 30
0.0
 10
-3.4237700000000002
 20
3.7332300000000003
 30
0.0
 10
-3.4237700000000002
 20
3.7332300000000003
 30
0.0
 10
-3.4390100000000001
 20
3.6417900000000003
 30
0.0
 10
-3.4669500000000002
 20
3.2760300000000004
 30
0.0
 10
-3.3958300000000001
 20
3.3522300000000005
 30
0.0
 10
-3.3958300000000001
 20
3.3522300000000005
 30
0.0
 10
-3.3831300000000004
 20
3.4665300000000001
 30
0.0
 10
-3.3628100000000001
 20
3.6062300000000005
 30
0.0
 10
-3.2967700000000004
 20
3.7052900000000002
 30
0.0
 10
-3.2967700000000004
 20
3.7052900000000002
 30
0.0
 10
-3.1824700000000004
 20
3.4157300000000004
 30
0.0
 10
-3.1367500000000001
 20
3.05505
 30
0.0
 10
-2.8573500000000003
 20
2.84423
 30
0.0
 10
-2.8573500000000003
 20
2.84423
 30
0.0
 10
-2.9691100000000001
 20
2.5826100000000003
 30
0.0
 10
-3.2383500000000001
 20
2.8213700000000004
 30
0.0
 10
-3.3755100000000002
 20
2.9483700000000002
 30
0.0
 10
-3.3755100000000002
 20
2.9483700000000002
 30
0.0
 10
-3.4110700000000005
 20
3.0093300000000003
 30
0.0
 10
-3.5609300000000004
 20
3.1287100000000003
 30
0.0
 10
-3.4745700000000004
 20
2.9890100000000004
 30
0.0
 10
-3.4745700000000004
 20
2.9890100000000004
 30
0.0
 10
-3.3374100000000002
 20
2.8315300000000003
 30
0.0
 10
-2.9183100000000004
 20
2.4073500000000001
 30
0.0
 10
-3.3628100000000001
 20
2.4302100000000002
 30
0.0
 10
-3.3628100000000001
 20
2.4302100000000002
 30
0.0
 10
-3.2662900000000001
 20
2.24987
 30
0.0
 10
-3.6117300000000001
 20
2.38449
 30
0.0
 10
-3.6803100000000004
 20
2.4733900000000002
 30
0.0
 10
-3.6803100000000004
 20
2.4733900000000002
 30
0.0
 10
-3.7768300000000004
 20
2.5165700000000002
 30
0.0
 10
-3.9952700000000005
 20
2.7985100000000003
 30
0.0
 10
-3.7793700000000001
 20
2.6562700000000001
 30
0.0
 10
-3.7793700000000001
 20
2.6562700000000001
 30
0.0
 10
-3.6879300000000002
 20
2.6105500000000004
 30
0.0
 10
-3.5837900000000005
 20
2.4962500000000003
 30
0.0
 10
-3.4821900000000001
 20
2.5216500000000002
 30
0.0
 10
-3.4821900000000001
 20
2.5216500000000002
 30
0.0
 10
-3.7793700000000001
 20
2.6689700000000003
 30
0.0
 10
-4.1044900000000002
 20
3.0067900000000001
 30
0.0
 10
-4.0028900000000007
 20
3.3522300000000005
 30
0.0
 10
-4.0028900000000007
 20
3.3522300000000005
 30
0.0
 10
-3.9368500000000002
 20
3.3217500000000002
 30
0.0
 10
-3.8809700000000005
 20
3.1922100000000002
 30
0.0
 10
-3.8200100000000003
 20
3.2099900000000003
 30
0.0
 10
-3.8200100000000003
 20
3.2099900000000003
 30
0.0
 10
-4.30769
 20
3.8246700000000002
 30
0.0
 10
-3.4542500000000005
 20
4.4545900000000005
 30
0.0
 10
-2.8725900000000002
 20
4.4418900000000008
 30
0.0
  0
SPLINE
  5
27
100
AcDbEntity
  8
Ebene 1
 62
     7
100
AcDbSpline
210
0.0
220
0.0
230
1.0
 70
     1
 71
     3
 72
   220
 73
   216
 74
     0
 42
0.0000000001
 43
0.0000000001
 40
0.0
 40
0.0
 40
0.0
 40
0.0
 40
0.0185185185185185
 40
0.0185185185185185
 40
0.0185185185185185
 40
0.0185185185185185
 40
0.037037037037037
 40
0.037037037037037
 40
0.037037037037037
 40
0.037037037037037
 40
0.0555555555555556
 40
0.0555555555555556
 40
0.0555555555555556
 40
0.0555555555555556
 40
0.0740740740740741
 40
0.0740740740740741
 40
0.0740740740740741
 40
0.0740740740740741
 40
0.0925925925925926
 40
0.0925925925925926
 40
0.0925925925925926
 40
0.0925925925925926
 40
0.1111111111111111
 40
0.1111111111111111
 40
0.1111111111111111
 40
0.1111111111111111
 40
0.1296296296296296
 40
0.1296296296296296
 40
0.1296296296296296
 40
0.1296296296296296
 40
0.1481481481481481
 40
0.1481481481481481
 40
0.1481481481481481
 40
0.1481481481481481
 40
0.1666666666666667
 40
0.1666666666666667
 40
0.1666666666666667
 40
0.1666666666666667
 40
0.1851851851851852
 40
0.1851851851851852
 40
0.1851851851851852
 40
0.1851851851851852
 40
0.2037037037037037
 40
0.2037037037037037
 40
0.2037037037037037
 40
0.2037037037037037
 40
0.2222222222222222
 40
0.2222222222222222
 40
0.2222222222222222
 40
0.2222222222222222
 40
0.2407407407407407
 40
0.2407407407407407
 40
0.2407407407407407
 40
0.2407407407407407
 40
0.2592592592592592
 40
0.2592592592592592
 40
0.2592592592592592
 40
0.2592592592592592
 40
0.2777777777777778
 40
0.2777777777777778
 40
0.2777777777777778
 40
0.2777777777777778
 40
0.2962962962962963
 40
0.2962962962962963
 40
0.2962962962962963
 40
0.2962962962962963
 40
0.3148148148148148
 40
0.3148148148148148
 40
0.3148148148148148
 40
0.3148148148148148
 40
0.3333333333333333
 40
0.3333333333333333
 40
0.3333333333333333
 40
0.3333333333333333
 40
0.3518518518518518
 40
0.3518518518518518
 40
0.3518518518518518
 40
0.3518518518518518
 40
0.3703703703703702
 40
0.3703703703703702
 40
0.3703703703703702
 40
0.3703703703703702
 40
0.3888888888888887
 40
0.3888888888888887
 40
0.3888888888888887
 40
0.3888888888888887
 40
0.4074074074074072
 40
0.4074074074074072
 40
0.4074074074074072
 40
0.4074074074074072
 40
0.4259259259259257
 40
0.4259259259259257
 40
0.4259259259259257
 40
0.4259259259259257
 40
0.4444444444444442
 40
0.4444444444444442
 40
0.4444444444444442
 40
0.4444444444444442
 40
0.4629629629629627
 40
0.4629629629629627
 40
0.4629629629629627
 40
0.4629629629629627
 40
0.4814814814814812
 40
0.4814814814814812
 40
0.4814814814814812
 40
0.4814814814814812
 40
0.4999999999999997
 40
0.4999999999999997
 40
0.4999999999999997
 40
0.4999999999999997
 40
0.5185185185185182
 40
0.5185185185185182
 40
0.5185185185185182
 40
0.5185185185185182
 40
0.5370370370370367
 40
0.5370370370370367
 40
0.5370370370370367
 40
0.5370370370370367
 40
0.5555555555555551
 40
0.5555555555555551
 40
0.5555555555555551
 40
0.5555555555555551
 40
0.5740740740740736
 40
0.5740740740740736
 40
0.5740740740740736
 40
0.5740740740740736
 40
0.5925925925925921
 40
0.5925925925925921
 40
0.5925925925925921
 40
0.5925925925925921
 40
0.6111111111111106
 40
0.6111111111111106
 40
0.6111111111111106
 40
0.6111111111111106
 40
0.6296296296296291
 40
0.6296296296296291
 40
0.6296296296296291
 40
0.6296296296296291
 40
0.6481481481481476
 40
0.6481481481481476
 40
0.6481481481481476
 40
0.6481481481481476
 40
0.6666666666666661
 40
0.6666666666666661
 40
0.6666666666666661
 40
0.6666666666666661
 40
0.6851851851851846
 40
0.6851851851851846
 40
0.6851851851851846
 40
0.6851851851851846
 40
0.7037037037037031
 40
0.7037037037037031
 40
0.7037037037037031
 40
0.7037037037037031
 40
0.7222222222222215
 40
0.7222222222222215
 40
0.7222222222222215
 40
0.7222222222222215
 40
0.74074074074074
 40
0.74074074074074
 40
0.74074074074074
 40
0.74074074074074
 40
0.7592592592592585
 40
0.7592592592592585
 40
0.7592592592592585
 40
0.7592592592592585
 40
0.777777777777777
 40
0.777777777777777
 40
0.777777777777777
 40
0.777777777777777
 40
0.7962962962962955
 40
0.7962962962962955
 40
0.7962962962962955
 40
0.7962962962962955
 40
0.814814814814814
 40
0.814814814814814
 40
0.814814814814814
 40
0.814814814814814
 40
0.8333333333333325
 40
0.8333333333333325
 40
0.8333333333333325
 40
0.8333333333333325
 40
0.851851851851851
 40
0.851851851851851
 40
0.851851851851851
 40
0.851851851851851
 40
0.8703703703703695
 40
0.8703703703703695
 40
0.8703703703703695
 40
0.8703703703703695
 40
0.888888888888888
 40
0.888888888888888
 40
0.888888888888888
 40
0.888888888888888
 40
0.9074074074074064
 40
0.9074074074074064
 40
0.9074074074074064
 40
0.9074074074074064
 40
0.9259259259259249
 40
0.9259259259259249
 40
0.9259259259259249
 40
0.9259259259259249
 40
0.9444444444444434
 40
0.9444444444444434
 40
0.9444444444444434
 40
0.9444444444444434
 40
0.9629629629629619
 40
0.9629629629629619
 40
0.9629629629629619
 40
0.9629629629629619
 40
0.9814814814814804
 40
0.9814814814814804
 40
0.9814814814814804
 40
0.9814814814814804
 40
1.0
 40
1.0
 40
1.0
 40
1.0
 10
2.71794
 20
0.9595500000000001
 30
0.0
 10
2.0499200000000002
 20
1.1398900000000001
 30
0.0
 10
1.40222
 20
1.2541900000000001
 30
0.0
 10
0.6910200000000001
 20
1.2922900000000002
 30
0.0
 10
0.6910200000000001
 20
1.2922900000000002
 30
0.0
 10
0.6961000000000001
 20
1.44723
 30
0.0
 10
1.1304400000000001
 20
1.4370700000000001
 30
0.0
 10
0.8561200000000001
 20
1.5005700000000002
 30
0.0
 10
0.8561200000000001
 20
1.5005700000000002
 30
0.0
 10
0.71896
 20
1.4650100000000001
 30
0.0
 10
0.68086
 20
1.3684900000000002
 30
0.0
 10
0.61482
 20
1.31769
 30
0.0
 10
0.61482
 20
1.31769
 30
0.0
 10
0.07126
 20
0.91383
 30
0.0
 10
-0.59167
 20
1.1805300000000001
 30
0.0
 10
-1.1758700000000002
 20
0.7792100000000001
 30
0.0
 10
-1.1758700000000002
 20
0.7792100000000001
 30
0.0
 10
-1.1758700000000002
 20
0.7792100000000001
 30
0.0
 10
-1.5390900000000001
 20
0.8681100000000001
 30
0.0
 10
-1.5390900000000001
 20
0.8681100000000001
 30
0.0
 10
-1.5390900000000001
 20
0.8681100000000001
 30
0.0
 10
-1.6432300000000002
 20
0.8401700000000001
 30
0.0
 10
-1.1885700000000001
 20
0.6725300000000001
 30
0.0
 10
-1.0488700000000002
 20
0.7080900000000001
 30
0.0
 10
-1.0488700000000002
 20
0.7080900000000001
 30
0.0
 10
-0.8329700000000001
 20
0.7969900000000001
 30
0.0
 10
-0.28941
 20
0.99765
 30
0.0
 10
-0.35799
 20
0.5861700000000001
 30
0.0
 10
-0.35799
 20
0.5861700000000001
 30
0.0
 10
-0.35799
 20
0.5861700000000001
 30
0.0
 10
-0.4697500000000001
 20
0.51251
 30
0.0
 10
-0.4697500000000001
 20
0.51251
 30
0.0
 10
-0.4697500000000001
 20
0.51251
 30
0.0
 10
-0.5434100000000001
 20
0.5277500000000001
 30
0.0
 10
-0.5408700000000001
 20
0.63951
 30
0.0
 10
-0.6246900000000001
 20
0.63951
 30
0.0
 10
-0.6246900000000001
 20
0.63951
 30
0.0
 10
-0.9574300000000001
 20
0.30423
 30
0.0
 10
-2.0851900000000003
 20
-0.47554
 30
0.0
 10
-1.7702300000000002
 20
0.4413900000000001
 30
0.0
 10
-1.7702300000000002
 20
0.4413900000000001
 30
0.0
 10
-2.1664700000000003
 20
0.03245
 30
0.0
 10
-2.77861
 20
0.7360300000000001
 30
0.0
 10
-2.15123
 20
0.8782700000000001
 30
0.0
 10
-2.15123
 20
0.8782700000000001
 30
0.0
 10
-2.0064500000000001
 20
0.7512700000000001
 30
0.0
 10
-1.8896100000000002
 20
0.5633100000000001
 30
0.0
 10
-1.6559300000000001
 20
0.6115700000000001
 30
0.0
 10
-1.6559300000000001
 20
0.6115700000000001
 30
0.0
 10
-1.5848100000000001
 20
0.5887100000000001
 30
0.0
 10
-1.2800100000000001
 20
0.6293500000000001
 30
0.0
 10
-1.4578100000000001
 20
0.6674500000000001
 30
0.0
 10
-1.4578100000000001
 20
0.6674500000000001
 30
0.0
 10
-1.9480300000000002
 20
0.57601
 30
0.0
 10
-2.1563100000000004
 20
1.19069
 30
0.0
 10
-1.8997700000000002
 20
1.5412100000000002
 30
0.0
 10
-1.8997700000000002
 20
1.5412100000000002
 30
0.0
 10
-2.0445500000000001
 20
1.5589900000000001
 30
0.0
 10
-2.0039100000000003
 20
1.3075300000000001
 30
0.0
 10
-2.1182100000000004
 20
1.2440300000000002
 30
0.0
 10
-2.1182100000000004
 20
1.2440300000000002
 30
0.0
 10
-2.1766300000000003
 20
1.1754500000000001
 30
0.0
 10
-2.27569
 20
1.14497
 30
0.0
 10
-2.36205
 20
1.1348100000000001
 30
0.0
 10
-2.36205
 20
1.1348100000000001
 30
0.0
 10
-2.4738100000000003
 20
1.06623
 30
0.0
 10
-2.52461
 20
1.14751
 30
0.0
 10
-2.40015
 20
1.2008500000000002
 30
0.0
 10
-2.40015
 20
1.2008500000000002
 30
0.0
 10
-1.9658100000000001
 20
1.5894700000000002
 30
0.0
 10
-1.9988300000000001
 20
2.5572100000000004
 30
0.0
 10
-2.6566900000000002
 20
2.6156300000000003
 30
0.0
 10
-2.6566900000000002
 20
2.6156300000000003
 30
0.0
 10
-2.43825
 20
2.7248500000000004
 30
0.0
 10
-2.18933
 20
2.7781900000000004
 30
0.0
 10
-1.9429500000000002
 20
2.80613
 30
0.0
 10
-1.9429500000000002
 20
2.80613
 30
0.0
 10
-1.8134100000000002
 20
2.8188300000000002
 30
0.0
 10
-1.6838700000000002
 20
2.7350100000000004
 30
0.0
 10
-1.5594100000000002
 20
2.8340700000000001
 30
0.0
 10
-1.5594100000000002
 20
2.8340700000000001
 30
0.0
 10
-2.10805
 20
2.7985100000000003
 30
0.0
 10
-1.5797300000000001
 20
3.0956900000000003
 30
0.0
 10
-1.3866900000000002
 20
3.3115900000000003
 30
0.0
 10
-1.3866900000000002
 20
3.3115900000000003
 30
0.0
 10
-1.2825500000000001
 20
3.2125300000000001
 30
0.0
 10
-1.13015
 20
3.0169500000000005
 30
0.0
 10
-1.3562100000000001
 20
2.9483700000000002
 30
0.0
 10
-1.3562100000000001
 20
2.9483700000000002
 30
0.0
 10
-1.3282700000000001
 20
2.9026500000000004
 30
0.0
 10
-1.1911100000000001
 20
2.9585300000000001
 30
0.0
 10
-1.1606300000000001
 20
2.9686900000000001
 30
0.0
 10
-1.1606300000000001
 20
2.9686900000000001
 30
0.0
 10
-0.9421900000000001
 20
3.0347300000000001
 30
0.0
 10
-0.8151900000000001
 20
3.0652100000000004
 30
0.0
 10
-0.6094500000000001
 20
3.1972900000000002
 30
0.0
 10
-0.6094500000000001
 20
3.1972900000000002
 30
0.0
 10
-0.4824500000000001
 20
3.0880700000000001
 30
0.0
 10
-0.6272300000000001
 20
2.9991700000000003
 30
0.0
 10
-0.71867
 20
2.9483700000000002
 30
0.0
 10
-0.71867
 20
2.9483700000000002
 30
0.0
 10
-0.50531
 20
2.9661500000000003
 30
0.0
 10
0.3151000000000001
 20
2.8594700000000004
 30
0.0
 10
0.07126
 20
2.6080100000000002
 30
0.0
 10
0.07126
 20
2.6080100000000002
 30
0.0
 10
0.5005200000000001
 20
2.7426300000000001
 30
0.0
 10
0.88914
 20
2.3692500000000001
 30
0.0
 10
1.0313800000000002
 20
1.9704700000000002
 30
0.0
 10
1.0313800000000002
 20
1.9704700000000002
 30
0.0
 10
1.1609200000000002
 20
2.0339700000000001
 30
0.0
 10
1.3107800000000001
 20
2.09239
 30
0.0
 10
1.4911200000000002
 20
2.09239
 30
0.0
 10
1.4911200000000002
 20
2.09239
 30
0.0
 10
1.5774800000000002
 20
2.0238100000000001
 30
0.0
 10
1.4504800000000002
 20
1.9755500000000001
 30
0.0
 10
1.3920600000000001
 20
1.9095100000000003
 30
0.0
 10
1.3920600000000001
 20
1.9095100000000003
 30
0.0
 10
1.3641200000000002
 20
1.8790300000000002
 30
0.0
 10
1.3793600000000001
 20
1.8358500000000002
 30
0.0
 10
1.3844400000000001
 20
1.8028300000000002
 30
0.0
 10
1.3844400000000001
 20
1.8028300000000002
 30
0.0
 10
1.6003400000000001
 20
2.17367
 30
0.0
 10
2.5223600000000004
 20
2.0466700000000002
 30
0.0
 10
2.1997800000000001
 20
1.7850500000000002
 30
0.0
 10
2.1997800000000001
 20
1.7850500000000002
 30
0.0
 10
2.13374
 20
1.6656700000000002
 30
0.0
 10
2.3064600000000004
 20
1.7926700000000002
 30
0.0
 10
2.3420200000000002
 20
1.8053700000000001
 30
0.0
 10
2.3420200000000002
 20
1.8053700000000001
 30
0.0
 10
2.8703400000000001
 20
2.00095
 30
0.0
 10
3.3631000000000002
 20
2.0847700000000002
 30
0.0
 10
3.9219000000000004
 20
1.9069700000000001
 30
0.0
 10
3.9219000000000004
 20
1.9069700000000001
 30
0.0
 10
3.9219000000000004
 20
1.9069700000000001
 30
0.0
 10
3.4774000000000003
 20
1.7799700000000001
 30
0.0
 10
3.4774000000000003
 20
1.7799700000000001
 30
0.0
 10
3.4774000000000003
 20
1.7799700000000001
 30
0.0
 10
3.3504000000000005
 20
0.7766700000000001
 30
0.0
 10
4.6940600000000003
 20
0.8757300000000001
 30
0.0
 10
5.3341400000000005
 20
0.6293500000000001
 30
0.0
 10
5.3341400000000005
 20
0.6293500000000001
 30
0.0
 10
5.3036600000000007
 20
0.7131700000000001
 30
0.0
 10
4.9455200000000001
 20
0.91383
 30
0.0
 10
5.1131600000000006
 20
0.9214500000000001
 30
0.0
 10
5.1131600000000006
 20
0.9214500000000001
 30
0.0
 10
5.2604800000000003
 20
0.8833500000000001
 30
0.0
 10
5.3443000000000005
 20
0.9925700000000001
 30
0.0
 10
5.4967000000000006
 20
0.7284100000000001
 30
0.0
 10
5.4967000000000006
 20
0.7284100000000001
 30
0.0
 10
5.4967000000000006
 20
0.7284100000000001
 30
0.0
 10
5.7481600000000004
 20
0.58109
 30
0.0
 10
5.7481600000000004
 20
0.58109
 30
0.0
 10
5.7481600000000004
 20
0.58109
 30
0.0
 10
5.7557800000000006
 20
0.5048900000000001
 30
0.0
 10
5.6643400000000002
 20
0.4744100000000001
 30
0.0
 10
5.6313200000000005
 20
0.55061
 30
0.0
 10
5.6313200000000005
 20
0.55061
 30
0.0
 10
5.6160800000000002
 20
0.57601
 30
0.0
 10
5.6008400000000007
 20
0.6090300000000001
 30
0.0
 10
5.5678200000000002
 20
0.61411
 30
0.0
 10
5.5678200000000002
 20
0.61411
 30
0.0
 10
5.5678200000000002
 20
0.61411
 30
0.0
 10
5.5119400000000001
 20
0.6699900000000001
 30
0.0
 10
5.5119400000000001
 20
0.6699900000000001
 30
0.0
 10
5.5119400000000001
 20
0.6699900000000001
 30
0.0
 10
5.4027200000000004
 20
0.76397
 30
0.0
 10
5.1919000000000004
 20
0.7614300000000001
 30
0.0
 10
5.4128800000000004
 20
0.65729
 30
0.0
 10
5.4128800000000004
 20
0.65729
 30
0.0
 10
5.5017800000000001
 20
0.60141
 30
0.0
 10
5.6059200000000002
 20
0.51505
 30
0.0
 10
5.6186200000000008
 20
0.40329
 30
0.0
 10
5.6186200000000008
 20
0.40329
 30
0.0
 10
5.4687600000000005
 20
0.51251
 30
0.0
 10
5.2655600000000007
 20
0.46933
 30
0.0
 10
5.1690400000000007
 20
0.31439
 30
0.0
 10
5.1690400000000007
 20
0.31439
 30
0.0
 10
4.8464600000000004
 20
0.6064900000000001
 30
0.0
 10
4.5238800000000001
 20
0.12643
 30
0.0
 10
4.2546400000000002
 20
0.5252100000000001
 30
0.0
 10
4.2546400000000002
 20
0.5252100000000001
 30
0.0
 10
3.9803200000000003
 20
0.21025
 30
0.0
 10
3.7390200000000005
 20
0.5404500000000001
 30
0.0
 10
3.4570800000000004
 20
0.42615
 30
0.0
 10
3.4570800000000004
 20
0.42615
 30
0.0
 10
3.1522800000000002
 20
0.51759
 30
0.0
 10
3.0405200000000003
 20
0.30931
 30
0.0
 10
2.8068400000000002
 20
0.5252100000000001
 30
0.0
 10
2.8068400000000002
 20
0.5252100000000001
 30
0.0
 10
2.8728800000000003
 20
0.26867
 30
0.0
 10
2.6036400000000004
 20
0.38551
 30
0.0
 10
2.4182200000000003
 20
0.57601
 30
0.0
 10
2.4182200000000003
 20
0.57601
 30
0.0
 10
2.3598000000000003
 20
0.6344300000000001
 30
0.0
 10
2.3115400000000004
 20
0.70047
 30
0.0
 10
2.2810600000000001
 20
0.76397
 30
0.0
 10
2.2810600000000001
 20
0.76397
 30
0.0
 10
2.2658200000000002
 20
0.7080900000000001
 30
0.0
 10
2.3115400000000004
 20
0.61919
 30
0.0
 10
2.37758
 20
0.5277500000000001
 30
0.0
 10
2.37758
 20
0.5277500000000001
 30
0.0
 10
2.4233000000000002
 20
0.4642500000000001
 30
0.0
 10
2.5223600000000004
 20
0.39567
 30
0.0
 10
2.5223600000000004
 20
0.33217
 30
0.0
 10
2.5223600000000004
 20
0.33217
 30
0.0
 10
2.2328000000000001
 20
0.56077
 30
0.0
 10
1.8848200000000002
 20
0.43885
 30
0.0
 10
1.8010000000000002
 20
0.9036700000000001
 30
0.0
 10
1.8010000000000002
 20
0.9036700000000001
 30
0.0
 10
2.08548
 20
1.0357500000000002
 30
0.0
 10
2.4410800000000004
 20
0.9671700000000001
 30
0.0
 10
2.7839800000000001
 20
0.91129
 30
0.0
 10
2.7839800000000001
 20
0.91129
 30
0.0
 10
3.1522800000000002
 20
0.85287
 30
0.0
 10
3.0049600000000001
 20
0.8833500000000001
 30
0.0
 10
2.71794
 20
0.9595500000000001
 30
0.0
  0
SPLINE
  5
28
100
AcDbEntity
  8
Ebene 1
 62
     7
100
AcDbSpline
210
0.0
220
0.0
230
1.0
 70
     1
 71
     3
 72
    16
 73
    12
 74
     0
 42
0.0000000001
 43
0.0000000001
 40
0.0
 40
0.0
 40
0.0
 40
0.0
 40
0.3333333333333333
 40
0.3333333333333333
 40
0.3333333333333333
 40
0.3333333333333333
 40
0.6666666666666666
 40
0.6666666666666666
 40
0.6666666666666666
 40
0.6666666666666666
 40
1.0
 40
1.0
 40
1.0
 40
1.0
 10
0.12206
 20
3.2811100000000004
 30
0.0
 10
0.12206
 20
3.2811100000000004
 30
0.0
 10
0.27446
 20
3.1312500000000001
 30
0.0
 10
0.27446
 20
3.1312500000000001
 30
0.0
 10
0.27446
 20
3.1312500000000001
 30
0.0
 10
0.27446
 20
3.1312500000000001
 30
0.0
 10
0.13984
 20
3.1007700000000002
 30
0.0
 10
0.13984
 20
3.1007700000000002
 30
0.0
 10
0.13984
 20
3.1007700000000002
 30
0.0
 10
0.1119
 20
3.1515700000000004
 30
0.0
 10
0.09158
 20
3.2277700000000005
 30
0.0
 10
0.12206
 20
3.2811100000000004
 30
0.0
  0
SPLINE
  5
29
100
AcDbEntity
  8
Ebene 1
 62
     7
100
AcDbSpline
210
0.0
220
0.0
230
1.0
 70
     1
 71
     3
 72
    48
 73
    44
 74
     0
 42
0.0000000001
 43
0.0000000001
 40
0.0
 40
0.0
 40
0.0
 40
0.0
 40
0.0909090909090909
 40
0.0909090909090909
 40
0.0909090909090909
 40
0.0909090909090909
 40
0.1818181818181818
 40
0.1818181818181818
 40
0.1818181818181818
 40
0.1818181818181818
 40
0.2727272727272727
 40
0.2727272727272727
 40
0.2727272727272727
 40
0.2727272727272727
 40
0.3636363636363637
 40
0.3636363636363637
 40
0.3636363636363637
 40
0.3636363636363637
 40
0.4545454545454546
 40
0.4545454545454546
 40
0.4545454545454546
 40
0.4545454545454546
 40
0.5454545454545455
 40
0.5454545454545455
 40
0.5454545454545455
 40
0.5454545454545455
 40
0.6363636363636365
 40
0.6363636363636365
 40
0.6363636363636365
 40
0.6363636363636365
 40
0.7272727272727274
 40
0.7272727272727274
 40
0.7272727272727274
 40
0.7272727272727274
 40
0.8181818181818183
 40
0.8181818181818183
 40
0.8181818181818183
 40
0.8181818181818183
 40
0.9090909090909093
 40
0.9090909090909093
 40
0.9090909090909093
 40
0.9090909090909093
 40
1.0
 40
1.0
 40
1.0
 40
1.0
 10
0.7723000000000001
 20
3.1261700000000001
 30
0.0
 10
0.7723000000000001
 20
3.1261700000000001
 30
0.0
 10
0.8129400000000001
 20
3.1236300000000004
 30
0.0
 10
0.8129400000000001
 20
3.1236300000000004
 30
0.0
 10
0.8129400000000001
 20
3.1236300000000004
 30
0.0
 10
0.8637400000000001
 20
2.8747100000000003
 30
0.0
 10
1.2295
 20
2.8315300000000003
 30
0.0
 10
1.4327000000000001
 20
2.7985100000000003
 30
0.0
 10
1.4327000000000001
 20
2.7985100000000003
 30
0.0
 10
1.5089000000000001
 20
2.5495900000000002
 30
0.0
 10
1.8340200000000002
 20
2.4886300000000001
 30
0.0
 10
1.7654400000000001
 20
2.1711300000000002
 30
0.0
 10
1.7654400000000001
 20
2.1711300000000002
 30
0.0
 10
1.7654400000000001
 20
2.1711300000000002
 30
0.0
 10
1.7248000000000001
 20
2.2397100000000001
 30
0.0
 10
1.7248000000000001
 20
2.2397100000000001
 30
0.0
 10
1.7248000000000001
 20
2.2397100000000001
 30
0.0
 10
1.6079600000000001
 20
2.6003900000000004
 30
0.0
 10
1.23458
 20
2.6791300000000002
 30
0.0
 10
0.8866000000000001
 20
2.6613500000000001
 30
0.0
 10
0.8866000000000001
 20
2.6613500000000001
 30
0.0
 10
0.78754
 20
2.7045300000000001
 30
0.0
 10
0.9907400000000001
 20
2.7451700000000003
 30
0.0
 10
1.0415400000000001
 20
2.7299300000000004
 30
0.0
 10
1.0415400000000001
 20
2.7299300000000004
 30
0.0
 10
1.0745600000000002
 20
2.7248500000000004
 30
0.0
 10
1.1025
 20
2.7324700000000002
 30
0.0
 10
1.1228200000000002
 20
2.76295
 30
0.0
 10
1.1228200000000002
 20
2.76295
 30
0.0
 10
0.9475600000000001
 20
2.8620100000000002
 30
0.0
 10
0.6656200000000001
 20
2.7019900000000003
 30
0.0
 10
0.5030600000000001
 20
2.8569300000000002
 30
0.0
 10
0.5030600000000001
 20
2.8569300000000002
 30
0.0
 10
0.5462400000000001
 20
2.9483700000000002
 30
0.0
 10
0.7951600000000001
 20
2.8289900000000001
 30
0.0
 10
0.7291200000000001
 20
2.9432900000000002
 30
0.0
 10
0.7291200000000001
 20
2.9432900000000002
 30
0.0
 10
0.64022
 20
2.9483700000000002
 30
0.0
 10
0.55132
 20
2.9839300000000004
 30
0.0
 10
0.47512
 20
3.0144100000000003
 30
0.0
 10
0.47512
 20
3.0144100000000003
 30
0.0
 10
0.47512
 20
3.0144100000000003
 30
0.0
 10
0.7723000000000001
 20
3.1261700000000001
 30
0.0
 10
0.7723000000000001
 20
3.1261700000000001
 30
0.0
  0
SPLINE
  5
2A
100
AcDbEntity
  8
Ebene 1
 62
     7
100
AcDbSpline
210
0.0
220
0.0
230
1.0
 70
     1
 71
     3
 72
    24
 73
    20
 74
     0
 42
0.0000000001
 43
0.0000000001
 40
0.0
 40
0.0
 40
0.0
 40
0.0
 40
0.2
 40
0.2
 40
0.2
 40
0.2
 40
0.4
 40
0.4
 40
0.4
 40
0.4
 40
0.6000000000000001
 40
0.6000000000000001
 40
0.6000000000000001
 40
0.6000000000000001
 40
0.8
 40
0.8
 40
0.8
 40
0.8
 40
1.0
 40
1.0
 40
1.0
 40
1.0
 10
-2.6744700000000003
 20
2.8569300000000002
 30
0.0
 10
-2.6744700000000003
 20
2.8569300000000002
 30
0.0
 10
-2.56271
 20
2.8416900000000003
 30
0.0
 10
-2.56271
 20
2.8416900000000003
 30
0.0
 10
-2.56271
 20
2.8416900000000003
 30
0.0
 10
-2.7074900000000004
 20
2.7731100000000004
 30
0.0
 10
-2.82179
 20
2.6156300000000003
 30
0.0
 10
-2.9792700000000001
 20
2.5648300000000002
 30
0.0
 10
-2.9792700000000001
 20
2.5648300000000002
 30
0.0
 10
-2.9792700000000001
 20
2.5648300000000002
 30
0.0
 10
-2.9386300000000003
 20
2.6435700000000004
 30
0.0
 10
-2.9386300000000003
 20
2.6435700000000004
 30
0.0
 10
-2.9386300000000003
 20
2.6435700000000004
 30
0.0
 10
-2.9386300000000003
 20
2.6435700000000004
 30
0.0
 10
-2.8319500000000004
 20
2.7350100000000004
 30
0.0
 10
-2.8319500000000004
 20
2.7350100000000004
 30
0.0
 10
-2.8319500000000004
 20
2.7350100000000004
 30
0.0
 10
-2.7963900000000002
 20
2.7883500000000003
 30
0.0
 10
-2.7278100000000003
 20
2.8315300000000003
 30
0.0
 10
-2.6744700000000003
 20
2.8569300000000002
 30
0.0
  0
SPLINE
  5
2B
100
AcDbEntity
  8
Ebene 1
 62
     7
100
AcDbSpline
210
0.0
220
0.0
230
1.0
 70
     1
 71
     3
 72
   124
 73
   120
 74
     0
 42
0.0000000001
 43
0.0000000001
 40
0.0
 40
0.0
 40
0.0
 40
0.0
 40
0.0333333333333333
 40
0.0333333333333333
 40
0.0333333333333333
 40
0.0333333333333333
 40
0.0666666666666667
 40
0.0666666666666667
 40
0.0666666666666667
 40
0.0666666666666667
 40
0.1
 40
0.1
 40
0.1
 40
0.1
 40
0.1333333333333333
 40
0.1333333333333333
 40
0.1333333333333333
 40
0.1333333333333333
 40
0.1666666666666667
 40
0.1666666666666667
 40
0.1666666666666667
 40
0.1666666666666667
 40
0.2
 40
0.2
 40
0.2
 40
0.2
 40
0.2333333333333333
 40
0.2333333333333333
 40
0.2333333333333333
 40
0.2333333333333333
 40
0.2666666666666667
 40
0.2666666666666667
 40
0.2666666666666667
 40
0.2666666666666667
 40
0.3
 40
0.3
 40
0.3
 40
0.3
 40
0.3333333333333333
 40
0.3333333333333333
 40
0.3333333333333333
 40
0.3333333333333333
 40
0.3666666666666666
 40
0.3666666666666666
 40
0.3666666666666666
 40
0.3666666666666666
 40
0.4
 40
0.4
 40
0.4
 40
0.4
 40
0.4333333333333333
 40
0.4333333333333333
 40
0.4333333333333333
 40
0.4333333333333333
 40
0.4666666666666666
 40
0.4666666666666666
 40
0.4666666666666666
 40
0.4666666666666666
 40
0.4999999999999999
 40
0.4999999999999999
 40
0.4999999999999999
 40
0.4999999999999999
 40
0.5333333333333333
 40
0.5333333333333333
 40
0.5333333333333333
 40
0.5333333333333333
 40
0.5666666666666667
 40
0.5666666666666667
 40
0.5666666666666667
 40
0.5666666666666667
 40
0.6
 40
0.6
 40
0.6
 40
0.6
 40
0.6333333333333333
 40
0.6333333333333333
 40
0.6333333333333333
 40
0.6333333333333333
 40
0.6666666666666666
 40
0.6666666666666666
 40
0.6666666666666666
 40
0.6666666666666666
 40
0.7
 40
0.7
 40
0.7
 40
0.7
 40
0.7333333333333333
 40
0.7333333333333333
 40
0.7333333333333333
 40
0.7333333333333333
 40
0.7666666666666666
 40
0.7666666666666666
 40
0.7666666666666666
 40
0.7666666666666666
 40
0.7999999999999999
 40
0.7999999999999999
 40
0.7999999999999999
 40
0.7999999999999999
 40
0.8333333333333333
 40
0.8333333333333333
 40
0.8333333333333333
 40
0.8333333333333333
 40
0.8666666666666666
 40
0.8666666666666666
 40
0.8666666666666666
 40
0.8666666666666666
 40
0.8999999999999999
 40
0.8999999999999999
 40
0.8999999999999999
 40
0.8999999999999999
 40
0.9333333333333332
 40
0.9333333333333332
 40
0.9333333333333332
 40
0.9333333333333332
 40
0.9666666666666666
 40
0.9666666666666666
 40
0.9666666666666666
 40
0.9666666666666666
 40
1.0
 40
1.0
 40
1.0
 40
1.0
 10
-4.6099500000000004
 20
-0.61778
 30
0.0
 10
-4.52867
 20
-0.5415800000000001
 30
0.0
 10
-4.4296100000000003
 20
-0.4577600000000001
 30
0.0
 10
-4.3661099999999999
 20
-0.3637800000000001
 30
0.0
 10
-4.3661099999999999
 20
-0.3637800000000001
 30
0.0
 10
-4.3127700000000004
 20
-0.33838
 30
0.0
 10
-4.2670500000000002
 20
-0.2825
 30
0.0
 10
-4.23149
 20
-0.23678
 30
0.0
 10
-4.23149
 20
-0.23678
 30
0.0
 10
-4.49057
 20
-0.3637800000000001
 30
0.0
 10
-4.7547300000000003
 20
-0.80066
 30
0.0
 10
-5.1204900000000002
 20
-0.65842
 30
0.0
 10
-5.1204900000000002
 20
-0.65842
 30
0.0
 10
-5.4608500000000006
 20
-0.61016
 30
0.0
 10
-5.7935900000000009
 20
-0.3104400000000001
 30
0.0
 10
-5.7656500000000008
 20
0.05531
 30
0.0
 10
-5.7656500000000008
 20
0.05531
 30
0.0
 10
-5.5954700000000006
 20
-0.0793
 30
0.0
 10
-5.4176700000000002
 20
-0.23678
 30
0.0
 10
-5.1890700000000001
 20
-0.26218
 30
0.0
 10
-5.1890700000000001
 20
-0.26218
 30
0.0
 10
-4.6709100000000001
 20
-0.3333
 30
0.0
 10
-4.43215
 20
0.21533
 30
0.0
 10
-4.1603700000000003
 20
0.53791
 30
0.0
 10
-4.1603700000000003
 20
0.53791
 30
0.0
 10
-4.2111700000000001
 20
0.51505
 30
0.0
 10
-4.2568900000000003
 20
0.45917
 30
0.0
 10
-4.2949900000000003
 20
0.4109100000000001
 30
0.0
 10
-4.2949900000000003
 20
0.4109100000000001
 30
0.0
 10
-4.3813500000000003
 20
0.3474100000000001
 30
0.0
 10
-4.3737300000000001
 20
0.5277500000000001
 30
0.0
 10
-4.3381700000000007
 20
0.57855
 30
0.0
 10
-4.3381700000000007
 20
0.57855
 30
0.0
 10
-3.9698700000000002
 20
1.31515
 30
0.0
 10
-3.5558500000000004
 20
2.24987
 30
0.0
 10
-2.7176500000000003
 20
2.5165700000000002
 30
0.0
 10
-2.7176500000000003
 20
2.5165700000000002
 30
0.0
 10
-2.6465300000000003
 20
2.3870300000000002
 30
0.0
 10
-2.9106900000000002
 20
2.3387700000000002
 30
0.0
 10
-2.9665700000000004
 20
2.2193900000000002
 30
0.0
 10
-2.9665700000000004
 20
2.2193900000000002
 30
0.0
 10
-3.0656300000000001
 20
2.1508100000000003
 30
0.0
 10
-3.1494500000000003
 20
1.9120500000000002
 30
0.0
 10
-2.9868900000000003
 20
2.0847700000000002
 30
0.0
 10
-2.9868900000000003
 20
2.0847700000000002
 30
0.0
 10
-2.8370300000000004
 20
2.1990700000000003
 30
0.0
 10
-2.61097
 20
2.5064100000000002
 30
0.0
 10
-2.4331700000000001
 20
2.3921100000000002
 30
0.0
 10
-2.4331700000000001
 20
2.3921100000000002
 30
0.0
 10
-2.7811500000000002
 20
2.1152500000000001
 30
0.0
 10
-3.1342100000000004
 20
1.9857100000000001
 30
0.0
 10
-3.4263100000000004
 20
1.7596500000000002
 30
0.0
 10
-3.4263100000000004
 20
1.7596500000000002
 30
0.0
 10
-3.6015700000000002
 20
1.6199500000000002
 30
0.0
 10
-3.7387300000000003
 20
1.4396100000000001
 30
0.0
 10
-3.8301700000000003
 20
1.2440300000000002
 30
0.0
 10
-3.8301700000000003
 20
1.2440300000000002
 30
0.0
 10
-3.8987500000000002
 20
1.0560700000000001
 30
0.0
 10
-4.0714700000000006
 20
0.8757300000000001
 30
0.0
 10
-4.0867100000000001
 20
0.6953900000000001
 30
0.0
 10
-4.0867100000000001
 20
0.6953900000000001
 30
0.0
 10
-3.7463500000000005
 20
1.4218300000000001
 30
0.0
 10
-3.0884900000000002
 20
1.9425300000000001
 30
0.0
 10
-2.3772900000000003
 20
2.29305
 30
0.0
 10
-2.3772900000000003
 20
2.29305
 30
0.0
 10
-2.3772900000000003
 20
2.29305
 30
0.0
 10
-2.2807700000000004
 20
2.2041500000000003
 30
0.0
 10
-2.2807700000000004
 20
2.2041500000000003
 30
0.0
 10
-2.2807700000000004
 20
2.2041500000000003
 30
0.0
 10
-2.3417300000000001
 20
1.9501500000000001
 30
0.0
 10
-2.5931900000000003
 20
1.8434700000000002
 30
0.0
 10
-2.7963900000000002
 20
1.7240900000000001
 30
0.0
 10
-2.7963900000000002
 20
1.7240900000000001
 30
0.0
 10
-2.9538700000000002
 20
1.52851
 30
0.0
 10
-3.2256500000000004
 20
1.4624700000000002
 30
0.0
 10
-3.3475700000000002
 20
1.2567300000000001
 30
0.0
 10
-3.3475700000000002
 20
1.2567300000000001
 30
0.0
 10
-3.4999700000000002
 20
0.95701
 30
0.0
 10
-3.7641300000000002
 20
0.70555
 30
0.0
 10
-3.8860500000000004
 20
0.40329
 30
0.0
 10
-3.8860500000000004
 20
0.40329
 30
0.0
 10
-3.6828500000000002
 20
0.6064900000000001
 30
0.0
 10
-3.5431500000000002
 20
0.9062100000000001
 30
0.0
 10
-3.3323300000000002
 20
1.1297300000000001
 30
0.0
 10
-3.3323300000000002
 20
1.1297300000000001
 30
0.0
 10
-3.0732500000000003
 20
1.44723
 30
0.0
 10
-2.7405100000000004
 20
1.7571100000000002
 30
0.0
 10
-2.3366500000000001
 20
1.8358500000000002
 30
0.0
 10
-2.3366500000000001
 20
1.8358500000000002
 30
0.0
 10
-2.2934700000000001
 20
1.6783700000000001
 30
0.0
 10
-2.4534900000000004
 20
1.5437500000000002
 30
0.0
 10
-2.56271
 20
1.44723
 30
0.0
 10
-2.56271
 20
1.44723
 30
0.0
 10
-2.7963900000000002
 20
1.27197
 30
0.0
 10
-2.7151100000000001
 20
1.2414900000000002
 30
0.0
 10
-2.5144500000000001
 20
1.4142100000000002
 30
0.0
 10
-2.5144500000000001
 20
1.4142100000000002
 30
0.0
 10
-2.4560300000000002
 20
1.4777100000000001
 30
0.0
 10
-2.3798300000000001
 20
1.5335900000000002
 30
0.0
 10
-2.30871
 20
1.56915
 30
0.0
 10
-2.30871
 20
1.56915
 30
0.0
 10
-2.3290300000000004
 20
1.4777100000000001
 30
0.0
 10
-2.3645900000000002
 20
1.3837300000000001
 30
0.0
 10
-2.4230100000000001
 20
1.3075300000000001
 30
0.0
 10
-2.4230100000000001
 20
1.3075300000000001
 30
0.0
 10
-2.4230100000000001
 20
1.3075300000000001
 30
0.0
 10
-2.7176500000000003
 20
1.0941700000000001
 30
0.0
 10
-2.7176500000000003
 20
1.0941700000000001
 30
0.0
 10
-2.7176500000000003
 20
1.0941700000000001
 30
0.0
 10
-2.7176500000000003
 20
1.0941700000000001
 30
0.0
 10
-2.8878300000000001
 20
0.9824100000000001
 30
0.0
 10
-2.8878300000000001
 20
0.9824100000000001
 30
0.0
 10
-2.8878300000000001
 20
0.9824100000000001
 30
0.0
 10
-3.0453100000000002
 20
0.91129
 30
0.0
 10
-2.82179
 20
1.0890900000000001
 30
0.0
 10
-2.8471900000000003
 20
1.1602100000000002
 30
0.0
 10
-2.8471900000000003
 20
1.1602100000000002
 30
0.0
 10
-3.5279100000000003
 20
0.6725300000000001
 30
0.0
 10
-3.7539700000000003
 20
-0.3637800000000001
 30
0.0
 10
-4.6099500000000004
 20
-0.61778
 30
0.0
  0
SPLINE
  5
2C
100
AcDbEntity
  8
Ebene 1
100
AcDbSpline
210
0.0
220
0.0
230
1.0
 70
     1
 71
     3
 72
    56
 73
    52
 74
     0
 42
0.0000000001
 43
0.0000000001
 40
0.0
 40
0.0
 40
0.0
 40
0.0
 40
0.0769230769230769
 40
0.0769230769230769
 40
0.0769230769230769
 40
0.0769230769230769
 40
0.1538461538461539
 40
0.1538461538461539
 40
0.1538461538461539
 40
0.1538461538461539
 40
0.2307692307692308
 40
0.2307692307692308
 40
0.2307692307692308
 40
0.2307692307692308
 40
0.3076923076923077
 40
0.3076923076923077
 40
0.3076923076923077
 40
0.3076923076923077
 40
0.3846153846153846
 40
0.3846153846153846
 40
0.3846153846153846
 40
0.3846153846153846
 40
0.4615384615384616
 40
0.4615384615384616
 40
0.4615384615384616
 40
0.4615384615384616
 40
0.5384615384615386
 40
0.5384615384615386
 40
0.5384615384615386
 40
0.5384615384615386
 40
0.6153846153846154
 40
0.6153846153846154
 40
0.6153846153846154
 40
0.6153846153846154
 40
0.6923076923076923
 40
0.6923076923076923
 40
0.6923076923076923
 40
0.6923076923076923
 40
0.7692307692307692
 40
0.7692307692307692
 40
0.7692307692307692
 40
0.7692307692307692
 40
0.846153846153846
 40
0.846153846153846
 40
0.846153846153846
 40
0.846153846153846
 40
0.9230769230769229
 40
0.9230769230769229
 40
0.9230769230769229
 40
0.9230769230769229
 40
1.0
 40
1.0
 40
1.0
 40
1.0
 10
-1.1047500000000001
 20
2.5318100000000001
 30
0.0
 10
-0.3427500000000001
 20
2.6740500000000003
 30
0.0
 10
-0.05065
 20
1.7342500000000001
 30
0.0
 10
0.5868800000000001
 20
1.6174100000000002
 30
0.0
 10
0.5868800000000001
 20
1.6174100000000002
 30
0.0
 10
0.5868800000000001
 20
1.6174100000000002
 30
0.0
 10
0.4802
 20
1.5767700000000002
 30
0.0
 10
0.4802
 20
1.5767700000000002
 30
0.0
 10
0.4802
 20
1.5767700000000002
 30
0.0
 10
0.4802
 20
1.5767700000000002
 30
0.0
 10
0.23382
 20
1.6275700000000002
 30
0.0
 10
0.23382
 20
1.6275700000000002
 30
0.0
 10
0.23382
 20
1.6275700000000002
 30
0.0
 10
0.23382
 20
1.6275700000000002
 30
0.0
 10
0.0992
 20
1.5818500000000002
 30
0.0
 10
0.0992
 20
1.5818500000000002
 30
0.0
 10
0.0992
 20
1.5818500000000002
 30
0.0
 10
-0.28433
 20
1.1271900000000001
 30
0.0
 10
-0.8786900000000001
 20
1.5437500000000002
 30
0.0
 10
-1.3257300000000001
 20
1.27959
 30
0.0
 10
-1.3257300000000001
 20
1.27959
 30
0.0
 10
-1.2850900000000001
 20
1.4167500000000002
 30
0.0
 10
-1.07935
 20
1.4396100000000001
 30
0.0
 10
-0.9777500000000001
 20
1.52851
 30
0.0
 10
-0.9777500000000001
 20
1.52851
 30
0.0
 10
-0.9777500000000001
 20
1.52851
 30
0.0
 10
-1.37399
 20
2.1381100000000002
 30
0.0
 10
-1.37399
 20
2.1381100000000002
 30
0.0
 10
-1.37399
 20
2.1381100000000002
 30
0.0
 10
-1.4832100000000001
 20
2.1381100000000002
 30
0.0
 10
-1.4679700000000002
 20
1.9806300000000001
 30
0.0
 10
-1.5517900000000002
 20
1.9450700000000001
 30
0.0
 10
-1.5517900000000002
 20
1.9450700000000001
 30
0.0
 10
-1.58735
 20
2.04921
 30
0.0
 10
-1.5111500000000002
 20
2.17367
 30
0.0
 10
-1.4679700000000002
 20
2.2752700000000003
 30
0.0
 10
-1.4679700000000002
 20
2.2752700000000003
 30
0.0
 10
-1.46035
 20
2.2879700000000001
 30
0.0
 10
-1.4349500000000002
 20
2.29813
 30
0.0
 10
-1.4476500000000001
 20
2.3184500000000003
 30
0.0
 10
-1.4476500000000001
 20
2.3184500000000003
 30
0.0
 10
-1.7041900000000001
 20
2.2803500000000003
 30
0.0
 10
-1.75499
 20
2.0568300000000002
 30
0.0
 10
-1.8489700000000002
 20
1.8714100000000002
 30
0.0
 10
-1.8489700000000002
 20
1.8714100000000002
 30
0.0
 10
-1.8388100000000001
 20
2.0746100000000003
 30
0.0
 10
-1.8591300000000002
 20
2.29813
 30
0.0
 10
-1.9759700000000002
 20
2.4733900000000002
 30
0.0
 10
-1.9759700000000002
 20
2.4733900000000002
 30
0.0
 10
-1.7321300000000002
 20
2.2422500000000003
 30
0.0
 10
-1.3841500000000002
 20
2.4505300000000001
 30
0.0
 10
-1.1047500000000001
 20
2.5318100000000001
 30
0.0
  0
SPLINE
  5
2D
100
AcDbEntity
  8
Ebene 1
 62
     7
100
AcDbSpline
210
0.0
220
0.0
230
1.0
 70
     1
 71
     3
 72
    20
 73
    16
 74
     0
 42
0.0000000001
 43
0.0000000001
 40
0.0
 40
0.0
 40
0.0
 40
0.0
 40
0.25
 40
0.25
 40
0.25
 40
0.25
 40
0.5
 40
0.5
 40
0.5
 40
0.5
 40
0.75
 40
0.75
 40
0.75
 40
0.75
 40
1.0
 40
1.0
 40
1.0
 40
1.0
 10
-0.5408700000000001
 20
2.01111
 30
0.0
 10
-0.4392700000000001
 20
2.00603
 30
0.0
 10
-0.36815
 20
1.9349100000000001
 30
0.0
 10
-0.28687
 20
1.8790300000000002
 30
0.0
 10
-0.28687
 20
1.8790300000000002
 30
0.0
 10
-0.23861
 20
1.8510900000000001
 30
0.0
 10
-0.19289
 20
1.8028300000000002
 30
0.0
 10
-0.15987
 20
1.7596500000000002
 30
0.0
 10
-0.15987
 20
1.7596500000000002
 30
0.0
 10
-0.33767
 20
1.7240900000000001
 30
0.0
 10
-0.5180100000000001
 20
1.8460100000000002
 30
0.0
 10
-0.6196100000000001
 20
1.9780900000000001
 30
0.0
 10
-0.6196100000000001
 20
1.9780900000000001
 30
0.0
 10
-0.6196100000000001
 20
1.9780900000000001
 30
0.0
 10
-0.5408700000000001
 20
2.01111
 30
0.0
 10
-0.5408700000000001
 20
2.01111
 30
0.0
  0
SPLINE
  5
2E
100
AcDbEntity
  8
Ebene 1
100
AcDbSpline
210
0.0
220
0.0
230
1.0
 70
     1
 71
     3
 72
    16
 73
    12
 74
     0
 42
0.0000000001
 43
0.0000000001
 40
0.0
 40
0.0
 40
0.0
 40
0.0
 40
0.3333333333333333
 40
0.3333333333333333
 40
0.3333333333333333
 40
0.3333333333333333
 40
0.6666666666666666
 40
0.6666666666666666
 40
0.6666666666666666
 40
0.6666666666666666
 40
1.0
 40
1.0
 40
1.0
 40
1.0
 10
0.91454
 20
1.9247500000000002
 30
0.0
 10
0.91454
 20
1.9247500000000002
 30
0.0
 10
0.9399400000000001
 20
1.9222100000000002
 30
0.0
 10
0.9399400000000001
 20
1.9222100000000002
 30
0.0
 10
0.9399400000000001
 20
1.9222100000000002
 30
0.0
 10
0.9247000000000001
 20
1.8028300000000002
 30
0.0
 10
0.7469
 20
1.6758300000000002
 30
0.0
 10
0.63514
 20
1.7164700000000002
 30
0.0
 10
0.63514
 20
1.7164700000000002
 30
0.0
 10
0.72404
 20
1.7748900000000001
 30
0.0
 10
0.8612000000000001
 20
1.8104500000000001
 30
0.0
 10
0.91454
 20
1.9247500000000002
 30
0.0
  0
SPLINE
  5
2F
100
AcDbEntity
  8
Ebene 1
 62
     7
100
AcDbSpline
210
0.0
220
0.0
230
1.0
 70
     1
 71
     3
 72
    24
 73
    20
 74
     0
 42
0.0000000001
 43
0.0000000001
 40
0.0
 40
0.0
 40
0.0
 40
0.0
 40
0.2
 40
0.2
 40
0.2
 40
0.2
 40
0.4
 40
0.4
 40
0.4
 40
0.4
 40
0.6000000000000001
 40
0.6000000000000001
 40
0.6000000000000001
 40
0.6000000000000001
 40
0.8
 40
0.8
 40
0.8
 40
0.8
 40
1.0
 40
1.0
 40
1.0
 40
1.0
 10
0.6453000000000001
 20
1.1602100000000002
 30
0.0
 10
0.9729600000000001
 20
1.1754500000000001
 30
0.0
 10
1.0009000000000001
 20
0.74365
 30
0.0
 10
1.2091800000000001
 20
0.63697
 30
0.0
 10
1.2091800000000001
 20
0.63697
 30
0.0
 10
1.2244200000000001
 20
0.6242700000000001
 30
0.0
 10
1.2295
 20
0.6039500000000001
 30
0.0
 10
1.2218800000000001
 20
0.5861700000000001
 30
0.0
 10
1.2218800000000001
 20
0.5861700000000001
 30
0.0
 10
1.2218800000000001
 20
0.5861700000000001
 30
0.0
 10
0.93232
 20
0.6979300000000001
 30
0.0
 10
0.93232
 20
0.6979300000000001
 30
0.0
 10
0.93232
 20
0.6979300000000001
 30
0.0
 10
0.89168
 20
0.8655700000000001
 30
0.0
 10
0.7265800000000001
 20
1.0103500000000001
 30
0.0
 10
0.5945
 20
1.10941
 30
0.0
 10
0.5945
 20
1.10941
 30
0.0
 10
0.5945
 20
1.10941
 30
0.0
 10
0.6453000000000001
 20
1.1602100000000002
 30
0.0
 10
0.6453000000000001
 20
1.1602100000000002
 30
0.0
  0
SPLINE
  5
30
100
AcDbEntity
  8
Ebene 1
 62
     7
100
AcDbSpline
210
0.0
220
0.0
230
1.0
 70
     1
 71
     3
 72
    16
 73
    12
 74
     0
 42
0.0000000001
 43
0.0000000001
 40
0.0
 40
0.0
 40
0.0
 40
0.0
 40
0.3333333333333333
 40
0.3333333333333333
 40
0.3333333333333333
 40
0.3333333333333333
 40
0.6666666666666666
 40
0.6666666666666666
 40
0.6666666666666666
 40
0.6666666666666666
 40
1.0
 40
1.0
 40
1.0
 40
1.0
 10
0.9704200000000001
 20
1.14751
 30
0.0
 10
1.1025
 20
1.1398900000000001
 30
0.0
 10
1.2117200000000001
 20
1.0408300000000001
 30
0.0
 10
1.2447400000000002
 20
0.91129
 30
0.0
 10
1.2447400000000002
 20
0.91129
 30
0.0
 10
1.3692000000000002
 20
0.78683
 30
0.0
 10
1.4377800000000001
 20
0.61919
 30
0.0
 10
1.4911200000000002
 20
0.45917
 30
0.0
 10
1.4911200000000002
 20
0.45917
 30
0.0
 10
1.2295
 20
0.59633
 30
0.0
 10
1.0898000000000001
 20
0.8884300000000001
 30
0.0
 10
0.9704200000000001
 20
1.14751
 30
0.0
  0
SPLINE
  5
31
100
AcDbEntity
  8
Ebene 1
 62
     7
100
AcDbSpline
210
0.0
220
0.0
230
1.0
 70
     1
 71
     3
 72
    16
 73
    12
 74
     0
 42
0.0000000001
 43
0.0000000001
 40
0.0
 40
0.0
 40
0.0
 40
0.0
 40
0.3333333333333333
 40
0.3333333333333333
 40
0.3333333333333333
 40
0.3333333333333333
 40
0.6666666666666666
 40
0.6666666666666666
 40
0.6666666666666666
 40
0.6666666666666666
 40
1.0
 40
1.0
 40
1.0
 40
1.0
 10
1.2396600000000002
 20
1.1195700000000002
 30
0.0
 10
1.4454
 20
0.9697100000000001
 30
0.0
 10
1.5927200000000001
 20
0.7309500000000001
 30
0.0
 10
1.6587600000000002
 20
0.5023500000000001
 30
0.0
 10
1.6587600000000002
 20
0.5023500000000001
 30
0.0
 10
1.6155800000000002
 20
0.55569
 30
0.0
 10
1.56732
 20
0.4972700000000001
 30
0.0
 10
1.52668
 20
0.48711
 30
0.0
 10
1.52668
 20
0.48711
 30
0.0
 10
1.52668
 20
0.48711
 30
0.0
 10
1.2396600000000002
 20
1.1195700000000002
 30
0.0
 10
1.2396600000000002
 20
1.1195700000000002
 30
0.0
  0
SPLINE
  5
32
100
AcDbEntity
  8
Ebene 1
 62
     7
100
AcDbSpline
210
0.0
220
0.0
230
1.0
 70
     1
 71
     3
 72
    16
 73
    12
 74
     0
 42
0.0000000001
 43
0.0000000001
 40
0.0
 40
0.0
 40
0.0
 40
0.0
 40
0.3333333333333333
 40
0.3333333333333333
 40
0.3333333333333333
 40
0.3333333333333333
 40
0.6666666666666666
 40
0.6666666666666666
 40
0.6666666666666666
 40
0.6666666666666666
 40
1.0
 40
1.0
 40
1.0
 40
1.0
 10
1.4225400000000001
 20
1.06369
 30
0.0
 10
1.7324200000000001
 20
1.0738500000000002
 30
0.0
 10
1.8187800000000001
 20
0.7157100000000001
 30
0.0
 10
1.9000600000000001
 20
0.48711
 30
0.0
 10
1.9000600000000001
 20
0.48711
 30
0.0
 10
1.8543400000000001
 20
0.5048900000000001
 30
0.0
 10
1.8111600000000001
 20
0.5404500000000001
 30
0.0
 10
1.7527400000000002
 20
0.53029
 30
0.0
 10
1.7527400000000002
 20
0.53029
 30
0.0
 10
1.6511400000000001
 20
0.7080900000000001
 30
0.0
 10
1.5393800000000002
 20
0.89097
 30
0.0
 10
1.4225400000000001
 20
1.06369
 30
0.0
  0
SPLINE
  5
33
100
AcDbEntity
  8
Ebene 1
 62
     7
100
AcDbSpline
210
0.0
220
0.0
230
1.0
 70
     1
 71
     3
 72
    20
 73
    16
 74
     0
 42
0.0000000001
 43
0.0000000001
 40
0.0
 40
0.0
 40
0.0
 40
0.0
 40
0.25
 40
0.25
 40
0.25
 40
0.25
 40
0.5
 40
0.5
 40
0.5
 40
0.5
 40
0.75
 40
0.75
 40
0.75
 40
0.75
 40
1.0
 40
1.0
 40
1.0
 40
1.0
 10
0.3913
 20
1.0484500000000001
 30
0.0
 10
0.5487800000000001
 20
1.0840100000000001
 30
0.0
 10
0.6884800000000001
 20
0.9417700000000001
 30
0.0
 10
0.7265800000000001
 20
0.8122300000000001
 30
0.0
 10
0.7265800000000001
 20
0.8122300000000001
 30
0.0
 10
0.7265800000000001
 20
0.8122300000000001
 30
0.0
 10
0.67832
 20
0.8046100000000001
 30
0.0
 10
0.67832
 20
0.8046100000000001
 30
0.0
 10
0.67832
 20
0.8046100000000001
 30
0.0
 10
0.5259200000000001
 20
0.68269
 30
0.0
 10
0.49036
 20
1.0128900000000001
 30
0.0
 10
0.33796
 20
1.0103500000000001
 30
0.0
 10
0.33796
 20
1.0103500000000001
 30
0.0
 10
0.33796
 20
1.0103500000000001
 30
0.0
 10
0.3913
 20
1.0484500000000001
 30
0.0
 10
0.3913
 20
1.0484500000000001
 30
0.0
  0
SPLINE
  5
34
100
AcDbEntity
  8
Ebene 1
 62
     7
100
AcDbSpline
210
0.0
220
0.0
230
1.0
 70
     1
 71
     3
 72
   168
 73
   164
 74
     0
 42
0.0000000001
 43
0.0000000001
 40
0.0
 40
0.0
 40
0.0
 40
0.0
 40
0.024390243902439
 40
0.024390243902439
 40
0.024390243902439
 40
0.024390243902439
 40
0.0487804878048781
 40
0.0487804878048781
 40
0.0487804878048781
 40
0.0487804878048781
 40
0.0731707317073171
 40
0.0731707317073171
 40
0.0731707317073171
 40
0.0731707317073171
 40
0.0975609756097561
 40
0.0975609756097561
 40
0.0975609756097561
 40
0.0975609756097561
 40
0.1219512195121951
 40
0.1219512195121951
 40
0.1219512195121951
 40
0.1219512195121951
 40
0.1463414634146341
 40
0.1463414634146341
 40
0.1463414634146341
 40
0.1463414634146341
 40
0.1707317073170732
 40
0.1707317073170732
 40
0.1707317073170732
 40
0.1707317073170732
 40
0.1951219512195122
 40
0.1951219512195122
 40
0.1951219512195122
 40
0.1951219512195122
 40
0.2195121951219512
 40
0.2195121951219512
 40
0.2195121951219512
 40
0.2195121951219512
 40
0.2439024390243902
 40
0.2439024390243902
 40
0.2439024390243902
 40
0.2439024390243902
 40
0.2682926829268292
 40
0.2682926829268292
 40
0.2682926829268292
 40
0.2682926829268292
 40
0.2926829268292683
 40
0.2926829268292683
 40
0.2926829268292683
 40
0.2926829268292683
 40
0.3170731707317073
 40
0.3170731707317073
 40
0.3170731707317073
 40
0.3170731707317073
 40
0.3414634146341464
 40
0.3414634146341464
 40
0.3414634146341464
 40
0.3414634146341464
 40
0.3658536585365854
 40
0.3658536585365854
 40
0.3658536585365854
 40
0.3658536585365854
 40
0.3902439024390245
 40
0.3902439024390245
 40
0.3902439024390245
 40
0.3902439024390245
 40
0.4146341463414635
 40
0.4146341463414635
 40
0.4146341463414635
 40
0.4146341463414635
 40
0.4390243902439026
 40
0.4390243902439026
 40
0.4390243902439026
 40
0.4390243902439026
 40
0.4634146341463416
 40
0.4634146341463416
 40
0.4634146341463416
 40
0.4634146341463416
 40
0.4878048780487806
 40
0.4878048780487806
 40
0.4878048780487806
 40
0.4878048780487806
 40
0.5121951219512196
 40
0.5121951219512196
 40
0.5121951219512196
 40
0.5121951219512196
 40
0.5365853658536587
 40
0.5365853658536587
 40
0.5365853658536587
 40
0.5365853658536587
 40
0.5609756097560977
 40
0.5609756097560977
 40
0.5609756097560977
 40
0.5609756097560977
 40
0.5853658536585368
 40
0.5853658536585368
 40
0.5853658536585368
 40
0.5853658536585368
 40
0.6097560975609758
 40
0.6097560975609758
 40
0.6097560975609758
 40
0.6097560975609758
 40
0.6341463414634149
 40
0.6341463414634149
 40
0.6341463414634149
 40
0.6341463414634149
 40
0.6585365853658539
 40
0.6585365853658539
 40
0.6585365853658539
 40
0.6585365853658539
 40
0.682926829268293
 40
0.682926829268293
 40
0.682926829268293
 40
0.682926829268293
 40
0.707317073170732
 40
0.707317073170732
 40
0.707317073170732
 40
0.707317073170732
 40
0.7317073170731711
 40
0.7317073170731711
 40
0.7317073170731711
 40
0.7317073170731711
 40
0.7560975609756101
 40
0.7560975609756101
 40
0.7560975609756101
 40
0.7560975609756101
 40
0.7804878048780491
 40
0.7804878048780491
 40
0.7804878048780491
 40
0.7804878048780491
 40
0.8048780487804882
 40
0.8048780487804882
 40
0.8048780487804882
 40
0.8048780487804882
 40
0.8292682926829272
 40
0.8292682926829272
 40
0.8292682926829272
 40
0.8292682926829272
 40
0.8536585365853663
 40
0.8536585365853663
 40
0.8536585365853663
 40
0.8536585365853663
 40
0.8780487804878053
 40
0.8780487804878053
 40
0.8780487804878053
 40
0.8780487804878053
 40
0.9024390243902444
 40
0.9024390243902444
 40
0.9024390243902444
 40
0.9024390243902444
 40
0.9268292682926834
 40
0.9268292682926834
 40
0.9268292682926834
 40
0.9268292682926834
 40
0.9512195121951225
 40
0.9512195121951225
 40
0.9512195121951225
 40
0.9512195121951225
 40
0.9756097560975615
 40
0.9756097560975615
 40
0.9756097560975615
 40
0.9756097560975615
 40
1.0
 40
1.0
 40
1.0
 40
1.0
 10
-0.03033
 20
0.8223900000000001
 30
0.0
 10
-0.01763
 20
0.27883
 30
0.0
 10
-0.39863
 20
-0.53396
 30
0.0
 10
0.03824
 20
-1.0826
 30
0.0
 10
0.03824
 20
-1.0826
 30
0.0
 10
0.02554
 20
-1.2477
 30
0.0
 10
-0.12685
 20
-1.3670800000000001
 30
0.0
 10
-0.12685
 20
-1.5321800000000001
 30
0.0
 10
-0.12685
 20
-1.5321800000000001
 30
0.0
 10
-0.12685
 20
-1.5321800000000001
 30
0.0
 10
0.02808
 20
-1.2705600000000001
 30
0.0
 10
0.02808
 20
-1.2705600000000001
 30
0.0
 10
0.02808
 20
-1.2705600000000001
 30
0.0
 10
0.05094
 20
-1.1969000000000001
 30
0.0
 10
0.16778
 20
-1.2680200000000001
 30
0.0
 10
0.20842
 20
-1.3086600000000002
 30
0.0
 10
0.20842
 20
-1.3086600000000002
 30
0.0
 10
0.00268
 20
-1.5499600000000002
 30
0.0
 10
0.17032
 20
-1.8217400000000001
 30
0.0
 10
0.18302
 20
-2.09606
 30
0.0
 10
0.18302
 20
-2.09606
 30
0.0
 10
0.33288
 20
-1.9208000000000001
 30
0.0
 10
0.00268
 20
-1.6464800000000002
 30
0.0
 10
0.19826
 20
-1.4534400000000001
 30
0.0
 10
0.19826
 20
-1.4534400000000001
 30
0.0
 10
0.53354
 20
-1.5525000000000002
 30
0.0
 10
0.1373
 20
-2.1138400000000002
 30
0.0
 10
0.4192400000000001
 20
-2.2560800000000003
 30
0.0
 10
0.4192400000000001
 20
-2.2560800000000003
 30
0.0
 10
0.4395600000000001
 20
-2.0986000000000002
 30
0.0
 10
0.3024
 20
-1.9512800000000001
 30
0.0
 10
0.4090800000000001
 20
-1.8065000000000002
 30
0.0
 10
0.4090800000000001
 20
-1.8065000000000002
 30
0.0
 10
0.5843400000000001
 20
-1.9258800000000003
 30
0.0
 10
0.51068
 20
-2.0808200000000001
 30
0.0
 10
0.4954400000000001
 20
-2.27894
 30
0.0
 10
0.4954400000000001
 20
-2.27894
 30
0.0
 10
0.4929000000000001
 20
-2.30688
 30
0.0
 10
0.5233800000000001
 20
-2.35006
 30
0.0
 10
0.5208400000000001
 20
-2.3805400000000003
 30
0.0
 10
0.5208400000000001
 20
-2.3805400000000003
 30
0.0
 10
0.5868800000000001
 20
-2.1113
 30
0.0
 10
0.7900800000000001
 20
-2.3526000000000002
 30
0.0
 10
0.6884800000000001
 20
-2.56596
 30
0.0
 10
0.6884800000000001
 20
-2.56596
 30
0.0
 10
0.6884800000000001
 20
-2.56596
 30
0.0
 10
0.6910200000000001
 20
-2.6345400000000003
 30
0.0
 10
0.6910200000000001
 20
-2.6345400000000003
 30
0.0
 10
0.6910200000000001
 20
-2.6345400000000003
 30
0.0
 10
0.7062600000000001
 20
-2.6574000000000004
 30
0.0
 10
0.7215
 20
-2.6802600000000001
 30
0.0
 10
0.7164200000000001
 20
-2.7082000000000002
 30
0.0
 10
0.7164200000000001
 20
-2.7082000000000002
 30
0.0
 10
0.7977000000000001
 20
-2.7082000000000002
 30
0.0
 10
0.68086
 20
-2.5964400000000003
 30
0.0
 10
0.7697600000000001
 20
-2.5380200000000004
 30
0.0
 10
0.7697600000000001
 20
-2.5380200000000004
 30
0.0
 10
0.9628000000000001
 20
-2.6218400000000002
 30
0.0
 10
0.9043800000000001
 20
-3.2339800000000003
 30
0.0
 10
1.0085200000000001
 20
-2.8961600000000001
 30
0.0
 10
1.0085200000000001
 20
-2.8961600000000001
 30
0.0
 10
1.0059800000000001
 20
-2.9876
 30
0.0
 10
1.11012
 20
-2.9469600000000002
 30
0.0
 10
1.15076
 20
-2.9672800000000001
 30
0.0
 10
1.15076
 20
-2.9672800000000001
 30
0.0
 10
1.1279000000000001
 20
-3.1146000000000003
 30
0.0
 10
1.1025
 20
-3.8283400000000003
 30
0.0
 10
1.1837800000000001
 20
-3.5159200000000004
 30
0.0
 10
1.1837800000000001
 20
-3.5159200000000004
 30
0.0
 10
1.1837800000000001
 20
-3.5159200000000004
 30
0.0
 10
1.1685400000000001
 20
-3.3305000000000002
 30
0.0
 10
1.1685400000000001
 20
-3.3305000000000002
 30
0.0
 10
1.1685400000000001
 20
-3.3305000000000002
 30
0.0
 10
1.4962000000000002
 20
-3.3482800000000004
 30
0.0
 10
1.2879200000000002
 20
-3.7216600000000004
 30
0.0
 10
1.3717400000000002
 20
-3.9629600000000003
 30
0.0
 10
1.3717400000000002
 20
-3.9629600000000003
 30
0.0
 10
1.3768200000000002
 20
-3.6378400000000002
 30
0.0
 10
1.5622400000000001
 20
-3.7800800000000003
 30
0.0
 10
1.6079600000000001
 20
-3.9883600000000001
 30
0.0
 10
1.6079600000000001
 20
-3.9883600000000001
 30
0.0
 10
1.6181200000000002
 20
-4.0417000000000005
 30
0.0
 10
1.56986
 20
-4.1788600000000002
 30
0.0
 10
1.6638400000000002
 20
-4.1661600000000005
 30
0.0
 10
1.6638400000000002
 20
-4.1661600000000005
 30
0.0
 10
1.6663800000000002
 20
-3.9451800000000001
 30
0.0
 10
1.8543400000000001
 20
-4.0696400000000006
 30
0.0
 10
1.9711800000000002
 20
-3.9426400000000004
 30
0.0
 10
1.9711800000000002
 20
-3.9426400000000004
 30
0.0
 10
1.9711800000000002
 20
-3.9426400000000004
 30
0.0
 10
1.9203800000000002
 20
-4.1407600000000002
 30
0.0
 10
1.9203800000000002
 20
-4.1407600000000002
 30
0.0
 10
1.9203800000000002
 20
-4.1407600000000002
 30
0.0
 10
1.9203800000000002
 20
-4.1610800000000001
 30
0.0
 10
1.9026000000000001
 20
-4.22966
 30
0.0
 10
1.9432400000000001
 20
-4.2169600000000003
 30
0.0
 10
1.9432400000000001
 20
-4.2169600000000003
 30
0.0
 10
2.1159600000000003
 20
-3.5184600000000001
 30
0.0
 10
2.2582
 20
-4.6208200000000001
 30
0.0
 10
1.7756000000000001
 20
-4.3769800000000005
 30
0.0
 10
1.7756000000000001
 20
-4.3769800000000005
 30
0.0
 10
1.7603600000000001
 20
-4.4150800000000006
 30
0.0
 10
1.7375
 20
-4.47858
 30
0.0
 10
1.6765400000000001
 20
-4.4760400000000002
 30
0.0
 10
1.6765400000000001
 20
-4.4760400000000002
 30
0.0
 10
1.2853800000000002
 20
-4.3388800000000005
 30
0.0
 10
1.01868
 20
-4.0264600000000002
 30
0.0
 10
0.9043800000000001
 20
-3.6302200000000004
 30
0.0
 10
0.9043800000000001
 20
-3.6302200000000004
 30
0.0
 10
0.9780400000000001
 20
-3.6327600000000002
 30
0.0
 10
1.0771000000000002
 20
-3.8994600000000004
 30
0.0
 10
1.11012
 20
-3.7724600000000001
 30
0.0
 10
1.11012
 20
-3.7724600000000001
 30
0.0
 10
0.8383400000000001
 20
-3.2949400000000004
 30
0.0
 10
0.38114
 20
-2.9825200000000001
 30
0.0
 10
-0.05573
 20
-2.7056600000000004
 30
0.0
 10
-0.05573
 20
-2.7056600000000004
 30
0.0
 10
-0.20051
 20
-2.4897600000000004
 30
0.0
 10
-0.33005
 20
-2.2535400000000001
 30
0.0
 10
-0.42149
 20
-2.01986
 30
0.0
 10
-0.42149
 20
-2.01986
 30
0.0
 10
-0.27925
 20
-1.9716000000000002
 30
0.0
 10
-0.17257
 20
-2.2840200000000004
 30
0.0
 10
-0.07605
 20
-2.1748000000000003
 30
0.0
 10
-0.07605
 20
-2.1748000000000003
 30
0.0
 10
-0.49769
 20
-1.7938000000000001
 30
0.0
 10
-1.03871
 20
-1.45852
 30
0.0
 10
-1.3028700000000002
 20
-0.9556000000000001
 30
0.0
 10
-1.3028700000000002
 20
-0.9556000000000001
 30
0.0
 10
-1.12253
 20
-0.6431800000000001
 30
0.0
 10
-1.3562100000000001
 20
-0.15804
 30
0.0
 10
-1.1911100000000001
 20
0.05531
 30
0.0
 10
-1.1911100000000001
 20
0.05531
 30
0.0
 10
-1.1911100000000001
 20
0.05531
 30
0.0
 10
-1.1479300000000001
 20
-0.23678
 30
0.0
 10
-1.1479300000000001
 20
-0.23678
 30
0.0
 10
-1.1479300000000001
 20
-0.23678
 30
0.0
 10
-1.1123700000000001
 20
-0.37648
 30
0.0
 10
-1.1403100000000002
 20
-0.53142
 30
0.0
 10
-1.16317
 20
-0.6685800000000001
 30
0.0
 10
-1.16317
 20
-0.6685800000000001
 30
0.0
 10
-1.2241300000000002
 20
-0.80066
 30
0.0
 10
-1.2673100000000002
 20
-1.0267200000000001
 30
0.0
 10
-1.1047500000000001
 20
-1.0978400000000001
 30
0.0
 10
-1.1047500000000001
 20
-1.0978400000000001
 30
0.0
 10
-0.9802900000000001
 20
-0.69398
 30
0.0
 10
-1.2266700000000001
 20
0.05277
 30
0.0
 10
-0.82535
 20
0.32455
 30
0.0
 10
-0.82535
 20
0.32455
 30
0.0
 10
-0.82535
 20
0.32455
 30
0.0
 10
-0.7364500000000001
 20
0.07309
 30
0.0
 10
-0.7364500000000001
 20
0.07309
 30
0.0
 10
-0.7364500000000001
 20
0.07309
 30
0.0
 10
-0.7364500000000001
 20
0.07309
 30
0.0
 10
-0.69581
 20
-0.3206000000000001
 30
0.0
 10
-0.69581
 20
-0.3206000000000001
 30
0.0
 10
-0.69581
 20
-0.3206000000000001
 30
0.0
 10
-0.6856500000000001
 20
-0.45522
 30
0.0
 10
-0.52563
 20
-0.45268
 30
0.0
 10
-0.4824500000000001
 20
-0.3333
 30
0.0
 10
-0.4824500000000001
 20
-0.3333
 30
0.0
 10
-0.27925
 20
0.02483
 30
0.0
 10
-0.4824500000000001
 20
0.63951
 30
0.0
 10
-0.03033
 20
0.8223900000000001
 30
0.0
  0
SPLINE
  5
35
100
AcDbEntity
  8
Ebene 1
 62
     7
100
AcDbSpline
210
0.0
220
0.0
230
1.0
 70
     1
 71
     3
 72
    20
 73
    16
 74
     0
 42
0.0000000001
 43
0.0000000001
 40
0.0
 40
0.0
 40
0.0
 40
0.0
 40
0.25
 40
0.25
 40
0.25
 40
0.25
 40
0.5
 40
0.5
 40
0.5
 40
0.5
 40
0.75
 40
0.75
 40
0.75
 40
0.75
 40
1.0
 40
1.0
 40
1.0
 40
1.0
 10
0.6884800000000001
 20
0.7512700000000001
 30
0.0
 10
0.6884800000000001
 20
0.7512700000000001
 30
0.0
 10
0.7545200000000001
 20
0.7360300000000001
 30
0.0
 10
0.7545200000000001
 20
0.7360300000000001
 30
0.0
 10
0.7545200000000001
 20
0.7360300000000001
 30
0.0
 10
0.89168
 20
0.5201300000000001
 30
0.0
 10
0.8383400000000001
 20
0.25089
 30
0.0
 10
0.7342000000000001
 20
0.04769
 30
0.0
 10
0.7342000000000001
 20
0.04769
 30
0.0
 10
0.7342000000000001
 20
0.04769
 30
0.0
 10
0.66054
 20
0.7080900000000001
 30
0.0
 10
0.66054
 20
0.7080900000000001
 30
0.0
 10
0.66054
 20
0.7080900000000001
 30
0.0
 10
0.66054
 20
0.7080900000000001
 30
0.0
 10
0.6884800000000001
 20
0.7512700000000001
 30
0.0
 10
0.6884800000000001
 20
0.7512700000000001
 30
0.0
  0
SPLINE
  5
36
100
AcDbEntity
  8
Ebene 1
 62
     7
100
AcDbSpline
210
0.0
220
0.0
230
1.0
 70
     1
 71
     3
 72
    20
 73
    16
 74
     0
 42
0.0000000001
 43
0.0000000001
 40
0.0
 40
0.0
 40
0.0
 40
0.0
 40
0.25
 40
0.25
 40
0.25
 40
0.25
 40
0.5
 40
0.5
 40
0.5
 40
0.5
 40
0.75
 40
0.75
 40
0.75
 40
0.75
 40
1.0
 40
1.0
 40
1.0
 40
1.0
 10
0.5614800000000001
 20
0.6674500000000001
 30
0.0
 10
0.5614800000000001
 20
0.6674500000000001
 30
0.0
 10
0.59958
 20
0.63697
 30
0.0
 10
0.59958
 20
0.63697
 30
0.0
 10
0.59958
 20
0.63697
 30
0.0
 10
0.6249800000000001
 20
0.4109100000000001
 30
0.0
 10
0.68086
 20
0.19247
 30
0.0
 10
0.64276
 20
-0.03358
 30
0.0
 10
0.64276
 20
-0.03358
 30
0.0
 10
0.48782
 20
0.10611
 30
0.0
 10
0.5386200000000001
 20
0.35249
 30
0.0
 10
0.47512
 20
0.5404500000000001
 30
0.0
 10
0.47512
 20
0.5404500000000001
 30
0.0
 10
0.48782
 20
0.5912500000000001
 30
0.0
 10
0.5259200000000001
 20
0.6344300000000001
 30
0.0
 10
0.5614800000000001
 20
0.6674500000000001
 30
0.0
  0
SPLINE
  5
37
100
AcDbEntity
  8
Ebene 1
 62
     7
100
AcDbSpline
210
0.0
220
0.0
230
1.0
 70
     1
 71
     3
 72
    12
 73
     8
 74
     0
 42
0.0000000001
 43
0.0000000001
 40
0.0
 40
0.0
 40
0.0
 40
0.0
 40
0.5
 40
0.5
 40
0.5
 40
0.5
 40
1.0
 40
1.0
 40
1.0
 40
1.0
 10
1.0263
 20
0.5683900000000001
 30
0.0
 10
1.2396600000000002
 20
0.5277500000000001
 30
0.0
 10
1.0567800000000001
 20
0.27121
 30
0.0
 10
0.9983600000000001
 20
0.15691
 30
0.0
 10
0.9983600000000001
 20
0.15691
 30
0.0
 10
0.9475600000000001
 20
0.27629
 30
0.0
 10
0.87136
 20
0.49981
 30
0.0
 10
1.0263
 20
0.5683900000000001
 30
0.0
  0
SPLINE
  5
38
100
AcDbEntity
  8
Ebene 1
 62
     7
100
AcDbSpline
210
0.0
220
0.0
230
1.0
 70
     1
 71
     3
 72
    16
 73
    12
 74
     0
 42
0.0000000001
 43
0.0000000001
 40
0.0
 40
0.0
 40
0.0
 40
0.0
 40
0.3333333333333333
 40
0.3333333333333333
 40
0.3333333333333333
 40
0.3333333333333333
 40
0.6666666666666666
 40
0.6666666666666666
 40
0.6666666666666666
 40
0.6666666666666666
 40
1.0
 40
1.0
 40
1.0
 40
1.0
 10
1.2676000000000001
 20
0.5404500000000001
 30
0.0
 10
1.61304
 20
0.43885
 30
0.0
 10
1.40476
 20
0.00451
 30
0.0
 10
1.31332
 20
-0.20376
 30
0.0
 10
1.31332
 20
-0.20376
 30
0.0
 10
1.31332
 20
-0.20376
 30
0.0
 10
1.2142600000000001
 20
0.47949
 30
0.0
 10
1.2142600000000001
 20
0.47949
 30
0.0
 10
1.2142600000000001
 20
0.47949
 30
0.0
 10
1.2142600000000001
 20
0.47949
 30
0.0
 10
1.2676000000000001
 20
0.5404500000000001
 30
0.0
 10
1.2676000000000001
 20
0.5404500000000001
 30
0.0
  0
SPLINE
  5
39
100
AcDbEntity
  8
Ebene 1
 62
     7
100
AcDbSpline
210
0.0
220
0.0
230
1.0
 70
     1
 71
     3
 72
    16
 73
    12
 74
     0
 42
0.0000000001
 43
0.0000000001
 40
0.0
 40
0.0
 40
0.0
 40
0.0
 40
0.3333333333333333
 40
0.3333333333333333
 40
0.3333333333333333
 40
0.3333333333333333
 40
0.6666666666666666
 40
0.6666666666666666
 40
0.6666666666666666
 40
0.6666666666666666
 40
1.0
 40
1.0
 40
1.0
 40
1.0
 10
5.7761000000000005
 20
0.51251
 30
0.0
 10
5.8065800000000003
 20
0.5201300000000001
 30
0.0
 10
5.8243600000000004
 20
0.49981
 30
0.0
 10
5.8446800000000003
 20
0.47949
 30
0.0
 10
5.8446800000000003
 20
0.47949
 30
0.0
 10
5.8345200000000004
 20
0.3677300000000001
 30
0.0
 10
5.9259600000000008
 20
0.24073
 30
0.0
 10
5.8472200000000001
 20
0.14421
 30
0.0
 10
5.8472200000000001
 20
0.14421
 30
0.0
 10
5.8243600000000004
 20
0.2635900000000001
 30
0.0
 10
5.6567200000000009
 20
0.39567
 30
0.0
 10
5.7761000000000005
 20
0.51251
 30
0.0
  0
SPLINE
  5
3A
100
AcDbEntity
  8
Ebene 1
 62
     7
100
AcDbSpline
210
0.0
220
0.0
230
1.0
 70
     1
 71
     3
 72
    12
 73
     8
 74
     0
 42
0.0000000001
 43
0.0000000001
 40
0.0
 40
0.0
 40
0.0
 40
0.0
 40
0.5
 40
0.5
 40
0.5
 40
0.5
 40
1.0
 40
1.0
 40
1.0
 40
1.0
 10
1.7908400000000002
 20
0.4845700000000001
 30
0.0
 10
2.0270600000000001
 20
0.4007500000000001
 30
0.0
 10
1.9635600000000002
 20
0.13151
 30
0.0
 10
1.9864200000000001
 20
-0.06152
 30
0.0
 10
1.9864200000000001
 20
-0.06152
 30
0.0
 10
1.8873600000000001
 20
0.08579
 30
0.0
 10
1.7070200000000002
 20
0.29153
 30
0.0
 10
1.7908400000000002
 20
0.4845700000000001
 30
0.0
  0
SPLINE
  5
3B
100
AcDbEntity
  8
Ebene 1
 62
     7
100
AcDbSpline
210
0.0
220
0.0
230
1.0
 70
     1
 71
     3
 72
    12
 73
     8
 74
     0
 42
0.0000000001
 43
0.0000000001
 40
0.0
 40
0.0
 40
0.0
 40
0.0
 40
0.5
 40
0.5
 40
0.5
 40
0.5
 40
1.0
 40
1.0
 40
1.0
 40
1.0
 10
1.5927200000000001
 20
0.46933
 30
0.0
 10
1.7527400000000002
 20
0.37281
 30
0.0
 10
1.69432
 20
0.15437
 30
0.0
 10
1.6460600000000001
 20
0.00705
 30
0.0
 10
1.6460600000000001
 20
0.00705
 30
0.0
 10
1.6181200000000002
 20
0.14675
 30
0.0
 10
1.4809600000000001
 20
0.34487
 30
0.0
 10
1.5927200000000001
 20
0.46933
 30
0.0
  0
SPLINE
  5
3C
100
AcDbEntity
  8
Ebene 1
 62
     7
100
AcDbSpline
210
0.0
220
0.0
230
1.0
 70
     1
 71
     3
 72
    24
 73
    20
 74
     0
 42
0.0000000001
 43
0.0000000001
 40
0.0
 40
0.0
 40
0.0
 40
0.0
 40
0.2
 40
0.2
 40
0.2
 40
0.2
 40
0.4
 40
0.4
 40
0.4
 40
0.4
 40
0.6000000000000001
 40
0.6000000000000001
 40
0.6000000000000001
 40
0.6000000000000001
 40
0.8
 40
0.8
 40
0.8
 40
0.8
 40
1.0
 40
1.0
 40
1.0
 40
1.0
 10
2.1159600000000003
 20
0.4540900000000001
 30
0.0
 10
2.3191600000000001
 20
0.49981
 30
0.0
 10
2.5503
 20
0.31439
 30
0.0
 10
2.4233000000000002
 20
0.12135
 30
0.0
 10
2.4233000000000002
 20
0.12135
 30
0.0
 10
2.3648800000000003
 20
0.11627
 30
0.0
 10
2.4029800000000003
 20
0.21787
 30
0.0
 10
2.3420200000000002
 20
0.22803
 30
0.0
 10
2.3420200000000002
 20
0.22803
 30
0.0
 10
2.2505800000000002
 20
0.11373
 30
0.0
 10
2.2785200000000003
 20
-0.05644
 30
0.0
 10
2.2683600000000004
 20
-0.20376
 30
0.0
 10
2.2683600000000004
 20
-0.20376
 30
0.0
 10
2.17184
 20
-0.0158
 30
0.0
 10
2.0626200000000003
 20
0.20009
 30
0.0
 10
2.0626200000000003
 20
0.42361
 30
0.0
 10
2.0626200000000003
 20
0.42361
 30
0.0
 10
2.0626200000000003
 20
0.42361
 30
0.0
 10
2.1159600000000003
 20
0.4540900000000001
 30
0.0
 10
2.1159600000000003
 20
0.4540900000000001
 30
0.0
  0
SPLINE
  5
3D
100
AcDbEntity
  8
Ebene 1
 62
     7
100
AcDbSpline
210
0.0
220
0.0
230
1.0
 70
     1
 71
     3
 72
    16
 73
    12
 74
     0
 42
0.0000000001
 43
0.0000000001
 40
0.0
 40
0.0
 40
0.0
 40
0.0
 40
0.3333333333333333
 40
0.3333333333333333
 40
0.3333333333333333
 40
0.3333333333333333
 40
0.6666666666666666
 40
0.6666666666666666
 40
0.6666666666666666
 40
0.6666666666666666
 40
1.0
 40
1.0
 40
1.0
 40
1.0
 10
3.1497400000000004
 20
0.35249
 30
0.0
 10
3.1497400000000004
 20
0.35249
 30
0.0
 10
3.2843600000000004
 20
0.3905900000000001
 30
0.0
 10
3.2843600000000004
 20
0.3905900000000001
 30
0.0
 10
3.2843600000000004
 20
0.3905900000000001
 30
0.0
 10
3.2665800000000003
 20
0.26867
 30
0.0
 10
3.2462600000000004
 20
0.04007
 30
0.0
 10
3.2030800000000004
 20
-0.0666
 30
0.0
 10
3.2030800000000004
 20
-0.0666
 30
0.0
 10
3.1853000000000002
 20
0.09341
 30
0.0
 10
3.0557600000000003
 20
0.19247
 30
0.0
 10
3.1497400000000004
 20
0.35249
 30
0.0
  0
SPLINE
  5
3E
100
AcDbEntity
  8
Ebene 1
 62
     7
100
AcDbSpline
210
0.0
220
0.0
230
1.0
 70
     1
 71
     3
 72
    20
 73
    16
 74
     0
 42
0.0000000001
 43
0.0000000001
 40
0.0
 40
0.0
 40
0.0
 40
0.0
 40
0.25
 40
0.25
 40
0.25
 40
0.25
 40
0.5
 40
0.5
 40
0.5
 40
0.5
 40
0.75
 40
0.75
 40
0.75
 40
0.75
 40
1.0
 40
1.0
 40
1.0
 40
1.0
 10
3.6120200000000002
 20
0.41345
 30
0.0
 10
3.7034600000000002
 20
0.38805
 30
0.0
 10
3.7212400000000003
 20
0.36011
 30
0.0
 10
3.7466400000000002
 20
0.27121
 30
0.0
 10
3.7466400000000002
 20
0.27121
 30
0.0
 10
3.6933000000000002
 20
0.16199
 30
0.0
 10
3.6653600000000002
 20
0.00705
 30
0.0
 10
3.5840800000000002
 20
-0.0666
 30
0.0
 10
3.5840800000000002
 20
-0.0666
 30
0.0
 10
3.5561400000000001
 20
0.07309
 30
0.0
 10
3.5332800000000004
 20
0.23311
 30
0.0
 10
3.4723200000000003
 20
0.37027
 30
0.0
 10
3.4723200000000003
 20
0.37027
 30
0.0
 10
3.4901000000000004
 20
0.41853
 30
0.0
 10
3.5790000000000002
 20
0.3905900000000001
 30
0.0
 10
3.6120200000000002
 20
0.41345
 30
0.0
  0
SPLINE
  5
3F
100
AcDbEntity
  8
Ebene 1
 62
     7
100
AcDbSpline
210
0.0
220
0.0
230
1.0
 70
     1
 71
     3
 72
    20
 73
    16
 74
     0
 42
0.0000000001
 43
0.0000000001
 40
0.0
 40
0.0
 40
0.0
 40
0.0
 40
0.25
 40
0.25
 40
0.25
 40
0.25
 40
0.5
 40
0.5
 40
0.5
 40
0.5
 40
0.75
 40
0.75
 40
0.75
 40
0.75
 40
1.0
 40
1.0
 40
1.0
 40
1.0
 10
0.09412
 20
0.42615
 30
0.0
 10
0.09412
 20
0.42615
 30
0.0
 10
0.1754
 20
0.33979
 30
0.0
 10
0.1754
 20
0.33979
 30
0.0
 10
0.1754
 20
0.33979
 30
0.0
 10
0.1754
 20
-0.0412
 30
0.0
 10
0.48528
 20
-0.6635000000000001
 30
0.0
 10
0.02808
 20
-0.8667
 30
0.0
 10
0.02808
 20
-0.8667
 30
0.0
 10
-0.32751
 20
-0.5441200000000001
 30
0.0
 10
-0.03541
 20
-0.07168
 30
0.0
 10
-0.04049
 20
0.32455
 30
0.0
 10
-0.04049
 20
0.32455
 30
0.0
 10
0.00268
 20
0.3575700000000001
 30
0.0
 10
0.0611
 20
0.3804300000000001
 30
0.0
 10
0.09412
 20
0.42615
 30
0.0
  0
SPLINE
  5
40
100
AcDbEntity
  8
Ebene 1
 62
     7
100
AcDbSpline
210
0.0
220
0.0
230
1.0
 70
     1
 71
     3
 72
    20
 73
    16
 74
     0
 42
0.0000000001
 43
0.0000000001
 40
0.0
 40
0.0
 40
0.0
 40
0.0
 40
0.25
 40
0.25
 40
0.25
 40
0.25
 40
0.5
 40
0.5
 40
0.5
 40
0.5
 40
0.75
 40
0.75
 40
0.75
 40
0.75
 40
1.0
 40
1.0
 40
1.0
 40
1.0
 10
5.3798600000000008
 20
0.42615
 30
0.0
 10
5.4789200000000005
 20
0.40837
 30
0.0
 10
5.5779800000000002
 20
0.37281
 30
0.0
 10
5.6592600000000006
 20
0.32455
 30
0.0
 10
5.6592600000000006
 20
0.32455
 30
0.0
 10
5.6643400000000002
 20
0.12643
 30
0.0
 10
5.6186200000000008
 20
-0.06914
 30
0.0
 10
5.5779800000000002
 20
-0.24948
 30
0.0
 10
5.5779800000000002
 20
-0.24948
 30
0.0
 10
5.5373400000000004
 20
-0.03104
 30
0.0
 10
5.3798600000000008
 20
0.15945
 30
0.0
 10
5.2808000000000002
 20
0.35503
 30
0.0
 10
5.2808000000000002
 20
0.35503
 30
0.0
 10
5.2808000000000002
 20
0.35503
 30
0.0
 10
5.3798600000000008
 20
0.42615
 30
0.0
 10
5.3798600000000008
 20
0.42615
 30
0.0
  0
SPLINE
  5
41
100
AcDbEntity
  8
Ebene 1
 62
     7
100
AcDbSpline
210
0.0
220
0.0
230
1.0
 70
     1
 71
     3
 72
    20
 73
    16
 74
     0
 42
0.0000000001
 43
0.0000000001
 40
0.0
 40
0.0
 40
0.0
 40
0.0
 40
0.25
 40
0.25
 40
0.25
 40
0.25
 40
0.5
 40
0.5
 40
0.5
 40
0.5
 40
0.75
 40
0.75
 40
0.75
 40
0.75
 40
1.0
 40
1.0
 40
1.0
 40
1.0
 10
4.2368600000000001
 20
0.4109100000000001
 30
0.0
 10
4.3257600000000007
 20
0.39821
 30
0.0
 10
4.3791000000000002
 20
0.32455
 30
0.0
 10
4.4324400000000006
 20
0.25851
 30
0.0
 10
4.4324400000000006
 20
0.25851
 30
0.0
 10
4.3917999999999999
 20
0.10865
 30
0.0
 10
4.3460800000000006
 20
-0.05136
 30
0.0
 10
4.2673399999999999
 20
-0.17328
 30
0.0
 10
4.2673399999999999
 20
-0.17328
 30
0.0
 10
4.2597200000000006
 20
0.01213
 30
0.0
 10
4.2317800000000005
 20
0.19247
 30
0.0
 10
4.1936800000000005
 20
0.37027
 30
0.0
 10
4.1936800000000005
 20
0.37027
 30
0.0
 10
4.1936800000000005
 20
0.37027
 30
0.0
 10
4.2368600000000001
 20
0.4109100000000001
 30
0.0
 10
4.2368600000000001
 20
0.4109100000000001
 30
0.0
  0
SPLINE
  5
42
100
AcDbEntity
  8
Ebene 1
 62
     7
100
AcDbSpline
210
0.0
220
0.0
230
1.0
 70
     1
 71
     3
 72
    12
 73
     8
 74
     0
 42
0.0000000001
 43
0.0000000001
 40
0.0
 40
0.0
 40
0.0
 40
0.0
 40
0.5
 40
0.5
 40
0.5
 40
0.5
 40
1.0
 40
1.0
 40
1.0
 40
1.0
 10
2.6849200000000004
 20
0.35503
 30
0.0
 10
2.9135200000000001
 20
0.28137
 30
0.0
 10
2.71286
 20
0.07563
 30
0.0
 10
2.6417400000000004
 20
-0.03358
 30
0.0
 10
2.6417400000000004
 20
-0.03358
 30
0.0
 10
2.6036400000000004
 20
0.09849
 30
0.0
 10
2.5680800000000001
 20
0.24581
 30
0.0
 10
2.6849200000000004
 20
0.35503
 30
0.0
  0
SPLINE
  5
43
100
AcDbEntity
  8
Ebene 1
 62
     7
100
AcDbSpline
210
0.0
220
0.0
230
1.0
 70
     1
 71
     3
 72
    24
 73
    20
 74
     0
 42
0.0000000001
 43
0.0000000001
 40
0.0
 40
0.0
 40
0.0
 40
0.0
 40
0.2
 40
0.2
 40
0.2
 40
0.2
 40
0.4
 40
0.4
 40
0.4
 40
0.4
 40
0.6000000000000001
 40
0.6000000000000001
 40
0.6000000000000001
 40
0.6000000000000001
 40
0.8
 40
0.8
 40
0.8
 40
0.8
 40
1.0
 40
1.0
 40
1.0
 40
1.0
 10
4.8286800000000003
 20
0.37027
 30
0.0
 10
4.9480600000000008
 20
0.33979
 30
0.0
 10
5.0928400000000007
 20
0.32963
 30
0.0
 10
5.1817400000000005
 20
0.22803
 30
0.0
 10
5.1817400000000005
 20
0.22803
 30
0.0
 10
5.1080800000000002
 20
0.13151
 30
0.0
 10
5.0699800000000002
 20
-0.0031
 30
0.0
 10
5.0242600000000008
 20
-0.1174
 30
0.0
 10
5.0242600000000008
 20
-0.1174
 30
0.0
 10
4.9607600000000005
 20
-0.04374
 30
0.0
 10
5.0344200000000008
 20
0.13913
 30
0.0
 10
4.92774
 20
0.18739
 30
0.0
 10
4.92774
 20
0.18739
 30
0.0
 10
4.92774
 20
0.18739
 30
0.0
 10
4.8210600000000001
 20
-0.04628
 30
0.0
 10
4.8210600000000001
 20
-0.04628
 30
0.0
 10
4.8210600000000001
 20
-0.04628
 30
0.0
 10
4.8566200000000004
 20
0.09087
 30
0.0
 10
4.7067600000000001
 20
0.29153
 30
0.0
 10
4.8286800000000003
 20
0.37027
 30
0.0
  0
SPLINE
  5
44
100
AcDbEntity
  8
Ebene 1
 62
     7
100
AcDbSpline
210
0.0
220
0.0
230
1.0
 70
     1
 71
     3
 72
    16
 73
    12
 74
     0
 42
0.0000000001
 43
0.0000000001
 40
0.0
 40
0.0
 40
0.0
 40
0.0
 40
0.3333333333333333
 40
0.3333333333333333
 40
0.3333333333333333
 40
0.3333333333333333
 40
0.6666666666666666
 40
0.6666666666666666
 40
0.6666666666666666
 40
0.6666666666666666
 40
1.0
 40
1.0
 40
1.0
 40
1.0
 10
2.9338400000000004
 20
0.35503
 30
0.0
 10
3.0964
 20
0.22295
 30
0.0
 10
2.9744800000000002
 20
-0.06914
 30
0.0
 10
2.9211400000000003
 20
-0.23678
 30
0.0
 10
2.9211400000000003
 20
-0.23678
 30
0.0
 10
2.9033600000000002
 20
-0.06152
 30
0.0
 10
2.8805000000000001
 20
0.12897
 30
0.0
 10
2.8830400000000003
 20
0.30931
 30
0.0
 10
2.8830400000000003
 20
0.30931
 30
0.0
 10
2.9135200000000001
 20
0.29661
 30
0.0
 10
2.9440000000000004
 20
0.31185
 30
0.0
 10
2.9338400000000004
 20
0.35503
 30
0.0
  0
SPLINE
  5
45
100
AcDbEntity
  8
Ebene 1
 62
     7
100
AcDbSpline
210
0.0
220
0.0
230
1.0
 70
     1
 71
     3
 72
    12
 73
     8
 74
     0
 42
0.0000000001
 43
0.0000000001
 40
0.0
 40
0.0
 40
0.0
 40
0.0
 40
0.5
 40
0.5
 40
0.5
 40
0.5
 40
1.0
 40
1.0
 40
1.0
 40
1.0
 10
0.8866000000000001
 20
0.3270900000000001
 30
0.0
 10
0.95264
 20
0.22041
 30
0.0
 10
0.89168
 20
0.01721
 30
0.0
 10
0.80532
 20
-0.06152
 30
0.0
 10
0.80532
 20
-0.06152
 30
0.0
 10
0.76214
 20
0.06293
 30
0.0
 10
0.912
 20
0.18485
 30
0.0
 10
0.8866000000000001
 20
0.3270900000000001
 30
0.0
  0
SPLINE
  5
46
100
AcDbEntity
  8
Ebene 1
 62
     7
100
AcDbSpline
210
0.0
220
0.0
230
1.0
 70
     1
 71
     3
 72
    16
 73
    12
 74
     0
 42
0.0000000001
 43
0.0000000001
 40
0.0
 40
0.0
 40
0.0
 40
0.0
 40
0.3333333333333333
 40
0.3333333333333333
 40
0.3333333333333333
 40
0.3333333333333333
 40
0.6666666666666666
 40
0.6666666666666666
 40
0.6666666666666666
 40
0.6666666666666666
 40
1.0
 40
1.0
 40
1.0
 40
1.0
 10
-0.68057
 20
0.25851
 30
0.0
 10
-0.59167
 20
0.22803
 30
0.0
 10
-0.51039
 20
0.24073
 30
0.0
 10
-0.41387
 20
0.24073
 30
0.0
 10
-0.41387
 20
0.24073
 30
0.0
 10
-0.45451
 20
0.05023
 30
0.0
 10
-0.44181
 20
-0.16566
 30
0.0
 10
-0.55611
 20
-0.3307600000000001
 30
0.0
 10
-0.55611
 20
-0.3307600000000001
 30
0.0
 10
-0.71867
 20
-0.20122
 30
0.0
 10
-0.6475500000000001
 20
0.06293
 30
0.0
 10
-0.68057
 20
0.25851
 30
0.0
  0
SPLINE
  5
47
100
AcDbEntity
  8
Ebene 1
 62
     7
100
AcDbSpline
210
0.0
220
0.0
230
1.0
 70
     1
 71
     3
 72
    16
 73
    12
 74
     0
 42
0.0000000001
 43
0.0000000001
 40
0.0
 40
0.0
 40
0.0
 40
0.0
 40
0.3333333333333333
 40
0.3333333333333333
 40
0.3333333333333333
 40
0.3333333333333333
 40
0.6666666666666666
 40
0.6666666666666666
 40
0.6666666666666666
 40
0.6666666666666666
 40
1.0
 40
1.0
 40
1.0
 40
1.0
 10
0.44718
 20
-0.8717800000000001
 30
0.0
 10
0.44718
 20
-0.8717800000000001
 30
0.0
 10
0.48782
 20
-0.8743200000000001
 30
0.0
 10
0.48782
 20
-0.8743200000000001
 30
0.0
 10
0.48782
 20
-0.8743200000000001
 30
0.0
 10
0.47512
 20
-1.03942
 30
0.0
 10
0.29224
 20
-1.2400800000000001
 30
0.0
 10
0.12714
 20
-1.2197600000000002
 30
0.0
 10
0.12714
 20
-1.2197600000000002
 30
0.0
 10
0.00776
 20
-1.0140200000000001
 30
0.0
 10
0.36082
 20
-0.9987800000000001
 30
0.0
 10
0.44718
 20
-0.8717800000000001
 30
0.0
  0
SPLINE
  5
48
100
AcDbEntity
  8
Ebene 1
 62
     7
100
AcDbSpline
210
0.0
220
0.0
230
1.0
 70
     1
 71
     3
 72
    16
 73
    12
 74
     0
 42
0.0000000001
 43
0.0000000001
 40
0.0
 40
0.0
 40
0.0
 40
0.0
 40
0.3333333333333333
 40
0.3333333333333333
 40
0.3333333333333333
 40
0.3333333333333333
 40
0.6666666666666666
 40
0.6666666666666666
 40
0.6666666666666666
 40
0.6666666666666666
 40
1.0
 40
1.0
 40
1.0
 40
1.0
 10
0.5894200000000001
 20
-1.1537200000000001
 30
0.0
 10
0.59958
 20
-1.1537200000000001
 30
0.0
 10
0.6707000000000001
 20
-1.07498
 30
0.0
 10
0.6681600000000001
 20
-1.0902200000000002
 30
0.0
 10
0.6681600000000001
 20
-1.0902200000000002
 30
0.0
 10
0.6478400000000001
 20
-1.2426200000000001
 30
0.0
 10
0.5386200000000001
 20
-1.54742
 30
0.0
 10
0.3354200000000001
 20
-1.4890000000000001
 30
0.0
 10
0.3354200000000001
 20
-1.4890000000000001
 30
0.0
 10
0.18302
 20
-1.2858000000000001
 30
0.0
 10
0.4802
 20
-1.2654800000000002
 30
0.0
 10
0.5894200000000001
 20
-1.1537200000000001
 30
0.0
  0
SPLINE
  5
49
100
AcDbEntity
  8
Ebene 1
 62
     7
100
AcDbSpline
210
0.0
220
0.0
230
1.0
 70
     1
 71
     3
 72
    24
 73
    20
 74
     0
 42
0.0000000001
 43
0.0000000001
 40
0.0
 40
0.0
 40
0.0
 40
0.0
 40
0.2
 40
0.2
 40
0.2
 40
0.2
 40
0.4
 40
0.4
 40
0.4
 40
0.4
 40
0.6000000000000001
 40
0.6000000000000001
 40
0.6000000000000001
 40
0.6000000000000001
 40
0.8
 40
0.8
 40
0.8
 40
0.8
 40
1.0
 40
1.0
 40
1.0
 40
1.0
 10
0.61736
 20
-1.3950200000000001
 30
0.0
 10
0.7316600000000001
 20
-1.4077200000000001
 30
0.0
 10
0.8586600000000001
 20
-1.4915400000000001
 30
0.0
 10
0.8993000000000001
 20
-1.6058400000000002
 30
0.0
 10
0.8993000000000001
 20
-1.6058400000000002
 30
0.0
 10
0.8205600000000001
 20
-1.6947400000000001
 30
0.0
 10
0.7570600000000001
 20
-1.8217400000000001
 30
0.0
 10
0.6503800000000001
 20
-1.8700000000000001
 30
0.0
 10
0.6503800000000001
 20
-1.8700000000000001
 30
0.0
 10
0.6529200000000001
 20
-1.7506200000000001
 30
0.0
 10
0.7545200000000001
 20
-1.6033000000000002
 30
0.0
 10
0.6859400000000001
 20
-1.4966200000000001
 30
0.0
 10
0.6859400000000001
 20
-1.4966200000000001
 30
0.0
 10
0.6021200000000001
 20
-1.5220200000000002
 30
0.0
 10
0.5614800000000001
 20
-1.67188
 30
0.0
 10
0.46496
 20
-1.67188
 30
0.0
 10
0.46496
 20
-1.67188
 30
0.0
 10
0.46496
 20
-1.67188
 30
0.0
 10
0.61736
 20
-1.3950200000000001
 30
0.0
 10
0.61736
 20
-1.3950200000000001
 30
0.0
  0
SPLINE
  5
4A
100
AcDbEntity
  8
Ebene 1
 62
     7
100
AcDbSpline
210
0.0
220
0.0
230
1.0
 70
     1
 71
     3
 72
    16
 73
    12
 74
     0
 42
0.0000000001
 43
0.0000000001
 40
0.0
 40
0.0
 40
0.0
 40
0.0
 40
0.3333333333333333
 40
0.3333333333333333
 40
0.3333333333333333
 40
0.3333333333333333
 40
0.6666666666666666
 40
0.6666666666666666
 40
0.6666666666666666
 40
0.6666666666666666
 40
1.0
 40
1.0
 40
1.0
 40
1.0
 10
0.6300600000000001
 20
-1.5931400000000002
 30
0.0
 10
0.6300600000000001
 20
-1.5931400000000002
 30
0.0
 10
0.65546
 20
-1.5956800000000002
 30
0.0
 10
0.65546
 20
-1.5956800000000002
 30
0.0
 10
0.65546
 20
-1.5956800000000002
 30
0.0
 10
0.6453000000000001
 20
-1.6998200000000001
 30
0.0
 10
0.6199
 20
-1.8115800000000002
 30
0.0
 10
0.5564
 20
-1.8979400000000002
 30
0.0
 10
0.5564
 20
-1.8979400000000002
 30
0.0
 10
0.3989200000000001
 20
-1.8319000000000001
 30
0.0
 10
0.5564
 20
-1.67188
 30
0.0
 10
0.6300600000000001
 20
-1.5931400000000002
 30
0.0
  0
SPLINE
  5
4B
100
AcDbEntity
  8
Ebene 1
 62
     7
100
AcDbSpline
210
0.0
220
0.0
230
1.0
 70
     1
 71
     3
 72
    36
 73
    32
 74
     0
 42
0.0000000001
 43
0.0000000001
 40
0.0
 40
0.0
 40
0.0
 40
0.0
 40
0.125
 40
0.125
 40
0.125
 40
0.125
 40
0.25
 40
0.25
 40
0.25
 40
0.25
 40
0.375
 40
0.375
 40
0.375
 40
0.375
 40
0.5
 40
0.5
 40
0.5
 40
0.5
 40
0.625
 40
0.625
 40
0.625
 40
0.625
 40
0.75
 40
0.75
 40
0.75
 40
0.75
 40
0.875
 40
0.875
 40
0.875
 40
0.875
 40
1.0
 40
1.0
 40
1.0
 40
1.0
 10
0.91454
 20
-1.6337800000000002
 30
0.0
 10
1.14822
 20
-1.9716000000000002
 30
0.0
 10
1.31332
 20
-2.4567400000000004
 30
0.0
 10
1.3057000000000001
 20
-2.8885400000000003
 30
0.0
 10
1.3057000000000001
 20
-2.8885400000000003
 30
0.0
 10
1.27776
 20
-2.9266400000000004
 30
0.0
 10
1.2650600000000001
 20
-3.0130000000000003
 30
0.0
 10
1.2015600000000002
 20
-2.9876
 30
0.0
 10
1.2015600000000002
 20
-2.9876
 30
0.0
 10
1.2015600000000002
 20
-2.9876
 30
0.0
 10
1.19648
 20
-2.5380200000000004
 30
0.0
 10
1.19648
 20
-2.5380200000000004
 30
0.0
 10
1.19648
 20
-2.5380200000000004
 30
0.0
 10
1.1787000000000001
 20
-2.4465800000000004
 30
0.0
 10
1.2117200000000001
 20
-2.2535400000000001
 30
0.0
 10
1.1025
 20
-2.2459200000000004
 30
0.0
 10
1.1025
 20
-2.2459200000000004
 30
0.0
 10
1.1025
 20
-2.2459200000000004
 30
0.0
 10
0.9755
 20
-2.5761200000000004
 30
0.0
 10
0.9755
 20
-2.5761200000000004
 30
0.0
 10
0.9755
 20
-2.5761200000000004
 30
0.0
 10
0.9501000000000001
 20
-2.4491200000000002
 30
0.0
 10
1.0136000000000001
 20
-2.2814800000000002
 30
0.0
 10
0.91454
 20
-2.1849600000000002
 30
0.0
 10
0.91454
 20
-2.1849600000000002
 30
0.0
 10
0.8383400000000001
 20
-2.2078200000000003
 30
0.0
 10
0.8408800000000001
 20
-2.3805400000000003
 30
0.0
 10
0.76214
 20
-2.3373600000000003
 30
0.0
 10
0.76214
 20
-2.3373600000000003
 30
0.0
 10
0.8408800000000001
 20
-2.1113
 30
0.0
 10
0.95264
 20
-1.8827000000000003
 30
0.0
 10
0.91454
 20
-1.6337800000000002
 30
0.0
  0
SPLINE
  5
4C
100
AcDbEntity
  8
Ebene 1
 62
     7
100
AcDbSpline
210
0.0
220
0.0
230
1.0
 70
     1
 71
     3
 72
    16
 73
    12
 74
     0
 42
0.0000000001
 43
0.0000000001
 40
0.0
 40
0.0
 40
0.0
 40
0.0
 40
0.3333333333333333
 40
0.3333333333333333
 40
0.3333333333333333
 40
0.3333333333333333
 40
0.6666666666666666
 40
0.6666666666666666
 40
0.6666666666666666
 40
0.6666666666666666
 40
1.0
 40
1.0
 40
1.0
 40
1.0
 10
0.82818
 20
-1.7633200000000002
 30
0.0
 10
0.8383400000000001
 20
-1.7633200000000002
 30
0.0
 10
0.8586600000000001
 20
-1.7582400000000002
 30
0.0
 10
0.8561200000000001
 20
-1.7760200000000002
 30
0.0
 10
0.8561200000000001
 20
-1.7760200000000002
 30
0.0
 10
0.78246
 20
-1.9208000000000001
 30
0.0
 10
0.8561200000000001
 20
-2.1595600000000004
 30
0.0
 10
0.6656200000000001
 20
-2.2129000000000003
 30
0.0
 10
0.6656200000000001
 20
-2.2129000000000003
 30
0.0
 10
0.5259200000000001
 20
-2.0554200000000002
 30
0.0
 10
0.7138800000000001
 20
-1.8827000000000003
 30
0.0
 10
0.82818
 20
-1.7633200000000002
 30
0.0
  0
SPLINE
  5
4D
100
AcDbEntity
  8
Ebene 1
 62
     7
100
AcDbSpline
210
0.0
220
0.0
230
1.0
 70
     1
 71
     3
 72
    12
 73
     8
 74
     0
 42
0.0000000001
 43
0.0000000001
 40
0.0
 40
0.0
 40
0.0
 40
0.0
 40
0.5
 40
0.5
 40
0.5
 40
0.5
 40
1.0
 40
1.0
 40
1.0
 40
1.0
 10
0.8993000000000001
 20
-2.2840200000000004
 30
0.0
 10
0.9374000000000001
 20
-2.36022
 30
0.0
 10
0.9805800000000001
 20
-2.5329400000000004
 30
0.0
 10
0.8561200000000001
 20
-2.5532600000000003
 30
0.0
 10
0.8561200000000001
 20
-2.5532600000000003
 30
0.0
 10
0.7469
 20
-2.4770600000000003
 30
0.0
 10
0.8434200000000001
 20
-2.3627600000000002
 30
0.0
 10
0.8993000000000001
 20
-2.2840200000000004
 30
0.0
  0
SPLINE
  5
4E
100
AcDbEntity
  8
Ebene 1
 62
     7
100
AcDbSpline
210
0.0
220
0.0
230
1.0
 70
     1
 71
     3
 72
    20
 73
    16
 74
     0
 42
0.0000000001
 43
0.0000000001
 40
0.0
 40
0.0
 40
0.0
 40
0.0
 40
0.25
 40
0.25
 40
0.25
 40
0.25
 40
0.5
 40
0.5
 40
0.5
 40
0.5
 40
0.75
 40
0.75
 40
0.75
 40
0.75
 40
1.0
 40
1.0
 40
1.0
 40
1.0
 10
1.11012
 20
-2.3830800000000001
 30
0.0
 10
1.1990200000000002
 20
-2.5151600000000003
 30
0.0
 10
1.1355200000000001
 20
-2.7158200000000003
 30
0.0
 10
1.1533
 20
-2.8783800000000004
 30
0.0
 10
1.1533
 20
-2.8783800000000004
 30
0.0
 10
1.15076
 20
-2.8936200000000003
 30
0.0
 10
1.1406000000000001
 20
-2.9037800000000002
 30
0.0
 10
1.1253600000000001
 20
-2.9063200000000005
 30
0.0
 10
1.1253600000000001
 20
-2.9063200000000005
 30
0.0
 10
1.1253600000000001
 20
-2.9063200000000005
 30
0.0
 10
1.0745600000000002
 20
-2.90124
 30
0.0
 10
1.0745600000000002
 20
-2.90124
 30
0.0
 10
1.0745600000000002
 20
-2.90124
 30
0.0
 10
0.9602600000000001
 20
-2.7463000000000002
 30
0.0
 10
1.0644
 20
-2.5405600000000002
 30
0.0
 10
1.11012
 20
-2.3830800000000001
 30
0.0
  0
SPLINE
  5
4F
100
AcDbEntity
  8
Ebene 1
 62
     7
100
AcDbSpline
210
0.0
220
0.0
230
1.0
 70
     1
 71
     3
 72
    12
 73
     8
 74
     0
 42
0.0000000001
 43
0.0000000001
 40
0.0
 40
0.0
 40
0.0
 40
0.0
 40
0.5
 40
0.5
 40
0.5
 40
0.5
 40
1.0
 40
1.0
 40
1.0
 40
1.0
 10
0.9704200000000001
 20
-2.7234400000000001
 30
0.0
 10
0.9983600000000001
 20
-2.7310600000000003
 30
0.0
 10
0.9882000000000001
 20
-2.7894800000000002
 30
0.0
 10
0.9602600000000001
 20
-2.7894800000000002
 30
0.0
 10
0.9602600000000001
 20
-2.7894800000000002
 30
0.0
 10
0.9501000000000001
 20
-2.7666200000000001
 30
0.0
 10
0.9577200000000001
 20
-2.7412200000000002
 30
0.0
 10
0.9704200000000001
 20
-2.7234400000000001
 30
0.0
  0
SPLINE
  5
50
100
AcDbEntity
  8
Ebene 1
 62
     7
100
AcDbSpline
210
0.0
220
0.0
230
1.0
 70
     1
 71
     3
 72
    12
 73
     8
 74
     0
 42
0.0000000001
 43
0.0000000001
 40
0.0
 40
0.0
 40
0.0
 40
0.0
 40
0.5
 40
0.5
 40
0.5
 40
0.5
 40
1.0
 40
1.0
 40
1.0
 40
1.0
 10
1.3234800000000002
 20
-2.9622000000000002
 30
0.0
 10
1.3387200000000001
 20
-3.0536400000000001
 30
0.0
 10
1.3895200000000001
 20
-3.3152600000000003
 30
0.0
 10
1.2295
 20
-3.2974800000000002
 30
0.0
 10
1.2295
 20
-3.2974800000000002
 30
0.0
 10
1.1355200000000001
 20
-3.1806400000000004
 30
0.0
 10
1.2574400000000001
 20
-3.0587200000000001
 30
0.0
 10
1.3234800000000002
 20
-2.9622000000000002
 30
0.0
  0
SPLINE
  5
51
100
AcDbEntity
  8
Ebene 1
 62
     7
100
AcDbSpline
210
0.0
220
0.0
230
1.0
 70
     1
 71
     3
 72
    16
 73
    12
 74
     0
 42
0.0000000001
 43
0.0000000001
 40
0.0
 40
0.0
 40
0.0
 40
0.0
 40
0.3333333333333333
 40
0.3333333333333333
 40
0.3333333333333333
 40
0.3333333333333333
 40
0.6666666666666666
 40
0.6666666666666666
 40
0.6666666666666666
 40
0.6666666666666666
 40
1.0
 40
1.0
 40
1.0
 40
1.0
 10
1.6206600000000002
 20
-3.1882600000000001
 30
0.0
 10
1.6689200000000002
 20
-3.3508200000000001
 30
0.0
 10
1.6587600000000002
 20
-3.6124400000000003
 30
0.0
 10
1.5216000000000001
 20
-3.7267400000000004
 30
0.0
 10
1.5216000000000001
 20
-3.7267400000000004
 30
0.0
 10
1.5216000000000001
 20
-3.7267400000000004
 30
0.0
 10
1.4276200000000001
 20
-3.6810200000000002
 30
0.0
 10
1.4276200000000001
 20
-3.6810200000000002
 30
0.0
 10
1.4276200000000001
 20
-3.6810200000000002
 30
0.0
 10
1.3920600000000001
 20
-3.5057600000000004
 30
0.0
 10
1.5241400000000001
 20
-3.3330400000000004
 30
0.0
 10
1.6206600000000002
 20
-3.1882600000000001
 30
0.0
  0
SPLINE
  5
52
100
AcDbEntity
  8
Ebene 1
 62
     7
100
AcDbSpline
210
0.0
220
0.0
230
1.0
 70
     1
 71
     3
 72
    12
 73
     8
 74
     0
 42
0.0000000001
 43
0.0000000001
 40
0.0
 40
0.0
 40
0.0
 40
0.0
 40
0.5
 40
0.5
 40
0.5
 40
0.5
 40
1.0
 40
1.0
 40
1.0
 40
1.0
 10
1.9026000000000001
 20
-3.4854400000000001
 30
0.0
 10
1.9254600000000002
 20
-3.6276800000000002
 30
0.0
 10
2.0143600000000004
 20
-3.9350200000000002
 30
0.0
 10
1.8035400000000001
 20
-3.9807400000000004
 30
0.0
 10
1.8035400000000001
 20
-3.9807400000000004
 30
0.0
 10
1.6257400000000002
 20
-3.8410400000000005
 30
0.0
 10
1.8797400000000002
 20
-3.6505400000000003
 30
0.0
 10
1.9026000000000001
 20
-3.4854400000000001
 30
0.0
  0
SPLINE
  5
53
100
AcDbEntity
  8
Ebene 1
 62
     7
100
AcDbSpline
210
0.0
220
0.0
230
1.0
 70
     1
 71
     3
 72
    16
 73
    12
 74
     0
 42
0.0000000001
 43
0.0000000001
 40
0.0
 40
0.0
 40
0.0
 40
0.0
 40
0.3333333333333333
 40
0.3333333333333333
 40
0.3333333333333333
 40
0.3333333333333333
 40
0.6666666666666666
 40
0.6666666666666666
 40
0.6666666666666666
 40
0.6666666666666666
 40
1.0
 40
1.0
 40
1.0
 40
1.0
 10
2.0626200000000003
 20
-3.3990800000000001
 30
0.0
 10
2.1388200000000004
 20
-3.5845000000000002
 30
0.0
 10
2.2429600000000001
 20
-3.9147000000000003
 30
0.0
 10
2.0778600000000003
 20
-3.9197800000000003
 30
0.0
 10
2.0778600000000003
 20
-3.9197800000000003
 30
0.0
 10
2.0778600000000003
 20
-3.9197800000000003
 30
0.0
 10
2.0727800000000003
 20
-3.8689800000000005
 30
0.0
 10
2.0727800000000003
 20
-3.8689800000000005
 30
0.0
 10
2.0727800000000003
 20
-3.8689800000000005
 30
0.0
 10
2.16168
 20
-3.7623000000000002
 30
0.0
 10
2.0346800000000003
 20
-3.5235400000000001
 30
0.0
 10
2.0626200000000003
 20
-3.3990800000000001
 30
0.0
  0
ENDSEC
  0
SECTION
  2
OBJECTS
  0
DICTIONARY
  5
19
100
AcDbDictionary
280
     0
281
     1
  3
ACAD_GROUP
350
1A
  3
ACAD_MLINESTYLE
350
1B
  3
ACAD_LAYOUT
350
1E
  3
ACAD_PLOTSETTINGS
350
22
  3
ACAD_PLOTSTYLENAME
350
1F
  3
ACAD_WIPEOUT_VARS
350
23
  0
DICTIONARY
  5
1A
102
{ACAD_REACTORS
330
19
102
}
100
AcDbDictionary
280
     0
281
     1
  0
DICTIONARY
  5
1B
102
{ACAD_REACTORS
330
19
102
}
100
AcDbDictionary
280
     0
281
     1
  3
Standard
350
1C
  0
MLINESTYLE
  5
1C
102
{ACAD_REACTORS
330
1B
102
}
100
AcDbMlineStyle
  2
Standard
 70
     0
  3

 62
     0
 51
90.0
 52
90.0
 71
     2
 49
0.5
 62
   256
  6
BYLAYER
 49
-0.5
 62
   256
  6
BYLAYER
  0
ACDBDICTIONARYWDFLT
  5
1F
102
{ACAD_REACTORS
330
19
102
}
100
AcDbDictionary
281
     1
  3
Normal
350
1D
100
AcDbDictionaryWithDefault
340
1D
  0
ACDBPLACEHOLDER
  5
1D
102
{ACAD_REACTORS
330
1F
102
}
  0
LAYOUT
  5
20
102
{ACAD_REACTORS
330
1E
102
}
100
AcDbPlotSettings
  1

  2

  4

  6

 40
0.0
 41
0.0
 42
0.0
 43
0.0
 44
0.0
 45
0.0
 46
0.0
 47
0.0
 48
0.0
 49
0.0
140
0.0
141
0.0
142
1.0
143
1.0
 70
  1024
 72
     0
 73
     0
 74
     0
  7

 75
     0
147
1.0
148
0.0
149
0.0
100
AcDbLayout
  1
Model
 70
     0
 71
     0
 10
0.0
 20
0.0
 11
0.0
 21
0.0
 12
0.0
 22
0.0
 32
0.0
 14
0.0
 24
0.0
 34
0.0
 15
0.0
 25
0.0
 35
0.0
146
0.0
 13
0.0
 23
0.0
 33
0.0
 16
0.0
 26
0.0
 36
0.0
 17
0.0
 27
0.0
 37
0.0
 76
     0
330
A
331
0
345
0
346
0
  0
LAYOUT
  5
21
102
{ACAD_REACTORS
330
1E
102
}
100
AcDbPlotSettings
  1

  2

  4

  6

 40
0.0
 41
0.0
 42
0.0
 43
0.0
 44
0.0
 45
0.0
 46
0.0
 47
0.0
 48
0.0
 49
0.0
140
0.0
141
0.0
142
1.0
143
1.0
 70
     0
 72
     0
 73
     0
 74
     0
  7

 75
     0
147
1.0
148
0.0
149
0.0
100
AcDbLayout
  1
Layout1
 70
     0
 71
     0
 10
0.0
 20
0.0
 11
0.0
 21
0.0
 12
0.0
 22
0.0
 32
0.0
 14
0.0
 24
0.0
 34
0.0
 15
0.0
 25
0.0
 35
0.0
146
0.0
 13
0.0
 23
0.0
 33
0.0
 16
0.0
 26
0.0
 36
0.0
 17
0.0
 27
0.0
 37
0.0
 76
     0
330
B
331
0
345
0
346
0
  0
DICTIONARY
  5
1E
102
{ACAD_REACTORS
330
19
102
}
100
AcDbDictionary
280
     0
281
     1
  3
Layout1
350
21
  3
Model
350
20
  0
DICTIONARY
  5
22
102
{ACAD_REACTORS
330
19
102
}
100
AcDbDictionary
280
     0
281
     1
  0
WIPEOUTVARIABLES
  5
23
100
AcDbWipeoutVariables
 70
     1
  0
ENDSEC
  0
EOF
