  0
SECTION
  2
HEADER
  9
$ACADVER
  1
AC1015
  9
$ACADMAINTVER
 70
     6
  9
$DWGCODEPAGE
  3
DOS850
  9
$INSBASE
 10
0.0
 20
0.0
 30
0.0
  9
$EXTMIN
 10
-3.93012
 20
-5.71938
 30
1.000000E+20
  9
$EXTMAX
 10
3.9346
 20
5.71443
 30
-1.000000E+20
  9
$LIMMIN
 10
0.0
 20
0.0
  9
$LIMMAX
 10
0.0
 20
0.0
  9
$ORTHOMODE
 70
     0
  9
$REGENMODE
 70
     1
  9
$FILLMODE
 70
     1
  9
$QTEXTMODE
 70
     0
  9
$MIRRTEXT
 70
     1
  9
$LTSCALE
 40
1.0
  9
$ATTMODE
 70
     1
  9
$TEXTSIZE
 40
0.2
  9
$TRACEWID
 40
0.05
  9
$TEXTSTYLE
  7
Standard
  9
$CLAYER
  8
0
  9
$CELTYPE
  6
Continuous
  9
$CECOLOR
 62
   256
  9
$CELTSCALE
 40
1.0
  9
$DISPSILH
 70
     0
  9
$DIMSCALE
 40
1.0
  9
$DIMASZ
 40
0.18
  9
$DIMEXO
 40
0.0625
  9
$DIMDLI
 40
0.38
  9
$DIMRND
 40
0.0
  9
$DIMDLE
 40
0.0
  9
$DIMEXE
 40
0.18
  9
$DIMTP
 40
0.0
  9
$DIMTM
 40
0.0
  9
$DIMTXT
 40
0.18
  9
$DIMCEN
 40
0.09
  9
$DIMTSZ
 40
0.0
  9
$DIMTOL
 70
     0
  9
$DIMLIM
 70
     0
  9
$DIMTIH
 70
     1
  9
$DIMTOH
 70
     1
  9
$DIMSE1
 70
     0
  9
$DIMSE2
 70
     0
  9
$DIMTAD
 70
     0
  9
$DIMZIN
 70
     0
  9
$DIMBLK
  1

  9
$DIMASO
 70
     1
  9
$DIMSHO
 70
     1
  9
$DIMPOST
  1

  9
$DIMAPOST
  1

  9
$DIMALT
 70
     0
  9
$DIMALTD
 70
     2
  9
$DIMALTF
 40
25.4
  9
$DIMLFAC
 40
1.0
  9
$DIMTOFL
 70
     0
  9
$DIMTVP
 40
0.0
  9
$DIMTIX
 70
     0
  9
$DIMSOXD
 70
     0
  9
$DIMSAH
 70
     0
  9
$DIMBLK1
  1

  9
$DIMBLK2
  1

  9
$DIMSTYLE
  2
Standard
  9
$DIMCLRD
 70
     0
  9
$DIMCLRE
 70
     0
  9
$DIMCLRT
 70
     0
  9
$DIMTFAC
 40
1.0
  9
$DIMGAP
 40
0.09
  9
$DIMJUST
 70
     0
  9
$DIMSD1
 70
     0
  9
$DIMSD2
 70
     0
  9
$DIMTOLJ
 70
     1
  9
$DIMTZIN
 70
     0
  9
$DIMALTZ
 70
     0
  9
$DIMALTTZ
 70
     0
  9
$DIMUPT
 70
     0
  9
$DIMDEC
 70
     4
  9
$DIMTDEC
 70
     4
  9
$DIMALTU
 70
     2
  9
$DIMALTTD
 70
     2
  9
$DIMTXSTY
  7
Standard
  9
$DIMAUNIT
 70
     0
  9
$DIMADEC
 70
     0
  9
$DIMALTRND
 40
0.0
  9
$DIMAZIN
 70
     0
  9
$DIMDSEP
 70
     0
  9
$DIMATFIT
 70
     3
  9
$DIMFRAC
 70
     0
  9
$DIMLDRBLK
  1

  9
$DIMLUNIT
 70
     2
  9
$DIMLWD
 70
     0
  9
$DIMLWE
 70
     0
  9
$DIMTMOVE
 70
     0
  9
$LUNITS
 70
     2
  9
$LUPREC
 70
     4
  9
$SKETCHINC
 40
0.1
  9
$FILLETRAD
 40
0.0
  9
$AUNITS
 70
     0
  9
$AUPREC
 70
     0
  9
$MENU
  1
acad
  9
$ELEVATION
 40
0.0
  9
$PELEVATION
 40
0.0
  9
$THICKNESS
 40
0.0
  9
$LIMCHECK
 70
     0
  9
$CHAMFERA
 40
0.0
  9
$CHAMFERB
 40
0.0
  9
$CHAMFERC
 40
0.0
  9
$CHAMFERD
 40
0.0
  9
$SKPOLY
 70
     0
  9
$TDCREATE
 40
0.000000000
  9
$TDUCREATE
 40
0.000000000
  9
$TDUPDATE
 40
0.000000000
  9
$TDUUPDATE
 40
0.000000000
  9
$TDINDWG
 40
0.0000000000
  9
$TDUSRTIMER
 40
0.0000000000
  9
$USRTIMER
 70
     1
  9
$ANGBASE
 50
0.0
  9
$ANGDIR
 70
     0
  9
$PDMODE
 70
     0
  9
$PDSIZE
 40
0.0
  9
$PLINEWID
 40
0.0
  9
$SPLFRAME
 70
     0
  9
$SPLINETYPE
 70
     6
  9
$SPLINESEGS
 70
     8
  9
$HANDSEED
  5
4A
  9
$SURFTAB1
 70
     6
  9
$SURFTAB2
 70
     6
  9
$SURFTYPE
 70
     6
  9
$SURFU
 70
     6
  9
$SURFV
 70
     6
  9
$UCSBASE
  2

  9
$UCSNAME
  2

  9
$UCSORG
 10
0.0
 20
0.0
 30
0.0
  9
$UCSXDIR
 10
1.0
 20
0.0
 30
0.0
  9
$UCSYDIR
 10
0.0
 20
1.0
 30
0.0
  9
$UCSORTHOREF
  2

  9
$UCSORTHOVIEW
 70
     0
  9
$UCSORGTOP
 10
0.0
 20
0.0
 30
0.0
  9
$UCSORGBOTTOM
 10
0.0
 20
0.0
 30
0.0
  9
$UCSORGLEFT
 10
0.0
 20
0.0
 30
0.0
  9
$UCSORGRIGHT
 10
0.0
 20
0.0
 30
0.0
  9
$UCSORGFRONT
 10
0.0
 20
0.0
 30
0.0
  9
$UCSORGBACK
 10
0.0
 20
0.0
 30
0.0
  9
$PUCSBASE
  2

  9
$PUCSNAME
  2

  9
$PUCSORG
 10
0.0
 20
0.0
 30
0.0
  9
$PUCSXDIR
 10
1.0
 20
0.0
 30
0.0
  9
$PUCSYDIR
 10
0.0
 20
1.0
 30
0.0
  9
$PUCSORTHOREF
  2

  9
$PUCSORTHOVIEW
 70
     0
  9
$PUCSORGTOP
 10
0.0
 20
0.0
 30
0.0
  9
$PUCSORGBOTTOM
 10
0.0
 20
0.0
 30
0.0
  9
$PUCSORGLEFT
 10
0.0
 20
0.0
 30
0.0
  9
$PUCSORGRIGHT
 10
0.0
 20
0.0
 30
0.0
  9
$PUCSORGFRONT
 10
0.0
 20
0.0
 30
0.0
  9
$PUCSORGBACK
 10
0.0
 20
0.0
 30
0.0
  9
$USERI1
 70
     0
  9
$USERI2
 70
     0
  9
$USERI3
 70
     0
  9
$USERI4
 70
     0
  9
$USERI5
 70
     0
  9
$USERR1
 40
0.0
  9
$USERR2
 40
0.0
  9
$USERR3
 40
0.0
  9
$USERR4
 40
0.0
  9
$USERR5
 40
0.0
  9
$WORLDVIEW
 70
     1
  9
$SHADEDGE
 70
     3
  9
$SHADEDIF
 70
    70
  9
$TILEMODE
 70
     1
  9
$MAXACTVP
 70
    16
  9
$PINSBASE
 10
0.0
 20
0.0
 30
0.0
  9
$PLIMCHECK
 70
     0
  9
$PEXTMIN
 10
1.000000E+20
 20
1.000000E+20
 30
1.000000E+20
  9
$PEXTMAX
 10
-1.000000E+20
 20
-1.000000E+20
 30
-1.000000E+20
  9
$PLIMMIN
 10
0.0
 20
0.0
  9
$PLIMMAX
 10
12.0
 20
9.0
  9
$UNITMODE
 70
     0
  9
$VISRETAIN
 70
     0
  9
$PLINEGEN
 70
     1
  9
$PSLTSCALE
 70
     0
  9
$TREEDEPTH
 70
  3020
  9
$CMLSTYLE
  2
Standard
  9
$CMLJUST
 70
     0
  9
$CMLSCALE
 40
1.0
  9
$PROXYGRAPHICS
 70
     0
  9
$MEASUREMENT
 70
     0
  9
$CELWEIGHT
370
     0
  9
$ENDCAPS
280
     0
  9
$JOINSTYLE
280
     0
  9
$LWDISPLAY
290
     0
  9
$INSUNITS
 70
     5
  9
$HYPERLINKBASE
  1

  9
$XEDIT
290
     1
  9
$CEPSNTYPE
380
     0
  9
$PSTYLEMODE
290
     1
  9
$FINGERPRINTGUID
  2

  9
$VERSIONGUID
  2

  9
$EXTNAMES
290
     1
  9
$PSVPSCALE
 40
0.0
  0
ENDSEC
  0
SECTION
  2
CLASSES
  0
CLASS
  1
LWPOLYLINE
  2
AcDbPolyline
  3
AutoCAD 2000
 90
    32768
280
     0
281
     1
  0
CLASS
  1
IMAGE
  2
AcDbRasterImage
  3
ISM
 90
    32895
280
     0
281
     1
  0
CLASS
  1
OLE2FRAME
  2
AcDbOle2Frame
  3
AutoCAD 2000
 90
    32768
280
     0
281
     1
  0
CLASS
  1
HATCH
  2
AcDbHatch
  3
AutoCAD 2000
 90
    32768
280
     0
281
     1
  0
CLASS
  1
DICTIONARYVAR
  2
AcDbDictionaryVar
  3
AutoCAD 2000
 90
    32768
280
     0
281
     0
  0
CLASS
  1
RASTERVARIABLES
  2
AcDbRasterVariables
  3
ISM
 90
    32768
280
     0
281
     0
  0
CLASS
  1
IMAGEDEF
  2
AcDbRasterImageDef
  3
ISM
 90
    32768
280
     0
281
     0
  0
CLASS
  1
IMAGEDEF_REACTOR
  2
AcDbRasterImageDefReactor
  3
ISM
 90
    32769
280
     0
281
     0
  0
CLASS
  1
IDBUFFER
  2
AcDbIdBuffer
  3
AutoCAD 2000
 90
    32768
280
     0
281
     0
  0
CLASS
  1
SPATIAL_FILTER
  2
AcDbSpatialFilter
  3
AutoCAD 2000
 90
    32768
280
     0
281
     0
  0
CLASS
  1
XRECORD
  2
AcDbXrecord
  3
AutoCAD 2000
 90
    32768
280
     0
281
     0
  0
CLASS
  1
SORTENTSTABLE
  2
AcDbSortentsTable
  3
AutoCAD 2000
 90
    32768
280
     0
281
     0
  0
CLASS
  1
LAYER_INDEX
  2
AcDbLayerIndex
  3
AutoCAD 2000
 90
    32768
280
     0
281
     0
  0
CLASS
  1
SPATIAL_INDEX
  2
AcDbSpatialIndex
  3
AutoCAD 2000
 90
    32768
280
     0
281
     0
  0
CLASS
  1
OBJECT_PTR
  2
CAseDLPNTableRecord
  3
"ASE-LPNTableRecord"
 90
    32769
280
     0
281
     0
  0
CLASS
  1
LAYOUT
  2
AcDbLayout
  3
AutoCAD 2000
 90
        0
280
     0
281
     0
  0
CLASS
  1
PLOTSETTINGS
  2
AcDbPlotSettings
  3
AutoCAD 2000
 90
    32768
280
     0
281
     0
  0
CLASS
  1
ACDBDICTIONARYWDFLT
  2
AcDbDictionaryWithDefault
  3
AutoCAD 2000
 90
        0
280
     0
281
     0
  0
CLASS
  1
ACDBPLACEHOLDER
  2
AcDbPlaceHolder
  3
AutoCAD 2000
 90
        0
280
     0
281
     0
  0
CLASS
  1
VBA_PROJECT
  2
AcDbVbaProject
  3
acadvba
 90
    32768
280
     0
281
     0
  0
CLASS
  1
WIPEOUT
  2
AcDbWipeout
  3
WipeOut|AutoCAD Express Tool|expresstools@autodesk.com
 90
    32895
280
     0
281
     1
  0
CLASS
  1
WIPEOUTVARIABLES
  2
AcDbWipeoutVariables
  3
WipeOut|AutoCAD Express Tool|expresstools@autodesk.com
 90
        0
280
     0
281
     0
  0
CLASS
  1
RTEXT
  2
RText
  3
RText|AutoCAD Express Tool|expresstools@autodesk.com
 90
    32768
280
     0
281
     1
  0
CLASS
  1
ARCALIGNEDTEXT
  2
AcDbArcAlignedText
  3
ATEXT|AutoCAD Express Tool|expresstools@autodesk.com
 90
    32768
280
     0
281
     1
  0
ENDSEC
  0
SECTION
  2
TABLES
  0
TABLE
  2
VPORT
  5
7
100
AcDbSymbolTable
 70
     1
  0
VPORT
  5
15
100
AcDbSymbolTableRecord
100
AcDbViewportTableRecord
  2
*ACTIVE
 70
     0
 10
0.0
 20
0.0
 11
1.0
 21
1.0
 12
6.591288
 22
4.579184
 13
0.0
 23
0.0
 14
1.0
 24
1.0
 15
0.0
 25
0.0
 16
0.0
 26
0.0
 36
1.0
 17
0.0
 27
0.0
 37
0.0
 40
9.158369
 41
0.688564
 42
50.0
 43
0.0
 44
0.0
 50
0.0
 51
0.0
 71
     0
 72
   100
 73
     1
 74
     1
 75
     0
 76
     0
 77
     0
 78
     0
281
     0
 65
     0
110
0.0
120
0.0
130
0.0
111
1.0
121
0.0
131
0.0
112
0.0
122
1.0
132
0.0
345
0
346
0
 79
     0
146
0.0
  0
ENDTAB
  0
TABLE
  2
LTYPE
  5
4
100
AcDbSymbolTable
 70
     3
  0
LTYPE
  5
11
100
AcDbSymbolTableRecord
100
AcDbLinetypeTableRecord
  2
ByBlock
 70
    64
  3

 72
    65
 73
     0
 40
0.0
  0
LTYPE
  5
12
100
AcDbSymbolTableRecord
100
AcDbLinetypeTableRecord
  2
ByLayer
 70
    64
  3

 72
    65
 73
     0
 40
0.0
  0
LTYPE
  5
13
100
AcDbSymbolTableRecord
100
AcDbLinetypeTableRecord
  2
Continuous
 70
    64
  3
Solid line
 72
    65
 73
     0
 40
0.0
  0
ENDTAB
  0
TABLE
  2
LAYER
  5
2
100
AcDbSymbolTable
 70
     2
  0
LAYER
  5
14
100
AcDbSymbolTableRecord
100
AcDbLayerTableRecord
  2
0
 70
     0
 62
     7
  6
Continuous
290
     1
370
    -3
390
1D
  0
LAYER
  5
24
100
AcDbSymbolTableRecord
100
AcDbLayerTableRecord
  2
Ebene 1
 70
     0
 62
     7
  6
Continuous
290
     1
370
    -3
390
1F
  0
ENDTAB
  0
TABLE
  2
STYLE
  5
3
100
AcDbSymbolTable
 70
     1
  0
STYLE
  5
17
100
AcDbSymbolTableRecord
100
AcDbTextStyleTableRecord
  2
Standard
 70
     0
 40
0.0
 41
1.0
 50
0.0
 71
     0
 42
0.0
  3
txt
  4

  0
ENDTAB
  0
TABLE
  2
VIEW
  5
5
100
AcDbSymbolTable
 70
     0
  0
ENDTAB
  0
TABLE
  2
UCS
  5
6
100
AcDbSymbolTable
 70
     0
  0
ENDTAB
  0
TABLE
  2
APPID
  5
8
100
AcDbSymbolTable
 70
     1
  0
APPID
  5
16
100
AcDbSymbolTableRecord
100
AcDbRegAppTableRecord
  2
ACAD
 70
     0
  0
ENDTAB
  0
TABLE
  2
DIMSTYLE
  5
9
100
AcDbSymbolTable
 70
     1
100
AcDbDimStyleTable
 71
     0
  0
DIMSTYLE
105
18
100
AcDbSymbolTableRecord
100
AcDbDimStyleTableRecord
  2
Standard
 70
     0
  3

  4

 40
1.0
 41
0.18
 42
0.0625
 43
0.38
 44
0.18
 45
0.0
 46
0.0
 47
0.0
 48
0.0
 71
     0
 72
     0
 73
     1
 74
     1
 75
     0
 76
     0
 77
     0
 78
     0
 79
     0
140
0.18
141
0.09
142
0.0
143
25.4
144
1.0
145
0.0
146
1.0
147
0.09
148
0.0
170
     0
171
     2
172
     0
173
     0
174
     0
175
     0
176
     0
177
     0
178
     0
179
     0
271
     4
272
     4
273
     2
274
     2
275
     0
276
     0
277
     2
278
    46
279
     0
280
     0
281
     0
282
     0
283
     1
284
     0
285
     0
286
     0
288
     0
340
17
341
0
342
0
343
0
344
0
371
    -2
372
    -2
  0
ENDTAB
  0
TABLE
  2
BLOCK_RECORD
  5
1
100
AcDbSymbolTable
 70
     0
  0
BLOCK_RECORD
  5
A
100
AcDbSymbolTableRecord
100
AcDbBlockTableRecord
  2
*MODEL_SPACE
340
20
  0
BLOCK_RECORD
  5
B
100
AcDbSymbolTableRecord
100
AcDbBlockTableRecord
  2
*PAPER_SPACE
340
21
  0
ENDTAB
  0
ENDSEC
  0
SECTION
  2
BLOCKS
  0
BLOCK
  5
D
100
AcDbEntity
  8
0
100
AcDbBlockBegin
  2
*MODEL_SPACE
 70
     0
 10
0.0
 20
0.0
 30
0.0
  3
*MODEL_SPACE
  1

  0
ENDBLK
  5
E
100
AcDbEntity
  8
0
100
AcDbBlockEnd
  0
BLOCK
  5
F
100
AcDbEntity
 67
     1
  8
0
100
AcDbBlockBegin
  2
*PAPER_SPACE
 70
     0
 10
0.0
 20
0.0
 30
0.0
  3
*PAPER_SPACE
  1

  0
ENDBLK
  5
10
100
AcDbEntity
 67
     1
  8
0
100
AcDbBlockEnd
  0
ENDSEC
  0
SECTION
  2
ENTITIES
  0
SPLINE
  5
25
100
AcDbEntity
  8
Ebene 1
100
AcDbSpline
210
0.0
220
0.0
230
1.0
 70
     1
 71
     3
 72
    52
 73
    48
 74
     0
 42
0.0000000001
 43
0.0000000001
 40
0.0
 40
0.0
 40
0.0
 40
0.0
 40
0.0833333333333333
 40
0.0833333333333333
 40
0.0833333333333333
 40
0.0833333333333333
 40
0.1666666666666667
 40
0.1666666666666667
 40
0.1666666666666667
 40
0.1666666666666667
 40
0.25
 40
0.25
 40
0.25
 40
0.25
 40
0.3333333333333333
 40
0.3333333333333333
 40
0.3333333333333333
 40
0.3333333333333333
 40
0.4166666666666666
 40
0.4166666666666666
 40
0.4166666666666666
 40
0.4166666666666666
 40
0.4999999999999999
 40
0.4999999999999999
 40
0.4999999999999999
 40
0.4999999999999999
 40
0.5833333333333333
 40
0.5833333333333333
 40
0.5833333333333333
 40
0.5833333333333333
 40
0.6666666666666666
 40
0.6666666666666666
 40
0.6666666666666666
 40
0.6666666666666666
 40
0.75
 40
0.75
 40
0.75
 40
0.75
 40
0.8333333333333334
 40
0.8333333333333334
 40
0.8333333333333334
 40
0.8333333333333334
 40
0.9166666666666667
 40
0.9166666666666667
 40
0.9166666666666667
 40
0.9166666666666667
 40
1.0
 40
1.0
 40
1.0
 40
1.0
 10
0.4421000000000001
 20
5.7144300000000001
 30
0.0
 10
1.8543400000000001
 20
5.6560100000000002
 30
0.0
 10
2.8601800000000002
 20
4.3098100000000006
 30
0.0
 10
2.9033600000000002
 20
2.97377
 30
0.0
 10
2.9033600000000002
 20
2.97377
 30
0.0
 10
3.3935800000000005
 20
1.4370700000000001
 30
0.0
 10
3.6044000000000005
 20
-0.17836
 30
0.0
 10
3.9346000000000005
 20
-1.7633200000000002
 30
0.0
 10
3.9346000000000005
 20
-1.7633200000000002
 30
0.0
 10
3.8634800000000005
 20
-2.22052
 30
0.0
 10
4.0158800000000001
 20
-2.6777200000000003
 30
0.0
 10
3.8533200000000005
 20
-3.1146000000000003
 30
0.0
 10
3.8533200000000005
 20
-3.1146000000000003
 30
0.0
 10
3.3275400000000004
 20
-4.0137600000000004
 30
0.0
 10
2.2277200000000001
 20
-4.2982400000000007
 30
0.0
 10
1.4149200000000002
 20
-4.8443400000000008
 30
0.0
 10
1.4149200000000002
 20
-4.8443400000000008
 30
0.0
 10
1.5774800000000002
 20
-5.1770800000000001
 30
0.0
 10
1.2015600000000002
 20
-5.4818800000000003
 30
0.0
 10
0.9501000000000001
 20
-5.7181000000000006
 30
0.0
 10
0.9501000000000001
 20
-5.7181000000000006
 30
0.0
 10
0.7545200000000001
 20
-5.7333400000000001
 30
0.0
 10
0.5945
 20
-5.6114200000000007
 30
0.0
 10
0.4548
 20
-5.4920400000000003
 30
0.0
 10
0.4548
 20
-5.4920400000000003
 30
0.0
 10
0.26938
 20
-5.3447200000000006
 30
0.0
 10
0.13476
 20
-5.1085000000000003
 30
0.0
 10
0.2389
 20
-4.8900600000000001
 30
0.0
 10
0.2389
 20
-4.8900600000000001
 30
0.0
 10
-1.0615700000000001
 20
-4.0823400000000003
 30
0.0
 10
-2.4357100000000003
 20
-3.3965400000000003
 30
0.0
 10
-3.6930100000000001
 20
-2.4973800000000002
 30
0.0
 10
-3.6930100000000001
 20
-2.4973800000000002
 30
0.0
 10
-3.8047700000000004
 20
-2.3627600000000002
 30
0.0
 10
-3.8708100000000005
 20
-2.2002000000000002
 30
0.0
 10
-3.9266900000000002
 20
-2.0401800000000003
 30
0.0
 10
-3.9266900000000002
 20
-2.0401800000000003
 30
0.0
 10
-3.9444700000000004
 20
-1.7252200000000002
 30
0.0
 10
-3.8911300000000004
 20
-1.4077200000000001
 30
0.0
 10
-3.8149300000000004
 20
-1.1054600000000001
 30
0.0
 10
-3.8149300000000004
 20
-1.1054600000000001
 30
0.0
 10
-1.8997700000000002
 20
0.66491
 30
0.0
 10
-2.36205
 20
3.6138500000000002
 30
0.0
 10
-0.4900700000000001
 20
5.3867700000000003
 30
0.0
 10
-0.4900700000000001
 20
5.3867700000000003
 30
0.0
 10
-0.21321
 20
5.5925100000000008
 30
0.0
 10
0.12714
 20
5.6509300000000007
 30
0.0
 10
0.4421000000000001
 20
5.7144300000000001
 30
0.0
  0
SPLINE
  5
26
100
AcDbEntity
  8
Ebene 1
 62
     7
100
AcDbSpline
210
0.0
220
0.0
230
1.0
 70
     1
 71
     3
 72
   188
 73
   184
 74
     0
 42
0.0000000001
 43
0.0000000001
 40
0.0
 40
0.0
 40
0.0
 40
0.0
 40
0.0217391304347826
 40
0.0217391304347826
 40
0.0217391304347826
 40
0.0217391304347826
 40
0.0434782608695652
 40
0.0434782608695652
 40
0.0434782608695652
 40
0.0434782608695652
 40
0.0652173913043478
 40
0.0652173913043478
 40
0.0652173913043478
 40
0.0652173913043478
 40
0.0869565217391304
 40
0.0869565217391304
 40
0.0869565217391304
 40
0.0869565217391304
 40
0.108695652173913
 40
0.108695652173913
 40
0.108695652173913
 40
0.108695652173913
 40
0.1304347826086957
 40
0.1304347826086957
 40
0.1304347826086957
 40
0.1304347826086957
 40
0.1521739130434783
 40
0.1521739130434783
 40
0.1521739130434783
 40
0.1521739130434783
 40
0.1739130434782609
 40
0.1739130434782609
 40
0.1739130434782609
 40
0.1739130434782609
 40
0.1956521739130435
 40
0.1956521739130435
 40
0.1956521739130435
 40
0.1956521739130435
 40
0.2173913043478261
 40
0.2173913043478261
 40
0.2173913043478261
 40
0.2173913043478261
 40
0.2391304347826087
 40
0.2391304347826087
 40
0.2391304347826087
 40
0.2391304347826087
 40
0.2608695652173912
 40
0.2608695652173912
 40
0.2608695652173912
 40
0.2608695652173912
 40
0.2826086956521738
 40
0.2826086956521738
 40
0.2826086956521738
 40
0.2826086956521738
 40
0.3043478260869564
 40
0.3043478260869564
 40
0.3043478260869564
 40
0.3043478260869564
 40
0.326086956521739
 40
0.326086956521739
 40
0.326086956521739
 40
0.326086956521739
 40
0.3478260869565216
 40
0.3478260869565216
 40
0.3478260869565216
 40
0.3478260869565216
 40
0.3695652173913042
 40
0.3695652173913042
 40
0.3695652173913042
 40
0.3695652173913042
 40
0.3913043478260868
 40
0.3913043478260868
 40
0.3913043478260868
 40
0.3913043478260868
 40
0.4130434782608694
 40
0.4130434782608694
 40
0.4130434782608694
 40
0.4130434782608694
 40
0.434782608695652
 40
0.434782608695652
 40
0.434782608695652
 40
0.434782608695652
 40
0.4565217391304346
 40
0.4565217391304346
 40
0.4565217391304346
 40
0.4565217391304346
 40
0.4782608695652172
 40
0.4782608695652172
 40
0.4782608695652172
 40
0.4782608695652172
 40
0.4999999999999998
 40
0.4999999999999998
 40
0.4999999999999998
 40
0.4999999999999998
 40
0.5217391304347824
 40
0.5217391304347824
 40
0.5217391304347824
 40
0.5217391304347824
 40
0.543478260869565
 40
0.543478260869565
 40
0.543478260869565
 40
0.543478260869565
 40
0.5652173913043476
 40
0.5652173913043476
 40
0.5652173913043476
 40
0.5652173913043476
 40
0.5869565217391302
 40
0.5869565217391302
 40
0.5869565217391302
 40
0.5869565217391302
 40
0.6086956521739128
 40
0.6086956521739128
 40
0.6086956521739128
 40
0.6086956521739128
 40
0.6304347826086953
 40
0.6304347826086953
 40
0.6304347826086953
 40
0.6304347826086953
 40
0.6521739130434779
 40
0.6521739130434779
 40
0.6521739130434779
 40
0.6521739130434779
 40
0.6739130434782605
 40
0.6739130434782605
 40
0.6739130434782605
 40
0.6739130434782605
 40
0.6956521739130431
 40
0.6956521739130431
 40
0.6956521739130431
 40
0.6956521739130431
 40
0.7173913043478257
 40
0.7173913043478257
 40
0.7173913043478257
 40
0.7173913043478257
 40
0.7391304347826083
 40
0.7391304347826083
 40
0.7391304347826083
 40
0.7391304347826083
 40
0.7608695652173909
 40
0.7608695652173909
 40
0.7608695652173909
 40
0.7608695652173909
 40
0.7826086956521735
 40
0.7826086956521735
 40
0.7826086956521735
 40
0.7826086956521735
 40
0.8043478260869561
 40
0.8043478260869561
 40
0.8043478260869561
 40
0.8043478260869561
 40
0.8260869565217387
 40
0.8260869565217387
 40
0.8260869565217387
 40
0.8260869565217387
 40
0.8478260869565213
 40
0.8478260869565213
 40
0.8478260869565213
 40
0.8478260869565213
 40
0.8695652173913039
 40
0.8695652173913039
 40
0.8695652173913039
 40
0.8695652173913039
 40
0.8913043478260865
 40
0.8913043478260865
 40
0.8913043478260865
 40
0.8913043478260865
 40
0.9130434782608691
 40
0.9130434782608691
 40
0.9130434782608691
 40
0.9130434782608691
 40
0.9347826086956517
 40
0.9347826086956517
 40
0.9347826086956517
 40
0.9347826086956517
 40
0.9565217391304343
 40
0.9565217391304343
 40
0.9565217391304343
 40
0.9565217391304343
 40
0.9782608695652169
 40
0.9782608695652169
 40
0.9782608695652169
 40
0.9782608695652169
 40
1.0
 40
1.0
 40
1.0
 40
1.0
 10
2.0423
 20
-4.3947600000000007
 30
0.0
 10
2.0423
 20
-4.3947600000000007
 30
0.0
 10
2.0829400000000002
 20
-4.3185600000000006
 30
0.0
 10
2.0829400000000002
 20
-4.3185600000000006
 30
0.0
 10
2.0829400000000002
 20
-4.3185600000000006
 30
0.0
 10
2.0829400000000002
 20
-4.3185600000000006
 30
0.0
 10
2.3166200000000003
 20
-4.1839400000000007
 30
0.0
 10
2.3166200000000003
 20
-4.1839400000000007
 30
0.0
 10
2.3166200000000003
 20
-4.1839400000000007
 30
0.0
 10
2.0194400000000003
 20
-4.2449000000000003
 30
0.0
 10
1.7603600000000001
 20
-4.5547800000000001
 30
0.0
 10
1.4479400000000002
 20
-4.6360600000000005
 30
0.0
 10
1.4479400000000002
 20
-4.6360600000000005
 30
0.0
 10
1.65622
 20
-4.1991800000000001
 30
0.0
 10
2.1134200000000001
 20
-3.9578800000000003
 30
0.0
 10
2.5147400000000002
 20
-3.7394400000000001
 30
0.0
 10
2.5147400000000002
 20
-3.7394400000000001
 30
0.0
 10
2.6163400000000001
 20
-3.6835600000000004
 30
0.0
 10
2.6900000000000004
 20
-3.6683200000000005
 30
0.0
 10
2.5376000000000003
 20
-3.7013400000000005
 30
0.0
 10
2.5376000000000003
 20
-3.7013400000000005
 30
0.0
 10
1.9737200000000001
 20
-3.8156400000000001
 30
0.0
 10
1.5343000000000002
 20
-4.3617400000000002
 30
0.0
 10
1.1380600000000001
 20
-4.6055800000000007
 30
0.0
 10
1.1380600000000001
 20
-4.6055800000000007
 30
0.0
 10
1.5419200000000002
 20
-3.6048200000000001
 30
0.0
 10
3.01004
 20
-3.5337000000000005
 30
0.0
 10
3.4266000000000001
 20
-2.5177
 30
0.0
 10
3.4266000000000001
 20
-2.5177
 30
0.0
 10
3.2386400000000002
 20
-2.6726400000000003
 30
0.0
 10
3.0202000000000004
 20
-3.0231600000000003
 30
0.0
 10
2.7077800000000001
 20
-3.0815800000000002
 30
0.0
 10
2.7077800000000001
 20
-3.0815800000000002
 30
0.0
 10
3.0786200000000004
 20
-2.4491200000000002
 30
0.0
 10
3.1802200000000003
 20
-1.6972800000000001
 30
0.0
 10
3.1345000000000001
 20
-0.94798
 30
0.0
 10
3.1345000000000001
 20
-0.94798
 30
0.0
 10
2.8170000000000002
 20
0.46679
 30
0.0
 10
3.0329000000000002
 20
2.2092300000000002
 30
0.0
 10
2.2836000000000003
 20
3.4436700000000005
 30
0.0
 10
2.2836000000000003
 20
3.4436700000000005
 30
0.0
 10
2.1439000000000004
 20
3.6722700000000001
 30
0.0
 10
1.8467200000000001
 20
3.8449900000000001
 30
0.0
 10
1.6409800000000001
 20
4.0354900000000002
 30
0.0
 10
1.6409800000000001
 20
4.0354900000000002
 30
0.0
 10
1.6689200000000002
 20
4.2361500000000003
 30
0.0
 10
2.03722
 20
4.1193100000000005
 30
0.0
 10
2.0245200000000003
 20
4.3098100000000006
 30
0.0
 10
2.0245200000000003
 20
4.3098100000000006
 30
0.0
 10
1.4809600000000001
 20
4.1294700000000004
 30
0.0
 10
0.9018400000000001
 20
4.03803
 30
0.0
 10
0.3989200000000001
 20
3.7408500000000005
 30
0.0
 10
0.3989200000000001
 20
3.7408500000000005
 30
0.0
 10
-0.5637300000000001
 20
3.1337900000000003
 30
0.0
 10
-0.53325
 20
1.9907900000000001
 30
0.0
 10
-0.90917
 20
1.0967100000000001
 30
0.0
 10
-0.90917
 20
1.0967100000000001
 30
0.0
 10
-0.9675900000000001
 20
1.3278500000000002
 30
0.0
 10
-0.8786900000000001
 20
1.7342500000000001
 30
0.0
 10
-1.0590300000000001
 20
1.7545700000000002
 30
0.0
 10
-1.0590300000000001
 20
1.7545700000000002
 30
0.0
 10
-0.76185
 20
0.12643
 30
0.0
 10
-1.7854700000000001
 20
-1.3366
 30
0.0
 10
-1.4273300000000002
 20
-2.9139400000000002
 30
0.0
 10
-1.4273300000000002
 20
-2.9139400000000002
 30
0.0
 10
-0.8609100000000001
 20
-3.4371800000000001
 30
0.0
 10
0.33034
 20
-4.0213800000000006
 30
0.0
 10
0.4548
 20
-4.5674800000000007
 30
0.0
 10
0.4548
 20
-4.5674800000000007
 30
0.0
 10
0.25922
 20
-4.4862000000000002
 30
0.0
 10
0.11698
 20
-4.3414200000000003
 30
0.0
 10
-0.02779
 20
-4.19156
 30
0.0
 10
-0.02779
 20
-4.19156
 30
0.0
 10
-0.02779
 20
-4.19156
 30
0.0
 10
-0.29703
 20
-3.9655000000000005
 30
0.0
 10
-0.29703
 20
-3.9655000000000005
 30
0.0
 10
-0.29703
 20
-3.9655000000000005
 30
0.0
 10
-1.20889
 20
-3.3305000000000002
 30
0.0
 10
0.6910200000000001
 20
-4.8087800000000005
 30
0.0
 10
-0.04811
 20
-4.5497000000000005
 30
0.0
 10
-0.04811
 20
-4.5497000000000005
 30
0.0
 10
-0.04811
 20
-4.5497000000000005
 30
0.0
 10
-0.30719
 20
-4.3769800000000005
 30
0.0
 10
-0.30719
 20
-4.3769800000000005
 30
0.0
 10
-0.30719
 20
-4.3769800000000005
 30
0.0
 10
-0.44181
 20
-4.3185600000000006
 30
0.0
 10
-0.59167
 20
-4.2855400000000001
 30
0.0
 10
-0.7059700000000001
 20
-4.19156
 30
0.0
 10
-0.7059700000000001
 20
-4.19156
 30
0.0
 10
-1.0717300000000001
 20
-4.0417000000000005
 30
0.0
 10
-1.3181100000000001
 20
-3.8461200000000004
 30
0.0
 10
-1.5746500000000001
 20
-3.5514800000000002
 30
0.0
 10
-1.5746500000000001
 20
-3.5514800000000002
 30
0.0
 10
-1.6152900000000001
 20
-3.4803600000000001
 30
0.0
 10
-1.8616700000000002
 20
-3.2339800000000003
 30
0.0
 10
-1.7600700000000002
 20
-3.4117800000000003
 30
0.0
 10
-1.7600700000000002
 20
-3.4117800000000003
 30
0.0
 10
-1.7600700000000002
 20
-3.4117800000000003
 30
0.0
 10
-1.6203700000000001
 20
-3.6200600000000005
 30
0.0
 10
-1.6203700000000001
 20
-3.6200600000000005
 30
0.0
 10
-1.6203700000000001
 20
-3.6200600000000005
 30
0.0
 10
-2.19441
 20
-3.5946600000000002
 30
0.0
 10
-2.56779
 20
-3.1603200000000005
 30
0.0
 10
-2.7430500000000002
 20
-2.6294600000000004
 30
0.0
 10
-2.7430500000000002
 20
-2.6294600000000004
 30
0.0
 10
-2.7684500000000001
 20
-2.5532600000000003
 30
0.0
 10
-2.8370300000000004
 20
-2.06812
 30
0.0
 10
-2.8675100000000002
 20
-2.3830800000000001
 30
0.0
 10
-2.8675100000000002
 20
-2.3830800000000001
 30
0.0
 10
-2.6871700000000001
 20
-3.0892000000000004
 30
0.0
 10
-3.7615900000000004
 20
-2.39324
 30
0.0
 10
-3.7565100000000005
 20
-1.9335000000000002
 30
0.0
 10
-3.7565100000000005
 20
-1.9335000000000002
 30
0.0
 10
-3.7742900000000001
 20
-1.3899400000000002
 30
0.0
 10
-3.4745700000000004
 20
-1.0064000000000002
 30
0.0
 10
-3.1723100000000004
 20
-0.5746
 30
0.0
 10
-3.1723100000000004
 20
-0.5746
 30
0.0
 10
-2.8319500000000004
 20
-0.08438
 30
0.0
 10
-2.4636500000000003
 20
0.4439300000000001
 30
0.0
 10
-2.1232900000000003
 20
0.9214500000000001
 30
0.0
 10
-2.1232900000000003
 20
0.9214500000000001
 30
0.0
 10
-1.9835900000000002
 20
1.1195700000000002
 30
0.0
 10
-1.7930900000000001
 20
1.3354700000000002
 30
0.0
 10
-1.8057900000000002
 20
1.5386700000000002
 30
0.0
 10
-1.8057900000000002
 20
1.5386700000000002
 30
0.0
 10
-1.8057900000000002
 20
1.5386700000000002
 30
0.0
 10
-2.0496300000000001
 20
1.1576700000000002
 30
0.0
 10
-2.0496300000000001
 20
1.1576700000000002
 30
0.0
 10
-2.0496300000000001
 20
1.1576700000000002
 30
0.0
 10
-2.48651
 20
0.6953900000000001
 30
0.0
 10
-2.35697
 20
1.0560700000000001
 30
0.0
 10
-2.2299700000000002
 20
1.4624700000000002
 30
0.0
 10
-2.2299700000000002
 20
1.4624700000000002
 30
0.0
 10
-2.2299700000000002
 20
1.4624700000000002
 30
0.0
 10
-1.8591300000000002
 20
2.3717900000000003
 30
0.0
 10
-1.8591300000000002
 20
2.3717900000000003
 30
0.0
 10
-1.8591300000000002
 20
2.3717900000000003
 30
0.0
 10
-1.6457700000000002
 20
2.38449
 30
0.0
 10
-1.62799
 20
1.9628500000000002
 30
0.0
 10
-1.41717
 20
1.9882500000000001
 30
0.0
 10
-1.41717
 20
1.9882500000000001
 30
0.0
 10
-1.6229100000000001
 20
2.1660500000000003
 30
0.0
 10
-1.6051300000000002
 20
2.4683100000000002
 30
0.0
 10
-1.7118100000000001
 20
2.6969100000000004
 30
0.0
 10
-1.7118100000000001
 20
2.6969100000000004
 30
0.0
 10
-1.6762500000000002
 20
3.2176100000000001
 30
0.0
 10
-1.5721100000000001
 20
3.5528900000000001
 30
0.0
 10
-1.3917700000000002
 20
4.0253300000000003
 30
0.0
 10
-1.3917700000000002
 20
4.0253300000000003
 30
0.0
 10
-1.04125
 20
4.80511
 30
0.0
 10
-0.5154700000000001
 20
4.9041700000000006
 30
0.0
 10
-0.08113
 20
5.2165900000000001
 30
0.0
 10
-0.08113
 20
5.2165900000000001
 30
0.0
 10
-0.29957
 20
5.2115100000000005
 30
0.0
 10
-0.5408700000000001
 20
5.0489500000000005
 30
0.0
 10
-0.7364500000000001
 20
4.9244900000000005
 30
0.0
 10
-0.7364500000000001
 20
4.9244900000000005
 30
0.0
 10
-0.8964700000000001
 20
5.1429300000000007
 30
0.0
 10
-0.04811
 20
5.6737900000000003
 30
0.0
 10
0.36336
 20
5.6356900000000003
 30
0.0
 10
0.36336
 20
5.6356900000000003
 30
0.0
 10
0.6707000000000001
 20
5.6534700000000004
 30
0.0
 10
1.3488800000000001
 20
5.43757
 30
0.0
 10
0.8154800000000001
 20
5.2394500000000006
 30
0.0
 10
0.8154800000000001
 20
5.2394500000000006
 30
0.0
 10
0.74182
 20
5.1556300000000004
 30
0.0
 10
0.8205600000000001
 20
5.18865
 30
0.0
 10
0.89168
 20
5.2318300000000004
 30
0.0
 10
0.89168
 20
5.2318300000000004
 30
0.0
 10
1.2015600000000002
 20
5.4172500000000001
 30
0.0
 10
1.5470000000000002
 20
5.2115100000000005
 30
0.0
 10
1.8492600000000001
 20
5.0006900000000005
 30
0.0
 10
1.8492600000000001
 20
5.0006900000000005
 30
0.0
 10
2.1210400000000003
 20
4.8330500000000001
 30
0.0
 10
2.3471000000000002
 20
4.6247700000000007
 30
0.0
 10
2.4893400000000003
 20
4.20059
 30
0.0
 10
2.4893400000000003
 20
4.20059
 30
0.0
 10
3.0125800000000003
 20
1.7901300000000002
 30
0.0
 10
4.0438200000000002
 20
-0.65588
 30
0.0
 10
3.7923600000000004
 20
-3.1146000000000003
 30
0.0
 10
3.7923600000000004
 20
-3.1146000000000003
 30
0.0
 10
2.6646000000000001
 20
-4.0213800000000006
 30
0.0
 10
3.0659200000000002
 20
-3.8054800000000002
 30
0.0
 10
2.0423
 20
-4.3947600000000007
 30
0.0
  0
SPLINE
  5
27
100
AcDbEntity
  8
Ebene 1
100
AcDbSpline
210
0.0
220
0.0
230
1.0
 70
     1
 71
     3
 72
    32
 73
    28
 74
     0
 42
0.0000000001
 43
0.0000000001
 40
0.0
 40
0.0
 40
0.0
 40
0.0
 40
0.1428571428571429
 40
0.1428571428571429
 40
0.1428571428571429
 40
0.1428571428571429
 40
0.2857142857142857
 40
0.2857142857142857
 40
0.2857142857142857
 40
0.2857142857142857
 40
0.4285714285714286
 40
0.4285714285714286
 40
0.4285714285714286
 40
0.4285714285714286
 40
0.5714285714285714
 40
0.5714285714285714
 40
0.5714285714285714
 40
0.5714285714285714
 40
0.7142857142857142
 40
0.7142857142857142
 40
0.7142857142857142
 40
0.7142857142857142
 40
0.857142857142857
 40
0.857142857142857
 40
0.857142857142857
 40
0.857142857142857
 40
1.0
 40
1.0
 40
1.0
 40
1.0
 10
0.3786000000000001
 20
4.6831900000000006
 30
0.0
 10
0.41416
 20
4.6933500000000006
 30
0.0
 10
0.47004
 20
4.67049
 30
0.0
 10
0.42178
 20
4.6400100000000002
 30
0.0
 10
0.42178
 20
4.6400100000000002
 30
0.0
 10
-0.20305
 20
4.2336100000000005
 30
0.0
 10
-0.5662700000000001
 20
3.5503500000000003
 30
0.0
 10
-0.5865900000000001
 20
2.8188300000000002
 30
0.0
 10
-0.5865900000000001
 20
2.8188300000000002
 30
0.0
 10
-0.5865900000000001
 20
2.8188300000000002
 30
0.0
 10
-0.66025
 20
2.6562700000000001
 30
0.0
 10
-0.66025
 20
2.6562700000000001
 30
0.0
 10
-0.66025
 20
2.6562700000000001
 30
0.0
 10
-0.6500900000000001
 20
2.8747100000000003
 30
0.0
 10
-0.6018300000000001
 20
3.0906100000000003
 30
0.0
 10
-0.5586500000000001
 20
3.3014300000000003
 30
0.0
 10
-0.5586500000000001
 20
3.3014300000000003
 30
0.0
 10
-0.5586500000000001
 20
3.3014300000000003
 30
0.0
 10
-0.44435
 20
4.3707700000000003
 30
0.0
 10
-0.44435
 20
4.3707700000000003
 30
0.0
 10
-0.44435
 20
4.3707700000000003
 30
0.0
 10
-0.36307
 20
4.3098100000000006
 30
0.0
 10
-0.4367300000000001
 20
4.1701100000000002
 30
0.0
 10
-0.35037
 20
4.1015300000000003
 30
0.0
 10
-0.35037
 20
4.1015300000000003
 30
0.0
 10
-0.06589
 20
4.2234500000000006
 30
0.0
 10
0.1373
 20
4.4926900000000005
 30
0.0
 10
0.3786000000000001
 20
4.6831900000000006
 30
0.0
  0
SPLINE
  5
28
100
AcDbEntity
  8
Ebene 1
 62
     7
100
AcDbSpline
210
0.0
220
0.0
230
1.0
 70
     1
 71
     3
 72
   108
 73
   104
 74
     0
 42
0.0000000001
 43
0.0000000001
 40
0.0
 40
0.0
 40
0.0
 40
0.0
 40
0.0384615384615385
 40
0.0384615384615385
 40
0.0384615384615385
 40
0.0384615384615385
 40
0.0769230769230769
 40
0.0769230769230769
 40
0.0769230769230769
 40
0.0769230769230769
 40
0.1153846153846154
 40
0.1153846153846154
 40
0.1153846153846154
 40
0.1153846153846154
 40
0.1538461538461539
 40
0.1538461538461539
 40
0.1538461538461539
 40
0.1538461538461539
 40
0.1923076923076923
 40
0.1923076923076923
 40
0.1923076923076923
 40
0.1923076923076923
 40
0.2307692307692308
 40
0.2307692307692308
 40
0.2307692307692308
 40
0.2307692307692308
 40
0.2692307692307693
 40
0.2692307692307693
 40
0.2692307692307693
 40
0.2692307692307693
 40
0.3076923076923077
 40
0.3076923076923077
 40
0.3076923076923077
 40
0.3076923076923077
 40
0.3461538461538462
 40
0.3461538461538462
 40
0.3461538461538462
 40
0.3461538461538462
 40
0.3846153846153846
 40
0.3846153846153846
 40
0.3846153846153846
 40
0.3846153846153846
 40
0.423076923076923
 40
0.423076923076923
 40
0.423076923076923
 40
0.423076923076923
 40
0.4615384615384615
 40
0.4615384615384615
 40
0.4615384615384615
 40
0.4615384615384615
 40
0.4999999999999999
 40
0.4999999999999999
 40
0.4999999999999999
 40
0.4999999999999999
 40
0.5384615384615383
 40
0.5384615384615383
 40
0.5384615384615383
 40
0.5384615384615383
 40
0.5769230769230768
 40
0.5769230769230768
 40
0.5769230769230768
 40
0.5769230769230768
 40
0.6153846153846152
 40
0.6153846153846152
 40
0.6153846153846152
 40
0.6153846153846152
 40
0.6538461538461536
 40
0.6538461538461536
 40
0.6538461538461536
 40
0.6538461538461536
 40
0.6923076923076921
 40
0.6923076923076921
 40
0.6923076923076921
 40
0.6923076923076921
 40
0.7307692307692305
 40
0.7307692307692305
 40
0.7307692307692305
 40
0.7307692307692305
 40
0.7692307692307689
 40
0.7692307692307689
 40
0.7692307692307689
 40
0.7692307692307689
 40
0.8076923076923074
 40
0.8076923076923074
 40
0.8076923076923074
 40
0.8076923076923074
 40
0.8461538461538458
 40
0.8461538461538458
 40
0.8461538461538458
 40
0.8461538461538458
 40
0.8846153846153843
 40
0.8846153846153843
 40
0.8846153846153843
 40
0.8846153846153843
 40
0.9230769230769227
 40
0.9230769230769227
 40
0.9230769230769227
 40
0.9230769230769227
 40
0.9615384615384611
 40
0.9615384615384611
 40
0.9615384615384611
 40
0.9615384615384611
 40
1.0
 40
1.0
 40
1.0
 40
1.0
 10
1.1329800000000001
 20
3.9135700000000004
 30
0.0
 10
1.7527400000000002
 20
3.9618300000000004
 30
0.0
 10
2.4461600000000003
 20
3.3954100000000005
 30
0.0
 10
2.2709000000000001
 20
2.76295
 30
0.0
 10
2.2709000000000001
 20
2.76295
 30
0.0
 10
2.2709000000000001
 20
2.76295
 30
0.0
 10
1.9508600000000003
 20
2.7883500000000003
 30
0.0
 10
1.9508600000000003
 20
2.7883500000000003
 30
0.0
 10
1.9508600000000003
 20
2.7883500000000003
 30
0.0
 10
1.8543400000000001
 20
2.75787
 30
0.0
 10
1.7425800000000002
 20
2.7248500000000004
 30
0.0
 10
1.6714600000000002
 20
2.6511900000000002
 30
0.0
 10
1.6714600000000002
 20
2.6511900000000002
 30
0.0
 10
1.6841600000000001
 20
2.6283300000000001
 30
0.0
 10
1.69432
 20
2.5876900000000003
 30
0.0
 10
1.7324200000000001
 20
2.6080100000000002
 30
0.0
 10
1.7324200000000001
 20
2.6080100000000002
 30
0.0
 10
2.2505800000000002
 20
2.9636100000000001
 30
0.0
 10
2.6620600000000003
 20
2.2701900000000004
 30
0.0
 10
2.4563200000000003
 20
1.8053700000000001
 30
0.0
 10
2.4563200000000003
 20
1.8053700000000001
 30
0.0
 10
2.5477600000000002
 20
1.65551
 30
0.0
 10
2.5045800000000003
 20
1.4675500000000001
 30
0.0
 10
2.4842600000000004
 20
1.3024500000000001
 30
0.0
 10
2.4842600000000004
 20
1.3024500000000001
 30
0.0
 10
2.2201
 20
1.0332100000000002
 30
0.0
 10
1.9915000000000003
 20
1.3024500000000001
 30
0.0
 10
1.7705200000000001
 20
1.40151
 30
0.0
 10
1.7705200000000001
 20
1.40151
 30
0.0
 10
1.9432400000000001
 20
1.2567300000000001
 30
0.0
 10
1.7629000000000001
 20
0.8960500000000001
 30
0.0
 10
1.8213200000000001
 20
0.5887100000000001
 30
0.0
 10
1.8213200000000001
 20
0.5887100000000001
 30
0.0
 10
1.8264000000000002
 20
0.55315
 30
0.0
 10
1.8492600000000001
 20
0.45663
 30
0.0
 10
1.8086200000000001
 20
0.4845700000000001
 30
0.0
 10
1.8086200000000001
 20
0.4845700000000001
 30
0.0
 10
1.7425800000000002
 20
0.74619
 30
0.0
 10
1.4936600000000002
 20
0.31439
 30
0.0
 10
1.4784200000000001
 20
0.60141
 30
0.0
 10
1.4784200000000001
 20
0.60141
 30
0.0
 10
1.44286
 20
0.6750700000000001
 30
0.0
 10
1.4631800000000001
 20
0.5633100000000001
 30
0.0
 10
1.4631800000000001
 20
0.5455300000000001
 30
0.0
 10
1.4631800000000001
 20
0.5455300000000001
 30
0.0
 10
1.4581000000000002
 20
0.3372500000000001
 30
0.0
 10
1.3793600000000001
 20
0.5404500000000001
 30
0.0
 10
1.3742800000000002
 20
0.6953900000000001
 30
0.0
 10
1.3742800000000002
 20
0.6953900000000001
 30
0.0
 10
1.3742800000000002
 20
0.72333
 30
0.0
 10
1.36158
 20
0.8427100000000001
 30
0.0
 10
1.3387200000000001
 20
0.76905
 30
0.0
 10
1.3387200000000001
 20
0.76905
 30
0.0
 10
1.3692000000000002
 20
0.53791
 30
0.0
 10
1.2447400000000002
 20
0.3677300000000001
 30
0.0
 10
1.23458
 20
0.6039500000000001
 30
0.0
 10
1.23458
 20
0.6039500000000001
 30
0.0
 10
1.23458
 20
0.6242700000000001
 30
0.0
 10
1.2498200000000002
 20
0.7360300000000001
 30
0.0
 10
1.2218800000000001
 20
0.6776100000000001
 30
0.0
 10
1.2218800000000001
 20
0.6776100000000001
 30
0.0
 10
1.2218800000000001
 20
0.6776100000000001
 30
0.0
 10
1.2117200000000001
 20
0.6039500000000001
 30
0.0
 10
1.2117200000000001
 20
0.6039500000000001
 30
0.0
 10
1.2117200000000001
 20
0.6039500000000001
 30
0.0
 10
1.2422000000000002
 20
0.3677300000000001
 30
0.0
 10
0.9704200000000001
 20
0.31439
 30
0.0
 10
1.0390000000000001
 20
0.5861700000000001
 30
0.0
 10
1.0390000000000001
 20
0.5861700000000001
 30
0.0
 10
1.02122
 20
0.68523
 30
0.0
 10
1.0034400000000001
 20
0.56077
 30
0.0
 10
0.99582
 20
0.5429900000000001
 30
0.0
 10
0.99582
 20
0.5429900000000001
 30
0.0
 10
0.9170800000000001
 20
0.35249
 30
0.0
 10
0.8612000000000001
 20
0.48965
 30
0.0
 10
0.8840600000000001
 20
0.60141
 30
0.0
 10
0.8840600000000001
 20
0.60141
 30
0.0
 10
0.8993000000000001
 20
0.6725300000000001
 30
0.0
 10
0.8789800000000001
 20
0.7588900000000001
 30
0.0
 10
0.8561200000000001
 20
0.6953900000000001
 30
0.0
 10
0.8561200000000001
 20
0.6953900000000001
 30
0.0
 10
0.8764400000000001
 20
0.61665
 30
0.0
 10
0.8383400000000001
 20
0.5277500000000001
 30
0.0
 10
0.7545200000000001
 20
0.53029
 30
0.0
 10
0.7545200000000001
 20
0.53029
 30
0.0
 10
0.8662800000000001
 20
0.76397
 30
0.0
 10
0.55894
 20
1.2262500000000001
 30
0.0
 10
0.7799200000000001
 20
1.2668900000000001
 30
0.0
 10
0.7799200000000001
 20
1.2668900000000001
 30
0.0
 10
0.82564
 20
1.27451
 30
0.0
 10
0.8561200000000001
 20
1.3735700000000002
 30
0.0
 10
0.7951600000000001
 20
1.3735700000000002
 30
0.0
 10
0.7951600000000001
 20
1.3735700000000002
 30
0.0
 10
0.7519800000000001
 20
1.3862700000000001
 30
0.0
 10
0.70372
 20
1.39897
 30
0.0
 10
0.66308
 20
1.3710300000000002
 30
0.0
 10
0.66308
 20
1.3710300000000002
 30
0.0
 10
0.30494
 20
0.97733
 30
0.0
 10
-0.26401
 20
1.03067
 30
0.0
 10
-0.5662700000000001
 20
1.4548500000000002
 30
0.0
 10
-0.5662700000000001
 20
1.4548500000000002
 30
0.0
 10
-0.5408700000000001
 20
2.5013300000000003
 30
0.0
 10
-0.00239
 20
3.7205300000000001
 30
0.0
 10
1.1329800000000001
 20
3.9135700000000004
 30
0.0
  0
SPLINE
  5
29
100
AcDbEntity
  8
Ebene 1
100
AcDbSpline
210
0.0
220
0.0
230
1.0
 70
     1
 71
     3
 72
    32
 73
    28
 74
     0
 42
0.0000000001
 43
0.0000000001
 40
0.0
 40
0.0
 40
0.0
 40
0.0
 40
0.1428571428571429
 40
0.1428571428571429
 40
0.1428571428571429
 40
0.1428571428571429
 40
0.2857142857142857
 40
0.2857142857142857
 40
0.2857142857142857
 40
0.2857142857142857
 40
0.4285714285714286
 40
0.4285714285714286
 40
0.4285714285714286
 40
0.4285714285714286
 40
0.5714285714285714
 40
0.5714285714285714
 40
0.5714285714285714
 40
0.5714285714285714
 40
0.7142857142857142
 40
0.7142857142857142
 40
0.7142857142857142
 40
0.7142857142857142
 40
0.857142857142857
 40
0.857142857142857
 40
0.857142857142857
 40
0.857142857142857
 40
1.0
 40
1.0
 40
1.0
 40
1.0
 10
0.9805800000000001
 20
3.4208100000000004
 30
0.0
 10
1.06694
 20
3.3979500000000002
 30
0.0
 10
1.23458
 20
3.4665300000000001
 30
0.0
 10
1.27014
 20
3.3801700000000001
 30
0.0
 10
1.27014
 20
3.3801700000000001
 30
0.0
 10
0.8434200000000001
 20
3.5528900000000001
 30
0.0
 10
0.23128
 20
2.8264500000000004
 30
0.0
 10
0.76468
 20
2.6054700000000004
 30
0.0
 10
0.76468
 20
2.6054700000000004
 30
0.0
 10
0.8840600000000001
 20
2.5648300000000002
 30
0.0
 10
0.7723000000000001
 20
2.5191100000000004
 30
0.0
 10
0.7088000000000001
 20
2.5775300000000003
 30
0.0
 10
0.7088000000000001
 20
2.5775300000000003
 30
0.0
 10
0.6656200000000001
 20
2.5927700000000002
 30
0.0
 10
0.6249800000000001
 20
2.6130900000000001
 30
0.0
 10
0.59196
 20
2.6486500000000004
 30
0.0
 10
0.59196
 20
2.6486500000000004
 30
0.0
 10
0.59196
 20
2.6486500000000004
 30
0.0
 10
0.4548
 20
2.7705700000000002
 30
0.0
 10
0.4548
 20
2.7705700000000002
 30
0.0
 10
0.4548
 20
2.7705700000000002
 30
0.0
 10
0.4548
 20
2.7705700000000002
 30
0.0
 10
0.10174
 20
2.80613
 30
0.0
 10
0.10174
 20
2.80613
 30
0.0
 10
0.10174
 20
2.80613
 30
0.0
 10
0.4675
 20
2.84423
 30
0.0
 10
0.5894200000000001
 20
3.3674700000000004
 30
0.0
 10
0.9805800000000001
 20
3.4208100000000004
 30
0.0
  0
SPLINE
  5
2A
100
AcDbEntity
  8
Ebene 1
100
AcDbSpline
210
0.0
220
0.0
230
1.0
 70
     1
 71
     3
 72
    64
 73
    60
 74
     0
 42
0.0000000001
 43
0.0000000001
 40
0.0
 40
0.0
 40
0.0
 40
0.0
 40
0.0666666666666667
 40
0.0666666666666667
 40
0.0666666666666667
 40
0.0666666666666667
 40
0.1333333333333333
 40
0.1333333333333333
 40
0.1333333333333333
 40
0.1333333333333333
 40
0.2
 40
0.2
 40
0.2
 40
0.2
 40
0.2666666666666667
 40
0.2666666666666667
 40
0.2666666666666667
 40
0.2666666666666667
 40
0.3333333333333333
 40
0.3333333333333333
 40
0.3333333333333333
 40
0.3333333333333333
 40
0.4
 40
0.4
 40
0.4
 40
0.4
 40
0.4666666666666666
 40
0.4666666666666666
 40
0.4666666666666666
 40
0.4666666666666666
 40
0.5333333333333333
 40
0.5333333333333333
 40
0.5333333333333333
 40
0.5333333333333333
 40
0.6
 40
0.6
 40
0.6
 40
0.6
 40
0.6666666666666666
 40
0.6666666666666666
 40
0.6666666666666666
 40
0.6666666666666666
 40
0.7333333333333333
 40
0.7333333333333333
 40
0.7333333333333333
 40
0.7333333333333333
 40
0.7999999999999999
 40
0.7999999999999999
 40
0.7999999999999999
 40
0.7999999999999999
 40
0.8666666666666666
 40
0.8666666666666666
 40
0.8666666666666666
 40
0.8666666666666666
 40
0.9333333333333332
 40
0.9333333333333332
 40
0.9333333333333332
 40
0.9333333333333332
 40
1.0
 40
1.0
 40
1.0
 40
1.0
 10
0.3024
 20
2.6511900000000002
 30
0.0
 10
0.37098
 20
2.4378300000000004
 30
0.0
 10
0.76214
 20
1.8561700000000001
 30
0.0
 10
1.0390000000000001
 20
2.12541
 30
0.0
 10
1.0390000000000001
 20
2.12541
 30
0.0
 10
1.0390000000000001
 20
2.12541
 30
0.0
 10
0.88914
 20
2.1279500000000002
 30
0.0
 10
0.88914
 20
2.1279500000000002
 30
0.0
 10
0.88914
 20
2.1279500000000002
 30
0.0
 10
0.7367400000000001
 20
2.2092300000000002
 30
0.0
 10
0.78754
 20
2.2701900000000004
 30
0.0
 10
0.9170800000000001
 20
2.1584300000000001
 30
0.0
 10
0.9170800000000001
 20
2.1584300000000001
 30
0.0
 10
1.1837800000000001
 20
2.08223
 30
0.0
 10
1.2853800000000002
 20
2.3286100000000003
 30
0.0
 10
1.2269600000000001
 20
2.5292700000000004
 30
0.0
 10
1.2269600000000001
 20
2.5292700000000004
 30
0.0
 10
1.3641200000000002
 20
2.4860900000000004
 30
0.0
 10
1.27014
 20
2.3006700000000002
 30
0.0
 10
1.3184
 20
2.2041500000000003
 30
0.0
 10
1.3184
 20
2.2041500000000003
 30
0.0
 10
1.3184
 20
2.2041500000000003
 30
0.0
 10
1.23712
 20
2.0542899999999999
 30
0.0
 10
1.23712
 20
2.0542899999999999
 30
0.0
 10
1.23712
 20
2.0542899999999999
 30
0.0
 10
0.7316600000000001
 20
1.9018900000000001
 30
0.0
 10
0.61482
 20
1.6326500000000002
 30
0.0
 10
0.02554
 20
1.7723500000000001
 30
0.0
 10
0.02554
 20
1.7723500000000001
 30
0.0
 10
-0.05573
 20
1.7774300000000001
 30
0.0
 10
-0.13701
 20
1.7698100000000001
 30
0.0
 10
-0.21321
 20
1.73933
 30
0.0
 10
-0.21321
 20
1.73933
 30
0.0
 10
-0.21321
 20
1.73933
 30
0.0
 10
-0.27925
 20
1.4192900000000002
 30
0.0
 10
-0.27925
 20
1.4192900000000002
 30
0.0
 10
-0.27925
 20
1.4192900000000002
 30
0.0
 10
-0.38847
 20
1.5970900000000001
 30
0.0
 10
-0.29195
 20
1.8485500000000001
 30
0.0
 10
-0.06589
 20
1.8714100000000002
 30
0.0
 10
-0.06589
 20
1.8714100000000002
 30
0.0
 10
-0.11415
 20
1.9476100000000001
 30
0.0
 10
-0.18781
 20
2.0314300000000003
 30
0.0
 10
-0.15733
 20
2.1431900000000002
 30
0.0
 10
-0.15733
 20
2.1431900000000002
 30
0.0
 10
-0.18019
 20
2.22193
 30
0.0
 10
0.03824
 20
2.29305
 30
0.0
 10
-0.05827
 20
2.3082900000000004
 30
0.0
 10
-0.05827
 20
2.3082900000000004
 30
0.0
 10
-0.16749
 20
2.2778100000000001
 30
0.0
 10
-0.23353
 20
2.1381100000000002
 30
0.0
 10
-0.35037
 20
2.16351
 30
0.0
 10
-0.35037
 20
2.16351
 30
0.0
 10
-0.23607
 20
2.3235300000000003
 30
0.0
 10
0.02554
 20
2.4733900000000002
 30
0.0
 10
0.2389
 20
2.4556100000000001
 30
0.0
 10
0.2389
 20
2.4556100000000001
 30
0.0
 10
0.2389
 20
2.4556100000000001
 30
0.0
 10
0.3024
 20
2.6511900000000002
 30
0.0
 10
0.3024
 20
2.6511900000000002
 30
0.0
  0
SPLINE
  5
2B
100
AcDbEntity
  8
Ebene 1
100
AcDbSpline
210
0.0
220
0.0
230
1.0
 70
     1
 71
     3
 72
    24
 73
    20
 74
     0
 42
0.0000000001
 43
0.0000000001
 40
0.0
 40
0.0
 40
0.0
 40
0.0
 40
0.2
 40
0.2
 40
0.2
 40
0.2
 40
0.4
 40
0.4
 40
0.4
 40
0.4
 40
0.6000000000000001
 40
0.6000000000000001
 40
0.6000000000000001
 40
0.6000000000000001
 40
0.8
 40
0.8
 40
0.8
 40
0.8
 40
1.0
 40
1.0
 40
1.0
 40
1.0
 10
1.4123800000000002
 20
2.4352900000000002
 30
0.0
 10
1.5520800000000001
 20
2.41751
 30
0.0
 10
1.4352400000000001
 20
2.16351
 30
0.0
 10
1.6155800000000002
 20
2.1177900000000003
 30
0.0
 10
1.6155800000000002
 20
2.1177900000000003
 30
0.0
 10
1.8695800000000002
 20
2.17367
 30
0.0
 10
2.1134200000000001
 20
2.4937100000000001
 30
0.0
 10
2.37758
 20
2.2778100000000001
 30
0.0
 10
2.37758
 20
2.2778100000000001
 30
0.0
 10
2.3928200000000004
 20
1.9806300000000001
 30
0.0
 10
1.9762600000000001
 20
1.6504300000000001
 30
0.0
 10
1.7476600000000002
 20
1.9552300000000002
 30
0.0
 10
1.7476600000000002
 20
1.9552300000000002
 30
0.0
 10
1.7171800000000002
 20
1.9120500000000002
 30
0.0
 10
1.8060800000000001
 20
1.8180700000000001
 30
0.0
 10
1.7654400000000001
 20
1.7723500000000001
 30
0.0
 10
1.7654400000000001
 20
1.7723500000000001
 30
0.0
 10
1.7121000000000002
 20
2.0593700000000004
 30
0.0
 10
1.2168000000000001
 20
2.0771500000000001
 30
0.0
 10
1.4123800000000002
 20
2.4352900000000002
 30
0.0
  0
SPLINE
  5
2C
100
AcDbEntity
  8
Ebene 1
100
AcDbSpline
210
0.0
220
0.0
230
1.0
 70
     1
 71
     3
 72
    28
 73
    24
 74
     0
 42
0.0000000001
 43
0.0000000001
 40
0.0
 40
0.0
 40
0.0
 40
0.0
 40
0.1666666666666667
 40
0.1666666666666667
 40
0.1666666666666667
 40
0.1666666666666667
 40
0.3333333333333333
 40
0.3333333333333333
 40
0.3333333333333333
 40
0.3333333333333333
 40
0.5
 40
0.5
 40
0.5
 40
0.5
 40
0.6666666666666666
 40
0.6666666666666666
 40
0.6666666666666666
 40
0.6666666666666666
 40
0.8333333333333333
 40
0.8333333333333333
 40
0.8333333333333333
 40
0.8333333333333333
 40
1.0
 40
1.0
 40
1.0
 40
1.0
 10
1.19394
 20
1.7418700000000003
 30
0.0
 10
1.2422000000000002
 20
1.7494900000000002
 30
0.0
 10
1.2828400000000002
 20
1.7342500000000001
 30
0.0
 10
1.3184
 20
1.7113900000000002
 30
0.0
 10
1.3184
 20
1.7113900000000002
 30
0.0
 10
1.3184
 20
1.7113900000000002
 30
0.0
 10
1.4708000000000001
 20
1.73933
 30
0.0
 10
1.4708000000000001
 20
1.73933
 30
0.0
 10
1.4708000000000001
 20
1.73933
 30
0.0
 10
1.5774800000000002
 20
1.5513700000000001
 30
0.0
 10
1.5978000000000001
 20
1.3253100000000002
 30
0.0
 10
1.6384400000000001
 20
1.1170300000000002
 30
0.0
 10
1.6384400000000001
 20
1.1170300000000002
 30
0.0
 10
1.5597000000000001
 20
0.9747900000000001
 30
0.0
 10
1.35904
 20
1.2262500000000001
 30
0.0
 10
1.3488800000000001
 20
1.01797
 30
0.0
 10
1.3488800000000001
 20
1.01797
 30
0.0
 10
1.3184
 20
1.1627500000000002
 30
0.0
 10
1.1761600000000001
 20
0.9697100000000001
 30
0.0
 10
1.0771000000000002
 20
1.0078100000000001
 30
0.0
 10
1.0771000000000002
 20
1.0078100000000001
 30
0.0
 10
1.0466200000000001
 20
1.2465700000000002
 30
0.0
 10
1.0872600000000001
 20
1.52851
 30
0.0
 10
1.19394
 20
1.7418700000000003
 30
0.0
  0
SPLINE
  5
2D
100
AcDbEntity
  8
Ebene 1
 62
     7
100
AcDbSpline
210
0.0
220
0.0
230
1.0
 70
     1
 71
     3
 72
   100
 73
    96
 74
     0
 42
0.0000000001
 43
0.0000000001
 40
0.0
 40
0.0
 40
0.0
 40
0.0
 40
0.0416666666666667
 40
0.0416666666666667
 40
0.0416666666666667
 40
0.0416666666666667
 40
0.0833333333333333
 40
0.0833333333333333
 40
0.0833333333333333
 40
0.0833333333333333
 40
0.125
 40
0.125
 40
0.125
 40
0.125
 40
0.1666666666666667
 40
0.1666666666666667
 40
0.1666666666666667
 40
0.1666666666666667
 40
0.2083333333333333
 40
0.2083333333333333
 40
0.2083333333333333
 40
0.2083333333333333
 40
0.25
 40
0.25
 40
0.25
 40
0.25
 40
0.2916666666666666
 40
0.2916666666666666
 40
0.2916666666666666
 40
0.2916666666666666
 40
0.3333333333333333
 40
0.3333333333333333
 40
0.3333333333333333
 40
0.3333333333333333
 40
0.375
 40
0.375
 40
0.375
 40
0.375
 40
0.4166666666666667
 40
0.4166666666666667
 40
0.4166666666666667
 40
0.4166666666666667
 40
0.4583333333333334
 40
0.4583333333333334
 40
0.4583333333333334
 40
0.4583333333333334
 40
0.5
 40
0.5
 40
0.5
 40
0.5
 40
0.5416666666666666
 40
0.5416666666666666
 40
0.5416666666666666
 40
0.5416666666666666
 40
0.5833333333333333
 40
0.5833333333333333
 40
0.5833333333333333
 40
0.5833333333333333
 40
0.6249999999999999
 40
0.6249999999999999
 40
0.6249999999999999
 40
0.6249999999999999
 40
0.6666666666666665
 40
0.6666666666666665
 40
0.6666666666666665
 40
0.6666666666666665
 40
0.7083333333333332
 40
0.7083333333333332
 40
0.7083333333333332
 40
0.7083333333333332
 40
0.7499999999999998
 40
0.7499999999999998
 40
0.7499999999999998
 40
0.7499999999999998
 40
0.7916666666666664
 40
0.7916666666666664
 40
0.7916666666666664
 40
0.7916666666666664
 40
0.833333333333333
 40
0.833333333333333
 40
0.833333333333333
 40
0.833333333333333
 40
0.8749999999999997
 40
0.8749999999999997
 40
0.8749999999999997
 40
0.8749999999999997
 40
0.9166666666666663
 40
0.9166666666666663
 40
0.9166666666666663
 40
0.9166666666666663
 40
0.9583333333333329
 40
0.9583333333333329
 40
0.9583333333333329
 40
0.9583333333333329
 40
1.0
 40
1.0
 40
1.0
 40
1.0
 10
-0.52563
 20
1.3278500000000002
 30
0.0
 10
-0.22083
 20
1.1779900000000001
 30
0.0
 10
-0.37069
 20
0.7360300000000001
 30
0.0
 10
-0.13955
 20
0.5277500000000001
 30
0.0
 10
-0.13955
 20
0.5277500000000001
 30
0.0
 10
-0.00239
 20
0.6445900000000001
 30
0.0
 10
-0.23607
 20
1.1271900000000001
 30
0.0
 10
0.023
 20
1.0001900000000001
 30
0.0
 10
0.023
 20
1.0001900000000001
 30
0.0
 10
0.023
 20
1.0001900000000001
 30
0.0
 10
0.03062
 20
0.23819
 30
0.0
 10
0.03062
 20
0.23819
 30
0.0
 10
0.03062
 20
0.23819
 30
0.0
 10
0.09158
 20
0.15691
 30
0.0
 10
0.20842
 20
0.13913
 30
0.0
 10
0.29986
 20
0.16961
 30
0.0
 10
0.29986
 20
0.16961
 30
0.0
 10
0.34812
 20
-0.17582
 30
0.0
 10
0.6935600000000001
 20
-0.06914
 30
0.0
 10
0.7697600000000001
 20
-0.38918
 30
0.0
 10
0.7697600000000001
 20
-0.38918
 30
0.0
 10
0.8535800000000001
 20
-0.31806
 30
0.0
 10
0.9678800000000001
 20
-0.44252
 30
0.0
 10
0.9932800000000001
 20
-0.58984
 30
0.0
 10
0.9932800000000001
 20
-0.58984
 30
0.0
 10
0.9932800000000001
 20
-0.58984
 30
0.0
 10
1.0263
 20
-0.56698
 30
0.0
 10
1.0263
 20
-0.56698
 30
0.0
 10
1.0263
 20
-0.56698
 30
0.0
 10
1.0263
 20
-0.56698
 30
0.0
 10
0.9907400000000001
 20
-0.36886
 30
0.0
 10
0.9907400000000001
 20
-0.36886
 30
0.0
 10
0.9907400000000001
 20
-0.36886
 30
0.0
 10
0.9907400000000001
 20
-0.36886
 30
0.0
 10
1.02376
 20
-0.27488
 30
0.0
 10
1.02376
 20
-0.27488
 30
0.0
 10
1.02376
 20
-0.27488
 30
0.0
 10
1.01614
 20
-0.4095
 30
0.0
 10
1.1279000000000001
 20
-0.5009400000000001
 30
0.0
 10
1.2218800000000001
 20
-0.36632
 30
0.0
 10
1.2218800000000001
 20
-0.36632
 30
0.0
 10
1.18632
 20
-0.6609600000000001
 30
0.0
 10
1.40222
 20
-0.65588
 30
0.0
 10
1.3692000000000002
 20
-0.36632
 30
0.0
 10
1.3692000000000002
 20
-0.36632
 30
0.0
 10
1.5012800000000002
 20
-0.4907800000000001
 30
0.0
 10
1.5368400000000002
 20
-0.22916
 30
0.0
 10
1.5241400000000001
 20
-0.11994
 30
0.0
 10
1.5241400000000001
 20
-0.11994
 30
0.0
 10
1.56986
 20
-0.30282
 30
0.0
 10
1.7070200000000002
 20
-0.22408
 30
0.0
 10
1.6917800000000001
 20
0.00197
 30
0.0
 10
1.6917800000000001
 20
0.00197
 30
0.0
 10
1.7679800000000001
 20
-0.02088
 30
0.0
 10
1.7197200000000001
 20
-0.13772
 30
0.0
 10
1.7654400000000001
 20
-0.1936
 30
0.0
 10
1.7654400000000001
 20
-0.1936
 30
0.0
 10
1.8111600000000001
 20
0.01721
 30
0.0
 10
1.7832200000000002
 20
0.21025
 30
0.0
 10
2.0118200000000002
 20
0.23565
 30
0.0
 10
2.0118200000000002
 20
0.23565
 30
0.0
 10
2.0219800000000001
 20
0.5404500000000001
 30
0.0
 10
1.9076800000000003
 20
0.8757300000000001
 30
0.0
 10
2.0118200000000002
 20
1.1729100000000001
 30
0.0
 10
2.0118200000000002
 20
1.1729100000000001
 30
0.0
 10
2.1261200000000002
 20
1.14751
 30
0.0
 10
2.0804
 20
1.0128900000000001
 30
0.0
 10
2.0880200000000002
 20
0.9265300000000001
 30
0.0
 10
2.0880200000000002
 20
0.9265300000000001
 30
0.0
 10
2.0880200000000002
 20
0.9265300000000001
 30
0.0
 10
2.0931000000000002
 20
0.63951
 30
0.0
 10
2.0931000000000002
 20
0.63951
 30
0.0
 10
2.0931000000000002
 20
0.63951
 30
0.0
 10
2.1870800000000004
 20
0.76651
 30
0.0
 10
2.0981800000000002
 20
1.0103500000000001
 30
0.0
 10
2.2429600000000001
 20
1.1271900000000001
 30
0.0
 10
2.2429600000000001
 20
1.1271900000000001
 30
0.0
 10
2.2023200000000003
 20
0.41599
 30
0.0
 10
2.0804
 20
-0.54666
 30
0.0
 10
1.4301600000000001
 20
-0.92766
 30
0.0
 10
1.4301600000000001
 20
-0.92766
 30
0.0
 10
1.4301600000000001
 20
-0.92766
 30
0.0
 10
1.27268
 20
-0.8565400000000001
 30
0.0
 10
1.27268
 20
-0.8565400000000001
 30
0.0
 10
1.27268
 20
-0.8565400000000001
 30
0.0
 10
0.6757800000000001
 20
-1.1715
 30
0.0
 10
-0.01001
 20
-0.42982
 30
0.0
 10
-0.19035
 20
0.09341
 30
0.0
 10
-0.19035
 20
0.09341
 30
0.0
 10
-0.29703
 20
0.03499
 30
0.0
 10
-0.40117
 20
0.18231
 30
0.0
 10
-0.4595900000000001
 20
0.27121
 30
0.0
 10
-0.4595900000000001
 20
0.27121
 30
0.0
 10
-0.4595900000000001
 20
0.61665
 30
0.0
 10
-0.40117
 20
1.0027300000000001
 30
0.0
 10
-0.52563
 20
1.3278500000000002
 30
0.0
  0
SPLINE
  5
2E
100
AcDbEntity
  8
Ebene 1
 62
     7
100
AcDbSpline
210
0.0
220
0.0
230
1.0
 70
     1
 71
     3
 72
    36
 73
    32
 74
     0
 42
0.0000000001
 43
0.0000000001
 40
0.0
 40
0.0
 40
0.0
 40
0.0
 40
0.125
 40
0.125
 40
0.125
 40
0.125
 40
0.25
 40
0.25
 40
0.25
 40
0.25
 40
0.375
 40
0.375
 40
0.375
 40
0.375
 40
0.5
 40
0.5
 40
0.5
 40
0.5
 40
0.625
 40
0.625
 40
0.625
 40
0.625
 40
0.75
 40
0.75
 40
0.75
 40
0.75
 40
0.875
 40
0.875
 40
0.875
 40
0.875
 40
1.0
 40
1.0
 40
1.0
 40
1.0
 10
0.5183000000000001
 20
1.1729100000000001
 30
0.0
 10
0.7291200000000001
 20
1.10433
 30
0.0
 10
0.80532
 20
0.7157100000000001
 30
0.0
 10
0.6275200000000001
 20
0.6039500000000001
 30
0.0
 10
0.6275200000000001
 20
0.6039500000000001
 30
0.0
 10
0.59196
 20
0.6750700000000001
 30
0.0
 10
0.6326000000000001
 20
0.9849500000000001
 30
0.0
 10
0.57926
 20
0.7411100000000001
 30
0.0
 10
0.57926
 20
0.7411100000000001
 30
0.0
 10
0.4725800000000001
 20
0.5912500000000001
 30
0.0
 10
0.5640200000000001
 20
0.9671700000000001
 30
0.0
 10
0.4725800000000001
 20
0.8655700000000001
 30
0.0
 10
0.4725800000000001
 20
0.8655700000000001
 30
0.0
 10
0.47766
 20
0.8223900000000001
 30
0.0
 10
0.4725800000000001
 20
0.7741300000000001
 30
0.0
 10
0.42686
 20
0.7563500000000001
 30
0.0
 10
0.42686
 20
0.7563500000000001
 30
0.0
 10
0.40146
 20
0.7588900000000001
 30
0.0
 10
0.41416
 20
0.7919100000000001
 30
0.0
 10
0.41162
 20
0.8046100000000001
 30
0.0
 10
0.41162
 20
0.8046100000000001
 30
0.0
 10
0.41162
 20
0.8046100000000001
 30
0.0
 10
0.4421000000000001
 20
1.11195
 30
0.0
 10
0.4421000000000001
 20
1.11195
 30
0.0
 10
0.4421000000000001
 20
1.11195
 30
0.0
 10
0.4421000000000001
 20
1.11195
 30
0.0
 10
0.5843400000000001
 20
0.9011300000000001
 30
0.0
 10
0.5843400000000001
 20
0.9011300000000001
 30
0.0
 10
0.5843400000000001
 20
0.9011300000000001
 30
0.0
 10
0.6834
 20
0.9036700000000001
 30
0.0
 10
0.51322
 20
1.0890900000000001
 30
0.0
 10
0.5183000000000001
 20
1.1729100000000001
 30
0.0
  0
SPLINE
  5
2F
100
AcDbEntity
  8
Ebene 1
100
AcDbSpline
210
0.0
220
0.0
230
1.0
 70
     1
 71
     3
 72
    20
 73
    16
 74
     0
 42
0.0000000001
 43
0.0000000001
 40
0.0
 40
0.0
 40
0.0
 40
0.0
 40
0.25
 40
0.25
 40
0.25
 40
0.25
 40
0.5
 40
0.5
 40
0.5
 40
0.5
 40
0.75
 40
0.75
 40
0.75
 40
0.75
 40
1.0
 40
1.0
 40
1.0
 40
1.0
 10
-1.2342900000000001
 20
1.0814700000000002
 30
0.0
 10
-1.2698500000000001
 20
0.4515500000000001
 30
0.0
 10
-1.50607
 20
-0.2571
 30
0.0
 10
-1.7727700000000002
 20
-0.8717800000000001
 30
0.0
 10
-1.7727700000000002
 20
-0.8717800000000001
 30
0.0
 10
-1.7803900000000001
 20
-1.2400800000000001
 30
0.0
 10
-1.6889500000000002
 20
-1.6414000000000002
 30
0.0
 10
-1.7245100000000002
 20
-2.0097
 30
0.0
 10
-1.7245100000000002
 20
-2.0097
 30
0.0
 10
-1.7245100000000002
 20
-2.0097
 30
0.0
 10
-1.9556500000000001
 20
-0.65588
 30
0.0
 10
-1.9556500000000001
 20
-0.65588
 30
0.0
 10
-1.9556500000000001
 20
-0.65588
 30
0.0
 10
-1.58989
 20
-0.13264
 30
0.0
 10
-1.3562100000000001
 20
0.46679
 30
0.0
 10
-1.2342900000000001
 20
1.0814700000000002
 30
0.0
  0
SPLINE
  5
30
100
AcDbEntity
  8
Ebene 1
 62
     7
100
AcDbSpline
210
0.0
220
0.0
230
1.0
 70
     1
 71
     3
 72
    16
 73
    12
 74
     0
 42
0.0000000001
 43
0.0000000001
 40
0.0
 40
0.0
 40
0.0
 40
0.0
 40
0.3333333333333333
 40
0.3333333333333333
 40
0.3333333333333333
 40
0.3333333333333333
 40
0.6666666666666666
 40
0.6666666666666666
 40
0.6666666666666666
 40
0.6666666666666666
 40
1.0
 40
1.0
 40
1.0
 40
1.0
 10
0.42686
 20
0.6953900000000001
 30
0.0
 10
0.42686
 20
0.6953900000000001
 30
0.0
 10
0.47004
 20
0.6928500000000001
 30
0.0
 10
0.47004
 20
0.6928500000000001
 30
0.0
 10
0.47004
 20
0.6928500000000001
 30
0.0
 10
0.46496
 20
0.57855
 30
0.0
 10
0.4624200000000001
 20
0.43631
 30
0.0
 10
0.3684400000000001
 20
0.36265
 30
0.0
 10
0.3684400000000001
 20
0.36265
 30
0.0
 10
0.3252600000000001
 20
0.46679
 30
0.0
 10
0.3913
 20
0.59379
 30
0.0
 10
0.42686
 20
0.6953900000000001
 30
0.0
  0
SPLINE
  5
31
100
AcDbEntity
  8
Ebene 1
 62
     7
100
AcDbSpline
210
0.0
220
0.0
230
1.0
 70
     1
 71
     3
 72
    16
 73
    12
 74
     0
 42
0.0000000001
 43
0.0000000001
 40
0.0
 40
0.0
 40
0.0
 40
0.0
 40
0.3333333333333333
 40
0.3333333333333333
 40
0.3333333333333333
 40
0.3333333333333333
 40
0.6666666666666666
 40
0.6666666666666666
 40
0.6666666666666666
 40
0.6666666666666666
 40
1.0
 40
1.0
 40
1.0
 40
1.0
 10
0.5183000000000001
 20
0.6344300000000001
 30
0.0
 10
0.5183000000000001
 20
0.6344300000000001
 30
0.0
 10
0.5614800000000001
 20
0.6318900000000001
 30
0.0
 10
0.5614800000000001
 20
0.6318900000000001
 30
0.0
 10
0.5614800000000001
 20
0.6318900000000001
 30
0.0
 10
0.5691000000000001
 20
0.4947300000000001
 30
0.0
 10
0.6072000000000001
 20
0.32201
 30
0.0
 10
0.5030600000000001
 20
0.21787
 30
0.0
 10
0.5030600000000001
 20
0.21787
 30
0.0
 10
0.3913
 20
0.32455
 30
0.0
 10
0.5183000000000001
 20
0.5023500000000001
 30
0.0
 10
0.5183000000000001
 20
0.6344300000000001
 30
0.0
  0
SPLINE
  5
32
100
AcDbEntity
  8
Ebene 1
 62
     7
100
AcDbSpline
210
0.0
220
0.0
230
1.0
 70
     1
 71
     3
 72
    20
 73
    16
 74
     0
 42
0.0000000001
 43
0.0000000001
 40
0.0
 40
0.0
 40
0.0
 40
0.0
 40
0.25
 40
0.25
 40
0.25
 40
0.25
 40
0.5
 40
0.5
 40
0.5
 40
0.5
 40
0.75
 40
0.75
 40
0.75
 40
0.75
 40
1.0
 40
1.0
 40
1.0
 40
1.0
 10
0.6732400000000001
 20
0.57347
 30
0.0
 10
0.6732400000000001
 20
0.57347
 30
0.0
 10
0.69864
 20
0.5709300000000001
 30
0.0
 10
0.69864
 20
0.5709300000000001
 30
0.0
 10
0.69864
 20
0.5709300000000001
 30
0.0
 10
0.6910200000000001
 20
0.42615
 30
0.0
 10
0.7545200000000001
 20
0.20263
 30
0.0
 10
0.6122800000000001
 20
0.12643
 30
0.0
 10
0.6122800000000001
 20
0.12643
 30
0.0
 10
0.5945
 20
0.13151
 30
0.0
 10
0.5843400000000001
 20
0.14167
 30
0.0
 10
0.57926
 20
0.15691
 30
0.0
 10
0.57926
 20
0.15691
 30
0.0
 10
0.57926
 20
0.15691
 30
0.0
 10
0.6732400000000001
 20
0.57347
 30
0.0
 10
0.6732400000000001
 20
0.57347
 30
0.0
  0
SPLINE
  5
33
100
AcDbEntity
  8
Ebene 1
 62
     7
100
AcDbSpline
210
0.0
220
0.0
230
1.0
 70
     1
 71
     3
 72
    12
 73
     8
 74
     0
 42
0.0000000001
 43
0.0000000001
 40
0.0
 40
0.0
 40
0.0
 40
0.0
 40
0.5
 40
0.5
 40
0.5
 40
0.5
 40
1.0
 40
1.0
 40
1.0
 40
1.0
 10
1.7044800000000002
 20
0.5277500000000001
 30
0.0
 10
1.7883000000000002
 20
0.45917
 30
0.0
 10
1.8467200000000001
 20
0.2737500000000001
 30
0.0
 10
1.7349600000000001
 20
0.20263
 30
0.0
 10
1.7349600000000001
 20
0.20263
 30
0.0
 10
1.6917800000000001
 20
0.28899
 30
0.0
 10
1.6257400000000002
 20
0.4439300000000001
 30
0.0
 10
1.7044800000000002
 20
0.5277500000000001
 30
0.0
  0
SPLINE
  5
34
100
AcDbEntity
  8
Ebene 1
 62
     7
100
AcDbSpline
210
0.0
220
0.0
230
1.0
 70
     1
 71
     3
 72
    20
 73
    16
 74
     0
 42
0.0000000001
 43
0.0000000001
 40
0.0
 40
0.0
 40
0.0
 40
0.0
 40
0.25
 40
0.25
 40
0.25
 40
0.25
 40
0.5
 40
0.5
 40
0.5
 40
0.5
 40
0.75
 40
0.75
 40
0.75
 40
0.75
 40
1.0
 40
1.0
 40
1.0
 40
1.0
 10
0.7951600000000001
 20
0.47949
 30
0.0
 10
0.8129400000000001
 20
0.4845700000000001
 30
0.0
 10
0.82818
 20
0.4744100000000001
 30
0.0
 10
0.8383400000000001
 20
0.4617100000000001
 30
0.0
 10
0.8383400000000001
 20
0.4617100000000001
 30
0.0
 10
0.7748400000000001
 20
0.32201
 30
0.0
 10
0.93486
 20
0.12897
 30
0.0
 10
0.8231000000000001
 20
0.02483
 30
0.0
 10
0.8231000000000001
 20
0.02483
 30
0.0
 10
0.8231000000000001
 20
0.02483
 30
0.0
 10
0.7392800000000001
 20
0.05531
 30
0.0
 10
0.7392800000000001
 20
0.05531
 30
0.0
 10
0.7392800000000001
 20
0.05531
 30
0.0
 10
0.7113400000000001
 20
0.19501
 30
0.0
 10
0.72404
 20
0.3575700000000001
 30
0.0
 10
0.7951600000000001
 20
0.47949
 30
0.0
  0
SPLINE
  5
35
100
AcDbEntity
  8
Ebene 1
 62
     7
100
AcDbSpline
210
0.0
220
0.0
230
1.0
 70
     1
 71
     3
 72
    20
 73
    16
 74
     0
 42
0.0000000001
 43
0.0000000001
 40
0.0
 40
0.0
 40
0.0
 40
0.0
 40
0.25
 40
0.25
 40
0.25
 40
0.25
 40
0.5
 40
0.5
 40
0.5
 40
0.5
 40
0.75
 40
0.75
 40
0.75
 40
0.75
 40
1.0
 40
1.0
 40
1.0
 40
1.0
 10
1.5647800000000001
 20
0.4515500000000001
 30
0.0
 10
1.5825600000000002
 20
0.4540900000000001
 30
0.0
 10
1.5978000000000001
 20
0.4439300000000001
 30
0.0
 10
1.6079600000000001
 20
0.4312300000000001
 30
0.0
 10
1.6079600000000001
 20
0.4312300000000001
 30
0.0
 10
1.6257400000000002
 20
0.31439
 30
0.0
 10
1.7654400000000001
 20
0.11627
 30
0.0
 10
1.5952600000000001
 20
0.06547
 30
0.0
 10
1.5952600000000001
 20
0.06547
 30
0.0
 10
1.5063600000000001
 20
0.13405
 30
0.0
 10
1.5622400000000001
 20
0.28137
 30
0.0
 10
1.5038200000000002
 20
0.37281
 30
0.0
 10
1.5038200000000002
 20
0.37281
 30
0.0
 10
1.5038200000000002
 20
0.37281
 30
0.0
 10
1.5647800000000001
 20
0.4515500000000001
 30
0.0
 10
1.5647800000000001
 20
0.4515500000000001
 30
0.0
  0
SPLINE
  5
36
100
AcDbEntity
  8
Ebene 1
 62
     7
100
AcDbSpline
210
0.0
220
0.0
230
1.0
 70
     1
 71
     3
 72
    16
 73
    12
 74
     0
 42
0.0000000001
 43
0.0000000001
 40
0.0
 40
0.0
 40
0.0
 40
0.0
 40
0.3333333333333333
 40
0.3333333333333333
 40
0.3333333333333333
 40
0.3333333333333333
 40
0.6666666666666666
 40
0.6666666666666666
 40
0.6666666666666666
 40
0.6666666666666666
 40
1.0
 40
1.0
 40
1.0
 40
1.0
 10
1.3793600000000001
 20
0.41853
 30
0.0
 10
1.5139800000000001
 20
0.33217
 30
0.0
 10
1.5825600000000002
 20
0.01721
 30
0.0
 10
1.4149200000000002
 20
-0.0666
 30
0.0
 10
1.4149200000000002
 20
-0.0666
 30
0.0
 10
1.4149200000000002
 20
-0.0666
 30
0.0
 10
1.3793600000000001
 20
-0.02342
 30
0.0
 10
1.3793600000000001
 20
-0.02342
 30
0.0
 10
1.3793600000000001
 20
-0.02342
 30
0.0
 10
1.4123800000000002
 20
0.12389
 30
0.0
 10
1.31586
 20
0.28899
 30
0.0
 10
1.3793600000000001
 20
0.41853
 30
0.0
  0
SPLINE
  5
37
100
AcDbEntity
  8
Ebene 1
 62
     7
100
AcDbSpline
210
0.0
220
0.0
230
1.0
 70
     1
 71
     3
 72
    16
 73
    12
 74
     0
 42
0.0000000001
 43
0.0000000001
 40
0.0
 40
0.0
 40
0.0
 40
0.0
 40
0.3333333333333333
 40
0.3333333333333333
 40
0.3333333333333333
 40
0.3333333333333333
 40
0.6666666666666666
 40
0.6666666666666666
 40
0.6666666666666666
 40
0.6666666666666666
 40
1.0
 40
1.0
 40
1.0
 40
1.0
 10
0.9653400000000001
 20
0.40329
 30
0.0
 10
0.99582
 20
0.41599
 30
0.0
 10
0.9932800000000001
 20
0.38297
 30
0.0
 10
1.0085200000000001
 20
0.37027
 30
0.0
 10
1.0085200000000001
 20
0.37027
 30
0.0
 10
0.9602600000000001
 20
0.23057
 30
0.0
 10
1.1533
 20
-0.00564
 30
0.0
 10
0.9653400000000001
 20
-0.0412
 30
0.0
 10
0.9653400000000001
 20
-0.0412
 30
0.0
 10
0.87136
 20
0.06801
 30
0.0
 10
0.8815200000000001
 20
0.28391
 30
0.0
 10
0.9653400000000001
 20
0.40329
 30
0.0
  0
SPLINE
  5
38
100
AcDbEntity
  8
Ebene 1
 62
     7
100
AcDbSpline
210
0.0
220
0.0
230
1.0
 70
     1
 71
     3
 72
    16
 73
    12
 74
     0
 42
0.0000000001
 43
0.0000000001
 40
0.0
 40
0.0
 40
0.0
 40
0.0
 40
0.3333333333333333
 40
0.3333333333333333
 40
0.3333333333333333
 40
0.3333333333333333
 40
0.6666666666666666
 40
0.6666666666666666
 40
0.6666666666666666
 40
0.6666666666666666
 40
1.0
 40
1.0
 40
1.0
 40
1.0
 10
1.27268
 20
0.40329
 30
0.0
 10
1.2828400000000002
 20
0.40329
 30
0.0
 10
1.3057000000000001
 20
0.40837
 30
0.0
 10
1.3031600000000001
 20
0.38805
 30
0.0
 10
1.3031600000000001
 20
0.38805
 30
0.0
 10
1.2828400000000002
 20
0.22549
 30
0.0
 10
1.3793600000000001
 20
0.06801
 30
0.0
 10
1.31586
 20
-0.08184
 30
0.0
 10
1.31586
 20
-0.08184
 30
0.0
 10
1.19394
 20
0.02737
 30
0.0
 10
1.23712
 20
0.26105
 30
0.0
 10
1.27268
 20
0.40329
 30
0.0
  0
SPLINE
  5
39
100
AcDbEntity
  8
Ebene 1
 62
     7
100
AcDbSpline
210
0.0
220
0.0
230
1.0
 70
     1
 71
     3
 72
    16
 73
    12
 74
     0
 42
0.0000000001
 43
0.0000000001
 40
0.0
 40
0.0
 40
0.0
 40
0.0
 40
0.3333333333333333
 40
0.3333333333333333
 40
0.3333333333333333
 40
0.3333333333333333
 40
0.6666666666666666
 40
0.6666666666666666
 40
0.6666666666666666
 40
0.6666666666666666
 40
1.0
 40
1.0
 40
1.0
 40
1.0
 10
1.1329800000000001
 20
0.37281
 30
0.0
 10
1.1329800000000001
 20
0.37281
 30
0.0
 10
1.1761600000000001
 20
0.37027
 30
0.0
 10
1.1761600000000001
 20
0.37027
 30
0.0
 10
1.1761600000000001
 20
0.37027
 30
0.0
 10
1.1761600000000001
 20
0.23057
 30
0.0
 10
1.2625200000000001
 20
0.02737
 30
0.0
 10
1.15076
 20
-0.07168
 30
0.0
 10
1.15076
 20
-0.07168
 30
0.0
 10
1.0517000000000001
 20
0.05277
 30
0.0
 10
1.0720200000000002
 20
0.23311
 30
0.0
 10
1.1329800000000001
 20
0.37281
 30
0.0
  0
SPLINE
  5
3A
100
AcDbEntity
  8
Ebene 1
 62
     7
100
AcDbSpline
210
0.0
220
0.0
230
1.0
 70
     1
 71
     3
 72
    12
 73
     8
 74
     0
 42
0.0000000001
 43
0.0000000001
 40
0.0
 40
0.0
 40
0.0
 40
0.0
 40
0.5
 40
0.5
 40
0.5
 40
0.5
 40
1.0
 40
1.0
 40
1.0
 40
1.0
 10
0.35066
 20
0.31185
 30
0.0
 10
0.42686
 20
0.29661
 30
0.0
 10
0.40654
 20
0.12389
 30
0.0
 10
0.3684400000000001
 20
0.08579
 30
0.0
 10
0.3684400000000001
 20
0.08579
 30
0.0
 10
0.3684400000000001
 20
0.08579
 30
0.0
 10
0.35066
 20
0.31185
 30
0.0
 10
0.35066
 20
0.31185
 30
0.0
  0
SPLINE
  5
3B
100
AcDbEntity
  8
Ebene 1
 62
     7
100
AcDbSpline
210
0.0
220
0.0
230
1.0
 70
     1
 71
     3
 72
    12
 73
     8
 74
     0
 42
0.0000000001
 43
0.0000000001
 40
0.0
 40
0.0
 40
0.0
 40
0.0
 40
0.5
 40
0.5
 40
0.5
 40
0.5
 40
1.0
 40
1.0
 40
1.0
 40
1.0
 10
0.48782
 20
0.17469
 30
0.0
 10
0.5665600000000001
 20
0.15437
 30
0.0
 10
0.5691000000000001
 20
-0.02088
 30
0.0
 10
0.48782
 20
-0.0412
 30
0.0
 10
0.48782
 20
-0.0412
 30
0.0
 10
0.47004
 20
0.01467
 30
0.0
 10
0.4294000000000001
 20
0.11627
 30
0.0
 10
0.48782
 20
0.17469
 30
0.0
  0
SPLINE
  5
3C
100
AcDbEntity
  8
Ebene 1
 62
     7
100
AcDbSpline
210
0.0
220
0.0
230
1.0
 70
     1
 71
     3
 72
    12
 73
     8
 74
     0
 42
0.0000000001
 43
0.0000000001
 40
0.0
 40
0.0
 40
0.0
 40
0.0
 40
0.5
 40
0.5
 40
0.5
 40
0.5
 40
1.0
 40
1.0
 40
1.0
 40
1.0
 10
0.6275200000000001
 20
0.08071
 30
0.0
 10
0.6935600000000001
 20
0.03499
 30
0.0
 10
0.7088000000000001
 20
-0.0793
 30
0.0
 10
0.64022
 20
-0.13264
 30
0.0
 10
0.64022
 20
-0.13264
 30
0.0
 10
0.5843400000000001
 20
-0.08946
 30
0.0
 10
0.57672
 20
0.02483
 30
0.0
 10
0.6275200000000001
 20
0.08071
 30
0.0
  0
SPLINE
  5
3D
100
AcDbEntity
  8
Ebene 1
 62
     7
100
AcDbSpline
210
0.0
220
0.0
230
1.0
 70
     1
 71
     3
 72
    12
 73
     8
 74
     0
 42
0.0000000001
 43
0.0000000001
 40
0.0
 40
0.0
 40
0.0
 40
0.0
 40
0.5
 40
0.5
 40
0.5
 40
0.5
 40
1.0
 40
1.0
 40
1.0
 40
1.0
 10
1.6105
 20
0.01975
 30
0.0
 10
1.7019400000000002
 20
0.02483
 30
0.0
 10
1.6435200000000001
 20
-0.12756
 30
0.0
 10
1.6105
 20
-0.16312
 30
0.0
 10
1.6105
 20
-0.16312
 30
0.0
 10
1.5952600000000001
 20
-0.11486
 30
0.0
 10
1.56732
 20
-0.02342
 30
0.0
 10
1.6105
 20
0.01975
 30
0.0
  0
SPLINE
  5
3E
100
AcDbEntity
  8
Ebene 1
 62
     7
100
AcDbSpline
210
0.0
220
0.0
230
1.0
 70
     1
 71
     3
 72
    12
 73
     8
 74
     0
 42
0.0000000001
 43
0.0000000001
 40
0.0
 40
0.0
 40
0.0
 40
0.0
 40
0.5
 40
0.5
 40
0.5
 40
0.5
 40
1.0
 40
1.0
 40
1.0
 40
1.0
 10
0.7494400000000001
 20
-0.00818
 30
0.0
 10
0.8612000000000001
 20
-0.03358
 30
0.0
 10
0.80532
 20
-0.19868
 30
0.0
 10
0.7773800000000001
 20
-0.26726
 30
0.0
 10
0.7773800000000001
 20
-0.26726
 30
0.0
 10
0.7392800000000001
 20
-0.20122
 30
0.0
 10
0.7113400000000001
 20
-0.092
 30
0.0
 10
0.7494400000000001
 20
-0.00818
 30
0.0
  0
SPLINE
  5
3F
100
AcDbEntity
  8
Ebene 1
 62
     7
100
AcDbSpline
210
0.0
220
0.0
230
1.0
 70
     1
 71
     3
 72
    16
 73
    12
 74
     0
 42
0.0000000001
 43
0.0000000001
 40
0.0
 40
0.0
 40
0.0
 40
0.0
 40
0.3333333333333333
 40
0.3333333333333333
 40
0.3333333333333333
 40
0.3333333333333333
 40
0.6666666666666666
 40
0.6666666666666666
 40
0.6666666666666666
 40
0.6666666666666666
 40
1.0
 40
1.0
 40
1.0
 40
1.0
 10
0.8408800000000001
 20
-0.0412
 30
0.0
 10
0.8408800000000001
 20
-0.0412
 30
0.0
 10
0.9932800000000001
 20
-0.1047
 30
0.0
 10
0.9932800000000001
 20
-0.1047
 30
0.0
 10
0.9932800000000001
 20
-0.1047
 30
0.0
 10
0.9882000000000001
 20
-0.19106
 30
0.0
 10
0.9602600000000001
 20
-0.28504
 30
0.0
 10
0.9170800000000001
 20
-0.3587
 30
0.0
 10
0.9170800000000001
 20
-0.3587
 30
0.0
 10
0.8535800000000001
 20
-0.27742
 30
0.0
 10
0.8485
 20
-0.15042
 30
0.0
 10
0.8408800000000001
 20
-0.0412
 30
0.0
  0
SPLINE
  5
40
100
AcDbEntity
  8
Ebene 1
 62
     7
100
AcDbSpline
210
0.0
220
0.0
230
1.0
 70
     1
 71
     3
 72
    16
 73
    12
 74
     0
 42
0.0000000001
 43
0.0000000001
 40
0.0
 40
0.0
 40
0.0
 40
0.0
 40
0.3333333333333333
 40
0.3333333333333333
 40
0.3333333333333333
 40
0.3333333333333333
 40
0.6666666666666666
 40
0.6666666666666666
 40
0.6666666666666666
 40
0.6666666666666666
 40
1.0
 40
1.0
 40
1.0
 40
1.0
 10
1.0567800000000001
 20
-0.10216
 30
0.0
 10
1.0567800000000001
 20
-0.10216
 30
0.0
 10
1.1228200000000002
 20
-0.12756
 30
0.0
 10
1.1228200000000002
 20
-0.12756
 30
0.0
 10
1.1228200000000002
 20
-0.12756
 30
0.0
 10
1.2625200000000001
 20
-0.09962
 30
0.0
 10
1.1660000000000001
 20
-0.3206000000000001
 30
0.0
 10
1.1329800000000001
 20
-0.37902
 30
0.0
 10
1.1329800000000001
 20
-0.37902
 30
0.0
 10
1.0567800000000001
 20
-0.33584
 30
0.0
 10
1.0771000000000002
 20
-0.18852
 30
0.0
 10
1.0567800000000001
 20
-0.10216
 30
0.0
  0
SPLINE
  5
41
100
AcDbEntity
  8
Ebene 1
 62
     7
100
AcDbSpline
210
0.0
220
0.0
230
1.0
 70
     1
 71
     3
 72
    12
 73
     8
 74
     0
 42
0.0000000001
 43
0.0000000001
 40
0.0
 40
0.0
 40
0.0
 40
0.0
 40
0.5
 40
0.5
 40
0.5
 40
0.5
 40
1.0
 40
1.0
 40
1.0
 40
1.0
 10
1.4581000000000002
 20
-0.10216
 30
0.0
 10
1.5343000000000002
 20
-0.1428
 30
0.0
 10
1.4708000000000001
 20
-0.27488
 30
0.0
 10
1.44286
 20
-0.3333
 30
0.0
 10
1.44286
 20
-0.3333
 30
0.0
 10
1.3946000000000001
 20
-0.27996
 30
0.0
 10
1.3869800000000001
 20
-0.13772
 30
0.0
 10
1.4581000000000002
 20
-0.10216
 30
0.0
  0
SPLINE
  5
42
100
AcDbEntity
  8
Ebene 1
 62
     7
100
AcDbSpline
210
0.0
220
0.0
230
1.0
 70
     1
 71
     3
 72
    12
 73
     8
 74
     0
 42
0.0000000001
 43
0.0000000001
 40
0.0
 40
0.0
 40
0.0
 40
0.0
 40
0.5
 40
0.5
 40
0.5
 40
0.5
 40
1.0
 40
1.0
 40
1.0
 40
1.0
 10
1.2422000000000002
 20
-0.1174
 30
0.0
 10
1.4479400000000002
 20
-0.14026
 30
0.0
 10
1.3260200000000002
 20
-0.37648
 30
0.0
 10
1.3006200000000001
 20
-0.49586
 30
0.0
 10
1.3006200000000001
 20
-0.49586
 30
0.0
 10
1.2422000000000002
 20
-0.3968
 30
0.0
 10
1.2549000000000001
 20
-0.22662
 30
0.0
 10
1.2422000000000002
 20
-0.1174
 30
0.0
  0
SPLINE
  5
43
100
AcDbEntity
  8
Ebene 1
 62
     7
100
AcDbSpline
210
0.0
220
0.0
230
1.0
 70
     1
 71
     3
 72
    20
 73
    16
 74
     0
 42
0.0000000001
 43
0.0000000001
 40
0.0
 40
0.0
 40
0.0
 40
0.0
 40
0.25
 40
0.25
 40
0.25
 40
0.25
 40
0.5
 40
0.5
 40
0.5
 40
0.5
 40
0.75
 40
0.75
 40
0.75
 40
0.75
 40
1.0
 40
1.0
 40
1.0
 40
1.0
 10
0.02554
 20
-1.4255000000000002
 30
0.0
 10
0.2643
 20
-1.5499600000000002
 30
0.0
 10
0.52846
 20
-1.5271000000000001
 30
0.0
 10
0.7951600000000001
 20
-1.5017
 30
0.0
 10
0.7951600000000001
 20
-1.5017
 30
0.0
 10
0.8104000000000001
 20
-1.50424
 30
0.0
 10
0.8231000000000001
 20
-1.5169400000000002
 30
0.0
 10
0.82564
 20
-1.5321800000000001
 30
0.0
 10
0.82564
 20
-1.5321800000000001
 30
0.0
 10
0.6884800000000001
 20
-1.8166600000000002
 30
0.0
 10
0.31764
 20
-1.7023600000000001
 30
0.0
 10
0.09158
 20
-1.6033000000000002
 30
0.0
 10
0.09158
 20
-1.6033000000000002
 30
0.0
 10
0.09158
 20
-1.6033000000000002
 30
0.0
 10
0.02554
 20
-1.4255000000000002
 30
0.0
 10
0.02554
 20
-1.4255000000000002
 30
0.0
  0
SPLINE
  5
44
100
AcDbEntity
  8
Ebene 1
 62
     7
100
AcDbSpline
210
0.0
220
0.0
230
1.0
 70
     1
 71
     3
 72
    12
 73
     8
 74
     0
 42
0.0000000001
 43
0.0000000001
 40
0.0
 40
0.0
 40
0.0
 40
0.0
 40
0.5
 40
0.5
 40
0.5
 40
0.5
 40
1.0
 40
1.0
 40
1.0
 40
1.0
 10
0.0103
 20
-1.9639800000000001
 30
0.0
 10
0.22874
 20
-2.0706600000000002
 30
0.0
 10
0.4929000000000001
 20
-2.0097
 30
0.0
 10
0.7316600000000001
 20
-2.0122400000000003
 30
0.0
 10
0.7316600000000001
 20
-2.0122400000000003
 30
0.0
 10
0.74182
 20
-2.4186400000000003
 30
0.0
 10
-0.02271
 20
-2.35514
 30
0.0
 10
0.0103
 20
-1.9639800000000001
 30
0.0
  0
SPLINE
  5
45
100
AcDbEntity
  8
Ebene 1
 62
     7
100
AcDbSpline
210
0.0
220
0.0
230
1.0
 70
     1
 71
     3
 72
    16
 73
    12
 74
     0
 42
0.0000000001
 43
0.0000000001
 40
0.0
 40
0.0
 40
0.0
 40
0.0
 40
0.3333333333333333
 40
0.3333333333333333
 40
0.3333333333333333
 40
0.3333333333333333
 40
0.6666666666666666
 40
0.6666666666666666
 40
0.6666666666666666
 40
0.6666666666666666
 40
1.0
 40
1.0
 40
1.0
 40
1.0
 10
0.0865
 20
-2.5939000000000001
 30
0.0
 10
0.2643
 20
-2.6675600000000004
 30
0.0
 10
0.4395600000000001
 20
-2.6675600000000004
 30
0.0
 10
0.63768
 20
-2.6599400000000002
 30
0.0
 10
0.63768
 20
-2.6599400000000002
 30
0.0
 10
0.5945
 20
-2.9291800000000001
 30
0.0
 10
0.24652
 20
-2.8174200000000003
 30
0.0
 10
0.09158
 20
-2.7285200000000001
 30
0.0
 10
0.09158
 20
-2.7285200000000001
 30
0.0
 10
0.06872
 20
-2.6878800000000003
 30
0.0
 10
0.05856
 20
-2.6345400000000003
 30
0.0
 10
0.0865
 20
-2.5939000000000001
 30
0.0
  0
SPLINE
  5
46
100
AcDbEntity
  8
Ebene 1
 62
     7
100
AcDbSpline
210
0.0
220
0.0
230
1.0
 70
     1
 71
     3
 72
    16
 73
    12
 74
     0
 42
0.0000000001
 43
0.0000000001
 40
0.0
 40
0.0
 40
0.0
 40
0.0
 40
0.3333333333333333
 40
0.3333333333333333
 40
0.3333333333333333
 40
0.3333333333333333
 40
0.6666666666666666
 40
0.6666666666666666
 40
0.6666666666666666
 40
0.6666666666666666
 40
1.0
 40
1.0
 40
1.0
 40
1.0
 10
0.15
 20
-3.1628600000000002
 30
0.0
 10
0.2643
 20
-3.2187400000000004
 30
0.0
 10
0.43702
 20
-3.1298400000000002
 30
0.0
 10
0.53354
 20
-3.2111200000000002
 30
0.0
 10
0.53354
 20
-3.2111200000000002
 30
0.0
 10
0.43448
 20
-3.2949400000000004
 30
0.0
 10
0.24398
 20
-3.2974800000000002
 30
0.0
 10
0.1373
 20
-3.2060400000000002
 30
0.0
 10
0.1373
 20
-3.2060400000000002
 30
0.0
 10
0.1373
 20
-3.2060400000000002
 30
0.0
 10
0.15
 20
-3.1628600000000002
 30
0.0
 10
0.15
 20
-3.1628600000000002
 30
0.0
  0
SPLINE
  5
47
100
AcDbEntity
  8
Ebene 1
 62
     7
100
AcDbSpline
210
0.0
220
0.0
230
1.0
 70
     1
 71
     3
 72
    40
 73
    36
 74
     0
 42
0.0000000001
 43
0.0000000001
 40
0.0
 40
0.0
 40
0.0
 40
0.0
 40
0.1111111111111111
 40
0.1111111111111111
 40
0.1111111111111111
 40
0.1111111111111111
 40
0.2222222222222222
 40
0.2222222222222222
 40
0.2222222222222222
 40
0.2222222222222222
 40
0.3333333333333333
 40
0.3333333333333333
 40
0.3333333333333333
 40
0.3333333333333333
 40
0.4444444444444444
 40
0.4444444444444444
 40
0.4444444444444444
 40
0.4444444444444444
 40
0.5555555555555556
 40
0.5555555555555556
 40
0.5555555555555556
 40
0.5555555555555556
 40
0.6666666666666667
 40
0.6666666666666667
 40
0.6666666666666667
 40
0.6666666666666667
 40
0.7777777777777779
 40
0.7777777777777779
 40
0.7777777777777779
 40
0.7777777777777779
 40
0.8888888888888891
 40
0.8888888888888891
 40
0.8888888888888891
 40
0.8888888888888891
 40
1.0
 40
1.0
 40
1.0
 40
1.0
 10
0.71896
 20
-4.6106600000000002
 30
0.0
 10
0.88914
 20
-4.6259000000000006
 30
0.0
 10
1.0720200000000002
 20
-4.5903400000000003
 30
0.0
 10
1.2168000000000001
 20
-4.7148000000000003
 30
0.0
 10
1.2168000000000001
 20
-4.7148000000000003
 30
0.0
 10
1.27268
 20
-4.82402
 30
0.0
 10
1.3920600000000001
 20
-4.9459400000000002
 30
0.0
 10
1.3793600000000001
 20
-5.0577000000000005
 30
0.0
 10
1.3793600000000001
 20
-5.0577000000000005
 30
0.0
 10
1.3793600000000001
 20
-5.0577000000000005
 30
0.0
 10
1.3234800000000002
 20
-5.0526200000000001
 30
0.0
 10
1.3234800000000002
 20
-5.0526200000000001
 30
0.0
 10
1.3234800000000002
 20
-5.0526200000000001
 30
0.0
 10
1.3311000000000002
 20
-4.8494200000000003
 30
0.0
 10
1.0034400000000001
 20
-4.5293800000000006
 30
0.0
 10
0.89168
 20
-4.8291000000000004
 30
0.0
 10
0.89168
 20
-4.8291000000000004
 30
0.0
 10
0.86882
 20
-4.8443400000000008
 30
0.0
 10
0.8408800000000001
 20
-4.86212
 30
0.0
 10
0.8104000000000001
 20
-4.8570400000000005
 30
0.0
 10
0.8104000000000001
 20
-4.8570400000000005
 30
0.0
 10
0.78246
 20
-4.86212
 30
0.0
 10
0.7697600000000001
 20
-4.8367200000000006
 30
0.0
 10
0.7545200000000001
 20
-4.8214800000000002
 30
0.0
 10
0.7545200000000001
 20
-4.8214800000000002
 30
0.0
 10
0.63514
 20
-4.47858
 30
0.0
 10
0.04586
 20
-5.0678600000000005
 30
0.0
 10
0.3989200000000001
 20
-5.2380400000000007
 30
0.0
 10
0.3989200000000001
 20
-5.2380400000000007
 30
0.0
 10
0.51322
 20
-5.3371000000000004
 30
0.0
 10
0.39638
 20
-5.3421800000000008
 30
0.0
 10
0.33796
 20
-5.2380400000000007
 30
0.0
 10
0.33796
 20
-5.2380400000000007
 30
0.0
 10
0.07634
 20
-4.98658
 30
0.0
 10
0.47766
 20
-4.6563800000000004
 30
0.0
 10
0.71896
 20
-4.6106600000000002
 30
0.0
  0
SPLINE
  5
48
100
AcDbEntity
  8
Ebene 1
 62
     7
100
AcDbSpline
210
0.0
220
0.0
230
1.0
 70
     1
 71
     3
 72
    32
 73
    28
 74
     0
 42
0.0000000001
 43
0.0000000001
 40
0.0
 40
0.0
 40
0.0
 40
0.0
 40
0.1428571428571429
 40
0.1428571428571429
 40
0.1428571428571429
 40
0.1428571428571429
 40
0.2857142857142857
 40
0.2857142857142857
 40
0.2857142857142857
 40
0.2857142857142857
 40
0.4285714285714286
 40
0.4285714285714286
 40
0.4285714285714286
 40
0.4285714285714286
 40
0.5714285714285714
 40
0.5714285714285714
 40
0.5714285714285714
 40
0.5714285714285714
 40
0.7142857142857142
 40
0.7142857142857142
 40
0.7142857142857142
 40
0.7142857142857142
 40
0.857142857142857
 40
0.857142857142857
 40
0.857142857142857
 40
0.857142857142857
 40
1.0
 40
1.0
 40
1.0
 40
1.0
 10
0.6275200000000001
 20
-4.8265600000000006
 30
0.0
 10
0.7088000000000001
 20
-4.8799000000000001
 30
0.0
 10
0.69864
 20
-5.0145200000000001
 30
0.0
 10
0.8104000000000001
 20
-5.0424600000000002
 30
0.0
 10
0.8104000000000001
 20
-5.0424600000000002
 30
0.0
 10
0.9247000000000001
 20
-5.0399200000000004
 30
0.0
 10
0.9932800000000001
 20
-4.9180000000000001
 30
0.0
 10
1.0542400000000001
 20
-4.8443400000000008
 30
0.0
 10
1.0542400000000001
 20
-4.8443400000000008
 30
0.0
 10
1.1380600000000001
 20
-4.8875200000000003
 30
0.0
 10
1.18886
 20
-4.98658
 30
0.0
 10
1.23712
 20
-5.0678600000000005
 30
0.0
 10
1.23712
 20
-5.0678600000000005
 30
0.0
 10
1.23712
 20
-5.0678600000000005
 30
0.0
 10
0.9780400000000001
 20
-5.3904400000000008
 30
0.0
 10
0.9780400000000001
 20
-5.3904400000000008
 30
0.0
 10
0.9780400000000001
 20
-5.3904400000000008
 30
0.0
 10
0.9170800000000001
 20
-5.3904400000000008
 30
0.0
 10
0.912
 20
-5.2685200000000005
 30
0.0
 10
0.8231000000000001
 20
-5.2609000000000004
 30
0.0
 10
0.8231000000000001
 20
-5.2609000000000004
 30
0.0
 10
0.8231000000000001
 20
-5.2609000000000004
 30
0.0
 10
0.7494400000000001
 20
-5.2558200000000008
 30
0.0
 10
0.7494400000000001
 20
-5.2558200000000008
 30
0.0
 10
0.7494400000000001
 20
-5.2558200000000008
 30
0.0
 10
0.5183000000000001
 20
-5.3802800000000008
 30
0.0
 10
0.34304
 20
-4.9078400000000002
 30
0.0
 10
0.6275200000000001
 20
-4.8265600000000006
 30
0.0
  0
SPLINE
  5
49
100
AcDbEntity
  8
Ebene 1
 62
     7
100
AcDbSpline
210
0.0
220
0.0
230
1.0
 70
     1
 71
     3
 72
    20
 73
    16
 74
     0
 42
0.0000000001
 43
0.0000000001
 40
0.0
 40
0.0
 40
0.0
 40
0.0
 40
0.25
 40
0.25
 40
0.25
 40
0.25
 40
0.5
 40
0.5
 40
0.5
 40
0.5
 40
0.75
 40
0.75
 40
0.75
 40
0.75
 40
1.0
 40
1.0
 40
1.0
 40
1.0
 10
0.7951600000000001
 20
-5.3193200000000003
 30
0.0
 10
0.93486
 20
-5.2964600000000006
 30
0.0
 10
0.8383400000000001
 20
-5.4844200000000001
 30
0.0
 10
0.9450200000000001
 20
-5.5072800000000006
 30
0.0
 10
0.9450200000000001
 20
-5.5072800000000006
 30
0.0
 10
0.9450200000000001
 20
-5.5072800000000006
 30
0.0
 10
0.9450200000000001
 20
-5.5301400000000003
 30
0.0
 10
0.9450200000000001
 20
-5.5301400000000003
 30
0.0
 10
0.9450200000000001
 20
-5.5301400000000003
 30
0.0
 10
0.87136
 20
-5.5911000000000008
 30
0.0
 10
0.7799200000000001
 20
-5.6368200000000002
 30
0.0
 10
0.71896
 20
-5.53268
 30
0.0
 10
0.71896
 20
-5.53268
 30
0.0
 10
0.71896
 20
-5.53268
 30
0.0
 10
0.7951600000000001
 20
-5.3193200000000003
 30
0.0
 10
0.7951600000000001
 20
-5.3193200000000003
 30
0.0
  0
ENDSEC
  0
SECTION
  2
OBJECTS
  0
DICTIONARY
  5
19
100
AcDbDictionary
280
     0
281
     1
  3
ACAD_GROUP
350
1A
  3
ACAD_MLINESTYLE
350
1B
  3
ACAD_LAYOUT
350
1E
  3
ACAD_PLOTSETTINGS
350
22
  3
ACAD_PLOTSTYLENAME
350
1F
  3
ACAD_WIPEOUT_VARS
350
23
  0
DICTIONARY
  5
1A
102
{ACAD_REACTORS
330
19
102
}
100
AcDbDictionary
280
     0
281
     1
  0
DICTIONARY
  5
1B
102
{ACAD_REACTORS
330
19
102
}
100
AcDbDictionary
280
     0
281
     1
  3
Standard
350
1C
  0
MLINESTYLE
  5
1C
102
{ACAD_REACTORS
330
1B
102
}
100
AcDbMlineStyle
  2
Standard
 70
     0
  3

 62
     0
 51
90.0
 52
90.0
 71
     2
 49
0.5
 62
   256
  6
BYLAYER
 49
-0.5
 62
   256
  6
BYLAYER
  0
ACDBDICTIONARYWDFLT
  5
1F
102
{ACAD_REACTORS
330
19
102
}
100
AcDbDictionary
281
     1
  3
Normal
350
1D
100
AcDbDictionaryWithDefault
340
1D
  0
ACDBPLACEHOLDER
  5
1D
102
{ACAD_REACTORS
330
1F
102
}
  0
LAYOUT
  5
20
102
{ACAD_REACTORS
330
1E
102
}
100
AcDbPlotSettings
  1

  2

  4

  6

 40
0.0
 41
0.0
 42
0.0
 43
0.0
 44
0.0
 45
0.0
 46
0.0
 47
0.0
 48
0.0
 49
0.0
140
0.0
141
0.0
142
1.0
143
1.0
 70
  1024
 72
     0
 73
     0
 74
     0
  7

 75
     0
147
1.0
148
0.0
149
0.0
100
AcDbLayout
  1
Model
 70
     0
 71
     0
 10
0.0
 20
0.0
 11
0.0
 21
0.0
 12
0.0
 22
0.0
 32
0.0
 14
0.0
 24
0.0
 34
0.0
 15
0.0
 25
0.0
 35
0.0
146
0.0
 13
0.0
 23
0.0
 33
0.0
 16
0.0
 26
0.0
 36
0.0
 17
0.0
 27
0.0
 37
0.0
 76
     0
330
A
331
0
345
0
346
0
  0
LAYOUT
  5
21
102
{ACAD_REACTORS
330
1E
102
}
100
AcDbPlotSettings
  1

  2

  4

  6

 40
0.0
 41
0.0
 42
0.0
 43
0.0
 44
0.0
 45
0.0
 46
0.0
 47
0.0
 48
0.0
 49
0.0
140
0.0
141
0.0
142
1.0
143
1.0
 70
     0
 72
     0
 73
     0
 74
     0
  7

 75
     0
147
1.0
148
0.0
149
0.0
100
AcDbLayout
  1
Layout1
 70
     0
 71
     0
 10
0.0
 20
0.0
 11
0.0
 21
0.0
 12
0.0
 22
0.0
 32
0.0
 14
0.0
 24
0.0
 34
0.0
 15
0.0
 25
0.0
 35
0.0
146
0.0
 13
0.0
 23
0.0
 33
0.0
 16
0.0
 26
0.0
 36
0.0
 17
0.0
 27
0.0
 37
0.0
 76
     0
330
B
331
0
345
0
346
0
  0
DICTIONARY
  5
1E
102
{ACAD_REACTORS
330
19
102
}
100
AcDbDictionary
280
     0
281
     1
  3
Layout1
350
21
  3
Model
350
20
  0
DICTIONARY
  5
22
102
{ACAD_REACTORS
330
19
102
}
100
AcDbDictionary
280
     0
281
     1
  0
WIPEOUTVARIABLES
  5
23
100
AcDbWipeoutVariables
 70
     1
  0
ENDSEC
  0
EOF
