  0
SECTION
  2
HEADER
  9
$ACADVER
  1
AC1015
  9
$ACADMAINTVER
 70
     6
  9
$DWGCODEPAGE
  3
DOS850
  9
$INSBASE
 10
0.0
 20
0.0
 30
0.0
  9
$EXTMIN
 10
-4.28378
 20
-6.33786
 30
1.000000E+20
  9
$EXTMAX
 10
4.28834
 20
6.33165
 30
-1.000000E+20
  9
$LIMMIN
 10
0.0
 20
0.0
  9
$LIMMAX
 10
0.0
 20
0.0
  9
$ORTHOMODE
 70
     0
  9
$REGENMODE
 70
     1
  9
$FILLMODE
 70
     1
  9
$QTEXTMODE
 70
     0
  9
$MIRRTEXT
 70
     1
  9
$LTSCALE
 40
1.0
  9
$ATTMODE
 70
     1
  9
$TEXTSIZE
 40
0.2
  9
$TRACEWID
 40
0.05
  9
$TEXTSTYLE
  7
Standard
  9
$CLAYER
  8
0
  9
$CELTYPE
  6
Continuous
  9
$CECOLOR
 62
   256
  9
$CELTSCALE
 40
1.0
  9
$DISPSILH
 70
     0
  9
$DIMSCALE
 40
1.0
  9
$DIMASZ
 40
0.18
  9
$DIMEXO
 40
0.0625
  9
$DIMDLI
 40
0.38
  9
$DIMRND
 40
0.0
  9
$DIMDLE
 40
0.0
  9
$DIMEXE
 40
0.18
  9
$DIMTP
 40
0.0
  9
$DIMTM
 40
0.0
  9
$DIMTXT
 40
0.18
  9
$DIMCEN
 40
0.09
  9
$DIMTSZ
 40
0.0
  9
$DIMTOL
 70
     0
  9
$DIMLIM
 70
     0
  9
$DIMTIH
 70
     1
  9
$DIMTOH
 70
     1
  9
$DIMSE1
 70
     0
  9
$DIMSE2
 70
     0
  9
$DIMTAD
 70
     0
  9
$DIMZIN
 70
     0
  9
$DIMBLK
  1

  9
$DIMASO
 70
     1
  9
$DIMSHO
 70
     1
  9
$DIMPOST
  1

  9
$DIMAPOST
  1

  9
$DIMALT
 70
     0
  9
$DIMALTD
 70
     2
  9
$DIMALTF
 40
25.4
  9
$DIMLFAC
 40
1.0
  9
$DIMTOFL
 70
     0
  9
$DIMTVP
 40
0.0
  9
$DIMTIX
 70
     0
  9
$DIMSOXD
 70
     0
  9
$DIMSAH
 70
     0
  9
$DIMBLK1
  1

  9
$DIMBLK2
  1

  9
$DIMSTYLE
  2
Standard
  9
$DIMCLRD
 70
     0
  9
$DIMCLRE
 70
     0
  9
$DIMCLRT
 70
     0
  9
$DIMTFAC
 40
1.0
  9
$DIMGAP
 40
0.09
  9
$DIMJUST
 70
     0
  9
$DIMSD1
 70
     0
  9
$DIMSD2
 70
     0
  9
$DIMTOLJ
 70
     1
  9
$DIMTZIN
 70
     0
  9
$DIMALTZ
 70
     0
  9
$DIMALTTZ
 70
     0
  9
$DIMUPT
 70
     0
  9
$DIMDEC
 70
     4
  9
$DIMTDEC
 70
     4
  9
$DIMALTU
 70
     2
  9
$DIMALTTD
 70
     2
  9
$DIMTXSTY
  7
Standard
  9
$DIMAUNIT
 70
     0
  9
$DIMADEC
 70
     0
  9
$DIMALTRND
 40
0.0
  9
$DIMAZIN
 70
     0
  9
$DIMDSEP
 70
     0
  9
$DIMATFIT
 70
     3
  9
$DIMFRAC
 70
     0
  9
$DIMLDRBLK
  1

  9
$DIMLUNIT
 70
     2
  9
$DIMLWD
 70
     0
  9
$DIMLWE
 70
     0
  9
$DIMTMOVE
 70
     0
  9
$LUNITS
 70
     2
  9
$LUPREC
 70
     4
  9
$SKETCHINC
 40
0.1
  9
$FILLETRAD
 40
0.0
  9
$AUNITS
 70
     0
  9
$AUPREC
 70
     0
  9
$MENU
  1
acad
  9
$ELEVATION
 40
0.0
  9
$PELEVATION
 40
0.0
  9
$THICKNESS
 40
0.0
  9
$LIMCHECK
 70
     0
  9
$CHAMFERA
 40
0.0
  9
$CHAMFERB
 40
0.0
  9
$CHAMFERC
 40
0.0
  9
$CHAMFERD
 40
0.0
  9
$SKPOLY
 70
     0
  9
$TDCREATE
 40
0.000000000
  9
$TDUCREATE
 40
0.000000000
  9
$TDUPDATE
 40
0.000000000
  9
$TDUUPDATE
 40
0.000000000
  9
$TDINDWG
 40
0.0000000000
  9
$TDUSRTIMER
 40
0.0000000000
  9
$USRTIMER
 70
     1
  9
$ANGBASE
 50
0.0
  9
$ANGDIR
 70
     0
  9
$PDMODE
 70
     0
  9
$PDSIZE
 40
0.0
  9
$PLINEWID
 40
0.0
  9
$SPLFRAME
 70
     0
  9
$SPLINETYPE
 70
     6
  9
$SPLINESEGS
 70
     8
  9
$HANDSEED
  5
39
  9
$SURFTAB1
 70
     6
  9
$SURFTAB2
 70
     6
  9
$SURFTYPE
 70
     6
  9
$SURFU
 70
     6
  9
$SURFV
 70
     6
  9
$UCSBASE
  2

  9
$UCSNAME
  2

  9
$UCSORG
 10
0.0
 20
0.0
 30
0.0
  9
$UCSXDIR
 10
1.0
 20
0.0
 30
0.0
  9
$UCSYDIR
 10
0.0
 20
1.0
 30
0.0
  9
$UCSORTHOREF
  2

  9
$UCSORTHOVIEW
 70
     0
  9
$UCSORGTOP
 10
0.0
 20
0.0
 30
0.0
  9
$UCSORGBOTTOM
 10
0.0
 20
0.0
 30
0.0
  9
$UCSORGLEFT
 10
0.0
 20
0.0
 30
0.0
  9
$UCSORGRIGHT
 10
0.0
 20
0.0
 30
0.0
  9
$UCSORGFRONT
 10
0.0
 20
0.0
 30
0.0
  9
$UCSORGBACK
 10
0.0
 20
0.0
 30
0.0
  9
$PUCSBASE
  2

  9
$PUCSNAME
  2

  9
$PUCSORG
 10
0.0
 20
0.0
 30
0.0
  9
$PUCSXDIR
 10
1.0
 20
0.0
 30
0.0
  9
$PUCSYDIR
 10
0.0
 20
1.0
 30
0.0
  9
$PUCSORTHOREF
  2

  9
$PUCSORTHOVIEW
 70
     0
  9
$PUCSORGTOP
 10
0.0
 20
0.0
 30
0.0
  9
$PUCSORGBOTTOM
 10
0.0
 20
0.0
 30
0.0
  9
$PUCSORGLEFT
 10
0.0
 20
0.0
 30
0.0
  9
$PUCSORGRIGHT
 10
0.0
 20
0.0
 30
0.0
  9
$PUCSORGFRONT
 10
0.0
 20
0.0
 30
0.0
  9
$PUCSORGBACK
 10
0.0
 20
0.0
 30
0.0
  9
$USERI1
 70
     0
  9
$USERI2
 70
     0
  9
$USERI3
 70
     0
  9
$USERI4
 70
     0
  9
$USERI5
 70
     0
  9
$USERR1
 40
0.0
  9
$USERR2
 40
0.0
  9
$USERR3
 40
0.0
  9
$USERR4
 40
0.0
  9
$USERR5
 40
0.0
  9
$WORLDVIEW
 70
     1
  9
$SHADEDGE
 70
     3
  9
$SHADEDIF
 70
    70
  9
$TILEMODE
 70
     1
  9
$MAXACTVP
 70
    16
  9
$PINSBASE
 10
0.0
 20
0.0
 30
0.0
  9
$PLIMCHECK
 70
     0
  9
$PEXTMIN
 10
1.000000E+20
 20
1.000000E+20
 30
1.000000E+20
  9
$PEXTMAX
 10
-1.000000E+20
 20
-1.000000E+20
 30
-1.000000E+20
  9
$PLIMMIN
 10
0.0
 20
0.0
  9
$PLIMMAX
 10
12.0
 20
9.0
  9
$UNITMODE
 70
     0
  9
$VISRETAIN
 70
     0
  9
$PLINEGEN
 70
     1
  9
$PSLTSCALE
 70
     0
  9
$TREEDEPTH
 70
  3020
  9
$CMLSTYLE
  2
Standard
  9
$CMLJUST
 70
     0
  9
$CMLSCALE
 40
1.0
  9
$PROXYGRAPHICS
 70
     0
  9
$MEASUREMENT
 70
     0
  9
$CELWEIGHT
370
     0
  9
$ENDCAPS
280
     0
  9
$JOINSTYLE
280
     0
  9
$LWDISPLAY
290
     0
  9
$INSUNITS
 70
     5
  9
$HYPERLINKBASE
  1

  9
$XEDIT
290
     1
  9
$CEPSNTYPE
380
     0
  9
$PSTYLEMODE
290
     1
  9
$FINGERPRINTGUID
  2

  9
$VERSIONGUID
  2

  9
$EXTNAMES
290
     1
  9
$PSVPSCALE
 40
0.0
  0
ENDSEC
  0
SECTION
  2
CLASSES
  0
CLASS
  1
LWPOLYLINE
  2
AcDbPolyline
  3
AutoCAD 2000
 90
    32768
280
     0
281
     1
  0
CLASS
  1
IMAGE
  2
AcDbRasterImage
  3
ISM
 90
    32895
280
     0
281
     1
  0
CLASS
  1
OLE2FRAME
  2
AcDbOle2Frame
  3
AutoCAD 2000
 90
    32768
280
     0
281
     1
  0
CLASS
  1
HATCH
  2
AcDbHatch
  3
AutoCAD 2000
 90
    32768
280
     0
281
     1
  0
CLASS
  1
DICTIONARYVAR
  2
AcDbDictionaryVar
  3
AutoCAD 2000
 90
    32768
280
     0
281
     0
  0
CLASS
  1
RASTERVARIABLES
  2
AcDbRasterVariables
  3
ISM
 90
    32768
280
     0
281
     0
  0
CLASS
  1
IMAGEDEF
  2
AcDbRasterImageDef
  3
ISM
 90
    32768
280
     0
281
     0
  0
CLASS
  1
IMAGEDEF_REACTOR
  2
AcDbRasterImageDefReactor
  3
ISM
 90
    32769
280
     0
281
     0
  0
CLASS
  1
IDBUFFER
  2
AcDbIdBuffer
  3
AutoCAD 2000
 90
    32768
280
     0
281
     0
  0
CLASS
  1
SPATIAL_FILTER
  2
AcDbSpatialFilter
  3
AutoCAD 2000
 90
    32768
280
     0
281
     0
  0
CLASS
  1
XRECORD
  2
AcDbXrecord
  3
AutoCAD 2000
 90
    32768
280
     0
281
     0
  0
CLASS
  1
SORTENTSTABLE
  2
AcDbSortentsTable
  3
AutoCAD 2000
 90
    32768
280
     0
281
     0
  0
CLASS
  1
LAYER_INDEX
  2
AcDbLayerIndex
  3
AutoCAD 2000
 90
    32768
280
     0
281
     0
  0
CLASS
  1
SPATIAL_INDEX
  2
AcDbSpatialIndex
  3
AutoCAD 2000
 90
    32768
280
     0
281
     0
  0
CLASS
  1
OBJECT_PTR
  2
CAseDLPNTableRecord
  3
"ASE-LPNTableRecord"
 90
    32769
280
     0
281
     0
  0
CLASS
  1
LAYOUT
  2
AcDbLayout
  3
AutoCAD 2000
 90
        0
280
     0
281
     0
  0
CLASS
  1
PLOTSETTINGS
  2
AcDbPlotSettings
  3
AutoCAD 2000
 90
    32768
280
     0
281
     0
  0
CLASS
  1
ACDBDICTIONARYWDFLT
  2
AcDbDictionaryWithDefault
  3
AutoCAD 2000
 90
        0
280
     0
281
     0
  0
CLASS
  1
ACDBPLACEHOLDER
  2
AcDbPlaceHolder
  3
AutoCAD 2000
 90
        0
280
     0
281
     0
  0
CLASS
  1
VBA_PROJECT
  2
AcDbVbaProject
  3
acadvba
 90
    32768
280
     0
281
     0
  0
CLASS
  1
WIPEOUT
  2
AcDbWipeout
  3
WipeOut|AutoCAD Express Tool|expresstools@autodesk.com
 90
    32895
280
     0
281
     1
  0
CLASS
  1
WIPEOUTVARIABLES
  2
AcDbWipeoutVariables
  3
WipeOut|AutoCAD Express Tool|expresstools@autodesk.com
 90
        0
280
     0
281
     0
  0
CLASS
  1
RTEXT
  2
RText
  3
RText|AutoCAD Express Tool|expresstools@autodesk.com
 90
    32768
280
     0
281
     1
  0
CLASS
  1
ARCALIGNEDTEXT
  2
AcDbArcAlignedText
  3
ATEXT|AutoCAD Express Tool|expresstools@autodesk.com
 90
    32768
280
     0
281
     1
  0
ENDSEC
  0
SECTION
  2
TABLES
  0
TABLE
  2
VPORT
  5
7
100
AcDbSymbolTable
 70
     1
  0
VPORT
  5
15
100
AcDbSymbolTableRecord
100
AcDbViewportTableRecord
  2
*ACTIVE
 70
     0
 10
0.0
 20
0.0
 11
1.0
 21
1.0
 12
6.591288
 22
4.579184
 13
0.0
 23
0.0
 14
1.0
 24
1.0
 15
0.0
 25
0.0
 16
0.0
 26
0.0
 36
1.0
 17
0.0
 27
0.0
 37
0.0
 40
9.158369
 41
0.688564
 42
50.0
 43
0.0
 44
0.0
 50
0.0
 51
0.0
 71
     0
 72
   100
 73
     1
 74
     1
 75
     0
 76
     0
 77
     0
 78
     0
281
     0
 65
     0
110
0.0
120
0.0
130
0.0
111
1.0
121
0.0
131
0.0
112
0.0
122
1.0
132
0.0
345
0
346
0
 79
     0
146
0.0
  0
ENDTAB
  0
TABLE
  2
LTYPE
  5
4
100
AcDbSymbolTable
 70
     3
  0
LTYPE
  5
11
100
AcDbSymbolTableRecord
100
AcDbLinetypeTableRecord
  2
ByBlock
 70
    64
  3

 72
    65
 73
     0
 40
0.0
  0
LTYPE
  5
12
100
AcDbSymbolTableRecord
100
AcDbLinetypeTableRecord
  2
ByLayer
 70
    64
  3

 72
    65
 73
     0
 40
0.0
  0
LTYPE
  5
13
100
AcDbSymbolTableRecord
100
AcDbLinetypeTableRecord
  2
Continuous
 70
    64
  3
Solid line
 72
    65
 73
     0
 40
0.0
  0
ENDTAB
  0
TABLE
  2
LAYER
  5
2
100
AcDbSymbolTable
 70
     2
  0
LAYER
  5
14
100
AcDbSymbolTableRecord
100
AcDbLayerTableRecord
  2
0
 70
     0
 62
     7
  6
Continuous
290
     1
370
    -3
390
1D
  0
LAYER
  5
24
100
AcDbSymbolTableRecord
100
AcDbLayerTableRecord
  2
Ebene 1
 70
     0
 62
     7
  6
Continuous
290
     1
370
    -3
390
1F
  0
ENDTAB
  0
TABLE
  2
STYLE
  5
3
100
AcDbSymbolTable
 70
     1
  0
STYLE
  5
17
100
AcDbSymbolTableRecord
100
AcDbTextStyleTableRecord
  2
Standard
 70
     0
 40
0.0
 41
1.0
 50
0.0
 71
     0
 42
0.0
  3
txt
  4

  0
ENDTAB
  0
TABLE
  2
VIEW
  5
5
100
AcDbSymbolTable
 70
     0
  0
ENDTAB
  0
TABLE
  2
UCS
  5
6
100
AcDbSymbolTable
 70
     0
  0
ENDTAB
  0
TABLE
  2
APPID
  5
8
100
AcDbSymbolTable
 70
     1
  0
APPID
  5
16
100
AcDbSymbolTableRecord
100
AcDbRegAppTableRecord
  2
ACAD
 70
     0
  0
ENDTAB
  0
TABLE
  2
DIMSTYLE
  5
9
100
AcDbSymbolTable
 70
     1
100
AcDbDimStyleTable
 71
     0
  0
DIMSTYLE
105
18
100
AcDbSymbolTableRecord
100
AcDbDimStyleTableRecord
  2
Standard
 70
     0
  3

  4

 40
1.0
 41
0.18
 42
0.0625
 43
0.38
 44
0.18
 45
0.0
 46
0.0
 47
0.0
 48
0.0
 71
     0
 72
     0
 73
     1
 74
     1
 75
     0
 76
     0
 77
     0
 78
     0
 79
     0
140
0.18
141
0.09
142
0.0
143
25.4
144
1.0
145
0.0
146
1.0
147
0.09
148
0.0
170
     0
171
     2
172
     0
173
     0
174
     0
175
     0
176
     0
177
     0
178
     0
179
     0
271
     4
272
     4
273
     2
274
     2
275
     0
276
     0
277
     2
278
    46
279
     0
280
     0
281
     0
282
     0
283
     1
284
     0
285
     0
286
     0
288
     0
340
17
341
0
342
0
343
0
344
0
371
    -2
372
    -2
  0
ENDTAB
  0
TABLE
  2
BLOCK_RECORD
  5
1
100
AcDbSymbolTable
 70
     0
  0
BLOCK_RECORD
  5
A
100
AcDbSymbolTableRecord
100
AcDbBlockTableRecord
  2
*MODEL_SPACE
340
20
  0
BLOCK_RECORD
  5
B
100
AcDbSymbolTableRecord
100
AcDbBlockTableRecord
  2
*PAPER_SPACE
340
21
  0
ENDTAB
  0
ENDSEC
  0
SECTION
  2
BLOCKS
  0
BLOCK
  5
D
100
AcDbEntity
  8
0
100
AcDbBlockBegin
  2
*MODEL_SPACE
 70
     0
 10
0.0
 20
0.0
 30
0.0
  3
*MODEL_SPACE
  1

  0
ENDBLK
  5
E
100
AcDbEntity
  8
0
100
AcDbBlockEnd
  0
BLOCK
  5
F
100
AcDbEntity
 67
     1
  8
0
100
AcDbBlockBegin
  2
*PAPER_SPACE
 70
     0
 10
0.0
 20
0.0
 30
0.0
  3
*PAPER_SPACE
  1

  0
ENDBLK
  5
10
100
AcDbEntity
 67
     1
  8
0
100
AcDbBlockEnd
  0
ENDSEC
  0
SECTION
  2
ENTITIES
  0
SPLINE
  5
25
100
AcDbEntity
  8
Ebene 1
100
AcDbSpline
210
0.0
220
0.0
230
1.0
 70
     1
 71
     3
 72
   136
 73
   132
 74
     0
 42
0.0000000001
 43
0.0000000001
 40
0.0
 40
0.0
 40
0.0
 40
0.0
 40
0.0303030303030303
 40
0.0303030303030303
 40
0.0303030303030303
 40
0.0303030303030303
 40
0.0606060606060606
 40
0.0606060606060606
 40
0.0606060606060606
 40
0.0606060606060606
 40
0.0909090909090909
 40
0.0909090909090909
 40
0.0909090909090909
 40
0.0909090909090909
 40
0.1212121212121212
 40
0.1212121212121212
 40
0.1212121212121212
 40
0.1212121212121212
 40
0.1515151515151515
 40
0.1515151515151515
 40
0.1515151515151515
 40
0.1515151515151515
 40
0.1818181818181818
 40
0.1818181818181818
 40
0.1818181818181818
 40
0.1818181818181818
 40
0.2121212121212121
 40
0.2121212121212121
 40
0.2121212121212121
 40
0.2121212121212121
 40
0.2424242424242424
 40
0.2424242424242424
 40
0.2424242424242424
 40
0.2424242424242424
 40
0.2727272727272727
 40
0.2727272727272727
 40
0.2727272727272727
 40
0.2727272727272727
 40
0.303030303030303
 40
0.303030303030303
 40
0.303030303030303
 40
0.303030303030303
 40
0.3333333333333333
 40
0.3333333333333333
 40
0.3333333333333333
 40
0.3333333333333333
 40
0.3636363636363635
 40
0.3636363636363635
 40
0.3636363636363635
 40
0.3636363636363635
 40
0.3939393939393938
 40
0.3939393939393938
 40
0.3939393939393938
 40
0.3939393939393938
 40
0.4242424242424241
 40
0.4242424242424241
 40
0.4242424242424241
 40
0.4242424242424241
 40
0.4545454545454544
 40
0.4545454545454544
 40
0.4545454545454544
 40
0.4545454545454544
 40
0.4848484848484846
 40
0.4848484848484846
 40
0.4848484848484846
 40
0.4848484848484846
 40
0.5151515151515149
 40
0.5151515151515149
 40
0.5151515151515149
 40
0.5151515151515149
 40
0.5454545454545452
 40
0.5454545454545452
 40
0.5454545454545452
 40
0.5454545454545452
 40
0.5757575757575755
 40
0.5757575757575755
 40
0.5757575757575755
 40
0.5757575757575755
 40
0.6060606060606057
 40
0.6060606060606057
 40
0.6060606060606057
 40
0.6060606060606057
 40
0.636363636363636
 40
0.636363636363636
 40
0.636363636363636
 40
0.636363636363636
 40
0.6666666666666663
 40
0.6666666666666663
 40
0.6666666666666663
 40
0.6666666666666663
 40
0.6969696969696966
 40
0.6969696969696966
 40
0.6969696969696966
 40
0.6969696969696966
 40
0.7272727272727269
 40
0.7272727272727269
 40
0.7272727272727269
 40
0.7272727272727269
 40
0.7575757575757571
 40
0.7575757575757571
 40
0.7575757575757571
 40
0.7575757575757571
 40
0.7878787878787874
 40
0.7878787878787874
 40
0.7878787878787874
 40
0.7878787878787874
 40
0.8181818181818177
 40
0.8181818181818177
 40
0.8181818181818177
 40
0.8181818181818177
 40
0.848484848484848
 40
0.848484848484848
 40
0.848484848484848
 40
0.848484848484848
 40
0.8787878787878782
 40
0.8787878787878782
 40
0.8787878787878782
 40
0.8787878787878782
 40
0.9090909090909085
 40
0.9090909090909085
 40
0.9090909090909085
 40
0.9090909090909085
 40
0.9393939393939388
 40
0.9393939393939388
 40
0.9393939393939388
 40
0.9393939393939388
 40
0.9696969696969691
 40
0.9696969696969691
 40
0.9696969696969691
 40
0.9696969696969691
 40
1.0
 40
1.0
 40
1.0
 40
1.0
 10
-0.94981
 20
6.3316500000000007
 30
0.0
 10
0.78246
 20
5.8338100000000006
 30
0.0
 10
1.5114400000000001
 20
3.9008700000000003
 30
0.0
 10
1.7044800000000002
 20
2.29305
 30
0.0
 10
1.7044800000000002
 20
2.29305
 30
0.0
 10
2.0677000000000003
 20
2.0847700000000002
 30
0.0
 10
2.34456
 20
1.5208900000000001
 30
0.0
 10
2.7458800000000001
 20
1.8485500000000001
 30
0.0
 10
2.7458800000000001
 20
1.8485500000000001
 30
0.0
 10
2.2759800000000001
 20
1.27705
 30
0.0
 10
3.0583000000000005
 20
0.8223900000000001
 30
0.0
 10
3.3707200000000004
 20
1.52851
 30
0.0
 10
3.3707200000000004
 20
1.52851
 30
0.0
 10
3.5993200000000001
 20
1.8688700000000003
 30
0.0
 10
3.3148400000000002
 20
1.82315
 30
0.0
 10
3.2843600000000004
 20
1.9882500000000001
 30
0.0
 10
3.2843600000000004
 20
1.9882500000000001
 30
0.0
 10
3.2157800000000001
 20
2.3921100000000002
 30
0.0
 10
3.9269800000000004
 20
2.9432900000000002
 30
0.0
 10
3.8380800000000002
 20
3.4157300000000004
 30
0.0
 10
3.8380800000000002
 20
3.4157300000000004
 30
0.0
 10
4.6204000000000001
 20
2.3260700000000001
 30
0.0
 10
4.3410000000000002
 20
0.7106300000000001
 30
0.0
 10
3.3351600000000001
 20
-0.17582
 30
0.0
 10
3.3351600000000001
 20
-0.17582
 30
0.0
 10
3.4748600000000005
 20
-1.08514
 30
0.0
 10
3.3859600000000003
 20
-2.2027400000000004
 30
0.0
 10
2.5553800000000004
 20
-2.7640800000000003
 30
0.0
 10
2.5553800000000004
 20
-2.7640800000000003
 30
0.0
 10
2.4664800000000002
 20
-3.6200600000000005
 30
0.0
 10
1.23458
 20
-3.6454600000000004
 30
0.0
 10
0.6224400000000001
 20
-3.2847800000000005
 30
0.0
 10
0.6224400000000001
 20
-3.2847800000000005
 30
0.0
 10
0.6224400000000001
 20
-3.2847800000000005
 30
0.0
 10
0.18048
 20
-3.4422600000000001
 30
0.0
 10
0.18048
 20
-3.4422600000000001
 30
0.0
 10
0.18048
 20
-3.4422600000000001
 30
0.0
 10
-0.11415
 20
-3.5718000000000001
 30
0.0
 10
0.51576
 20
-5.1694600000000008
 30
0.0
 10
-0.02271
 20
-4.3515800000000002
 30
0.0
 10
-0.02271
 20
-4.3515800000000002
 30
0.0
 10
-0.23861
 20
-4.4049200000000006
 30
0.0
 10
-0.5002300000000001
 20
-5.8781200000000009
 30
0.0
 10
-0.5662700000000001
 20
-4.77576
 30
0.0
 10
-0.5662700000000001
 20
-4.77576
 30
0.0
 10
-1.20381
 20
-4.47858
 30
0.0
 10
-0.78217
 20
-5.9162200000000009
 30
0.0
 10
-1.2571500000000002
 20
-6.1753000000000009
 30
0.0
 10
-1.2571500000000002
 20
-6.1753000000000009
 30
0.0
 10
-1.2571500000000002
 20
-6.1753000000000009
 30
0.0
 10
-1.2622300000000002
 20
-5.7130200000000002
 30
0.0
 10
-1.2622300000000002
 20
-5.7130200000000002
 30
0.0
 10
-1.2622300000000002
 20
-5.7130200000000002
 30
0.0
 10
-1.2800100000000001
 20
-5.5174400000000006
 30
0.0
 10
-1.29525
 20
-5.32186
 30
0.0
 10
-1.3968500000000001
 20
-5.1516800000000007
 30
0.0
 10
-1.3968500000000001
 20
-5.1516800000000007
 30
0.0
 10
-1.6610100000000001
 20
-4.8799000000000001
 30
0.0
 10
-1.6660900000000001
 20
-5.5098200000000004
 30
0.0
 10
-1.6991100000000001
 20
-5.6901600000000006
 30
0.0
 10
-1.6991100000000001
 20
-5.6901600000000006
 30
0.0
 10
-1.6991100000000001
 20
-5.6901600000000006
 30
0.0
 10
-1.71435
 20
-5.9898800000000003
 30
0.0
 10
-1.71435
 20
-5.9898800000000003
 30
0.0
 10
-1.71435
 20
-5.9898800000000003
 30
0.0
 10
-1.8032500000000002
 20
-6.9195200000000003
 30
0.0
 10
-2.0394700000000001
 20
-4.7884600000000006
 30
0.0
 10
-2.1994900000000004
 20
-5.5911000000000008
 30
0.0
 10
-2.1994900000000004
 20
-5.5911000000000008
 30
0.0
 10
-2.1994900000000004
 20
-5.5911000000000008
 30
0.0
 10
-2.2350500000000002
 20
-6.3378600000000009
 30
0.0
 10
-2.2350500000000002
 20
-6.3378600000000009
 30
0.0
 10
-2.2350500000000002
 20
-6.3378600000000009
 30
0.0
 10
-2.5119100000000003
 20
-5.9289200000000006
 30
0.0
 10
-2.4128500000000002
 20
-5.1161200000000004
 30
0.0
 10
-2.7201900000000001
 20
-4.86212
 30
0.0
 10
-2.7201900000000001
 20
-4.86212
 30
0.0
 10
-3.0300700000000003
 20
-5.0653200000000007
 30
0.0
 10
-2.8929100000000001
 20
-5.5580800000000004
 30
0.0
 10
-2.94625
 20
-5.9035200000000003
 30
0.0
 10
-2.94625
 20
-5.9035200000000003
 30
0.0
 10
-3.4517100000000003
 20
-5.0119800000000003
 30
0.0
 10
-3.0580100000000003
 20
-3.9629600000000003
 30
0.0
 10
-3.0503900000000002
 20
-3.0053800000000002
 30
0.0
 10
-3.0503900000000002
 20
-3.0053800000000002
 30
0.0
 10
-3.3602700000000003
 20
-3.1450800000000001
 30
0.0
 10
-3.5126700000000004
 20
-2.6980400000000002
 30
0.0
 10
-3.7209500000000002
 20
-2.4948400000000004
 30
0.0
 10
-3.7209500000000002
 20
-2.4948400000000004
 30
0.0
 10
-3.6549100000000001
 20
-1.9157200000000001
 30
0.0
 10
-3.5533100000000002
 20
-1.2680200000000001
 30
0.0
 10
-3.9876500000000004
 20
-0.80066
 30
0.0
 10
-3.9876500000000004
 20
-0.80066
 30
0.0
 10
-3.5482300000000002
 20
-0.07676
 30
0.0
 10
-4.3661099999999999
 20
0.4972700000000001
 30
0.0
 10
-4.2772100000000002
 20
1.27705
 30
0.0
 10
-4.2772100000000002
 20
1.27705
 30
0.0
 10
-4.0790900000000008
 20
1.01797
 30
0.0
 10
-3.6193500000000003
 20
0.9595500000000001
 30
0.0
 10
-3.4491700000000001
 20
0.83001
 30
0.0
 10
-3.4491700000000001
 20
0.83001
 30
0.0
 10
-3.8657300000000001
 20
1.5970900000000001
 30
0.0
 10
-3.8581100000000004
 20
2.6994500000000001
 30
0.0
 10
-3.3272500000000003
 20
3.3979500000000002
 30
0.0
 10
-3.3272500000000003
 20
3.3979500000000002
 30
0.0
 10
-3.3856700000000002
 20
3.0499700000000001
 30
0.0
 10
-3.3602700000000003
 20
2.6207100000000003
 30
0.0
 10
-3.1646900000000002
 20
2.29305
 30
0.0
 10
-3.1646900000000002
 20
2.29305
 30
0.0
 10
-3.1646900000000002
 20
2.29305
 30
0.0
 10
-3.0148300000000003
 20
2.0796900000000003
 30
0.0
 10
-3.0148300000000003
 20
2.0796900000000003
 30
0.0
 10
-3.0148300000000003
 20
2.0796900000000003
 30
0.0
 10
-2.8319500000000004
 20
2.7908900000000001
 30
0.0
 10
-2.52969
 20
3.5198700000000005
 30
0.0
 10
-2.02677
 20
4.0939100000000002
 30
0.0
 10
-2.02677
 20
4.0939100000000002
 30
0.0
 10
-2.0801100000000003
 20
3.5782900000000004
 30
0.0
 10
-2.1359900000000001
 20
2.9331300000000002
 30
0.0
 10
-1.7651500000000002
 20
2.4962500000000003
 30
0.0
 10
-1.7651500000000002
 20
2.4962500000000003
 30
0.0
 10
-0.9040900000000001
 20
2.9610700000000003
 30
0.0
 10
0.17286
 20
2.8112100000000004
 30
0.0
 10
1.06186
 20
2.5876900000000003
 30
0.0
 10
1.06186
 20
2.5876900000000003
 30
0.0
 10
1.0263
 20
3.0093300000000003
 30
0.0
 10
0.9932800000000001
 20
4.1828099999999999
 30
0.0
 10
0.51068
 20
3.5427300000000002
 30
0.0
 10
0.51068
 20
3.5427300000000002
 30
0.0
 10
0.3684400000000001
 20
4.5968300000000006
 30
0.0
 10
-0.22337
 20
5.5798100000000002
 30
0.0
 10
-0.94981
 20
6.3316500000000007
 30
0.0
  0
SPLINE
  5
26
100
AcDbEntity
  8
Ebene 1
 62
     7
100
AcDbSpline
210
0.0
220
0.0
230
1.0
 70
     1
 71
     3
 72
    20
 73
    16
 74
     0
 42
0.0000000001
 43
0.0000000001
 40
0.0
 40
0.0
 40
0.0
 40
0.0
 40
0.25
 40
0.25
 40
0.25
 40
0.25
 40
0.5
 40
0.5
 40
0.5
 40
0.5
 40
0.75
 40
0.75
 40
0.75
 40
0.75
 40
1.0
 40
1.0
 40
1.0
 40
1.0
 10
-0.27163
 20
5.8617500000000007
 30
0.0
 10
0.7494400000000001
 20
5.3080300000000005
 30
0.0
 10
1.27014
 20
4.1447100000000008
 30
0.0
 10
1.1837800000000001
 20
3.0321900000000004
 30
0.0
 10
1.1837800000000001
 20
3.0321900000000004
 30
0.0
 10
1.0948800000000001
 20
3.3344500000000004
 30
0.0
 10
0.9755
 20
3.6468700000000003
 30
0.0
 10
0.8535800000000001
 20
3.9516700000000005
 30
0.0
 10
0.8535800000000001
 20
3.9516700000000005
 30
0.0
 10
0.7494400000000001
 20
3.9542100000000002
 30
0.0
 10
0.7138800000000001
 20
3.7916500000000002
 30
0.0
 10
0.61482
 20
3.8018100000000001
 30
0.0
 10
0.61482
 20
3.8018100000000001
 30
0.0
 10
0.38622
 20
4.5130100000000004
 30
0.0
 10
0.06364
 20
5.18865
 30
0.0
 10
-0.27163
 20
5.8617500000000007
 30
0.0
  0
SPLINE
  5
27
100
AcDbEntity
  8
Ebene 1
 62
     7
100
AcDbSpline
210
0.0
220
0.0
230
1.0
 70
     1
 71
     3
 72
    20
 73
    16
 74
     0
 42
0.0000000001
 43
0.0000000001
 40
0.0
 40
0.0
 40
0.0
 40
0.0
 40
0.25
 40
0.25
 40
0.25
 40
0.25
 40
0.5
 40
0.5
 40
0.5
 40
0.5
 40
0.75
 40
0.75
 40
0.75
 40
0.75
 40
1.0
 40
1.0
 40
1.0
 40
1.0
 10
-2.2350500000000002
 20
3.6240100000000002
 30
0.0
 10
-2.0623300000000002
 20
3.1922100000000002
 30
0.0
 10
-2.06487
 20
2.5318100000000001
 30
0.0
 10
-1.5797300000000001
 20
2.20669
 30
0.0
 10
-1.5797300000000001
 20
2.20669
 30
0.0
 10
-2.0369300000000004
 20
1.8510900000000001
 30
0.0
 10
-2.3493500000000003
 20
1.3481700000000001
 30
0.0
 10
-2.4712700000000001
 20
0.8173100000000001
 30
0.0
 10
-2.4712700000000001
 20
0.8173100000000001
 30
0.0
 10
-2.5652500000000003
 20
1.2160900000000001
 30
0.0
 10
-2.77861
 20
1.5869300000000002
 30
0.0
 10
-2.9767300000000003
 20
1.9450700000000001
 30
0.0
 10
-2.9767300000000003
 20
1.9450700000000001
 30
0.0
 10
-2.8802100000000004
 20
2.5673700000000004
 30
0.0
 10
-2.5500100000000003
 20
3.1388700000000003
 30
0.0
 10
-2.2350500000000002
 20
3.6240100000000002
 30
0.0
  0
SPLINE
  5
28
100
AcDbEntity
  8
Ebene 1
 62
     7
100
AcDbSpline
210
0.0
220
0.0
230
1.0
 70
     1
 71
     3
 72
    20
 73
    16
 74
     0
 42
0.0000000001
 43
0.0000000001
 40
0.0
 40
0.0
 40
0.0
 40
0.0
 40
0.25
 40
0.25
 40
0.25
 40
0.25
 40
0.5
 40
0.5
 40
0.5
 40
0.5
 40
0.75
 40
0.75
 40
0.75
 40
0.75
 40
1.0
 40
1.0
 40
1.0
 40
1.0
 10
-3.4313900000000004
 20
3.1566500000000004
 30
0.0
 10
-3.4313900000000004
 20
3.1566500000000004
 30
0.0
 10
-3.4136100000000003
 20
2.8772500000000001
 30
0.0
 10
-3.4136100000000003
 20
2.8772500000000001
 30
0.0
 10
-3.4136100000000003
 20
2.8772500000000001
 30
0.0
 10
-3.4136100000000003
 20
2.8772500000000001
 30
0.0
 10
-3.4948900000000003
 20
2.8213700000000004
 30
0.0
 10
-3.4948900000000003
 20
2.8213700000000004
 30
0.0
 10
-3.4948900000000003
 20
2.8213700000000004
 30
0.0
 10
-3.7133300000000005
 20
2.2727300000000001
 30
0.0
 10
-3.5609300000000004
 20
1.6580500000000002
 30
0.0
 10
-3.4694900000000004
 20
1.11195
 30
0.0
 10
-3.4694900000000004
 20
1.11195
 30
0.0
 10
-3.8352500000000003
 20
1.6859900000000001
 30
0.0
 10
-3.6980900000000001
 20
2.5419700000000001
 30
0.0
 10
-3.4313900000000004
 20
3.1566500000000004
 30
0.0
  0
SPLINE
  5
29
100
AcDbEntity
  8
Ebene 1
 62
     7
100
AcDbSpline
210
0.0
220
0.0
230
1.0
 70
     1
 71
     3
 72
    32
 73
    28
 74
     0
 42
0.0000000001
 43
0.0000000001
 40
0.0
 40
0.0
 40
0.0
 40
0.0
 40
0.1428571428571429
 40
0.1428571428571429
 40
0.1428571428571429
 40
0.1428571428571429
 40
0.2857142857142857
 40
0.2857142857142857
 40
0.2857142857142857
 40
0.2857142857142857
 40
0.4285714285714286
 40
0.4285714285714286
 40
0.4285714285714286
 40
0.4285714285714286
 40
0.5714285714285714
 40
0.5714285714285714
 40
0.5714285714285714
 40
0.5714285714285714
 40
0.7142857142857142
 40
0.7142857142857142
 40
0.7142857142857142
 40
0.7142857142857142
 40
0.857142857142857
 40
0.857142857142857
 40
0.857142857142857
 40
0.857142857142857
 40
1.0
 40
1.0
 40
1.0
 40
1.0
 10
3.9955600000000002
 20
2.9128100000000003
 30
0.0
 10
4.3587800000000003
 20
2.33623
 30
0.0
 10
3.9955600000000002
 20
1.5056500000000002
 30
0.0
 10
3.5256600000000002
 20
1.0535300000000001
 30
0.0
 10
3.5256600000000002
 20
1.0535300000000001
 30
0.0
 10
3.5790000000000002
 20
0.8046100000000001
 30
0.0
 10
3.6983800000000002
 20
0.5658500000000001
 30
0.0
 10
3.6831400000000003
 20
0.29661
 30
0.0
 10
3.6831400000000003
 20
0.29661
 30
0.0
 10
3.5790000000000002
 20
0.15691
 30
0.0
 10
3.4748600000000005
 20
0.03499
 30
0.0
 10
3.3529400000000003
 20
-0.08184
 30
0.0
 10
3.3529400000000003
 20
-0.08184
 30
0.0
 10
2.9008200000000004
 20
0.39313
 30
0.0
 10
2.1210400000000003
 20
0.3474100000000001
 30
0.0
 10
1.5647800000000001
 20
0.22041
 30
0.0
 10
1.5647800000000001
 20
0.22041
 30
0.0
 10
2.2251800000000004
 20
0.7284100000000001
 30
0.0
 10
3.4926400000000002
 20
0.83001
 30
0.0
 10
3.6120200000000002
 20
1.8714100000000002
 30
0.0
 10
3.6120200000000002
 20
1.8714100000000002
 30
0.0
 10
3.5790000000000002
 20
1.9526900000000003
 30
0.0
 10
3.4926400000000002
 20
2.00095
 30
0.0
 10
3.4393000000000002
 20
2.0593700000000004
 30
0.0
 10
3.4393000000000002
 20
2.0593700000000004
 30
0.0
 10
3.6831400000000003
 20
2.29305
 30
0.0
 10
3.8380800000000002
 20
2.6156300000000003
 30
0.0
 10
3.9955600000000002
 20
2.9128100000000003
 30
0.0
  0
SPLINE
  5
2A
100
AcDbEntity
  8
Ebene 1
100
AcDbSpline
210
0.0
220
0.0
230
1.0
 70
     1
 71
     3
 72
    28
 73
    24
 74
     0
 42
0.0000000001
 43
0.0000000001
 40
0.0
 40
0.0
 40
0.0
 40
0.0
 40
0.1666666666666667
 40
0.1666666666666667
 40
0.1666666666666667
 40
0.1666666666666667
 40
0.3333333333333333
 40
0.3333333333333333
 40
0.3333333333333333
 40
0.3333333333333333
 40
0.5
 40
0.5
 40
0.5
 40
0.5
 40
0.6666666666666666
 40
0.6666666666666666
 40
0.6666666666666666
 40
0.6666666666666666
 40
0.8333333333333333
 40
0.8333333333333333
 40
0.8333333333333333
 40
0.8333333333333333
 40
1.0
 40
1.0
 40
1.0
 40
1.0
 10
-2.4255500000000003
 20
2.7553300000000003
 30
0.0
 10
-2.3899900000000001
 20
2.7680300000000004
 30
0.0
 10
-2.3925300000000003
 20
2.7324700000000002
 30
0.0
 10
-2.3747500000000001
 20
2.7172300000000003
 30
0.0
 10
-2.3747500000000001
 20
2.7172300000000003
 30
0.0
 10
-2.4077700000000002
 20
2.5191100000000004
 30
0.0
 10
-2.2045700000000004
 20
2.3997300000000004
 30
0.0
 10
-2.1994900000000004
 20
2.2193900000000002
 30
0.0
 10
-2.1994900000000004
 20
2.2193900000000002
 30
0.0
 10
-2.4026900000000002
 20
2.0365100000000003
 30
0.0
 10
-2.4153900000000004
 20
1.7190100000000001
 30
0.0
 10
-2.5068300000000003
 20
1.4954900000000002
 30
0.0
 10
-2.5068300000000003
 20
1.4954900000000002
 30
0.0
 10
-2.7709900000000003
 20
1.8485500000000001
 30
0.0
 10
-2.86497
 20
2.3540100000000002
 30
0.0
 10
-2.5804900000000002
 20
2.71977
 30
0.0
 10
-2.5804900000000002
 20
2.71977
 30
0.0
 10
-2.5169900000000003
 20
2.7299300000000004
 30
0.0
 10
-2.5703300000000002
 20
2.5699100000000001
 30
0.0
 10
-2.48143
 20
2.63849
 30
0.0
 10
-2.48143
 20
2.63849
 30
0.0
 10
-2.48143
 20
2.63849
 30
0.0
 10
-2.4255500000000003
 20
2.7553300000000003
 30
0.0
 10
-2.4255500000000003
 20
2.7553300000000003
 30
0.0
  0
SPLINE
  5
2B
100
AcDbEntity
  8
Ebene 1
 62
     7
100
AcDbSpline
210
0.0
220
0.0
230
1.0
 70
     1
 71
     3
 72
    44
 73
    40
 74
     0
 42
0.0000000001
 43
0.0000000001
 40
0.0
 40
0.0
 40
0.0
 40
0.0
 40
0.1
 40
0.1
 40
0.1
 40
0.1
 40
0.2
 40
0.2
 40
0.2
 40
0.2
 40
0.3
 40
0.3
 40
0.3
 40
0.3
 40
0.4
 40
0.4
 40
0.4
 40
0.4
 40
0.5
 40
0.5
 40
0.5
 40
0.5
 40
0.6
 40
0.6
 40
0.6
 40
0.6
 40
0.7
 40
0.7
 40
0.7
 40
0.7
 40
0.7999999999999999
 40
0.7999999999999999
 40
0.7999999999999999
 40
0.7999999999999999
 40
0.8999999999999999
 40
0.8999999999999999
 40
0.8999999999999999
 40
0.8999999999999999
 40
1.0
 40
1.0
 40
1.0
 40
1.0
 10
-0.53325
 20
2.7045300000000001
 30
0.0
 10
0.4497200000000001
 20
2.7273900000000002
 30
0.0
 10
1.5470000000000002
 20
2.5114900000000002
 30
0.0
 10
2.17184
 20
1.7012300000000002
 30
0.0
 10
2.17184
 20
1.7012300000000002
 30
0.0
 10
2.17184
 20
1.7012300000000002
 30
0.0
 10
1.7044800000000002
 20
1.6250300000000002
 30
0.0
 10
1.7044800000000002
 20
1.6250300000000002
 30
0.0
 10
1.7044800000000002
 20
1.6250300000000002
 30
0.0
 10
1.4606400000000002
 20
1.2237100000000001
 30
0.0
 10
0.9043800000000001
 20
1.2110100000000001
 30
0.0
 10
0.48782
 20
1.3329300000000002
 30
0.0
 10
0.48782
 20
1.3329300000000002
 30
0.0
 10
0.4192400000000001
 20
1.2465700000000002
 30
0.0
 10
0.3278
 20
1.1678300000000001
 30
0.0
 10
0.24144
 20
1.0941700000000001
 30
0.0
 10
0.24144
 20
1.0941700000000001
 30
0.0
 10
-0.5459500000000001
 20
0.9062100000000001
 30
0.0
 10
-1.25461
 20
0.4642500000000001
 30
0.0
 10
-1.9150100000000001
 20
0.01975
 30
0.0
 10
-1.9150100000000001
 20
0.01975
 30
0.0
 10
-2.05471
 20
0.29407
 30
0.0
 10
-1.8362700000000001
 20
0.5683900000000001
 30
0.0
 10
-1.6102100000000001
 20
0.7080900000000001
 30
0.0
 10
-1.6102100000000001
 20
0.7080900000000001
 30
0.0
 10
-1.6940300000000001
 20
0.7995300000000001
 30
0.0
 10
-1.75753
 20
0.9011300000000001
 30
0.0
 10
-1.8032500000000002
 20
1.01797
 30
0.0
 10
-1.8032500000000002
 20
1.01797
 30
0.0
 10
-1.9962900000000001
 20
1.4142100000000002
 30
0.0
 10
-1.9658100000000001
 20
1.9780900000000001
 30
0.0
 10
-1.4908300000000001
 20
2.1711300000000002
 30
0.0
 10
-1.4908300000000001
 20
2.1711300000000002
 30
0.0
 10
-1.4730500000000002
 20
2.2244700000000002
 30
0.0
 10
-1.5314700000000001
 20
2.26003
 30
0.0
 10
-1.5517900000000002
 20
2.3006700000000002
 30
0.0
 10
-1.5517900000000002
 20
2.3006700000000002
 30
0.0
 10
-1.2673100000000002
 20
2.5648300000000002
 30
0.0
 10
-0.8913900000000001
 20
2.6486500000000004
 30
0.0
 10
-0.53325
 20
2.7045300000000001
 30
0.0
  0
SPLINE
  5
2C
100
AcDbEntity
  8
Ebene 1
 62
     7
100
AcDbSpline
210
0.0
220
0.0
230
1.0
 70
     1
 71
     3
 72
    16
 73
    12
 74
     0
 42
0.0000000001
 43
0.0000000001
 40
0.0
 40
0.0
 40
0.0
 40
0.0
 40
0.3333333333333333
 40
0.3333333333333333
 40
0.3333333333333333
 40
0.3333333333333333
 40
0.6666666666666666
 40
0.6666666666666666
 40
0.6666666666666666
 40
0.6666666666666666
 40
1.0
 40
1.0
 40
1.0
 40
1.0
 10
4.1682800000000002
 20
1.8891900000000001
 30
0.0
 10
4.1860600000000003
 20
1.4294500000000001
 30
0.0
 10
3.6831400000000003
 20
1.1373500000000001
 30
0.0
 10
3.7872800000000004
 20
0.6725300000000001
 30
0.0
 10
3.7872800000000004
 20
0.6725300000000001
 30
0.0
 10
3.7872800000000004
 20
0.63951
 30
0.0
 10
3.8050600000000001
 20
0.58109
 30
0.0
 10
3.7517200000000002
 20
0.57347
 30
0.0
 10
3.7517200000000002
 20
0.57347
 30
0.0
 10
3.5104200000000003
 20
1.07131
 30
0.0
 10
4.0997000000000003
 20
1.4243700000000001
 30
0.0
 10
4.1682800000000002
 20
1.8891900000000001
 30
0.0
  0
SPLINE
  5
2D
100
AcDbEntity
  8
Ebene 1
 62
     7
100
AcDbSpline
210
0.0
220
0.0
230
1.0
 70
     1
 71
     3
 72
    72
 73
    68
 74
     0
 42
0.0000000001
 43
0.0000000001
 40
0.0
 40
0.0
 40
0.0
 40
0.0
 40
0.0588235294117647
 40
0.0588235294117647
 40
0.0588235294117647
 40
0.0588235294117647
 40
0.1176470588235294
 40
0.1176470588235294
 40
0.1176470588235294
 40
0.1176470588235294
 40
0.1764705882352941
 40
0.1764705882352941
 40
0.1764705882352941
 40
0.1764705882352941
 40
0.2352941176470588
 40
0.2352941176470588
 40
0.2352941176470588
 40
0.2352941176470588
 40
0.2941176470588235
 40
0.2941176470588235
 40
0.2941176470588235
 40
0.2941176470588235
 40
0.3529411764705883
 40
0.3529411764705883
 40
0.3529411764705883
 40
0.3529411764705883
 40
0.411764705882353
 40
0.411764705882353
 40
0.411764705882353
 40
0.411764705882353
 40
0.4705882352941177
 40
0.4705882352941177
 40
0.4705882352941177
 40
0.4705882352941177
 40
0.5294117647058824
 40
0.5294117647058824
 40
0.5294117647058824
 40
0.5294117647058824
 40
0.5882352941176471
 40
0.5882352941176471
 40
0.5882352941176471
 40
0.5882352941176471
 40
0.6470588235294118
 40
0.6470588235294118
 40
0.6470588235294118
 40
0.6470588235294118
 40
0.7058823529411765
 40
0.7058823529411765
 40
0.7058823529411765
 40
0.7058823529411765
 40
0.7647058823529412
 40
0.7647058823529412
 40
0.7647058823529412
 40
0.7647058823529412
 40
0.823529411764706
 40
0.823529411764706
 40
0.823529411764706
 40
0.823529411764706
 40
0.8823529411764707
 40
0.8823529411764707
 40
0.8823529411764707
 40
0.8823529411764707
 40
0.9411764705882354
 40
0.9411764705882354
 40
0.9411764705882354
 40
0.9411764705882354
 40
1.0
 40
1.0
 40
1.0
 40
1.0
 10
2.3979000000000004
 20
1.6097900000000001
 30
0.0
 10
2.3979000000000004
 20
1.6097900000000001
 30
0.0
 10
2.4842600000000004
 20
1.5945500000000001
 30
0.0
 10
2.4842600000000004
 20
1.5945500000000001
 30
0.0
 10
2.4842600000000004
 20
1.5945500000000001
 30
0.0
 10
2.0499200000000002
 20
1.07131
 30
0.0
 10
1.5114400000000001
 20
0.5683900000000001
 30
0.0
 10
1.3920600000000001
 20
-0.08946
 30
0.0
 10
1.3920600000000001
 20
-0.08946
 30
0.0
 10
0.4624200000000001
 20
0.20771
 30
0.0
 10
-0.6856500000000001
 20
0.34995
 30
0.0
 10
-1.50099
 20
-0.3079
 30
0.0
 10
-1.50099
 20
-0.3079
 30
0.0
 10
-1.2850900000000001
 20
-0.3002800000000001
 30
0.0
 10
-0.7262900000000001
 20
0.11627
 30
0.0
 10
-0.7796300000000001
 20
-0.36124
 30
0.0
 10
-0.7796300000000001
 20
-0.36124
 30
0.0
 10
-0.7796300000000001
 20
-0.36124
 30
0.0
 10
-1.00569
 20
-0.4476000000000001
 30
0.0
 10
-1.00569
 20
-0.4476000000000001
 30
0.0
 10
-1.00569
 20
-0.4476000000000001
 30
0.0
 10
-1.4552700000000001
 20
-0.65588
 30
0.0
 10
-1.8540500000000002
 20
-1.0191000000000001
 30
0.0
 10
-2.11313
 20
-1.4432800000000001
 30
0.0
 10
-2.11313
 20
-1.4432800000000001
 30
0.0
 10
-2.1105900000000002
 20
-1.16388
 30
0.0
 10
-1.8921500000000002
 20
-0.90734
 30
0.0
 10
-1.6965700000000001
 20
-0.69652
 30
0.0
 10
-1.6965700000000001
 20
-0.69652
 30
0.0
 10
-1.6330700000000002
 20
-0.5822200000000001
 30
0.0
 10
-1.8642100000000001
 20
-0.32822
 30
0.0
 10
-1.8972300000000002
 20
-0.092
 30
0.0
 10
-1.8972300000000002
 20
-0.092
 30
0.0
 10
-1.37907
 20
0.22803
 30
0.0
 10
-0.8710700000000001
 20
0.5836300000000001
 30
0.0
 10
-0.30719
 20
0.8122300000000001
 30
0.0
 10
-0.30719
 20
0.8122300000000001
 30
0.0
 10
-0.30719
 20
0.8122300000000001
 30
0.0
 10
0.10682
 20
0.8985900000000001
 30
0.0
 10
0.10682
 20
0.8985900000000001
 30
0.0
 10
0.10682
 20
0.8985900000000001
 30
0.0
 10
0.13476
 20
0.7817500000000001
 30
0.0
 10
-0.11161
 20
0.76905
 30
0.0
 10
-0.12939
 20
0.66237
 30
0.0
 10
-0.12939
 20
0.66237
 30
0.0
 10
0.1627
 20
0.6979300000000001
 30
0.0
 10
0.3405
 20
1.0484500000000001
 30
0.0
 10
0.57418
 20
1.2110100000000001
 30
0.0
 10
0.57418
 20
1.2110100000000001
 30
0.0
 10
0.57418
 20
1.2110100000000001
 30
0.0
 10
1.0263
 20
1.1424300000000001
 30
0.0
 10
1.0263
 20
1.1424300000000001
 30
0.0
 10
1.0263
 20
1.1424300000000001
 30
0.0
 10
1.0263
 20
1.1424300000000001
 30
0.0
 10
1.2168000000000001
 20
1.1373500000000001
 30
0.0
 10
1.2168000000000001
 20
1.1373500000000001
 30
0.0
 10
1.2168000000000001
 20
1.1373500000000001
 30
0.0
 10
1.1837800000000001
 20
1.02305
 30
0.0
 10
1.0263
 20
0.9900300000000001
 30
0.0
 10
0.9932800000000001
 20
0.8858900000000001
 30
0.0
 10
0.9932800000000001
 20
0.8858900000000001
 30
0.0
 10
1.32094
 20
0.9646300000000001
 30
0.0
 10
1.5647800000000001
 20
1.2567300000000001
 30
0.0
 10
1.7375
 20
1.5361300000000002
 30
0.0
 10
1.7375
 20
1.5361300000000002
 30
0.0
 10
1.9457800000000001
 20
1.5539100000000001
 30
0.0
 10
2.1896200000000001
 20
1.57423
 30
0.0
 10
2.3979000000000004
 20
1.6097900000000001
 30
0.0
  0
SPLINE
  5
2E
100
AcDbEntity
  8
Ebene 1
 62
     7
100
AcDbSpline
210
0.0
220
0.0
230
1.0
 70
     1
 71
     3
 72
    16
 73
    12
 74
     0
 42
0.0000000001
 43
0.0000000001
 40
0.0
 40
0.0
 40
0.0
 40
0.0
 40
0.3333333333333333
 40
0.3333333333333333
 40
0.3333333333333333
 40
0.3333333333333333
 40
0.6666666666666666
 40
0.6666666666666666
 40
0.6666666666666666
 40
0.6666666666666666
 40
1.0
 40
1.0
 40
1.0
 40
1.0
 10
-2.85989
 20
1.5589900000000001
 30
0.0
 10
-2.6846300000000003
 20
1.32277
 30
0.0
 10
-2.8522700000000003
 20
0.9417700000000001
 30
0.0
 10
-2.9640300000000002
 20
0.6903100000000001
 30
0.0
 10
-2.9640300000000002
 20
0.6903100000000001
 30
0.0
 10
-2.9284700000000004
 20
0.4439300000000001
 30
0.0
 10
-2.7836900000000004
 20
0.23057
 30
0.0
 10
-2.6719300000000001
 20
0.01975
 30
0.0
 10
-2.6719300000000001
 20
0.01975
 30
0.0
 10
-3.3323300000000002
 20
0.23819
 30
0.0
 10
-3.4288500000000002
 20
1.1779900000000001
 30
0.0
 10
-2.85989
 20
1.5589900000000001
 30
0.0
  0
SPLINE
  5
2F
100
AcDbEntity
  8
Ebene 1
 62
     7
100
AcDbSpline
210
0.0
220
0.0
230
1.0
 70
     1
 71
     3
 72
    44
 73
    40
 74
     0
 42
0.0000000001
 43
0.0000000001
 40
0.0
 40
0.0
 40
0.0
 40
0.0
 40
0.1
 40
0.1
 40
0.1
 40
0.1
 40
0.2
 40
0.2
 40
0.2
 40
0.2
 40
0.3
 40
0.3
 40
0.3
 40
0.3
 40
0.4
 40
0.4
 40
0.4
 40
0.4
 40
0.5
 40
0.5
 40
0.5
 40
0.5
 40
0.6
 40
0.6
 40
0.6
 40
0.6
 40
0.7
 40
0.7
 40
0.7
 40
0.7
 40
0.7999999999999999
 40
0.7999999999999999
 40
0.7999999999999999
 40
0.7999999999999999
 40
0.8999999999999999
 40
0.8999999999999999
 40
0.8999999999999999
 40
0.8999999999999999
 40
1.0
 40
1.0
 40
1.0
 40
1.0
 10
-2.05979
 20
1.3837300000000001
 30
0.0
 10
-2.05979
 20
1.3837300000000001
 30
0.0
 10
-1.7321300000000002
 20
0.6903100000000001
 30
0.0
 10
-1.7321300000000002
 20
0.6903100000000001
 30
0.0
 10
-1.7321300000000002
 20
0.6903100000000001
 30
0.0
 10
-2.15123
 20
0.40329
 30
0.0
 10
-2.27061
 20
-0.09708
 30
0.0
 10
-2.3747500000000001
 20
-0.55174
 30
0.0
 10
-2.3747500000000001
 20
-0.55174
 30
0.0
 10
-2.48651
 20
-0.05644
 30
0.0
 10
-2.9716500000000003
 20
0.41599
 30
0.0
 10
-2.7379700000000002
 20
0.9519300000000001
 30
0.0
 10
-2.7379700000000002
 20
0.9519300000000001
 30
0.0
 10
-2.7379700000000002
 20
0.9519300000000001
 30
0.0
 10
-2.7201900000000001
 20
1.2110100000000001
 30
0.0
 10
-2.7201900000000001
 20
1.2110100000000001
 30
0.0
 10
-2.7201900000000001
 20
1.2110100000000001
 30
0.0
 10
-2.7176500000000003
 20
1.2262500000000001
 30
0.0
 10
-2.7303500000000001
 20
1.2618100000000001
 30
0.0
 10
-2.7024100000000004
 20
1.2643500000000001
 30
0.0
 10
-2.7024100000000004
 20
1.2643500000000001
 30
0.0
 10
-2.5754100000000002
 20
1.06369
 30
0.0
 10
-2.5652500000000003
 20
0.78683
 30
0.0
 10
-2.4585700000000004
 20
0.5861700000000001
 30
0.0
 10
-2.4585700000000004
 20
0.5861700000000001
 30
0.0
 10
-2.3417300000000001
 20
0.6928500000000001
 30
0.0
 10
-2.35697
 20
0.8985900000000001
 30
0.0
 10
-2.23759
 20
1.0001900000000001
 30
0.0
 10
-2.23759
 20
1.0001900000000001
 30
0.0
 10
-1.9988300000000001
 20
0.76651
 30
0.0
 10
-2.1715500000000003
 20
0.5455300000000001
 30
0.0
 10
-2.22743
 20
0.27883
 30
0.0
 10
-2.22743
 20
0.27883
 30
0.0
 10
-2.1334500000000003
 20
0.43377
 30
0.0
 10
-2.0470900000000003
 20
0.61919
 30
0.0
 10
-1.9226300000000001
 20
0.7588900000000001
 30
0.0
 10
-1.9226300000000001
 20
0.7588900000000001
 30
0.0
 10
-1.9810500000000002
 20
0.9620900000000001
 30
0.0
 10
-2.1207500000000001
 20
1.1652900000000002
 30
0.0
 10
-2.05979
 20
1.3837300000000001
 30
0.0
  0
SPLINE
  5
30
100
AcDbEntity
  8
Ebene 1
 62
     7
100
AcDbSpline
210
0.0
220
0.0
230
1.0
 70
     1
 71
     3
 72
    16
 73
    12
 74
     0
 42
0.0000000001
 43
0.0000000001
 40
0.0
 40
0.0
 40
0.0
 40
0.0
 40
0.3333333333333333
 40
0.3333333333333333
 40
0.3333333333333333
 40
0.3333333333333333
 40
0.6666666666666666
 40
0.6666666666666666
 40
0.6666666666666666
 40
0.6666666666666666
 40
1.0
 40
1.0
 40
1.0
 40
1.0
 10
2.3801200000000002
 20
1.2821300000000002
 30
0.0
 10
2.4842600000000004
 20
1.2110100000000001
 30
0.0
 10
2.5706200000000003
 20
1.0560700000000001
 30
0.0
 10
2.5553800000000004
 20
0.9214500000000001
 30
0.0
 10
2.5553800000000004
 20
0.9214500000000001
 30
0.0
 10
2.3115400000000004
 20
0.8376300000000001
 30
0.0
 10
2.08548
 20
0.72079
 30
0.0
 10
1.8238600000000003
 20
0.6953900000000001
 30
0.0
 10
1.8238600000000003
 20
0.6953900000000001
 30
0.0
 10
1.8238600000000003
 20
0.6953900000000001
 30
0.0
 10
2.3801200000000002
 20
1.2821300000000002
 30
0.0
 10
2.3801200000000002
 20
1.2821300000000002
 30
0.0
  0
SPLINE
  5
31
100
AcDbEntity
  8
Ebene 1
 62
     7
100
AcDbSpline
210
0.0
220
0.0
230
1.0
 70
     1
 71
     3
 72
    48
 73
    44
 74
     0
 42
0.0000000001
 43
0.0000000001
 40
0.0
 40
0.0
 40
0.0
 40
0.0
 40
0.0909090909090909
 40
0.0909090909090909
 40
0.0909090909090909
 40
0.0909090909090909
 40
0.1818181818181818
 40
0.1818181818181818
 40
0.1818181818181818
 40
0.1818181818181818
 40
0.2727272727272727
 40
0.2727272727272727
 40
0.2727272727272727
 40
0.2727272727272727
 40
0.3636363636363637
 40
0.3636363636363637
 40
0.3636363636363637
 40
0.3636363636363637
 40
0.4545454545454546
 40
0.4545454545454546
 40
0.4545454545454546
 40
0.4545454545454546
 40
0.5454545454545455
 40
0.5454545454545455
 40
0.5454545454545455
 40
0.5454545454545455
 40
0.6363636363636365
 40
0.6363636363636365
 40
0.6363636363636365
 40
0.6363636363636365
 40
0.7272727272727274
 40
0.7272727272727274
 40
0.7272727272727274
 40
0.7272727272727274
 40
0.8181818181818183
 40
0.8181818181818183
 40
0.8181818181818183
 40
0.8181818181818183
 40
0.9090909090909093
 40
0.9090909090909093
 40
0.9090909090909093
 40
0.9090909090909093
 40
1.0
 40
1.0
 40
1.0
 40
1.0
 10
-4.1781500000000005
 20
1.0890900000000001
 30
0.0
 10
-3.8403300000000002
 20
1.0763900000000002
 30
0.0
 10
-4.0435300000000005
 20
0.5455300000000001
 30
0.0
 10
-3.7488900000000003
 20
0.5404500000000001
 30
0.0
 10
-3.7488900000000003
 20
0.5404500000000001
 30
0.0
 10
-3.7488900000000003
 20
0.5404500000000001
 30
0.0
 10
-3.8250900000000003
 20
0.7919100000000001
 30
0.0
 10
-3.8250900000000003
 20
0.7919100000000001
 30
0.0
 10
-3.8250900000000003
 20
0.7919100000000001
 30
0.0
 10
-3.7844500000000001
 20
0.87065
 30
0.0
 10
-3.7031700000000005
 20
0.7792100000000001
 30
0.0
 10
-3.6422100000000004
 20
0.8249300000000001
 30
0.0
 10
-3.6422100000000004
 20
0.8249300000000001
 30
0.0
 10
-3.5533100000000002
 20
0.68269
 30
0.0
 10
-3.5431500000000002
 20
0.43885
 30
0.0
 10
-3.3475700000000002
 20
0.38297
 30
0.0
 10
-3.3475700000000002
 20
0.38297
 30
0.0
 10
-3.3196300000000001
 20
0.43631
 30
0.0
 10
-3.4517100000000003
 20
0.53791
 30
0.0
 10
-3.3831300000000004
 20
0.5480700000000001
 30
0.0
 10
-3.3831300000000004
 20
0.5480700000000001
 30
0.0
 10
-3.2307300000000003
 20
0.23819
 30
0.0
 10
-2.9386300000000003
 20
0.06547
 30
0.0
 10
-2.6516100000000002
 20
-0.07168
 30
0.0
 10
-2.6516100000000002
 20
-0.07168
 30
0.0
 10
-2.6516100000000002
 20
-0.07168
 30
0.0
 10
-2.7760700000000003
 20
-0.48316
 30
0.0
 10
-2.7760700000000003
 20
-0.48316
 30
0.0
 10
-2.7760700000000003
 20
-0.48316
 30
0.0
 10
-2.8192500000000003
 20
-0.5390400000000001
 30
0.0
 10
-2.8751300000000004
 20
-0.47046
 30
0.0
 10
-2.8878300000000001
 20
-0.42982
 30
0.0
 10
-2.8878300000000001
 20
-0.42982
 30
0.0
 10
-2.8116300000000001
 20
0.02483
 30
0.0
 10
-3.5533100000000002
 20
0.13151
 30
0.0
 10
-3.7895300000000005
 20
-0.13518
 30
0.0
 10
-3.7895300000000005
 20
-0.13518
 30
0.0
 10
-3.9190700000000005
 20
-0.07422
 30
0.0
 10
-3.7387300000000003
 20
0.03245
 30
0.0
 10
-3.7260300000000002
 20
0.08325
 30
0.0
 10
-3.7260300000000002
 20
0.08325
 30
0.0
 10
-4.0359100000000003
 20
0.3270900000000001
 30
0.0
 10
-4.1298900000000005
 20
0.72079
 30
0.0
 10
-4.1781500000000005
 20
1.0890900000000001
 30
0.0
  0
SPLINE
  5
32
100
AcDbEntity
  8
Ebene 1
 62
     7
100
AcDbSpline
210
0.0
220
0.0
230
1.0
 70
     1
 71
     3
 72
    52
 73
    48
 74
     0
 42
0.0000000001
 43
0.0000000001
 40
0.0
 40
0.0
 40
0.0
 40
0.0
 40
0.0833333333333333
 40
0.0833333333333333
 40
0.0833333333333333
 40
0.0833333333333333
 40
0.1666666666666667
 40
0.1666666666666667
 40
0.1666666666666667
 40
0.1666666666666667
 40
0.25
 40
0.25
 40
0.25
 40
0.25
 40
0.3333333333333333
 40
0.3333333333333333
 40
0.3333333333333333
 40
0.3333333333333333
 40
0.4166666666666666
 40
0.4166666666666666
 40
0.4166666666666666
 40
0.4166666666666666
 40
0.4999999999999999
 40
0.4999999999999999
 40
0.4999999999999999
 40
0.4999999999999999
 40
0.5833333333333333
 40
0.5833333333333333
 40
0.5833333333333333
 40
0.5833333333333333
 40
0.6666666666666666
 40
0.6666666666666666
 40
0.6666666666666666
 40
0.6666666666666666
 40
0.75
 40
0.75
 40
0.75
 40
0.75
 40
0.8333333333333334
 40
0.8333333333333334
 40
0.8333333333333334
 40
0.8333333333333334
 40
0.9166666666666667
 40
0.9166666666666667
 40
0.9166666666666667
 40
0.9166666666666667
 40
1.0
 40
1.0
 40
1.0
 40
1.0
 10
-2.02677
 20
0.29153
 30
0.0
 10
-1.9810500000000002
 20
0.00197
 30
0.0
 10
-1.9327900000000002
 20
-0.3206000000000001
 30
0.0
 10
-1.7499100000000001
 20
-0.56952
 30
0.0
 10
-1.7499100000000001
 20
-0.56952
 30
0.0
 10
-2.2045700000000004
 20
-0.86416
 30
0.0
 10
-2.3036300000000001
 20
-1.4026400000000001
 30
0.0
 10
-2.3061700000000003
 20
-1.9055600000000001
 30
0.0
 10
-2.3061700000000003
 20
-1.9055600000000001
 30
0.0
 10
-2.6592300000000004
 20
-1.5372600000000001
 30
0.0
 10
-2.4103100000000004
 20
-0.92766
 30
0.0
 10
-2.7379700000000002
 20
-0.5390400000000001
 30
0.0
 10
-2.7379700000000002
 20
-0.5390400000000001
 30
0.0
 10
-2.6947900000000002
 20
-0.473
 30
0.0
 10
-2.6770100000000001
 20
-0.39934
 30
0.0
 10
-2.65415
 20
-0.32568
 30
0.0
 10
-2.65415
 20
-0.32568
 30
0.0
 10
-2.65415
 20
-0.32568
 30
0.0
 10
-2.61097
 20
-0.1428
 30
0.0
 10
-2.61097
 20
-0.1428
 30
0.0
 10
-2.61097
 20
-0.1428
 30
0.0
 10
-2.44333
 20
-0.3587
 30
0.0
 10
-2.48143
 20
-0.72192
 30
0.0
 10
-2.3239500000000004
 20
-0.9149600000000001
 30
0.0
 10
-2.3239500000000004
 20
-0.9149600000000001
 30
0.0
 10
-2.3239500000000004
 20
-0.9149600000000001
 30
0.0
 10
-2.3214100000000002
 20
-0.7295400000000001
 30
0.0
 10
-2.3214100000000002
 20
-0.7295400000000001
 30
0.0
 10
-2.3214100000000002
 20
-0.7295400000000001
 30
0.0
 10
-2.3315700000000001
 20
-0.6203200000000001
 30
0.0
 10
-2.31379
 20
-0.5161800000000001
 30
0.0
 10
-2.2858500000000004
 20
-0.4171200000000001
 30
0.0
 10
-2.2858500000000004
 20
-0.4171200000000001
 30
0.0
 10
-2.26553
 20
-0.3079
 30
0.0
 10
-2.1994900000000004
 20
-0.4044200000000001
 30
0.0
 10
-2.11313
 20
-0.34854
 30
0.0
 10
-2.11313
 20
-0.34854
 30
0.0
 10
-1.8032500000000002
 20
-0.46538
 30
0.0
 10
-2.14107
 20
-0.7270000000000001
 30
0.0
 10
-2.1588500000000002
 20
-0.9149600000000001
 30
0.0
 10
-2.1588500000000002
 20
-0.9149600000000001
 30
0.0
 10
-2.0369300000000004
 20
-0.82606
 30
0.0
 10
-1.9404100000000002
 20
-0.6076200000000001
 30
0.0
 10
-1.8692900000000001
 20
-0.45268
 30
0.0
 10
-1.8692900000000001
 20
-0.45268
 30
0.0
 10
-1.9835900000000002
 20
-0.23678
 30
0.0
 10
-2.0724900000000002
 20
0.08071
 30
0.0
 10
-2.02677
 20
0.29153
 30
0.0
  0
SPLINE
  5
33
100
AcDbEntity
  8
Ebene 1
 62
     7
100
AcDbSpline
210
0.0
220
0.0
230
1.0
 70
     1
 71
     3
 72
   228
 73
   224
 74
     0
 42
0.0000000001
 43
0.0000000001
 40
0.0
 40
0.0
 40
0.0
 40
0.0
 40
0.0178571428571429
 40
0.0178571428571429
 40
0.0178571428571429
 40
0.0178571428571429
 40
0.0357142857142857
 40
0.0357142857142857
 40
0.0357142857142857
 40
0.0357142857142857
 40
0.0535714285714286
 40
0.0535714285714286
 40
0.0535714285714286
 40
0.0535714285714286
 40
0.0714285714285714
 40
0.0714285714285714
 40
0.0714285714285714
 40
0.0714285714285714
 40
0.0892857142857143
 40
0.0892857142857143
 40
0.0892857142857143
 40
0.0892857142857143
 40
0.1071428571428571
 40
0.1071428571428571
 40
0.1071428571428571
 40
0.1071428571428571
 40
0.125
 40
0.125
 40
0.125
 40
0.125
 40
0.1428571428571428
 40
0.1428571428571428
 40
0.1428571428571428
 40
0.1428571428571428
 40
0.1607142857142857
 40
0.1607142857142857
 40
0.1607142857142857
 40
0.1607142857142857
 40
0.1785714285714285
 40
0.1785714285714285
 40
0.1785714285714285
 40
0.1785714285714285
 40
0.1964285714285714
 40
0.1964285714285714
 40
0.1964285714285714
 40
0.1964285714285714
 40
0.2142857142857142
 40
0.2142857142857142
 40
0.2142857142857142
 40
0.2142857142857142
 40
0.2321428571428571
 40
0.2321428571428571
 40
0.2321428571428571
 40
0.2321428571428571
 40
0.2499999999999999
 40
0.2499999999999999
 40
0.2499999999999999
 40
0.2499999999999999
 40
0.2678571428571428
 40
0.2678571428571428
 40
0.2678571428571428
 40
0.2678571428571428
 40
0.2857142857142856
 40
0.2857142857142856
 40
0.2857142857142856
 40
0.2857142857142856
 40
0.3035714285714285
 40
0.3035714285714285
 40
0.3035714285714285
 40
0.3035714285714285
 40
0.3214285714285713
 40
0.3214285714285713
 40
0.3214285714285713
 40
0.3214285714285713
 40
0.3392857142857142
 40
0.3392857142857142
 40
0.3392857142857142
 40
0.3392857142857142
 40
0.357142857142857
 40
0.357142857142857
 40
0.357142857142857
 40
0.357142857142857
 40
0.3749999999999999
 40
0.3749999999999999
 40
0.3749999999999999
 40
0.3749999999999999
 40
0.3928571428571427
 40
0.3928571428571427
 40
0.3928571428571427
 40
0.3928571428571427
 40
0.4107142857142856
 40
0.4107142857142856
 40
0.4107142857142856
 40
0.4107142857142856
 40
0.4285714285714284
 40
0.4285714285714284
 40
0.4285714285714284
 40
0.4285714285714284
 40
0.4464285714285713
 40
0.4464285714285713
 40
0.4464285714285713
 40
0.4464285714285713
 40
0.4642857142857141
 40
0.4642857142857141
 40
0.4642857142857141
 40
0.4642857142857141
 40
0.482142857142857
 40
0.482142857142857
 40
0.482142857142857
 40
0.482142857142857
 40
0.4999999999999998
 40
0.4999999999999998
 40
0.4999999999999998
 40
0.4999999999999998
 40
0.5178571428571427
 40
0.5178571428571427
 40
0.5178571428571427
 40
0.5178571428571427
 40
0.5357142857142856
 40
0.5357142857142856
 40
0.5357142857142856
 40
0.5357142857142856
 40
0.5535714285714285
 40
0.5535714285714285
 40
0.5535714285714285
 40
0.5535714285714285
 40
0.5714285714285714
 40
0.5714285714285714
 40
0.5714285714285714
 40
0.5714285714285714
 40
0.5892857142857143
 40
0.5892857142857143
 40
0.5892857142857143
 40
0.5892857142857143
 40
0.6071428571428572
 40
0.6071428571428572
 40
0.6071428571428572
 40
0.6071428571428572
 40
0.6250000000000001
 40
0.6250000000000001
 40
0.6250000000000001
 40
0.6250000000000001
 40
0.642857142857143
 40
0.642857142857143
 40
0.642857142857143
 40
0.642857142857143
 40
0.6607142857142859
 40
0.6607142857142859
 40
0.6607142857142859
 40
0.6607142857142859
 40
0.6785714285714288
 40
0.6785714285714288
 40
0.6785714285714288
 40
0.6785714285714288
 40
0.6964285714285717
 40
0.6964285714285717
 40
0.6964285714285717
 40
0.6964285714285717
 40
0.7142857142857146
 40
0.7142857142857146
 40
0.7142857142857146
 40
0.7142857142857146
 40
0.7321428571428575
 40
0.7321428571428575
 40
0.7321428571428575
 40
0.7321428571428575
 40
0.7500000000000004
 40
0.7500000000000004
 40
0.7500000000000004
 40
0.7500000000000004
 40
0.7678571428571434
 40
0.7678571428571434
 40
0.7678571428571434
 40
0.7678571428571434
 40
0.7857142857142863
 40
0.7857142857142863
 40
0.7857142857142863
 40
0.7857142857142863
 40
0.8035714285714292
 40
0.8035714285714292
 40
0.8035714285714292
 40
0.8035714285714292
 40
0.8214285714285721
 40
0.8214285714285721
 40
0.8214285714285721
 40
0.8214285714285721
 40
0.839285714285715
 40
0.839285714285715
 40
0.839285714285715
 40
0.839285714285715
 40
0.8571428571428579
 40
0.8571428571428579
 40
0.8571428571428579
 40
0.8571428571428579
 40
0.8750000000000008
 40
0.8750000000000008
 40
0.8750000000000008
 40
0.8750000000000008
 40
0.8928571428571437
 40
0.8928571428571437
 40
0.8928571428571437
 40
0.8928571428571437
 40
0.9107142857142866
 40
0.9107142857142866
 40
0.9107142857142866
 40
0.9107142857142866
 40
0.9285714285714295
 40
0.9285714285714295
 40
0.9285714285714295
 40
0.9285714285714295
 40
0.9464285714285724
 40
0.9464285714285724
 40
0.9464285714285724
 40
0.9464285714285724
 40
0.9642857142857153
 40
0.9642857142857153
 40
0.9642857142857153
 40
0.9642857142857153
 40
0.9821428571428582
 40
0.9821428571428582
 40
0.9821428571428582
 40
0.9821428571428582
 40
1.0
 40
1.0
 40
1.0
 40
1.0
 10
2.1210400000000003
 20
0.20517
 30
0.0
 10
2.6569800000000003
 20
0.18993
 30
0.0
 10
3.1802200000000003
 20
-0.1047
 30
0.0
 10
3.2488000000000001
 20
-0.67874
 30
0.0
 10
3.2488000000000001
 20
-0.67874
 30
0.0
 10
3.3529400000000003
 20
-1.4382000000000001
 30
0.0
 10
2.9871800000000004
 20
-2.3703800000000004
 30
0.0
 10
2.2251800000000004
 20
-2.5913600000000003
 30
0.0
 10
2.2251800000000004
 20
-2.5913600000000003
 30
0.0
 10
2.3623400000000001
 20
-3.4778200000000004
 30
0.0
 10
0.9399400000000001
 20
-3.5921200000000004
 30
0.0
 10
0.59958
 20
-3.0409400000000004
 30
0.0
 10
0.59958
 20
-3.0409400000000004
 30
0.0
 10
0.7494400000000001
 20
-2.8098000000000001
 30
0.0
 10
1.06186
 20
-2.7996400000000001
 30
0.0
 10
1.23458
 20
-2.9825200000000001
 30
0.0
 10
1.23458
 20
-2.9825200000000001
 30
0.0
 10
2.2251800000000004
 20
-3.1527000000000003
 30
0.0
 10
0.44464
 20
-2.6701000000000001
 30
0.0
 10
0.9399400000000001
 20
-2.52278
 30
0.0
 10
0.9399400000000001
 20
-2.52278
 30
0.0
 10
1.0745600000000002
 20
-2.4313400000000001
 30
0.0
 10
0.89168
 20
-2.36022
 30
0.0
 10
0.7265800000000001
 20
-2.5761200000000004
 30
0.0
 10
0.7265800000000001
 20
-2.5761200000000004
 30
0.0
 10
0.40146
 20
-3.0028400000000004
 30
0.0
 10
-0.63231
 20
-3.3838400000000002
 30
0.0
 10
0.00776
 20
-2.7463000000000002
 30
0.0
 10
0.00776
 20
-2.7463000000000002
 30
0.0
 10
0.10428
 20
-2.6777200000000003
 30
0.0
 10
0.24906
 20
-2.4694400000000001
 30
0.0
 10
0.0611
 20
-2.6269200000000001
 30
0.0
 10
0.0611
 20
-2.6269200000000001
 30
0.0
 10
-0.41387
 20
-3.1476200000000003
 30
0.0
 10
-0.9472700000000001
 20
-2.9190200000000002
 30
0.0
 10
-1.3612900000000001
 20
-2.6269200000000001
 30
0.0
 10
-1.3612900000000001
 20
-2.6269200000000001
 30
0.0
 10
-1.3079500000000002
 20
-2.64724
 30
0.0
 10
-1.5238500000000001
 20
-2.6599400000000002
 30
0.0
 10
-1.3206500000000001
 20
-2.7920200000000004
 30
0.0
 10
-1.3206500000000001
 20
-2.7920200000000004
 30
0.0
 10
-0.8939300000000001
 20
-3.0714200000000003
 30
0.0
 10
-0.53325
 20
-4.1229800000000001
 30
0.0
 10
-0.7897900000000001
 20
-3.3813000000000004
 30
0.0
 10
-0.7897900000000001
 20
-3.3813000000000004
 30
0.0
 10
-0.76185
 20
-2.6269200000000001
 30
0.0
 10
-0.24623
 20
-4.2499800000000008
 30
0.0
 10
-0.34529
 20
-3.7546800000000005
 30
0.0
 10
-0.34529
 20
-3.7546800000000005
 30
0.0
 10
-0.41895
 20
-3.5972000000000004
 30
0.0
 10
-0.5408700000000001
 20
-3.3000200000000004
 30
0.0
 10
-0.41387
 20
-3.1806400000000004
 30
0.0
 10
-0.41387
 20
-3.1806400000000004
 30
0.0
 10
-0.41387
 20
-3.1806400000000004
 30
0.0
 10
-0.32497
 20
-3.3330400000000004
 30
0.0
 10
-0.32497
 20
-3.3330400000000004
 30
0.0
 10
-0.32497
 20
-3.3330400000000004
 30
0.0
 10
-0.09383
 20
-3.9655000000000005
 30
0.0
 10
-0.24115
 20
-3.9858200000000004
 30
0.0
 10
-0.29957
 20
-4.4379400000000002
 30
0.0
 10
-0.29957
 20
-4.4379400000000002
 30
0.0
 10
-0.3122700000000001
 20
-4.52684
 30
0.0
 10
-0.32751
 20
-4.6563800000000004
 30
0.0
 10
-0.36307
 20
-4.7503600000000006
 30
0.0
 10
-0.36307
 20
-4.7503600000000006
 30
0.0
 10
-0.36307
 20
-4.7503600000000006
 30
0.0
 10
-0.55103
 20
-3.9070800000000001
 30
0.0
 10
-0.55103
 20
-3.9070800000000001
 30
0.0
 10
-0.55103
 20
-3.9070800000000001
 30
0.0
 10
-0.5815100000000001
 20
-3.7521400000000003
 30
0.0
 10
-0.6500900000000001
 20
-3.8766000000000003
 30
0.0
 10
-0.6196100000000001
 20
-3.9756600000000004
 30
0.0
 10
-0.6196100000000001
 20
-3.9756600000000004
 30
0.0
 10
-0.6196100000000001
 20
-3.9756600000000004
 30
0.0
 10
-0.6653300000000001
 20
-4.3795200000000003
 30
0.0
 10
-0.6653300000000001
 20
-4.3795200000000003
 30
0.0
 10
-0.6653300000000001
 20
-4.3795200000000003
 30
0.0
 10
-1.08951
 20
-4.8976800000000003
 30
0.0
 10
-0.8126500000000001
 20
-3.4956000000000005
 30
0.0
 10
-0.9548900000000001
 20
-3.6251400000000005
 30
0.0
 10
-0.9548900000000001
 20
-3.6251400000000005
 30
0.0
 10
-0.9802900000000001
 20
-3.7343600000000001
 30
0.0
 10
-0.9701300000000001
 20
-3.8664400000000003
 30
0.0
 10
-0.94981
 20
-3.9756600000000004
 30
0.0
 10
-0.94981
 20
-3.9756600000000004
 30
0.0
 10
-1.12507
 20
-4.5344600000000002
 30
0.0
 10
-0.8761500000000001
 20
-5.1745400000000004
 30
0.0
 10
-1.1580900000000001
 20
-5.6952400000000001
 30
0.0
 10
-1.1580900000000001
 20
-5.6952400000000001
 30
0.0
 10
-1.11999
 20
-5.3396400000000002
 30
0.0
 10
-1.3917700000000002
 20
-4.9637200000000004
 30
0.0
 10
-1.3612900000000001
 20
-4.6563800000000004
 30
0.0
 10
-1.3612900000000001
 20
-4.6563800000000004
 30
0.0
 10
-1.1758700000000002
 20
-4.4506399999999999
 30
0.0
 10
-1.3155700000000001
 20
-4.4633400000000005
 30
0.0
 10
-1.4273300000000002
 20
-4.6132
 30
0.0
 10
-1.4273300000000002
 20
-4.6132
 30
0.0
 10
-1.4959100000000001
 20
-4.7046400000000004
 30
0.0
 10
-1.54417
 20
-4.9281600000000001
 30
0.0
 10
-1.5340100000000001
 20
-4.9510200000000006
 30
0.0
 10
-1.5340100000000001
 20
-4.9510200000000006
 30
0.0
 10
-1.5340100000000001
 20
-4.9510200000000006
 30
0.0
 10
-1.5568700000000002
 20
-4.9662600000000001
 30
0.0
 10
-1.5568700000000002
 20
-4.9662600000000001
 30
0.0
 10
-1.5568700000000002
 20
-4.9662600000000001
 30
0.0
 10
-1.67371
 20
-4.9815000000000005
 30
0.0
 10
-1.67371
 20
-4.8214800000000002
 30
0.0
 10
-1.6991100000000001
 20
-4.7427400000000004
 30
0.0
 10
-1.6991100000000001
 20
-4.7427400000000004
 30
0.0
 10
-1.6991100000000001
 20
-4.7427400000000004
 30
0.0
 10
-1.7016500000000001
 20
-4.5674800000000007
 30
0.0
 10
-1.7016500000000001
 20
-4.5674800000000007
 30
0.0
 10
-1.7016500000000001
 20
-4.5674800000000007
 30
0.0
 10
-1.7016500000000001
 20
-4.5674800000000007
 30
0.0
 10
-1.7778500000000002
 20
-4.4836600000000004
 30
0.0
 10
-1.7778500000000002
 20
-4.4836600000000004
 30
0.0
 10
-1.7778500000000002
 20
-4.4836600000000004
 30
0.0
 10
-1.7092700000000001
 20
-4.86212
 30
0.0
 10
-1.7346700000000002
 20
-6.3785000000000007
 30
0.0
 10
-1.9912100000000001
 20
-5.3650400000000005
 30
0.0
 10
-1.9912100000000001
 20
-5.3650400000000005
 30
0.0
 10
-1.9886700000000002
 20
-5.2431200000000002
 30
0.0
 10
-2.1740900000000001
 20
-5.1440600000000005
 30
0.0
 10
-2.0801100000000003
 20
-5.0119800000000003
 30
0.0
 10
-2.0801100000000003
 20
-5.0119800000000003
 30
0.0
 10
-1.8388100000000001
 20
-4.7910000000000004
 30
0.0
 10
-2.1537700000000002
 20
-4.93832
 30
0.0
 10
-2.1817100000000003
 20
-4.7579800000000008
 30
0.0
 10
-2.1817100000000003
 20
-4.7579800000000008
 30
0.0
 10
-2.2452100000000002
 20
-4.3185600000000006
 30
0.0
 10
-2.2401300000000002
 20
-4.4049200000000006
 30
0.0
 10
-2.3036300000000001
 20
-4.7910000000000004
 30
0.0
 10
-2.3036300000000001
 20
-4.7910000000000004
 30
0.0
 10
-2.3544300000000002
 20
-4.9281600000000001
 30
0.0
 10
-2.0902700000000003
 20
-5.3167800000000005
 30
0.0
 10
-2.3341100000000004
 20
-5.6368200000000002
 30
0.0
 10
-2.3341100000000004
 20
-5.6368200000000002
 30
0.0
 10
-2.4357100000000003
 20
-5.2812200000000002
 30
0.0
 10
-2.4915900000000004
 20
-4.91038
 30
0.0
 10
-2.5576300000000001
 20
-4.5446200000000001
 30
0.0
 10
-2.5576300000000001
 20
-4.5446200000000001
 30
0.0
 10
-2.6439900000000001
 20
-4.4176200000000003
 30
0.0
 10
-2.5652500000000003
 20
-4.7402000000000006
 30
0.0
 10
-2.5957300000000001
 20
-4.7808400000000004
 30
0.0
 10
-2.5957300000000001
 20
-4.7808400000000004
 30
0.0
 10
-2.6770100000000001
 20
-4.8976800000000003
 30
0.0
 10
-2.9157700000000002
 20
-4.7046400000000004
 30
0.0
 10
-2.9106900000000002
 20
-4.3566600000000006
 30
0.0
 10
-2.9106900000000002
 20
-4.3566600000000006
 30
0.0
 10
-2.9106900000000002
 20
-4.3566600000000006
 30
0.0
 10
-2.9106900000000002
 20
-4.2880800000000008
 30
0.0
 10
-2.9106900000000002
 20
-4.2880800000000008
 30
0.0
 10
-2.9106900000000002
 20
-4.2880800000000008
 30
0.0
 10
-2.9564100000000004
 20
-4.2144200000000005
 30
0.0
 10
-2.9132300000000004
 20
-4.5979600000000005
 30
0.0
 10
-3.0351500000000002
 20
-4.3973000000000004
 30
0.0
 10
-3.0351500000000002
 20
-4.3973000000000004
 30
0.0
 10
-3.0580100000000003
 20
-4.3795200000000003
 30
0.0
 10
-3.0732500000000003
 20
-4.4074600000000004
 30
0.0
 10
-3.0681700000000003
 20
-4.4277800000000003
 30
0.0
 10
-3.0681700000000003
 20
-4.4277800000000003
 30
0.0
 10
-2.6236700000000002
 20
-4.8392600000000003
 30
0.0
 10
-3.2129500000000002
 20
-5.40822
 30
0.0
 10
-3.1367500000000001
 20
-4.6005000000000003
 30
0.0
 10
-3.1367500000000001
 20
-4.6005000000000003
 30
0.0
 10
-2.9284700000000004
 20
-3.9426400000000004
 30
0.0
 10
-2.9767300000000003
 20
-3.6734000000000004
 30
0.0
 10
-2.8446500000000001
 20
-2.6269200000000001
 30
0.0
 10
-2.8446500000000001
 20
-2.6269200000000001
 30
0.0
 10
-2.8446500000000001
 20
-2.6269200000000001
 30
0.0
 10
-3.2180300000000002
 20
-2.8606000000000003
 30
0.0
 10
-3.2180300000000002
 20
-2.8606000000000003
 30
0.0
 10
-3.2180300000000002
 20
-2.8606000000000003
 30
0.0
 10
-3.3831300000000004
 20
-2.7234400000000001
 30
0.0
 10
-3.5761700000000003
 20
-2.5939000000000001
 30
0.0
 10
-3.6701500000000005
 20
-2.3754600000000003
 30
0.0
 10
-3.6701500000000005
 20
-2.3754600000000003
 30
0.0
 10
-3.2713700000000001
 20
-1.5398000000000001
 30
0.0
 10
-4.30769
 20
-0.7117600000000001
 30
0.0
 10
-3.4999700000000002
 20
-0.03612
 30
0.0
 10
-3.4999700000000002
 20
-0.03612
 30
0.0
 10
-3.2358100000000003
 20
-0.0158
 30
0.0
 10
-2.9106900000000002
 20
-0.19106
 30
0.0
 10
-3.11389
 20
-0.46538
 30
0.0
 10
-3.11389
 20
-0.46538
 30
0.0
 10
-2.5119100000000003
 20
-0.7854200000000001
 30
0.0
 10
-2.7176500000000003
 20
-1.8369800000000001
 30
0.0
 10
-2.2096500000000003
 20
-2.0706600000000002
 30
0.0
 10
-2.2096500000000003
 20
-2.0706600000000002
 30
0.0
 10
-2.1639300000000001
 20
-1.21214
 30
0.0
 10
-1.20889
 20
-1.04196
 30
0.0
 10
-0.65771
 20
-0.6127
 30
0.0
 10
-0.65771
 20
-0.6127
 30
0.0
 10
-0.7364500000000001
 20
-0.5974600000000001
 30
0.0
 10
-0.80249
 20
-0.65842
 30
0.0
 10
-0.8761500000000001
 20
-0.6812800000000001
 30
0.0
 10
-0.8761500000000001
 20
-0.6812800000000001
 30
0.0
 10
-1.1428500000000001
 20
-0.8159000000000001
 30
0.0
 10
-1.41717
 20
-0.9556000000000001
 30
0.0
 10
-1.6914900000000002
 20
-1.0546600000000002
 30
0.0
 10
-1.6914900000000002
 20
-1.0546600000000002
 30
0.0
 10
-1.4400300000000001
 20
-0.71684
 30
0.0
 10
-1.0285500000000001
 20
-0.5161800000000001
 30
0.0
 10
-0.63993
 20
-0.37648
 30
0.0
 10
-0.63993
 20
-0.37648
 30
0.0
 10
-0.59421
 20
0.29153
 30
0.0
 10
0.33796
 20
0.06547
 30
0.0
 10
0.8002400000000001
 20
-0.00564
 30
0.0
 10
0.8002400000000001
 20
-0.00564
 30
0.0
 10
0.9043800000000001
 20
-0.14788
 30
0.0
 10
1.0085200000000001
 20
-0.3002800000000001
 30
0.0
 10
1.06186
 20
-0.473
 30
0.0
 10
1.06186
 20
-0.473
 30
0.0
 10
0.55894
 20
-1.2375400000000001
 30
0.0
 10
1.0440800000000001
 20
-2.3627600000000002
 30
0.0
 10
1.6333600000000001
 20
-2.8783800000000004
 30
0.0
 10
1.6333600000000001
 20
-2.8783800000000004
 30
0.0
 10
1.2168000000000001
 20
-2.3856200000000003
 30
0.0
 10
1.1660000000000001
 20
-1.6947400000000001
 30
0.0
 10
0.9932800000000001
 20
-1.07752
 30
0.0
 10
0.9932800000000001
 20
-1.07752
 30
0.0
 10
1.44286
 20
-0.7016000000000001
 30
0.0
 10
1.4962000000000002
 20
0.12643
 30
0.0
 10
2.1210400000000003
 20
0.20517
 30
0.0
  0
SPLINE
  5
34
100
AcDbEntity
  8
Ebene 1
100
AcDbSpline
210
0.0
220
0.0
230
1.0
 70
     1
 71
     3
 72
    44
 73
    40
 74
     0
 42
0.0000000001
 43
0.0000000001
 40
0.0
 40
0.0
 40
0.0
 40
0.0
 40
0.1
 40
0.1
 40
0.1
 40
0.1
 40
0.2
 40
0.2
 40
0.2
 40
0.2
 40
0.3
 40
0.3
 40
0.3
 40
0.3
 40
0.4
 40
0.4
 40
0.4
 40
0.4
 40
0.5
 40
0.5
 40
0.5
 40
0.5
 40
0.6
 40
0.6
 40
0.6
 40
0.6
 40
0.7
 40
0.7
 40
0.7
 40
0.7
 40
0.7999999999999999
 40
0.7999999999999999
 40
0.7999999999999999
 40
0.7999999999999999
 40
0.8999999999999999
 40
0.8999999999999999
 40
0.8999999999999999
 40
0.8999999999999999
 40
1.0
 40
1.0
 40
1.0
 40
1.0
 10
0.15762
 20
-0.4171200000000001
 30
0.0
 10
0.29986
 20
-0.4374400000000001
 30
0.0
 10
0.49798
 20
-0.6203200000000001
 30
0.0
 10
0.5030600000000001
 20
-0.74224
 30
0.0
 10
0.5030600000000001
 20
-0.74224
 30
0.0
 10
0.41162
 20
-0.71684
 30
0.0
 10
0.29224
 20
-0.5111
 30
0.0
 10
0.19826
 20
-0.6482600000000001
 30
0.0
 10
0.19826
 20
-0.6482600000000001
 30
0.0
 10
0.08904
 20
-0.9327400000000001
 30
0.0
 10
0.24652
 20
-1.3112000000000001
 30
0.0
 10
0.07126
 20
-1.5626600000000002
 30
0.0
 10
0.07126
 20
-1.5626600000000002
 30
0.0
 10
0.12968
 20
-1.28834
 30
0.0
 10
0.01538
 20
-0.9810000000000001
 30
0.0
 10
0.01538
 20
-0.6812800000000001
 30
0.0
 10
0.01538
 20
-0.6812800000000001
 30
0.0
 10
0.01538
 20
-0.6812800000000001
 30
0.0
 10
-0.04811
 20
-0.7143000000000001
 30
0.0
 10
-0.04811
 20
-0.7143000000000001
 30
0.0
 10
-0.04811
 20
-0.7143000000000001
 30
0.0
 10
-0.21067
 20
-1.2604000000000002
 30
0.0
 10
-0.36815
 20
-2.0097
 30
0.0
 10
-0.9853700000000001
 20
-2.2586200000000001
 30
0.0
 10
-0.9853700000000001
 20
-2.2586200000000001
 30
0.0
 10
-0.8431300000000001
 20
-2.4465800000000004
 30
0.0
 10
-0.58913
 20
-2.2992600000000003
 30
0.0
 10
-0.43165
 20
-2.26878
 30
0.0
 10
-0.43165
 20
-2.26878
 30
0.0
 10
-0.9167900000000001
 20
-2.6751800000000001
 30
0.0
 10
-1.5975100000000002
 20
-2.19258
 30
0.0
 10
-2.05979
 20
-2.01478
 30
0.0
 10
-2.05979
 20
-2.01478
 30
0.0
 10
-2.05979
 20
-2.01478
 30
0.0
 10
-1.6610100000000001
 20
-2.0833600000000003
 30
0.0
 10
-1.6610100000000001
 20
-2.0833600000000003
 30
0.0
 10
-1.6610100000000001
 20
-2.0833600000000003
 30
0.0
 10
-0.9650500000000001
 20
-1.6617200000000001
 30
0.0
 10
-0.57135
 20
-0.8082800000000001
 30
0.0
 10
0.15762
 20
-0.4171200000000001
 30
0.0
  0
SPLINE
  5
35
100
AcDbEntity
  8
Ebene 1
100
AcDbSpline
210
0.0
220
0.0
230
1.0
 70
     1
 71
     3
 72
    56
 73
    52
 74
     0
 42
0.0000000001
 43
0.0000000001
 40
0.0
 40
0.0
 40
0.0
 40
0.0
 40
0.0769230769230769
 40
0.0769230769230769
 40
0.0769230769230769
 40
0.0769230769230769
 40
0.1538461538461539
 40
0.1538461538461539
 40
0.1538461538461539
 40
0.1538461538461539
 40
0.2307692307692308
 40
0.2307692307692308
 40
0.2307692307692308
 40
0.2307692307692308
 40
0.3076923076923077
 40
0.3076923076923077
 40
0.3076923076923077
 40
0.3076923076923077
 40
0.3846153846153846
 40
0.3846153846153846
 40
0.3846153846153846
 40
0.3846153846153846
 40
0.4615384615384616
 40
0.4615384615384616
 40
0.4615384615384616
 40
0.4615384615384616
 40
0.5384615384615386
 40
0.5384615384615386
 40
0.5384615384615386
 40
0.5384615384615386
 40
0.6153846153846154
 40
0.6153846153846154
 40
0.6153846153846154
 40
0.6153846153846154
 40
0.6923076923076923
 40
0.6923076923076923
 40
0.6923076923076923
 40
0.6923076923076923
 40
0.7692307692307692
 40
0.7692307692307692
 40
0.7692307692307692
 40
0.7692307692307692
 40
0.846153846153846
 40
0.846153846153846
 40
0.846153846153846
 40
0.846153846153846
 40
0.9230769230769229
 40
0.9230769230769229
 40
0.9230769230769229
 40
0.9230769230769229
 40
1.0
 40
1.0
 40
1.0
 40
1.0
 10
-3.5533100000000002
 20
-0.6254000000000001
 30
0.0
 10
-3.5533100000000002
 20
-0.6254000000000001
 30
0.0
 10
-3.4364700000000004
 20
-0.63048
 30
0.0
 10
-3.4364700000000004
 20
-0.63048
 30
0.0
 10
-3.4364700000000004
 20
-0.63048
 30
0.0
 10
-3.0630900000000003
 20
-1.0622800000000001
 30
0.0
 10
-3.0630900000000003
 20
-1.9639800000000001
 30
0.0
 10
-2.3925300000000003
 20
-2.05288
 30
0.0
 10
-2.3925300000000003
 20
-2.05288
 30
0.0
 10
-2.4687300000000003
 20
-2.1646400000000003
 30
0.0
 10
-2.3747500000000001
 20
-2.3576800000000002
 30
0.0
 10
-2.4585700000000004
 20
-2.4491200000000002
 30
0.0
 10
-2.4585700000000004
 20
-2.4491200000000002
 30
0.0
 10
-2.4661900000000001
 20
-2.35006
 30
0.0
 10
-2.4636500000000003
 20
-2.0732000000000004
 30
0.0
 10
-2.6363700000000003
 20
-2.2535400000000001
 30
0.0
 10
-2.6363700000000003
 20
-2.2535400000000001
 30
0.0
 10
-2.7633700000000001
 20
-2.4161000000000001
 30
0.0
 10
-2.9513300000000005
 20
-2.52278
 30
0.0
 10
-3.1494500000000003
 20
-2.4770600000000003
 30
0.0
 10
-3.1494500000000003
 20
-2.4770600000000003
 30
0.0
 10
-3.2002500000000005
 20
-2.4288000000000003
 30
0.0
 10
-3.2764500000000001
 20
-2.3348200000000001
 30
0.0
 10
-3.2408900000000003
 20
-2.2764000000000002
 30
0.0
 10
-3.2408900000000003
 20
-2.2764000000000002
 30
0.0
 10
-3.1545300000000003
 20
-2.4973800000000002
 30
0.0
 10
-2.9183100000000004
 20
-2.4313400000000001
 30
0.0
 10
-2.8243300000000002
 20
-2.2586200000000001
 30
0.0
 10
-2.8243300000000002
 20
-2.2586200000000001
 30
0.0
 10
-3.2002500000000005
 20
-1.9868400000000002
 30
0.0
 10
-3.4415500000000003
 20
-1.4382000000000001
 30
0.0
 10
-3.3958300000000001
 20
-0.9378200000000001
 30
0.0
 10
-3.3958300000000001
 20
-0.9378200000000001
 30
0.0
 10
-3.3958300000000001
 20
-0.9378200000000001
 30
0.0
 10
-3.4618700000000002
 20
-0.8540000000000001
 30
0.0
 10
-3.4618700000000002
 20
-0.8540000000000001
 30
0.0
 10
-3.4618700000000002
 20
-0.8540000000000001
 30
0.0
 10
-3.4161500000000005
 20
-1.00132
 30
0.0
 10
-3.4364700000000004
 20
-1.1765800000000002
 30
0.0
 10
-3.4313900000000004
 20
-1.3391400000000002
 30
0.0
 10
-3.4313900000000004
 20
-1.3391400000000002
 30
0.0
 10
-3.4313900000000004
 20
-1.3391400000000002
 30
0.0
 10
-3.4136100000000003
 20
-1.4763000000000002
 30
0.0
 10
-3.4136100000000003
 20
-1.4763000000000002
 30
0.0
 10
-3.4136100000000003
 20
-1.4763000000000002
 30
0.0
 10
-3.4847300000000003
 20
-1.2731000000000001
 30
0.0
 10
-3.5279100000000003
 20
-1.00132
 30
0.0
 10
-3.5355300000000005
 20
-0.78288
 30
0.0
 10
-3.5355300000000005
 20
-0.78288
 30
0.0
 10
-3.7438100000000003
 20
-0.8540000000000001
 30
0.0
 10
-3.7285700000000004
 20
-0.7524000000000001
 30
0.0
 10
-3.5533100000000002
 20
-0.6254000000000001
 30
0.0
  0
SPLINE
  5
36
100
AcDbEntity
  8
Ebene 1
100
AcDbSpline
210
0.0
220
0.0
230
1.0
 70
     1
 71
     3
 72
    12
 73
     8
 74
     0
 42
0.0000000001
 43
0.0000000001
 40
0.0
 40
0.0
 40
0.0
 40
0.0
 40
0.5
 40
0.5
 40
0.5
 40
0.5
 40
1.0
 40
1.0
 40
1.0
 40
1.0
 10
0.1246
 20
-1.7709400000000002
 30
0.0
 10
0.19318
 20
-1.8293600000000001
 30
0.0
 10
0.08142
 20
-1.9563600000000001
 30
0.0
 10
0.03824
 20
-2.01478
 30
0.0
 10
0.03824
 20
-2.01478
 30
0.0
 10
-0.03033
 20
-1.9512800000000001
 30
0.0
 10
0.07888
 20
-1.8369800000000001
 30
0.0
 10
0.1246
 20
-1.7709400000000002
 30
0.0
  0
SPLINE
  5
37
100
AcDbEntity
  8
Ebene 1
100
AcDbSpline
210
0.0
220
0.0
230
1.0
 70
     1
 71
     3
 72
    36
 73
    32
 74
     0
 42
0.0000000001
 43
0.0000000001
 40
0.0
 40
0.0
 40
0.0
 40
0.0
 40
0.125
 40
0.125
 40
0.125
 40
0.125
 40
0.25
 40
0.25
 40
0.25
 40
0.25
 40
0.375
 40
0.375
 40
0.375
 40
0.375
 40
0.5
 40
0.5
 40
0.5
 40
0.5
 40
0.625
 40
0.625
 40
0.625
 40
0.625
 40
0.75
 40
0.75
 40
0.75
 40
0.75
 40
0.875
 40
0.875
 40
0.875
 40
0.875
 40
1.0
 40
1.0
 40
1.0
 40
1.0
 10
-2.5474700000000001
 20
-2.6574000000000004
 30
0.0
 10
-2.5474700000000001
 20
-2.6574000000000004
 30
0.0
 10
-2.2731500000000002
 20
-2.6599400000000002
 30
0.0
 10
-2.2731500000000002
 20
-2.6599400000000002
 30
0.0
 10
-2.2731500000000002
 20
-2.6599400000000002
 30
0.0
 10
-1.8819900000000001
 20
-3.03078
 30
0.0
 10
-1.6559300000000001
 20
-3.5743400000000003
 30
0.0
 10
-1.5949700000000002
 20
-4.0925000000000002
 30
0.0
 10
-1.5949700000000002
 20
-4.0925000000000002
 30
0.0
 10
-1.8616700000000002
 20
-4.35412
 30
0.0
 10
-2.0826500000000001
 20
-3.8664400000000003
 30
0.0
 10
-2.3061700000000003
 20
-3.7369000000000003
 30
0.0
 10
-2.3061700000000003
 20
-3.7369000000000003
 30
0.0
 10
-2.44333
 20
-3.8562800000000004
 30
0.0
 10
-2.2172700000000001
 20
-4.0620200000000004
 30
0.0
 10
-2.2680700000000003
 20
-4.2017200000000008
 30
0.0
 10
-2.2680700000000003
 20
-4.2017200000000008
 30
0.0
 10
-2.2680700000000003
 20
-4.2017200000000008
 30
0.0
 10
-2.3595100000000002
 20
-4.0137600000000004
 30
0.0
 10
-2.3595100000000002
 20
-4.0137600000000004
 30
0.0
 10
-2.3595100000000002
 20
-4.0137600000000004
 30
0.0
 10
-2.3976100000000002
 20
-3.8512000000000004
 30
0.0
 10
-2.4103100000000004
 20
-3.7750000000000004
 30
0.0
 10
-2.4712700000000001
 20
-3.9782000000000002
 30
0.0
 10
-2.4712700000000001
 20
-3.9782000000000002
 30
0.0
 10
-2.4712700000000001
 20
-3.9782000000000002
 30
0.0
 10
-2.61097
 20
-4.1610800000000001
 30
0.0
 10
-2.61097
 20
-4.1610800000000001
 30
0.0
 10
-2.61097
 20
-4.1610800000000001
 30
0.0
 10
-2.8192500000000003
 20
-3.7064200000000005
 30
0.0
 10
-2.6668500000000002
 20
-3.1247600000000002
 30
0.0
 10
-2.5474700000000001
 20
-2.6574000000000004
 30
0.0
  0
SPLINE
  5
38
100
AcDbEntity
  8
Ebene 1
 62
     7
100
AcDbSpline
210
0.0
220
0.0
230
1.0
 70
     1
 71
     3
 72
    16
 73
    12
 74
     0
 42
0.0000000001
 43
0.0000000001
 40
0.0
 40
0.0
 40
0.0
 40
0.0
 40
0.3333333333333333
 40
0.3333333333333333
 40
0.3333333333333333
 40
0.3333333333333333
 40
0.6666666666666666
 40
0.6666666666666666
 40
0.6666666666666666
 40
0.6666666666666666
 40
1.0
 40
1.0
 40
1.0
 40
1.0
 10
-0.11669
 20
-3.5413200000000002
 30
0.0
 10
0.02808
 20
-3.7699200000000004
 30
0.0
 10
0.07126
 20
-4.0594800000000006
 30
0.0
 10
0.0865
 20
-4.3363400000000007
 30
0.0
 10
0.0865
 20
-4.3363400000000007
 30
0.0
 10
-0.04049
 20
-4.2576000000000001
 30
0.0
 10
-0.17765
 20
-4.0874200000000007
 30
0.0
 10
-0.08113
 20
-3.9248600000000002
 30
0.0
 10
-0.08113
 20
-3.9248600000000002
 30
0.0
 10
-0.13955
 20
-3.8131000000000004
 30
0.0
 10
-0.11161
 20
-3.6556200000000003
 30
0.0
 10
-0.11669
 20
-3.5413200000000002
 30
0.0
  0
ENDSEC
  0
SECTION
  2
OBJECTS
  0
DICTIONARY
  5
19
100
AcDbDictionary
280
     0
281
     1
  3
ACAD_GROUP
350
1A
  3
ACAD_MLINESTYLE
350
1B
  3
ACAD_LAYOUT
350
1E
  3
ACAD_PLOTSETTINGS
350
22
  3
ACAD_PLOTSTYLENAME
350
1F
  3
ACAD_WIPEOUT_VARS
350
23
  0
DICTIONARY
  5
1A
102
{ACAD_REACTORS
330
19
102
}
100
AcDbDictionary
280
     0
281
     1
  0
DICTIONARY
  5
1B
102
{ACAD_REACTORS
330
19
102
}
100
AcDbDictionary
280
     0
281
     1
  3
Standard
350
1C
  0
MLINESTYLE
  5
1C
102
{ACAD_REACTORS
330
1B
102
}
100
AcDbMlineStyle
  2
Standard
 70
     0
  3

 62
     0
 51
90.0
 52
90.0
 71
     2
 49
0.5
 62
   256
  6
BYLAYER
 49
-0.5
 62
   256
  6
BYLAYER
  0
ACDBDICTIONARYWDFLT
  5
1F
102
{ACAD_REACTORS
330
19
102
}
100
AcDbDictionary
281
     1
  3
Normal
350
1D
100
AcDbDictionaryWithDefault
340
1D
  0
ACDBPLACEHOLDER
  5
1D
102
{ACAD_REACTORS
330
1F
102
}
  0
LAYOUT
  5
20
102
{ACAD_REACTORS
330
1E
102
}
100
AcDbPlotSettings
  1

  2

  4

  6

 40
0.0
 41
0.0
 42
0.0
 43
0.0
 44
0.0
 45
0.0
 46
0.0
 47
0.0
 48
0.0
 49
0.0
140
0.0
141
0.0
142
1.0
143
1.0
 70
  1024
 72
     0
 73
     0
 74
     0
  7

 75
     0
147
1.0
148
0.0
149
0.0
100
AcDbLayout
  1
Model
 70
     0
 71
     0
 10
0.0
 20
0.0
 11
0.0
 21
0.0
 12
0.0
 22
0.0
 32
0.0
 14
0.0
 24
0.0
 34
0.0
 15
0.0
 25
0.0
 35
0.0
146
0.0
 13
0.0
 23
0.0
 33
0.0
 16
0.0
 26
0.0
 36
0.0
 17
0.0
 27
0.0
 37
0.0
 76
     0
330
A
331
0
345
0
346
0
  0
LAYOUT
  5
21
102
{ACAD_REACTORS
330
1E
102
}
100
AcDbPlotSettings
  1

  2

  4

  6

 40
0.0
 41
0.0
 42
0.0
 43
0.0
 44
0.0
 45
0.0
 46
0.0
 47
0.0
 48
0.0
 49
0.0
140
0.0
141
0.0
142
1.0
143
1.0
 70
     0
 72
     0
 73
     0
 74
     0
  7

 75
     0
147
1.0
148
0.0
149
0.0
100
AcDbLayout
  1
Layout1
 70
     0
 71
     0
 10
0.0
 20
0.0
 11
0.0
 21
0.0
 12
0.0
 22
0.0
 32
0.0
 14
0.0
 24
0.0
 34
0.0
 15
0.0
 25
0.0
 35
0.0
146
0.0
 13
0.0
 23
0.0
 33
0.0
 16
0.0
 26
0.0
 36
0.0
 17
0.0
 27
0.0
 37
0.0
 76
     0
330
B
331
0
345
0
346
0
  0
DICTIONARY
  5
1E
102
{ACAD_REACTORS
330
19
102
}
100
AcDbDictionary
280
     0
281
     1
  3
Layout1
350
21
  3
Model
350
20
  0
DICTIONARY
  5
22
102
{ACAD_REACTORS
330
19
102
}
100
AcDbDictionary
280
     0
281
     1
  0
WIPEOUTVARIABLES
  5
23
100
AcDbWipeoutVariables
 70
     1
  0
ENDSEC
  0
EOF
