  0
SECTION
  2
HEADER
  9
$ACADVER
  1
AC1015
  9
$ACADMAINTVER
 70
     6
  9
$DWGCODEPAGE
  3
DOS850
  9
$INSBASE
 10
0.0
 20
0.0
 30
0.0
  9
$EXTMIN
 10
-4.80635
 20
-5.33964
 30
1.000000E+20
  9
$EXTMAX
 10
4.8109
 20
5.33397
 30
-1.000000E+20
  9
$LIMMIN
 10
0.0
 20
0.0
  9
$LIMMAX
 10
0.0
 20
0.0
  9
$ORTHOMODE
 70
     0
  9
$REGENMODE
 70
     1
  9
$FILLMODE
 70
     1
  9
$QTEXTMODE
 70
     0
  9
$MIRRTEXT
 70
     1
  9
$LTSCALE
 40
1.0
  9
$ATTMODE
 70
     1
  9
$TEXTSIZE
 40
0.2
  9
$TRACEWID
 40
0.05
  9
$TEXTSTYLE
  7
Standard
  9
$CLAYER
  8
0
  9
$CELTYPE
  6
Continuous
  9
$CECOLOR
 62
   256
  9
$CELTSCALE
 40
1.0
  9
$DISPSILH
 70
     0
  9
$DIMSCALE
 40
1.0
  9
$DIMASZ
 40
0.18
  9
$DIMEXO
 40
0.0625
  9
$DIMDLI
 40
0.38
  9
$DIMRND
 40
0.0
  9
$DIMDLE
 40
0.0
  9
$DIMEXE
 40
0.18
  9
$DIMTP
 40
0.0
  9
$DIMTM
 40
0.0
  9
$DIMTXT
 40
0.18
  9
$DIMCEN
 40
0.09
  9
$DIMTSZ
 40
0.0
  9
$DIMTOL
 70
     0
  9
$DIMLIM
 70
     0
  9
$DIMTIH
 70
     1
  9
$DIMTOH
 70
     1
  9
$DIMSE1
 70
     0
  9
$DIMSE2
 70
     0
  9
$DIMTAD
 70
     0
  9
$DIMZIN
 70
     0
  9
$DIMBLK
  1

  9
$DIMASO
 70
     1
  9
$DIMSHO
 70
     1
  9
$DIMPOST
  1

  9
$DIMAPOST
  1

  9
$DIMALT
 70
     0
  9
$DIMALTD
 70
     2
  9
$DIMALTF
 40
25.4
  9
$DIMLFAC
 40
1.0
  9
$DIMTOFL
 70
     0
  9
$DIMTVP
 40
0.0
  9
$DIMTIX
 70
     0
  9
$DIMSOXD
 70
     0
  9
$DIMSAH
 70
     0
  9
$DIMBLK1
  1

  9
$DIMBLK2
  1

  9
$DIMSTYLE
  2
Standard
  9
$DIMCLRD
 70
     0
  9
$DIMCLRE
 70
     0
  9
$DIMCLRT
 70
     0
  9
$DIMTFAC
 40
1.0
  9
$DIMGAP
 40
0.09
  9
$DIMJUST
 70
     0
  9
$DIMSD1
 70
     0
  9
$DIMSD2
 70
     0
  9
$DIMTOLJ
 70
     1
  9
$DIMTZIN
 70
     0
  9
$DIMALTZ
 70
     0
  9
$DIMALTTZ
 70
     0
  9
$DIMUPT
 70
     0
  9
$DIMDEC
 70
     4
  9
$DIMTDEC
 70
     4
  9
$DIMALTU
 70
     2
  9
$DIMALTTD
 70
     2
  9
$DIMTXSTY
  7
Standard
  9
$DIMAUNIT
 70
     0
  9
$DIMADEC
 70
     0
  9
$DIMALTRND
 40
0.0
  9
$DIMAZIN
 70
     0
  9
$DIMDSEP
 70
     0
  9
$DIMATFIT
 70
     3
  9
$DIMFRAC
 70
     0
  9
$DIMLDRBLK
  1

  9
$DIMLUNIT
 70
     2
  9
$DIMLWD
 70
     0
  9
$DIMLWE
 70
     0
  9
$DIMTMOVE
 70
     0
  9
$LUNITS
 70
     2
  9
$LUPREC
 70
     4
  9
$SKETCHINC
 40
0.1
  9
$FILLETRAD
 40
0.0
  9
$AUNITS
 70
     0
  9
$AUPREC
 70
     0
  9
$MENU
  1
acad
  9
$ELEVATION
 40
0.0
  9
$PELEVATION
 40
0.0
  9
$THICKNESS
 40
0.0
  9
$LIMCHECK
 70
     0
  9
$CHAMFERA
 40
0.0
  9
$CHAMFERB
 40
0.0
  9
$CHAMFERC
 40
0.0
  9
$CHAMFERD
 40
0.0
  9
$SKPOLY
 70
     0
  9
$TDCREATE
 40
0.000000000
  9
$TDUCREATE
 40
0.000000000
  9
$TDUPDATE
 40
0.000000000
  9
$TDUUPDATE
 40
0.000000000
  9
$TDINDWG
 40
0.0000000000
  9
$TDUSRTIMER
 40
0.0000000000
  9
$USRTIMER
 70
     1
  9
$ANGBASE
 50
0.0
  9
$ANGDIR
 70
     0
  9
$PDMODE
 70
     0
  9
$PDSIZE
 40
0.0
  9
$PLINEWID
 40
0.0
  9
$SPLFRAME
 70
     0
  9
$SPLINETYPE
 70
     6
  9
$SPLINESEGS
 70
     8
  9
$HANDSEED
  5
55
  9
$SURFTAB1
 70
     6
  9
$SURFTAB2
 70
     6
  9
$SURFTYPE
 70
     6
  9
$SURFU
 70
     6
  9
$SURFV
 70
     6
  9
$UCSBASE
  2

  9
$UCSNAME
  2

  9
$UCSORG
 10
0.0
 20
0.0
 30
0.0
  9
$UCSXDIR
 10
1.0
 20
0.0
 30
0.0
  9
$UCSYDIR
 10
0.0
 20
1.0
 30
0.0
  9
$UCSORTHOREF
  2

  9
$UCSORTHOVIEW
 70
     0
  9
$UCSORGTOP
 10
0.0
 20
0.0
 30
0.0
  9
$UCSORGBOTTOM
 10
0.0
 20
0.0
 30
0.0
  9
$UCSORGLEFT
 10
0.0
 20
0.0
 30
0.0
  9
$UCSORGRIGHT
 10
0.0
 20
0.0
 30
0.0
  9
$UCSORGFRONT
 10
0.0
 20
0.0
 30
0.0
  9
$UCSORGBACK
 10
0.0
 20
0.0
 30
0.0
  9
$PUCSBASE
  2

  9
$PUCSNAME
  2

  9
$PUCSORG
 10
0.0
 20
0.0
 30
0.0
  9
$PUCSXDIR
 10
1.0
 20
0.0
 30
0.0
  9
$PUCSYDIR
 10
0.0
 20
1.0
 30
0.0
  9
$PUCSORTHOREF
  2

  9
$PUCSORTHOVIEW
 70
     0
  9
$PUCSORGTOP
 10
0.0
 20
0.0
 30
0.0
  9
$PUCSORGBOTTOM
 10
0.0
 20
0.0
 30
0.0
  9
$PUCSORGLEFT
 10
0.0
 20
0.0
 30
0.0
  9
$PUCSORGRIGHT
 10
0.0
 20
0.0
 30
0.0
  9
$PUCSORGFRONT
 10
0.0
 20
0.0
 30
0.0
  9
$PUCSORGBACK
 10
0.0
 20
0.0
 30
0.0
  9
$USERI1
 70
     0
  9
$USERI2
 70
     0
  9
$USERI3
 70
     0
  9
$USERI4
 70
     0
  9
$USERI5
 70
     0
  9
$USERR1
 40
0.0
  9
$USERR2
 40
0.0
  9
$USERR3
 40
0.0
  9
$USERR4
 40
0.0
  9
$USERR5
 40
0.0
  9
$WORLDVIEW
 70
     1
  9
$SHADEDGE
 70
     3
  9
$SHADEDIF
 70
    70
  9
$TILEMODE
 70
     1
  9
$MAXACTVP
 70
    16
  9
$PINSBASE
 10
0.0
 20
0.0
 30
0.0
  9
$PLIMCHECK
 70
     0
  9
$PEXTMIN
 10
1.000000E+20
 20
1.000000E+20
 30
1.000000E+20
  9
$PEXTMAX
 10
-1.000000E+20
 20
-1.000000E+20
 30
-1.000000E+20
  9
$PLIMMIN
 10
0.0
 20
0.0
  9
$PLIMMAX
 10
12.0
 20
9.0
  9
$UNITMODE
 70
     0
  9
$VISRETAIN
 70
     0
  9
$PLINEGEN
 70
     1
  9
$PSLTSCALE
 70
     0
  9
$TREEDEPTH
 70
  3020
  9
$CMLSTYLE
  2
Standard
  9
$CMLJUST
 70
     0
  9
$CMLSCALE
 40
1.0
  9
$PROXYGRAPHICS
 70
     0
  9
$MEASUREMENT
 70
     0
  9
$CELWEIGHT
370
     0
  9
$ENDCAPS
280
     0
  9
$JOINSTYLE
280
     0
  9
$LWDISPLAY
290
     0
  9
$INSUNITS
 70
     5
  9
$HYPERLINKBASE
  1

  9
$XEDIT
290
     1
  9
$CEPSNTYPE
380
     0
  9
$PSTYLEMODE
290
     1
  9
$FINGERPRINTGUID
  2

  9
$VERSIONGUID
  2

  9
$EXTNAMES
290
     1
  9
$PSVPSCALE
 40
0.0
  0
ENDSEC
  0
SECTION
  2
CLASSES
  0
CLASS
  1
LWPOLYLINE
  2
AcDbPolyline
  3
AutoCAD 2000
 90
    32768
280
     0
281
     1
  0
CLASS
  1
IMAGE
  2
AcDbRasterImage
  3
ISM
 90
    32895
280
     0
281
     1
  0
CLASS
  1
OLE2FRAME
  2
AcDbOle2Frame
  3
AutoCAD 2000
 90
    32768
280
     0
281
     1
  0
CLASS
  1
HATCH
  2
AcDbHatch
  3
AutoCAD 2000
 90
    32768
280
     0
281
     1
  0
CLASS
  1
DICTIONARYVAR
  2
AcDbDictionaryVar
  3
AutoCAD 2000
 90
    32768
280
     0
281
     0
  0
CLASS
  1
RASTERVARIABLES
  2
AcDbRasterVariables
  3
ISM
 90
    32768
280
     0
281
     0
  0
CLASS
  1
IMAGEDEF
  2
AcDbRasterImageDef
  3
ISM
 90
    32768
280
     0
281
     0
  0
CLASS
  1
IMAGEDEF_REACTOR
  2
AcDbRasterImageDefReactor
  3
ISM
 90
    32769
280
     0
281
     0
  0
CLASS
  1
IDBUFFER
  2
AcDbIdBuffer
  3
AutoCAD 2000
 90
    32768
280
     0
281
     0
  0
CLASS
  1
SPATIAL_FILTER
  2
AcDbSpatialFilter
  3
AutoCAD 2000
 90
    32768
280
     0
281
     0
  0
CLASS
  1
XRECORD
  2
AcDbXrecord
  3
AutoCAD 2000
 90
    32768
280
     0
281
     0
  0
CLASS
  1
SORTENTSTABLE
  2
AcDbSortentsTable
  3
AutoCAD 2000
 90
    32768
280
     0
281
     0
  0
CLASS
  1
LAYER_INDEX
  2
AcDbLayerIndex
  3
AutoCAD 2000
 90
    32768
280
     0
281
     0
  0
CLASS
  1
SPATIAL_INDEX
  2
AcDbSpatialIndex
  3
AutoCAD 2000
 90
    32768
280
     0
281
     0
  0
CLASS
  1
OBJECT_PTR
  2
CAseDLPNTableRecord
  3
"ASE-LPNTableRecord"
 90
    32769
280
     0
281
     0
  0
CLASS
  1
LAYOUT
  2
AcDbLayout
  3
AutoCAD 2000
 90
        0
280
     0
281
     0
  0
CLASS
  1
PLOTSETTINGS
  2
AcDbPlotSettings
  3
AutoCAD 2000
 90
    32768
280
     0
281
     0
  0
CLASS
  1
ACDBDICTIONARYWDFLT
  2
AcDbDictionaryWithDefault
  3
AutoCAD 2000
 90
        0
280
     0
281
     0
  0
CLASS
  1
ACDBPLACEHOLDER
  2
AcDbPlaceHolder
  3
AutoCAD 2000
 90
        0
280
     0
281
     0
  0
CLASS
  1
VBA_PROJECT
  2
AcDbVbaProject
  3
acadvba
 90
    32768
280
     0
281
     0
  0
CLASS
  1
WIPEOUT
  2
AcDbWipeout
  3
WipeOut|AutoCAD Express Tool|expresstools@autodesk.com
 90
    32895
280
     0
281
     1
  0
CLASS
  1
WIPEOUTVARIABLES
  2
AcDbWipeoutVariables
  3
WipeOut|AutoCAD Express Tool|expresstools@autodesk.com
 90
        0
280
     0
281
     0
  0
CLASS
  1
RTEXT
  2
RText
  3
RText|AutoCAD Express Tool|expresstools@autodesk.com
 90
    32768
280
     0
281
     1
  0
CLASS
  1
ARCALIGNEDTEXT
  2
AcDbArcAlignedText
  3
ATEXT|AutoCAD Express Tool|expresstools@autodesk.com
 90
    32768
280
     0
281
     1
  0
ENDSEC
  0
SECTION
  2
TABLES
  0
TABLE
  2
VPORT
  5
7
100
AcDbSymbolTable
 70
     1
  0
VPORT
  5
15
100
AcDbSymbolTableRecord
100
AcDbViewportTableRecord
  2
*ACTIVE
 70
     0
 10
0.0
 20
0.0
 11
1.0
 21
1.0
 12
6.591288
 22
4.579184
 13
0.0
 23
0.0
 14
1.0
 24
1.0
 15
0.0
 25
0.0
 16
0.0
 26
0.0
 36
1.0
 17
0.0
 27
0.0
 37
0.0
 40
9.158369
 41
0.688564
 42
50.0
 43
0.0
 44
0.0
 50
0.0
 51
0.0
 71
     0
 72
   100
 73
     1
 74
     1
 75
     0
 76
     0
 77
     0
 78
     0
281
     0
 65
     0
110
0.0
120
0.0
130
0.0
111
1.0
121
0.0
131
0.0
112
0.0
122
1.0
132
0.0
345
0
346
0
 79
     0
146
0.0
  0
ENDTAB
  0
TABLE
  2
LTYPE
  5
4
100
AcDbSymbolTable
 70
     3
  0
LTYPE
  5
11
100
AcDbSymbolTableRecord
100
AcDbLinetypeTableRecord
  2
ByBlock
 70
    64
  3

 72
    65
 73
     0
 40
0.0
  0
LTYPE
  5
12
100
AcDbSymbolTableRecord
100
AcDbLinetypeTableRecord
  2
ByLayer
 70
    64
  3

 72
    65
 73
     0
 40
0.0
  0
LTYPE
  5
13
100
AcDbSymbolTableRecord
100
AcDbLinetypeTableRecord
  2
Continuous
 70
    64
  3
Solid line
 72
    65
 73
     0
 40
0.0
  0
ENDTAB
  0
TABLE
  2
LAYER
  5
2
100
AcDbSymbolTable
 70
     2
  0
LAYER
  5
14
100
AcDbSymbolTableRecord
100
AcDbLayerTableRecord
  2
0
 70
     0
 62
     7
  6
Continuous
290
     1
370
    -3
390
1D
  0
LAYER
  5
24
100
AcDbSymbolTableRecord
100
AcDbLayerTableRecord
  2
Ebene 1
 70
     0
 62
     7
  6
Continuous
290
     1
370
    -3
390
1F
  0
ENDTAB
  0
TABLE
  2
STYLE
  5
3
100
AcDbSymbolTable
 70
     1
  0
STYLE
  5
17
100
AcDbSymbolTableRecord
100
AcDbTextStyleTableRecord
  2
Standard
 70
     0
 40
0.0
 41
1.0
 50
0.0
 71
     0
 42
0.0
  3
txt
  4

  0
ENDTAB
  0
TABLE
  2
VIEW
  5
5
100
AcDbSymbolTable
 70
     0
  0
ENDTAB
  0
TABLE
  2
UCS
  5
6
100
AcDbSymbolTable
 70
     0
  0
ENDTAB
  0
TABLE
  2
APPID
  5
8
100
AcDbSymbolTable
 70
     1
  0
APPID
  5
16
100
AcDbSymbolTableRecord
100
AcDbRegAppTableRecord
  2
ACAD
 70
     0
  0
ENDTAB
  0
TABLE
  2
DIMSTYLE
  5
9
100
AcDbSymbolTable
 70
     1
100
AcDbDimStyleTable
 71
     0
  0
DIMSTYLE
105
18
100
AcDbSymbolTableRecord
100
AcDbDimStyleTableRecord
  2
Standard
 70
     0
  3

  4

 40
1.0
 41
0.18
 42
0.0625
 43
0.38
 44
0.18
 45
0.0
 46
0.0
 47
0.0
 48
0.0
 71
     0
 72
     0
 73
     1
 74
     1
 75
     0
 76
     0
 77
     0
 78
     0
 79
     0
140
0.18
141
0.09
142
0.0
143
25.4
144
1.0
145
0.0
146
1.0
147
0.09
148
0.0
170
     0
171
     2
172
     0
173
     0
174
     0
175
     0
176
     0
177
     0
178
     0
179
     0
271
     4
272
     4
273
     2
274
     2
275
     0
276
     0
277
     2
278
    46
279
     0
280
     0
281
     0
282
     0
283
     1
284
     0
285
     0
286
     0
288
     0
340
17
341
0
342
0
343
0
344
0
371
    -2
372
    -2
  0
ENDTAB
  0
TABLE
  2
BLOCK_RECORD
  5
1
100
AcDbSymbolTable
 70
     0
  0
BLOCK_RECORD
  5
A
100
AcDbSymbolTableRecord
100
AcDbBlockTableRecord
  2
*MODEL_SPACE
340
20
  0
BLOCK_RECORD
  5
B
100
AcDbSymbolTableRecord
100
AcDbBlockTableRecord
  2
*PAPER_SPACE
340
21
  0
ENDTAB
  0
ENDSEC
  0
SECTION
  2
BLOCKS
  0
BLOCK
  5
D
100
AcDbEntity
  8
0
100
AcDbBlockBegin
  2
*MODEL_SPACE
 70
     0
 10
0.0
 20
0.0
 30
0.0
  3
*MODEL_SPACE
  1

  0
ENDBLK
  5
E
100
AcDbEntity
  8
0
100
AcDbBlockEnd
  0
BLOCK
  5
F
100
AcDbEntity
 67
     1
  8
0
100
AcDbBlockBegin
  2
*PAPER_SPACE
 70
     0
 10
0.0
 20
0.0
 30
0.0
  3
*PAPER_SPACE
  1

  0
ENDBLK
  5
10
100
AcDbEntity
 67
     1
  8
0
100
AcDbBlockEnd
  0
ENDSEC
  0
SECTION
  2
ENTITIES
  0
SPLINE
  5
25
100
AcDbEntity
  8
Ebene 1
100
AcDbSpline
210
0.0
220
0.0
230
1.0
 70
     1
 71
     3
 72
   192
 73
   188
 74
     0
 42
0.0000000001
 43
0.0000000001
 40
0.0
 40
0.0
 40
0.0
 40
0.0
 40
0.0212765957446809
 40
0.0212765957446809
 40
0.0212765957446809
 40
0.0212765957446809
 40
0.0425531914893617
 40
0.0425531914893617
 40
0.0425531914893617
 40
0.0425531914893617
 40
0.0638297872340425
 40
0.0638297872340425
 40
0.0638297872340425
 40
0.0638297872340425
 40
0.0851063829787234
 40
0.0851063829787234
 40
0.0851063829787234
 40
0.0851063829787234
 40
0.1063829787234043
 40
0.1063829787234043
 40
0.1063829787234043
 40
0.1063829787234043
 40
0.1276595744680851
 40
0.1276595744680851
 40
0.1276595744680851
 40
0.1276595744680851
 40
0.148936170212766
 40
0.148936170212766
 40
0.148936170212766
 40
0.148936170212766
 40
0.1702127659574468
 40
0.1702127659574468
 40
0.1702127659574468
 40
0.1702127659574468
 40
0.1914893617021277
 40
0.1914893617021277
 40
0.1914893617021277
 40
0.1914893617021277
 40
0.2127659574468085
 40
0.2127659574468085
 40
0.2127659574468085
 40
0.2127659574468085
 40
0.2340425531914894
 40
0.2340425531914894
 40
0.2340425531914894
 40
0.2340425531914894
 40
0.2553191489361702
 40
0.2553191489361702
 40
0.2553191489361702
 40
0.2553191489361702
 40
0.276595744680851
 40
0.276595744680851
 40
0.276595744680851
 40
0.276595744680851
 40
0.2978723404255319
 40
0.2978723404255319
 40
0.2978723404255319
 40
0.2978723404255319
 40
0.3191489361702127
 40
0.3191489361702127
 40
0.3191489361702127
 40
0.3191489361702127
 40
0.3404255319148935
 40
0.3404255319148935
 40
0.3404255319148935
 40
0.3404255319148935
 40
0.3617021276595743
 40
0.3617021276595743
 40
0.3617021276595743
 40
0.3617021276595743
 40
0.3829787234042552
 40
0.3829787234042552
 40
0.3829787234042552
 40
0.3829787234042552
 40
0.404255319148936
 40
0.404255319148936
 40
0.404255319148936
 40
0.404255319148936
 40
0.4255319148936168
 40
0.4255319148936168
 40
0.4255319148936168
 40
0.4255319148936168
 40
0.4468085106382976
 40
0.4468085106382976
 40
0.4468085106382976
 40
0.4468085106382976
 40
0.4680851063829785
 40
0.4680851063829785
 40
0.4680851063829785
 40
0.4680851063829785
 40
0.4893617021276593
 40
0.4893617021276593
 40
0.4893617021276593
 40
0.4893617021276593
 40
0.5106382978723402
 40
0.5106382978723402
 40
0.5106382978723402
 40
0.5106382978723402
 40
0.5319148936170211
 40
0.5319148936170211
 40
0.5319148936170211
 40
0.5319148936170211
 40
0.5531914893617019
 40
0.5531914893617019
 40
0.5531914893617019
 40
0.5531914893617019
 40
0.5744680851063828
 40
0.5744680851063828
 40
0.5744680851063828
 40
0.5744680851063828
 40
0.5957446808510637
 40
0.5957446808510637
 40
0.5957446808510637
 40
0.5957446808510637
 40
0.6170212765957446
 40
0.6170212765957446
 40
0.6170212765957446
 40
0.6170212765957446
 40
0.6382978723404255
 40
0.6382978723404255
 40
0.6382978723404255
 40
0.6382978723404255
 40
0.6595744680851063
 40
0.6595744680851063
 40
0.6595744680851063
 40
0.6595744680851063
 40
0.6808510638297872
 40
0.6808510638297872
 40
0.6808510638297872
 40
0.6808510638297872
 40
0.7021276595744681
 40
0.7021276595744681
 40
0.7021276595744681
 40
0.7021276595744681
 40
0.723404255319149
 40
0.723404255319149
 40
0.723404255319149
 40
0.723404255319149
 40
0.7446808510638299
 40
0.7446808510638299
 40
0.7446808510638299
 40
0.7446808510638299
 40
0.7659574468085107
 40
0.7659574468085107
 40
0.7659574468085107
 40
0.7659574468085107
 40
0.7872340425531916
 40
0.7872340425531916
 40
0.7872340425531916
 40
0.7872340425531916
 40
0.8085106382978725
 40
0.8085106382978725
 40
0.8085106382978725
 40
0.8085106382978725
 40
0.8297872340425534
 40
0.8297872340425534
 40
0.8297872340425534
 40
0.8297872340425534
 40
0.8510638297872343
 40
0.8510638297872343
 40
0.8510638297872343
 40
0.8510638297872343
 40
0.8723404255319152
 40
0.8723404255319152
 40
0.8723404255319152
 40
0.8723404255319152
 40
0.893617021276596
 40
0.893617021276596
 40
0.893617021276596
 40
0.893617021276596
 40
0.9148936170212769
 40
0.9148936170212769
 40
0.9148936170212769
 40
0.9148936170212769
 40
0.9361702127659578
 40
0.9361702127659578
 40
0.9361702127659578
 40
0.9361702127659578
 40
0.9574468085106387
 40
0.9574468085106387
 40
0.9574468085106387
 40
0.9574468085106387
 40
0.9787234042553196
 40
0.9787234042553196
 40
0.9787234042553196
 40
0.9787234042553196
 40
1.0
 40
1.0
 40
1.0
 40
1.0
 10
-3.3094700000000001
 20
-4.6157400000000006
 30
0.0
 10
-3.3043900000000002
 20
-4.7148000000000003
 30
0.0
 10
-3.3196300000000001
 20
-4.8265600000000006
 30
0.0
 10
-3.3704300000000003
 20
-4.8824400000000008
 30
0.0
 10
-3.3704300000000003
 20
-4.8824400000000008
 30
0.0
 10
-3.3297900000000005
 20
-4.5395400000000006
 30
0.0
 10
-4.0003500000000001
 20
-3.8359600000000005
 30
0.0
 10
-4.0460700000000003
 20
-4.0493200000000007
 30
0.0
 10
-4.0460700000000003
 20
-4.0493200000000007
 30
0.0
 10
-4.05877
 20
-4.0823400000000003
 30
0.0
 10
-4.10703
 20
-4.0493200000000007
 30
0.0
 10
-4.1222700000000003
 20
-4.0340800000000003
 30
0.0
 10
-4.1222700000000003
 20
-4.0340800000000003
 30
0.0
 10
-4.2467300000000003
 20
-3.5083000000000002
 30
0.0
 10
-4.2289500000000002
 20
-2.9037800000000002
 30
0.0
 10
-4.0333700000000006
 20
-2.4135600000000004
 30
0.0
 10
-4.0333700000000006
 20
-2.4135600000000004
 30
0.0
 10
-4.1502100000000004
 20
-2.4948400000000004
 30
0.0
 10
-4.2137100000000007
 20
-2.6421600000000001
 30
0.0
 10
-4.2619700000000007
 20
-2.7742400000000003
 30
0.0
 10
-4.2619700000000007
 20
-2.7742400000000003
 30
0.0
 10
-4.34579
 20
-2.8402800000000004
 30
0.0
 10
-4.2924500000000005
 20
-3.19842
 30
0.0
 10
-4.4219900000000001
 20
-3.0206200000000001
 30
0.0
 10
-4.4219900000000001
 20
-3.0206200000000001
 30
0.0
 10
-4.4219900000000001
 20
-2.1214600000000003
 30
0.0
 10
-3.4085300000000003
 20
-1.6515600000000001
 30
0.0
 10
-3.4136100000000003
 20
-0.73716
 30
0.0
 10
-3.4136100000000003
 20
-0.73716
 30
0.0
 10
-3.5812500000000003
 20
-0.01834
 30
0.0
 10
-3.5482300000000002
 20
0.4109100000000001
 30
0.0
 10
-4.26959
 20
0.7715900000000001
 30
0.0
 10
-4.26959
 20
0.7715900000000001
 30
0.0
 10
-4.2975300000000001
 20
0.8858900000000001
 30
0.0
 10
-4.3026100000000005
 20
1.0154300000000001
 30
0.0
 10
-4.30769
 20
1.1297300000000001
 30
0.0
 10
-4.30769
 20
1.1297300000000001
 30
0.0
 10
-3.6726900000000002
 20
2.3057500000000002
 30
0.0
 10
-5.2246300000000003
 20
3.14141
 30
0.0
 10
-4.6937700000000007
 20
4.3326700000000002
 30
0.0
 10
-4.6937700000000007
 20
4.3326700000000002
 30
0.0
 10
-4.40421
 20
4.7898700000000005
 30
0.0
 10
-4.0511500000000007
 20
4.5790500000000005
 30
0.0
 10
-3.9800300000000002
 20
4.8559100000000006
 30
0.0
 10
-3.9800300000000002
 20
4.8559100000000006
 30
0.0
 10
-3.8047700000000004
 20
4.6933500000000006
 30
0.0
 10
-3.5634700000000001
 20
4.6273100000000005
 30
0.0
 10
-3.4567900000000003
 20
4.8889300000000002
 30
0.0
 10
-3.4567900000000003
 20
4.8889300000000002
 30
0.0
 10
-3.1824700000000004
 20
4.4495100000000001
 30
0.0
 10
-2.6389100000000001
 20
4.7085900000000001
 30
0.0
 10
-2.36205
 20
4.3504500000000004
 30
0.0
 10
-2.36205
 20
4.3504500000000004
 30
0.0
 10
-2.2680700000000003
 20
4.4317299999999999
 30
0.0
 10
-2.4230100000000001
 20
4.49777
 30
0.0
 10
-2.4230100000000001
 20
4.5638100000000001
 30
0.0
 10
-2.4230100000000001
 20
4.5638100000000001
 30
0.0
 10
-1.7905500000000001
 20
4.5638100000000001
 30
0.0
 10
-2.6566900000000002
 20
4.6603300000000001
 30
0.0
 10
-2.2909300000000004
 20
4.9702100000000007
 30
0.0
 10
-2.2909300000000004
 20
4.9702100000000007
 30
0.0
 10
-2.0674100000000002
 20
4.8076500000000006
 30
0.0
 10
-1.9023100000000002
 20
5.05403
 30
0.0
 10
-1.8057900000000002
 20
5.2318300000000004
 30
0.0
 10
-1.8057900000000002
 20
5.2318300000000004
 30
0.0
 10
-1.7778500000000002
 20
4.8838500000000007
 30
0.0
 10
-1.50607
 20
4.92957
 30
0.0
 10
-1.3130300000000001
 20
5.1835700000000005
 30
0.0
 10
-1.3130300000000001
 20
5.1835700000000005
 30
0.0
 10
-1.2850900000000001
 20
5.2191300000000007
 30
0.0
 10
-1.4095500000000001
 20
5.3562900000000004
 30
0.0
 10
-1.29779
 20
5.3308900000000001
 30
0.0
 10
-1.29779
 20
5.3308900000000001
 30
0.0
 10
-1.0539500000000002
 20
4.9549700000000003
 30
0.0
 10
-1.0539500000000002
 20
5.05403
 30
0.0
 10
-0.69581
 20
5.1175300000000004
 30
0.0
 10
-0.69581
 20
5.1175300000000004
 30
0.0
 10
-0.7923300000000001
 20
4.8736900000000007
 30
0.0
 10
-0.18781
 20
4.7746300000000002
 30
0.0
 10
-0.10653
 20
5.0692700000000004
 30
0.0
 10
-0.10653
 20
5.0692700000000004
 30
0.0
 10
0.10428
 20
4.7746300000000002
 30
0.0
 10
0.28462
 20
4.5307900000000005
 30
0.0
 10
0.64276
 20
4.7898700000000005
 30
0.0
 10
0.64276
 20
4.7898700000000005
 30
0.0
 10
0.41416
 20
4.3021900000000004
 30
0.0
 10
1.1329800000000001
 20
4.7593900000000007
 30
0.0
 10
1.4276200000000001
 20
4.6273100000000005
 30
0.0
 10
1.4276200000000001
 20
4.6273100000000005
 30
0.0
 10
1.5089000000000001
 20
4.4317299999999999
 30
0.0
 10
1.1177400000000002
 20
4.59429
 30
0.0
 10
1.0517000000000001
 20
4.4164900000000005
 30
0.0
 10
1.0517000000000001
 20
4.4164900000000005
 30
0.0
 10
1.2650600000000001
 20
4.2031300000000007
 30
0.0
 10
1.6409800000000001
 20
4.6120700000000001
 30
0.0
 10
1.4276200000000001
 20
4.1548700000000007
 30
0.0
 10
1.4276200000000001
 20
4.1548700000000007
 30
0.0
 10
1.8187800000000001
 20
4.2183700000000002
 30
0.0
 10
1.8899000000000001
 20
3.6113100000000005
 30
0.0
 10
2.4131400000000003
 20
3.3649300000000002
 30
0.0
 10
2.4131400000000003
 20
3.3649300000000002
 30
0.0
 10
2.59348
 20
3.4131900000000002
 30
0.0
 10
2.7687400000000002
 20
3.3522300000000005
 30
0.0
 10
2.7509600000000001
 20
3.5655900000000003
 30
0.0
 10
2.7509600000000001
 20
3.5655900000000003
 30
0.0
 10
2.7509600000000001
 20
3.5655900000000003
 30
0.0
 10
2.9313000000000002
 20
3.3192100000000004
 30
0.0
 10
2.9313000000000002
 20
3.3192100000000004
 30
0.0
 10
2.9313000000000002
 20
3.3192100000000004
 30
0.0
 10
3.6679000000000004
 20
3.3700100000000002
 30
0.0
 10
4.2216200000000006
 20
3.3369900000000001
 30
0.0
 10
4.8109000000000002
 20
2.55213
 30
0.0
 10
4.8109000000000002
 20
2.55213
 30
0.0
 10
4.6483400000000001
 20
1.22879
 30
0.0
 10
2.8830400000000003
 20
0.9671700000000001
 30
0.0
 10
1.8518000000000001
 20
0.5912500000000001
 30
0.0
 10
1.8518000000000001
 20
0.5912500000000001
 30
0.0
 10
2.2455000000000003
 20
-0.55174
 30
0.0
 10
3.7314000000000003
 20
-1.7099800000000001
 30
0.0
 10
2.8322400000000001
 20
-3.0028400000000004
 30
0.0
 10
2.8322400000000001
 20
-3.0028400000000004
 30
0.0
 10
2.5884
 20
-3.2466800000000005
 30
0.0
 10
2.3115400000000004
 20
-3.5413200000000002
 30
0.0
 10
1.9661000000000002
 20
-3.6403800000000004
 30
0.0
 10
1.9661000000000002
 20
-3.6403800000000004
 30
0.0
 10
2.0499200000000002
 20
-3.4930600000000003
 30
0.0
 10
2.45886
 20
-3.2797000000000001
 30
0.0
 10
2.3115400000000004
 20
-3.1019000000000001
 30
0.0
 10
2.3115400000000004
 20
-3.1019000000000001
 30
0.0
 10
1.4784200000000001
 20
-3.5083000000000002
 30
0.0
 10
1.1177400000000002
 20
-4.5395400000000006
 30
0.0
 10
1.6892400000000001
 20
-5.2583600000000006
 30
0.0
 10
1.6892400000000001
 20
-5.2583600000000006
 30
0.0
 10
1.0364600000000002
 20
-5.0450000000000008
 30
0.0
 10
0.34812
 20
-4.5065200000000001
 30
0.0
 10
0.28462
 20
-3.7699200000000004
 30
0.0
 10
0.28462
 20
-3.7699200000000004
 30
0.0
 10
0.1373
 20
-3.9502600000000001
 30
0.0
 10
0.28462
 20
-4.1966400000000004
 30
0.0
 10
0.3659
 20
-4.3744400000000008
 30
0.0
 10
0.3659
 20
-4.3744400000000008
 30
0.0
 10
0.00522
 20
-4.2271200000000002
 30
0.0
 10
-0.17003
 20
-3.7546800000000005
 30
0.0
 10
-0.15479
 20
-3.3787600000000002
 30
0.0
 10
-0.15479
 20
-3.3787600000000002
 30
0.0
 10
-0.26909
 20
-3.3940000000000001
 30
0.0
 10
-0.25385
 20
-3.7394400000000001
 30
0.0
 10
-0.33513
 20
-3.8537400000000002
 30
0.0
 10
-0.33513
 20
-3.8537400000000002
 30
0.0
 10
-0.49769
 20
-3.2466800000000005
 30
0.0
 10
-0.17003
 20
-2.5939000000000001
 30
0.0
 10
0.17032
 20
-2.1036800000000002
 30
0.0
 10
0.17032
 20
-2.1036800000000002
 30
0.0
 10
0.00522
 20
-2.1214600000000003
 30
0.0
 10
-0.15479
 20
-2.2027400000000004
 30
0.0
 10
-0.26909
 20
-2.31704
 30
0.0
 10
-0.26909
 20
-2.31704
 30
0.0
 10
-0.46721
 20
-2.57104
 30
0.0
 10
-0.5408700000000001
 20
-2.7971000000000004
 30
0.0
 10
-0.6500900000000001
 20
-2.9393400000000001
 30
0.0
 10
-0.6500900000000001
 20
-2.9393400000000001
 30
0.0
 10
-1.12253
 20
-3.5565600000000002
 30
0.0
 10
-1.8438900000000003
 20
-3.3711400000000005
 30
0.0
 10
-2.6516100000000002
 20
-3.2644600000000001
 30
0.0
 10
-2.6516100000000002
 20
-3.2644600000000001
 30
0.0
 10
-2.8141700000000003
 20
-3.1019000000000001
 30
0.0
 10
-2.69225
 20
-2.8072600000000003
 30
0.0
 10
-2.8014700000000001
 20
-2.6269200000000001
 30
0.0
 10
-2.8014700000000001
 20
-2.6269200000000001
 30
0.0
 10
-3.2815300000000001
 20
-3.0511000000000004
 30
0.0
 10
-3.2739100000000003
 20
-3.8867600000000002
 30
0.0
 10
-2.8675100000000002
 20
-4.3592000000000004
 30
0.0
 10
-2.8675100000000002
 20
-4.3592000000000004
 30
0.0
 10
-3.1926300000000003
 20
-4.2271200000000002
 30
0.0
 10
-3.1215100000000002
 20
-4.2779199999999999
 30
0.0
 10
-3.0630900000000003
 20
-4.6538400000000006
 30
0.0
 10
-3.0630900000000003
 20
-4.6538400000000006
 30
0.0
 10
-3.1062700000000003
 20
-4.8824400000000008
 30
0.0
 10
-3.0808700000000004
 20
-5.1923200000000005
 30
0.0
 10
-3.2383500000000001
 20
-5.3396400000000002
 30
0.0
 10
-3.2383500000000001
 20
-5.3396400000000002
 30
0.0
 10
-3.1951700000000001
 20
-5.11104
 30
0.0
 10
-3.1545300000000003
 20
-4.8341800000000008
 30
0.0
 10
-3.2485100000000005
 20
-4.6182800000000004
 30
0.0
 10
-3.2485100000000005
 20
-4.6182800000000004
 30
0.0
 10
-3.3475700000000002
 20
-4.3896800000000002
 30
0.0
 10
-3.3145500000000001
 20
-4.4836600000000004
 30
0.0
 10
-3.3094700000000001
 20
-4.6157400000000006
 30
0.0
  0
SPLINE
  5
26
100
AcDbEntity
  8
Ebene 1
 62
     7
100
AcDbSpline
210
0.0
220
0.0
230
1.0
 70
     1
 71
     3
 72
    20
 73
    16
 74
     0
 42
0.0000000001
 43
0.0000000001
 40
0.0
 40
0.0
 40
0.0
 40
0.0
 40
0.25
 40
0.25
 40
0.25
 40
0.25
 40
0.5
 40
0.5
 40
0.5
 40
0.5
 40
0.75
 40
0.75
 40
0.75
 40
0.75
 40
1.0
 40
1.0
 40
1.0
 40
1.0
 10
-1.2342900000000001
 20
4.9702100000000007
 30
0.0
 10
-1.1352300000000002
 20
4.9219500000000007
 30
0.0
 10
-1.1504700000000001
 20
4.64255
 30
0.0
 10
-1.29779
 20
4.6603300000000001
 30
0.0
 10
-1.29779
 20
4.6603300000000001
 30
0.0
 10
-1.3155700000000001
 20
4.5790500000000005
 30
0.0
 10
-1.3638300000000001
 20
4.6120700000000001
 30
0.0
 10
-1.4146300000000001
 20
4.6273100000000005
 30
0.0
 10
-1.4146300000000001
 20
4.6273100000000005
 30
0.0
 10
-1.4146300000000001
 20
4.6273100000000005
 30
0.0
 10
-1.4781300000000002
 20
4.5638100000000001
 30
0.0
 10
-1.4781300000000002
 20
4.5638100000000001
 30
0.0
 10
-1.4781300000000002
 20
4.5638100000000001
 30
0.0
 10
-1.54417
 20
4.7746300000000002
 30
0.0
 10
-1.3485900000000002
 20
4.8559100000000006
 30
0.0
 10
-1.2342900000000001
 20
4.9702100000000007
 30
0.0
  0
SPLINE
  5
27
100
AcDbEntity
  8
Ebene 1
 62
     7
100
AcDbSpline
210
0.0
220
0.0
230
1.0
 70
     1
 71
     3
 72
    16
 73
    12
 74
     0
 42
0.0000000001
 43
0.0000000001
 40
0.0
 40
0.0
 40
0.0
 40
0.0
 40
0.3333333333333333
 40
0.3333333333333333
 40
0.3333333333333333
 40
0.3333333333333333
 40
0.6666666666666666
 40
0.6666666666666666
 40
0.6666666666666666
 40
0.6666666666666666
 40
1.0
 40
1.0
 40
1.0
 40
1.0
 10
-1.6914900000000002
 20
4.8076500000000006
 30
0.0
 10
-1.6584700000000001
 20
4.8076500000000006
 30
0.0
 10
-1.6254500000000001
 20
4.8076500000000006
 30
0.0
 10
-1.6102100000000001
 20
4.7898700000000005
 30
0.0
 10
-1.6102100000000001
 20
4.7898700000000005
 30
0.0
 10
-1.4451100000000001
 20
4.8406700000000003
 30
0.0
 10
-1.54417
 20
4.5790500000000005
 30
0.0
 10
-1.6432300000000002
 20
4.54603
 30
0.0
 10
-1.6432300000000002
 20
4.54603
 30
0.0
 10
-1.7245100000000002
 20
4.59429
 30
0.0
 10
-1.6584700000000001
 20
4.7263700000000002
 30
0.0
 10
-1.6914900000000002
 20
4.8076500000000006
 30
0.0
  0
SPLINE
  5
28
100
AcDbEntity
  8
Ebene 1
 62
     7
100
AcDbSpline
210
0.0
220
0.0
230
1.0
 70
     1
 71
     3
 72
    48
 73
    44
 74
     0
 42
0.0000000001
 43
0.0000000001
 40
0.0
 40
0.0
 40
0.0
 40
0.0
 40
0.0909090909090909
 40
0.0909090909090909
 40
0.0909090909090909
 40
0.0909090909090909
 40
0.1818181818181818
 40
0.1818181818181818
 40
0.1818181818181818
 40
0.1818181818181818
 40
0.2727272727272727
 40
0.2727272727272727
 40
0.2727272727272727
 40
0.2727272727272727
 40
0.3636363636363637
 40
0.3636363636363637
 40
0.3636363636363637
 40
0.3636363636363637
 40
0.4545454545454546
 40
0.4545454545454546
 40
0.4545454545454546
 40
0.4545454545454546
 40
0.5454545454545455
 40
0.5454545454545455
 40
0.5454545454545455
 40
0.5454545454545455
 40
0.6363636363636365
 40
0.6363636363636365
 40
0.6363636363636365
 40
0.6363636363636365
 40
0.7272727272727274
 40
0.7272727272727274
 40
0.7272727272727274
 40
0.7272727272727274
 40
0.8181818181818183
 40
0.8181818181818183
 40
0.8181818181818183
 40
0.8181818181818183
 40
0.9090909090909093
 40
0.9090909090909093
 40
0.9090909090909093
 40
0.9090909090909093
 40
1.0
 40
1.0
 40
1.0
 40
1.0
 10
-0.5154700000000001
 20
4.49777
 30
0.0
 10
1.1837800000000001
 20
4.7085900000000001
 30
0.0
 10
2.1794600000000002
 20
3.2887300000000002
 30
0.0
 10
3.2919800000000001
 20
2.2244700000000002
 30
0.0
 10
3.2919800000000001
 20
2.2244700000000002
 30
0.0
 10
3.4367600000000005
 20
2.1762100000000002
 30
0.0
 10
3.5840800000000002
 20
2.0949300000000002
 30
0.0
 10
3.7491800000000004
 20
2.0949300000000002
 30
0.0
 10
3.7491800000000004
 20
2.0949300000000002
 30
0.0
 10
4.2063800000000002
 20
1.9323700000000001
 30
0.0
 10
4.7956600000000007
 20
2.4530700000000003
 30
0.0
 10
4.4019600000000008
 20
2.8467700000000002
 30
0.0
 10
4.4019600000000008
 20
2.8467700000000002
 30
0.0
 10
5.0725200000000008
 20
2.2574900000000002
 30
0.0
 10
4.5162599999999999
 20
1.7190100000000001
 30
0.0
 10
3.7161600000000004
 20
1.8180700000000001
 30
0.0
 10
3.7161600000000004
 20
1.8180700000000001
 30
0.0
 10
3.3732600000000001
 20
1.86633
 30
0.0
 10
3.0456000000000003
 20
2.04413
 30
0.0
 10
2.7509600000000001
 20
2.2422500000000003
 30
0.0
 10
2.7509600000000001
 20
2.2422500000000003
 30
0.0
 10
2.5376000000000003
 20
2.4530700000000003
 30
0.0
 10
2.3267800000000003
 20
2.63341
 30
0.0
 10
2.1134200000000001
 20
2.8620100000000002
 30
0.0
 10
2.1134200000000001
 20
2.8620100000000002
 30
0.0
 10
0.8231000000000001
 20
4.7746300000000002
 30
0.0
 10
-1.6102100000000001
 20
4.2183700000000002
 30
0.0
 10
-3.2154900000000004
 20
3.1236300000000004
 30
0.0
 10
-3.2154900000000004
 20
3.1236300000000004
 30
0.0
 10
-3.4872700000000001
 20
3.0245700000000002
 30
0.0
 10
-3.7641300000000002
 20
2.9610700000000003
 30
0.0
 10
-4.0613100000000006
 20
2.9610700000000003
 30
0.0
 10
-4.0613100000000006
 20
2.9610700000000003
 30
0.0
 10
-4.3788100000000005
 20
3.0423500000000003
 30
0.0
 10
-4.82585
 20
3.3369900000000001
 30
0.0
 10
-4.6937700000000007
 20
3.7281500000000003
 30
0.0
 10
-4.6937700000000007
 20
3.7281500000000003
 30
0.0
 10
-4.6175700000000006
 20
3.5833700000000004
 30
0.0
 10
-4.4727900000000007
 20
3.4030300000000002
 30
0.0
 10
-4.3026100000000005
 20
3.3039700000000001
 30
0.0
 10
-4.3026100000000005
 20
3.3039700000000001
 30
0.0
 10
-2.9157700000000002
 20
3.2049100000000004
 30
0.0
 10
-1.9531100000000001
 20
4.7085900000000001
 30
0.0
 10
-0.5154700000000001
 20
4.49777
 30
0.0
  0
SPLINE
  5
29
100
AcDbEntity
  8
Ebene 1
 62
     7
100
AcDbSpline
210
0.0
220
0.0
230
1.0
 70
     1
 71
     3
 72
   108
 73
   104
 74
     0
 42
0.0000000001
 43
0.0000000001
 40
0.0
 40
0.0
 40
0.0
 40
0.0
 40
0.0384615384615385
 40
0.0384615384615385
 40
0.0384615384615385
 40
0.0384615384615385
 40
0.0769230769230769
 40
0.0769230769230769
 40
0.0769230769230769
 40
0.0769230769230769
 40
0.1153846153846154
 40
0.1153846153846154
 40
0.1153846153846154
 40
0.1153846153846154
 40
0.1538461538461539
 40
0.1538461538461539
 40
0.1538461538461539
 40
0.1538461538461539
 40
0.1923076923076923
 40
0.1923076923076923
 40
0.1923076923076923
 40
0.1923076923076923
 40
0.2307692307692308
 40
0.2307692307692308
 40
0.2307692307692308
 40
0.2307692307692308
 40
0.2692307692307693
 40
0.2692307692307693
 40
0.2692307692307693
 40
0.2692307692307693
 40
0.3076923076923077
 40
0.3076923076923077
 40
0.3076923076923077
 40
0.3076923076923077
 40
0.3461538461538462
 40
0.3461538461538462
 40
0.3461538461538462
 40
0.3461538461538462
 40
0.3846153846153846
 40
0.3846153846153846
 40
0.3846153846153846
 40
0.3846153846153846
 40
0.423076923076923
 40
0.423076923076923
 40
0.423076923076923
 40
0.423076923076923
 40
0.4615384615384615
 40
0.4615384615384615
 40
0.4615384615384615
 40
0.4615384615384615
 40
0.4999999999999999
 40
0.4999999999999999
 40
0.4999999999999999
 40
0.4999999999999999
 40
0.5384615384615383
 40
0.5384615384615383
 40
0.5384615384615383
 40
0.5384615384615383
 40
0.5769230769230768
 40
0.5769230769230768
 40
0.5769230769230768
 40
0.5769230769230768
 40
0.6153846153846152
 40
0.6153846153846152
 40
0.6153846153846152
 40
0.6153846153846152
 40
0.6538461538461536
 40
0.6538461538461536
 40
0.6538461538461536
 40
0.6538461538461536
 40
0.6923076923076921
 40
0.6923076923076921
 40
0.6923076923076921
 40
0.6923076923076921
 40
0.7307692307692305
 40
0.7307692307692305
 40
0.7307692307692305
 40
0.7307692307692305
 40
0.7692307692307689
 40
0.7692307692307689
 40
0.7692307692307689
 40
0.7692307692307689
 40
0.8076923076923074
 40
0.8076923076923074
 40
0.8076923076923074
 40
0.8076923076923074
 40
0.8461538461538458
 40
0.8461538461538458
 40
0.8461538461538458
 40
0.8461538461538458
 40
0.8846153846153843
 40
0.8846153846153843
 40
0.8846153846153843
 40
0.8846153846153843
 40
0.9230769230769227
 40
0.9230769230769227
 40
0.9230769230769227
 40
0.9230769230769227
 40
0.9615384615384611
 40
0.9615384615384611
 40
0.9615384615384611
 40
0.9615384615384611
 40
1.0
 40
1.0
 40
1.0
 40
1.0
 10
-3.7184100000000004
 20
4.4164900000000005
 30
0.0
 10
-3.6549100000000001
 20
4.4164900000000005
 30
0.0
 10
-3.6879300000000002
 20
4.3656900000000007
 30
0.0
 10
-3.6803100000000004
 20
4.3326700000000002
 30
0.0
 10
-3.6803100000000004
 20
4.3326700000000002
 30
0.0
 10
-3.4085300000000003
 20
4.38347
 30
0.0
 10
-3.6015700000000002
 20
4.1040700000000001
 30
0.0
 10
-3.6142700000000003
 20
4.0075500000000002
 30
0.0
 10
-3.6142700000000003
 20
4.0075500000000002
 30
0.0
 10
-3.6142700000000003
 20
4.0075500000000002
 30
0.0
 10
-3.3450300000000004
 20
4.2031300000000007
 30
0.0
 10
-3.3450300000000004
 20
4.2031300000000007
 30
0.0
 10
-3.3450300000000004
 20
4.2031300000000007
 30
0.0
 10
-3.3450300000000004
 20
4.2031300000000007
 30
0.0
 10
-3.4999700000000002
 20
3.7941900000000004
 30
0.0
 10
-3.4999700000000002
 20
3.7941900000000004
 30
0.0
 10
-3.4999700000000002
 20
3.7941900000000004
 30
0.0
 10
-3.3450300000000004
 20
3.8424500000000004
 30
0.0
 10
-3.3069300000000004
 20
4.1218500000000002
 30
0.0
 10
-3.1164300000000003
 20
4.1853500000000006
 30
0.0
 10
-3.1164300000000003
 20
4.1853500000000006
 30
0.0
 10
-3.2053300000000005
 20
4.0075500000000002
 30
0.0
 10
-3.0732500000000003
 20
3.7611700000000003
 30
0.0
 10
-3.2713700000000001
 20
3.6646500000000004
 30
0.0
 10
-3.2713700000000001
 20
3.6646500000000004
 30
0.0
 10
-3.2713700000000001
 20
3.6646500000000004
 30
0.0
 10
-3.2815300000000001
 20
3.7764100000000003
 30
0.0
 10
-3.2815300000000001
 20
3.7764100000000003
 30
0.0
 10
-3.2815300000000001
 20
3.7764100000000003
 30
0.0
 10
-3.2993100000000002
 20
3.6976700000000005
 30
0.0
 10
-3.3831300000000004
 20
3.7281500000000003
 30
0.0
 10
-3.4085300000000003
 20
3.7764100000000003
 30
0.0
 10
-3.4085300000000003
 20
3.7764100000000003
 30
0.0
 10
-3.4466300000000003
 20
3.7764100000000003
 30
0.0
 10
-3.4364700000000004
 20
3.7281500000000003
 30
0.0
 10
-3.4440900000000001
 20
3.6976700000000005
 30
0.0
 10
-3.4440900000000001
 20
3.6976700000000005
 30
0.0
 10
-3.6828500000000002
 20
3.8272100000000004
 30
0.0
 10
-3.5126700000000004
 20
3.4995500000000002
 30
0.0
 10
-3.6726900000000002
 20
3.4360500000000003
 30
0.0
 10
-3.6726900000000002
 20
3.4360500000000003
 30
0.0
 10
-3.9190700000000005
 20
3.5173300000000003
 30
0.0
 10
-3.4999700000000002
 20
4.0558100000000001
 30
0.0
 10
-3.7514300000000005
 20
3.8094300000000003
 30
0.0
 10
-3.7514300000000005
 20
3.8094300000000003
 30
0.0
 10
-3.7565100000000005
 20
4.0227900000000005
 30
0.0
 10
-4.0460700000000003
 20
3.6316300000000004
 30
0.0
 10
-3.8860500000000004
 20
3.4030300000000002
 30
0.0
 10
-3.8860500000000004
 20
3.4030300000000002
 30
0.0
 10
-4.0054300000000005
 20
3.4030300000000002
 30
0.0
 10
-4.0816300000000005
 20
3.6138500000000002
 30
0.0
 10
-3.9952700000000005
 20
3.6646500000000004
 30
0.0
 10
-3.9952700000000005
 20
3.6646500000000004
 30
0.0
 10
-3.9012900000000004
 20
3.6646500000000004
 30
0.0
 10
-4.0155900000000004
 20
3.7611700000000003
 30
0.0
 10
-4.0130500000000007
 20
3.7941900000000004
 30
0.0
 10
-4.0130500000000007
 20
3.7941900000000004
 30
0.0
 10
-4.2264100000000004
 20
3.3522300000000005
 30
0.0
 10
-4.2060900000000006
 20
3.7764100000000003
 30
0.0
 10
-4.0714700000000006
 20
4.0558100000000001
 30
0.0
 10
-4.0714700000000006
 20
4.0558100000000001
 30
0.0
 10
-4.0714700000000006
 20
4.0558100000000001
 30
0.0
 10
-4.0079700000000003
 20
4.1370900000000006
 30
0.0
 10
-4.0079700000000003
 20
4.1370900000000006
 30
0.0
 10
-4.0079700000000003
 20
4.1370900000000006
 30
0.0
 10
-3.9165300000000003
 20
4.3174300000000008
 30
0.0
 10
-4.1883100000000004
 20
4.0075500000000002
 30
0.0
 10
-4.1629100000000001
 20
4.1040700000000001
 30
0.0
 10
-4.1629100000000001
 20
4.1040700000000001
 30
0.0
 10
-4.1629100000000001
 20
4.1040700000000001
 30
0.0
 10
-4.1298900000000005
 20
4.1548700000000007
 30
0.0
 10
-4.1298900000000005
 20
4.1548700000000007
 30
0.0
 10
-4.1298900000000005
 20
4.1548700000000007
 30
0.0
 10
-4.1298900000000005
 20
4.1548700000000007
 30
0.0
 10
-4.0638500000000004
 20
4.2183700000000002
 30
0.0
 10
-4.0638500000000004
 20
4.2183700000000002
 30
0.0
 10
-4.0638500000000004
 20
4.2183700000000002
 30
0.0
 10
-4.0536900000000005
 20
4.2361500000000003
 30
0.0
 10
-4.02067
 20
4.2513900000000007
 30
0.0
 10
-4.0333700000000006
 20
4.2844100000000003
 30
0.0
 10
-4.0333700000000006
 20
4.2844100000000003
 30
0.0
 10
-4.2645100000000005
 20
4.1853500000000006
 30
0.0
 10
-4.3711900000000004
 20
3.9084900000000005
 30
0.0
 10
-4.4981900000000001
 20
3.7129100000000004
 30
0.0
 10
-4.4981900000000001
 20
3.7129100000000004
 30
0.0
 10
-4.6328100000000001
 20
3.8602300000000005
 30
0.0
 10
-4.4550100000000006
 20
3.9897700000000005
 30
0.0
 10
-4.5642300000000002
 20
4.1218500000000002
 30
0.0
 10
-4.5642300000000002
 20
4.1218500000000002
 30
0.0
 10
-4.5642300000000002
 20
4.1218500000000002
 30
0.0
 10
-4.5058100000000003
 20
4.1548700000000007
 30
0.0
 10
-4.5058100000000003
 20
4.1548700000000007
 30
0.0
 10
-4.5058100000000003
 20
4.1548700000000007
 30
0.0
 10
-4.35595
 20
3.9567500000000004
 30
0.0
 10
-4.3432500000000003
 20
4.3021900000000004
 30
0.0
 10
-4.1756100000000007
 20
4.38347
 30
0.0
 10
-4.1756100000000007
 20
4.38347
 30
0.0
 10
-4.1298900000000005
 20
4.3021900000000004
 30
0.0
 10
-4.09687
 20
4.3656900000000007
 30
0.0
 10
-4.04861
 20
4.3987100000000003
 30
0.0
 10
-4.04861
 20
4.3987100000000003
 30
0.0
 10
-4.0536900000000005
 20
4.2031300000000007
 30
0.0
 10
-3.8022300000000002
 20
4.3504500000000004
 30
0.0
 10
-3.7184100000000004
 20
4.4164900000000005
 30
0.0
  0
SPLINE
  5
2A
100
AcDbEntity
  8
Ebene 1
 62
     7
100
AcDbSpline
210
0.0
220
0.0
230
1.0
 70
     1
 71
     3
 72
    44
 73
    40
 74
     0
 42
0.0000000001
 43
0.0000000001
 40
0.0
 40
0.0
 40
0.0
 40
0.0
 40
0.1
 40
0.1
 40
0.1
 40
0.1
 40
0.2
 40
0.2
 40
0.2
 40
0.2
 40
0.3
 40
0.3
 40
0.3
 40
0.3
 40
0.4
 40
0.4
 40
0.4
 40
0.4
 40
0.5
 40
0.5
 40
0.5
 40
0.5
 40
0.6
 40
0.6
 40
0.6
 40
0.6
 40
0.7
 40
0.7
 40
0.7
 40
0.7
 40
0.7999999999999999
 40
0.7999999999999999
 40
0.7999999999999999
 40
0.7999999999999999
 40
0.8999999999999999
 40
0.8999999999999999
 40
0.8999999999999999
 40
0.8999999999999999
 40
1.0
 40
1.0
 40
1.0
 40
1.0
 10
-0.44689
 20
4.0354900000000002
 30
0.0
 10
1.4631800000000001
 20
4.2158300000000004
 30
0.0
 10
2.1464400000000001
 20
1.8180700000000001
 30
0.0
 10
3.8634800000000005
 20
1.57169
 30
0.0
 10
3.8634800000000005
 20
1.57169
 30
0.0
 10
3.2589600000000001
 20
1.1627500000000002
 30
0.0
 10
2.4741000000000004
 20
0.8020700000000001
 30
0.0
 10
1.7552800000000002
 20
0.93415
 30
0.0
 10
1.7552800000000002
 20
0.93415
 30
0.0
 10
1.5597000000000001
 20
1.0332100000000002
 30
0.0
 10
1.3463400000000001
 20
1.1627500000000002
 30
0.0
 10
1.1990200000000002
 20
1.3100700000000001
 30
0.0
 10
1.1990200000000002
 20
1.3100700000000001
 30
0.0
 10
1.1990200000000002
 20
1.3100700000000001
 30
0.0
 10
1.6511400000000001
 20
1.27451
 30
0.0
 10
1.6511400000000001
 20
1.27451
 30
0.0
 10
1.6511400000000001
 20
1.27451
 30
0.0
 10
1.9356200000000001
 20
1.2516500000000002
 30
0.0
 10
2.2404200000000003
 20
1.19323
 30
0.0
 10
1.7552800000000002
 20
1.2999100000000001
 30
0.0
 10
1.7552800000000002
 20
1.2999100000000001
 30
0.0
 10
0.9602600000000001
 20
1.4777100000000001
 30
0.0
 10
0.19318
 20
1.8256900000000003
 30
0.0
 10
-0.54849
 20
2.1584300000000001
 30
0.0
 10
-0.54849
 20
2.1584300000000001
 30
0.0
 10
-0.3021100000000001
 20
2.2905100000000003
 30
0.0
 10
0.05348
 20
2.2244700000000002
 30
0.0
 10
0.28462
 20
2.3235300000000003
 30
0.0
 10
0.28462
 20
2.3235300000000003
 30
0.0
 10
-1.0209300000000001
 20
2.4200500000000003
 30
0.0
 10
-2.1817100000000003
 20
1.7012300000000002
 30
0.0
 10
-3.4517100000000003
 20
1.9145900000000002
 30
0.0
 10
-3.4517100000000003
 20
1.9145900000000002
 30
0.0
 10
-3.6472900000000004
 20
2.3717900000000003
 30
0.0
 10
-4.2010100000000001
 20
2.5368900000000001
 30
0.0
 10
-4.43215
 20
2.9610700000000003
 30
0.0
 10
-4.43215
 20
2.9610700000000003
 30
0.0
 10
-2.9767300000000003
 20
2.47085
 30
0.0
 10
-1.8845300000000003
 20
4.0354900000000002
 30
0.0
 10
-0.44689
 20
4.0354900000000002
 30
0.0
  0
SPLINE
  5
2B
100
AcDbEntity
  8
Ebene 1
 62
     7
100
AcDbSpline
210
0.0
220
0.0
230
1.0
 70
     1
 71
     3
 72
    16
 73
    12
 74
     0
 42
0.0000000001
 43
0.0000000001
 40
0.0
 40
0.0
 40
0.0
 40
0.0
 40
0.3333333333333333
 40
0.3333333333333333
 40
0.3333333333333333
 40
0.3333333333333333
 40
0.6666666666666666
 40
0.6666666666666666
 40
0.6666666666666666
 40
0.6666666666666666
 40
1.0
 40
1.0
 40
1.0
 40
1.0
 10
-4.40421
 20
3.7281500000000003
 30
0.0
 10
-4.40421
 20
3.7281500000000003
 30
0.0
 10
-4.2924500000000005
 20
3.6976700000000005
 30
0.0
 10
-4.2924500000000005
 20
3.6976700000000005
 30
0.0
 10
-4.2924500000000005
 20
3.6976700000000005
 30
0.0
 10
-4.2924500000000005
 20
3.6976700000000005
 30
0.0
 10
-4.3254700000000001
 20
3.5655900000000003
 30
0.0
 10
-4.3254700000000001
 20
3.5655900000000003
 30
0.0
 10
-4.3254700000000001
 20
3.5655900000000003
 30
0.0
 10
-4.4169100000000006
 20
3.5503500000000003
 30
0.0
 10
-4.49057
 20
3.6798900000000003
 30
0.0
 10
-4.40421
 20
3.7281500000000003
 30
0.0
  0
SPLINE
  5
2C
100
AcDbEntity
  8
Ebene 1
 62
     7
100
AcDbSpline
210
0.0
220
0.0
230
1.0
 70
     1
 71
     3
 72
    64
 73
    60
 74
     0
 42
0.0000000001
 43
0.0000000001
 40
0.0
 40
0.0
 40
0.0
 40
0.0
 40
0.0666666666666667
 40
0.0666666666666667
 40
0.0666666666666667
 40
0.0666666666666667
 40
0.1333333333333333
 40
0.1333333333333333
 40
0.1333333333333333
 40
0.1333333333333333
 40
0.2
 40
0.2
 40
0.2
 40
0.2
 40
0.2666666666666667
 40
0.2666666666666667
 40
0.2666666666666667
 40
0.2666666666666667
 40
0.3333333333333333
 40
0.3333333333333333
 40
0.3333333333333333
 40
0.3333333333333333
 40
0.4
 40
0.4
 40
0.4
 40
0.4
 40
0.4666666666666666
 40
0.4666666666666666
 40
0.4666666666666666
 40
0.4666666666666666
 40
0.5333333333333333
 40
0.5333333333333333
 40
0.5333333333333333
 40
0.5333333333333333
 40
0.6
 40
0.6
 40
0.6
 40
0.6
 40
0.6666666666666666
 40
0.6666666666666666
 40
0.6666666666666666
 40
0.6666666666666666
 40
0.7333333333333333
 40
0.7333333333333333
 40
0.7333333333333333
 40
0.7333333333333333
 40
0.7999999999999999
 40
0.7999999999999999
 40
0.7999999999999999
 40
0.7999999999999999
 40
0.8666666666666666
 40
0.8666666666666666
 40
0.8666666666666666
 40
0.8666666666666666
 40
0.9333333333333332
 40
0.9333333333333332
 40
0.9333333333333332
 40
0.9333333333333332
 40
1.0
 40
1.0
 40
1.0
 40
1.0
 10
3.6018600000000003
 20
2.3565500000000004
 30
0.0
 10
3.6348800000000003
 20
2.4048100000000003
 30
0.0
 10
3.7491800000000004
 20
2.3717900000000003
 30
0.0
 10
3.7491800000000004
 20
2.4530700000000003
 30
0.0
 10
3.7491800000000004
 20
2.4530700000000003
 30
0.0
 10
3.7491800000000004
 20
2.4530700000000003
 30
0.0
 10
3.6018600000000003
 20
2.4200500000000003
 30
0.0
 10
3.6018600000000003
 20
2.4200500000000003
 30
0.0
 10
3.6018600000000003
 20
2.4200500000000003
 30
0.0
 10
3.6018600000000003
 20
2.4200500000000003
 30
0.0
 10
3.9447600000000005
 20
2.55213
 30
0.0
 10
3.9447600000000005
 20
2.55213
 30
0.0
 10
3.9447600000000005
 20
2.55213
 30
0.0
 10
3.7644200000000003
 20
2.6511900000000002
 30
0.0
 10
3.4875600000000002
 20
2.5191100000000004
 30
0.0
 10
3.3250000000000002
 20
2.3895700000000004
 30
0.0
 10
3.3250000000000002
 20
2.3895700000000004
 30
0.0
 10
3.4164400000000001
 20
2.6638900000000003
 30
0.0
 10
3.0125800000000003
 20
2.5292700000000004
 30
0.0
 10
3.1929200000000004
 20
2.6511900000000002
 30
0.0
 10
3.1929200000000004
 20
2.6511900000000002
 30
0.0
 10
3.1929200000000004
 20
2.6511900000000002
 30
0.0
 10
3.5536000000000003
 20
2.8772500000000001
 30
0.0
 10
3.5536000000000003
 20
2.8772500000000001
 30
0.0
 10
3.5536000000000003
 20
2.8772500000000001
 30
0.0
 10
3.3732600000000001
 20
2.9102700000000001
 30
0.0
 10
3.1929200000000004
 20
2.9432900000000002
 30
0.0
 10
3.0125800000000003
 20
2.8137500000000002
 30
0.0
 10
3.0125800000000003
 20
2.8137500000000002
 30
0.0
 10
2.6696800000000001
 20
2.6511900000000002
 30
0.0
 10
3.3554800000000005
 20
3.0423500000000003
 30
0.0
 10
3.1599000000000004
 20
2.9763100000000002
 30
0.0
 10
3.1599000000000004
 20
2.9763100000000002
 30
0.0
 10
3.1599000000000004
 20
2.9763100000000002
 30
0.0
 10
3.0633800000000004
 20
2.9432900000000002
 30
0.0
 10
3.0633800000000004
 20
2.9432900000000002
 30
0.0
 10
3.0633800000000004
 20
2.9432900000000002
 30
0.0
 10
3.0633800000000004
 20
2.9432900000000002
 30
0.0
 10
2.9973400000000003
 20
2.9102700000000001
 30
0.0
 10
2.9973400000000003
 20
2.9102700000000001
 30
0.0
 10
2.9973400000000003
 20
2.9102700000000001
 30
0.0
 10
2.9973400000000003
 20
2.9102700000000001
 30
0.0
 10
3.0456000000000003
 20
2.9940900000000004
 30
0.0
 10
3.0456000000000003
 20
2.9940900000000004
 30
0.0
 10
3.0456000000000003
 20
2.9940900000000004
 30
0.0
 10
2.9160600000000003
 20
3.2709500000000005
 30
0.0
 10
3.6018600000000003
 20
3.2049100000000004
 30
0.0
 10
3.5688400000000002
 20
2.9432900000000002
 30
0.0
 10
3.5688400000000002
 20
2.9432900000000002
 30
0.0
 10
4.0108000000000006
 20
3.14141
 30
0.0
 10
4.8439200000000007
 20
2.4200500000000003
 30
0.0
 10
4.0438200000000002
 20
2.2727300000000001
 30
0.0
 10
4.0438200000000002
 20
2.2727300000000001
 30
0.0
 10
3.9117400000000004
 20
2.2727300000000001
 30
0.0
 10
3.7974400000000004
 20
2.2574900000000002
 30
0.0
 10
3.6831400000000003
 20
2.3057500000000002
 30
0.0
 10
3.6831400000000003
 20
2.3057500000000002
 30
0.0
 10
3.8634800000000005
 20
2.3717900000000003
 30
0.0
 10
3.7161600000000004
 20
2.3895700000000004
 30
0.0
 10
3.6018600000000003
 20
2.3565500000000004
 30
0.0
  0
SPLINE
  5
2D
100
AcDbEntity
  8
Ebene 1
 62
     7
100
AcDbSpline
210
0.0
220
0.0
230
1.0
 70
     1
 71
     3
 72
    24
 73
    20
 74
     0
 42
0.0000000001
 43
0.0000000001
 40
0.0
 40
0.0
 40
0.0
 40
0.0
 40
0.2
 40
0.2
 40
0.2
 40
0.2
 40
0.4
 40
0.4
 40
0.4
 40
0.4
 40
0.6000000000000001
 40
0.6000000000000001
 40
0.6000000000000001
 40
0.6000000000000001
 40
0.8
 40
0.8
 40
0.8
 40
0.8
 40
1.0
 40
1.0
 40
1.0
 40
1.0
 10
3.7491800000000004
 20
3.0906100000000003
 30
0.0
 10
3.7491800000000004
 20
3.0906100000000003
 30
0.0
 10
3.8634800000000005
 20
3.0575900000000003
 30
0.0
 10
3.8634800000000005
 20
3.0575900000000003
 30
0.0
 10
3.8634800000000005
 20
3.0575900000000003
 30
0.0
 10
3.8634800000000005
 20
3.0575900000000003
 30
0.0
 10
3.9625400000000002
 20
2.9940900000000004
 30
0.0
 10
3.9625400000000002
 20
2.9940900000000004
 30
0.0
 10
3.9625400000000002
 20
2.9940900000000004
 30
0.0
 10
3.8965000000000005
 20
2.9940900000000004
 30
0.0
 10
3.7974400000000004
 20
2.9763100000000002
 30
0.0
 10
3.7822000000000005
 20
3.0423500000000003
 30
0.0
 10
3.7822000000000005
 20
3.0423500000000003
 30
0.0
 10
3.7822000000000005
 20
3.0423500000000003
 30
0.0
 10
3.6501200000000003
 20
3.0093300000000003
 30
0.0
 10
3.6501200000000003
 20
3.0093300000000003
 30
0.0
 10
3.6501200000000003
 20
3.0093300000000003
 30
0.0
 10
3.6501200000000003
 20
3.0093300000000003
 30
0.0
 10
3.7491800000000004
 20
3.0906100000000003
 30
0.0
 10
3.7491800000000004
 20
3.0906100000000003
 30
0.0
  0
SPLINE
  5
2E
100
AcDbEntity
  8
Ebene 1
 62
     7
100
AcDbSpline
210
0.0
220
0.0
230
1.0
 70
     1
 71
     3
 72
    12
 73
     8
 74
     0
 42
0.0000000001
 43
0.0000000001
 40
0.0
 40
0.0
 40
0.0
 40
0.0
 40
0.5
 40
0.5
 40
0.5
 40
0.5
 40
1.0
 40
1.0
 40
1.0
 40
1.0
 10
3.1116400000000004
 20
2.8137500000000002
 30
0.0
 10
3.1446600000000005
 20
2.7654900000000002
 30
0.0
 10
3.0303600000000004
 20
2.6994500000000001
 30
0.0
 10
2.9973400000000003
 20
2.6511900000000002
 30
0.0
 10
2.9973400000000003
 20
2.6511900000000002
 30
0.0
 10
2.9643200000000003
 20
2.71469
 30
0.0
 10
3.0633800000000004
 20
2.7807300000000001
 30
0.0
 10
3.1116400000000004
 20
2.8137500000000002
 30
0.0
  0
SPLINE
  5
2F
100
AcDbEntity
  8
Ebene 1
 62
     7
100
AcDbSpline
210
0.0
220
0.0
230
1.0
 70
     1
 71
     3
 72
   132
 73
   128
 74
     0
 42
0.0000000001
 43
0.0000000001
 40
0.0
 40
0.0
 40
0.0
 40
0.0
 40
0.03125
 40
0.03125
 40
0.03125
 40
0.03125
 40
0.0625
 40
0.0625
 40
0.0625
 40
0.0625
 40
0.09375
 40
0.09375
 40
0.09375
 40
0.09375
 40
0.125
 40
0.125
 40
0.125
 40
0.125
 40
0.15625
 40
0.15625
 40
0.15625
 40
0.15625
 40
0.1875
 40
0.1875
 40
0.1875
 40
0.1875
 40
0.21875
 40
0.21875
 40
0.21875
 40
0.21875
 40
0.25
 40
0.25
 40
0.25
 40
0.25
 40
0.28125
 40
0.28125
 40
0.28125
 40
0.28125
 40
0.3125
 40
0.3125
 40
0.3125
 40
0.3125
 40
0.34375
 40
0.34375
 40
0.34375
 40
0.34375
 40
0.375
 40
0.375
 40
0.375
 40
0.375
 40
0.40625
 40
0.40625
 40
0.40625
 40
0.40625
 40
0.4375
 40
0.4375
 40
0.4375
 40
0.4375
 40
0.46875
 40
0.46875
 40
0.46875
 40
0.46875
 40
0.5
 40
0.5
 40
0.5
 40
0.5
 40
0.53125
 40
0.53125
 40
0.53125
 40
0.53125
 40
0.5625
 40
0.5625
 40
0.5625
 40
0.5625
 40
0.59375
 40
0.59375
 40
0.59375
 40
0.59375
 40
0.625
 40
0.625
 40
0.625
 40
0.625
 40
0.65625
 40
0.65625
 40
0.65625
 40
0.65625
 40
0.6875
 40
0.6875
 40
0.6875
 40
0.6875
 40
0.71875
 40
0.71875
 40
0.71875
 40
0.71875
 40
0.75
 40
0.75
 40
0.75
 40
0.75
 40
0.78125
 40
0.78125
 40
0.78125
 40
0.78125
 40
0.8125
 40
0.8125
 40
0.8125
 40
0.8125
 40
0.84375
 40
0.84375
 40
0.84375
 40
0.84375
 40
0.875
 40
0.875
 40
0.875
 40
0.875
 40
0.90625
 40
0.90625
 40
0.90625
 40
0.90625
 40
0.9375
 40
0.9375
 40
0.9375
 40
0.9375
 40
0.96875
 40
0.96875
 40
0.96875
 40
0.96875
 40
1.0
 40
1.0
 40
1.0
 40
1.0
 10
-1.1352300000000002
 20
2.0619100000000001
 30
0.0
 10
-0.8101100000000001
 20
2.0949300000000002
 30
0.0
 10
-0.5154700000000001
 20
1.9958700000000003
 30
0.0
 10
-0.23607
 20
1.8993500000000001
 30
0.0
 10
-0.23607
 20
1.8993500000000001
 30
0.0
 10
-0.22083
 20
1.6199500000000002
 30
0.0
 10
-0.17003
 20
1.3430900000000001
 30
0.0
 10
-0.10653
 20
1.0814700000000002
 30
0.0
 10
-0.10653
 20
1.0814700000000002
 30
0.0
 10
-0.28433
 20
1.19577
 30
0.0
 10
-0.25385
 20
1.5539100000000001
 30
0.0
 10
-0.40117
 20
1.6047100000000001
 30
0.0
 10
-0.40117
 20
1.6047100000000001
 30
0.0
 10
-0.40117
 20
1.1627500000000002
 30
0.0
 10
0.00522
 20
0.8681100000000001
 30
0.0
 10
0.18556
 20
0.49219
 30
0.0
 10
0.18556
 20
0.49219
 30
0.0
 10
-0.07351
 20
-0.12502
 30
0.0
 10
-0.9879100000000001
 20
-0.90988
 30
0.0
 10
-1.5924300000000002
 20
-0.4044200000000001
 30
0.0
 10
-1.5924300000000002
 20
-0.4044200000000001
 30
0.0
 10
-1.5924300000000002
 20
-0.4044200000000001
 30
0.0
 10
-1.7245100000000002
 20
-0.41966
 30
0.0
 10
-1.7245100000000002
 20
-0.41966
 30
0.0
 10
-1.7245100000000002
 20
-0.41966
 30
0.0
 10
-1.75753
 20
-0.45268
 30
0.0
 10
-1.8057900000000002
 20
-0.4857
 30
0.0
 10
-1.7905500000000001
 20
-0.55174
 30
0.0
 10
-1.7905500000000001
 20
-0.55174
 30
0.0
 10
-1.5289300000000001
 20
-0.4374400000000001
 30
0.0
 10
-1.46289
 20
-0.78034
 30
0.0
 10
-1.4298700000000002
 20
-0.9759200000000001
 30
0.0
 10
-1.4298700000000002
 20
-0.9759200000000001
 30
0.0
 10
-1.5619500000000002
 20
-1.1080000000000001
 30
0.0
 10
-1.54417
 20
-0.8616200000000001
 30
0.0
 10
-1.6254500000000001
 20
-0.8133600000000001
 30
0.0
 10
-1.6254500000000001
 20
-0.8133600000000001
 30
0.0
 10
-1.6762500000000002
 20
-0.8768600000000001
 30
0.0
 10
-1.54417
 20
-0.9429000000000001
 30
0.0
 10
-1.5771900000000001
 20
-1.0241800000000001
 30
0.0
 10
-1.5771900000000001
 20
-1.0241800000000001
 30
0.0
 10
-1.7245100000000002
 20
-1.12324
 30
0.0
 10
-1.7727700000000002
 20
-1.1715
 30
0.0
 10
-1.8057900000000002
 20
-0.9606800000000001
 30
0.0
 10
-1.8057900000000002
 20
-0.9606800000000001
 30
0.0
 10
-1.8591300000000002
 20
-0.88448
 30
0.0
 10
-1.8311900000000001
 20
-1.0521200000000002
 30
0.0
 10
-1.8464300000000002
 20
-1.08768
 30
0.0
 10
-1.8464300000000002
 20
-1.08768
 30
0.0
 10
-1.8845300000000003
 20
-1.1791200000000002
 30
0.0
 10
-1.9581900000000001
 20
-1.2248400000000002
 30
0.0
 10
-2.0496300000000001
 20
-1.1969000000000001
 30
0.0
 10
-2.0496300000000001
 20
-1.1969000000000001
 30
0.0
 10
-2.0902700000000003
 20
-1.1816600000000002
 30
0.0
 10
-2.1969500000000002
 20
-0.9962400000000001
 30
0.0
 10
-2.1817100000000003
 20
-1.1080000000000001
 30
0.0
 10
-2.1817100000000003
 20
-1.1080000000000001
 30
0.0
 10
-2.0496300000000001
 20
-1.2858000000000001
 30
0.0
 10
-2.1918700000000002
 20
-1.3467600000000002
 30
0.0
 10
-2.2452100000000002
 20
-1.1842000000000001
 30
0.0
 10
-2.2452100000000002
 20
-1.1842000000000001
 30
0.0
 10
-2.3874500000000003
 20
-1.08006
 30
0.0
 10
-2.2985500000000001
 20
-1.2146800000000002
 30
0.0
 10
-2.31379
 20
-1.29596
 30
0.0
 10
-2.31379
 20
-1.29596
 30
0.0
 10
-2.3239500000000004
 20
-1.3569200000000001
 30
0.0
 10
-2.3747500000000001
 20
-1.29342
 30
0.0
 10
-2.48651
 20
-1.3188200000000001
 30
0.0
 10
-2.48651
 20
-1.3188200000000001
 30
0.0
 10
-2.5017500000000004
 20
-1.2223000000000002
 30
0.0
 10
-2.4712700000000001
 20
-1.1080000000000001
 30
0.0
 10
-2.5449300000000004
 20
-1.04196
 30
0.0
 10
-2.5449300000000004
 20
-1.04196
 30
0.0
 10
-2.4585700000000004
 20
-1.3696200000000001
 30
0.0
 10
-2.7532100000000002
 20
-1.4661400000000002
 30
0.0
 10
-2.7557500000000004
 20
-1.0572000000000001
 30
0.0
 10
-2.7557500000000004
 20
-1.0572000000000001
 30
0.0
 10
-2.8395700000000001
 20
-1.0165600000000001
 30
0.0
 10
-2.7913100000000002
 20
-1.1918200000000001
 30
0.0
 10
-2.8268700000000004
 20
-1.2197600000000002
 30
0.0
 10
-2.8268700000000004
 20
-1.2197600000000002
 30
0.0
 10
-2.85989
 20
-1.2426200000000001
 30
0.0
 10
-2.8751300000000004
 20
-1.2400800000000001
 30
0.0
 10
-2.9284700000000004
 20
-1.2553200000000002
 30
0.0
 10
-2.9284700000000004
 20
-1.2553200000000002
 30
0.0
 10
-3.0224500000000001
 20
-1.0241800000000001
 30
0.0
 10
-3.0834100000000002
 20
-0.7295400000000001
 30
0.0
 10
-3.0351500000000002
 20
-0.47046
 30
0.0
 10
-3.0351500000000002
 20
-0.47046
 30
0.0
 10
-3.4974300000000005
 20
-0.61524
 30
0.0
 10
-3.2002500000000005
 20
0.10103
 30
0.0
 10
-2.8802100000000004
 20
0.24835
 30
0.0
 10
-2.8802100000000004
 20
0.24835
 30
0.0
 10
-2.8497300000000001
 20
0.00197
 30
0.0
 10
-2.9487900000000002
 20
-1.2375400000000001
 30
0.0
 10
-2.5931900000000003
 20
-0.56698
 30
0.0
 10
-2.5931900000000003
 20
-0.56698
 30
0.0
 10
-2.5881100000000004
 20
-0.76256
 30
0.0
 10
-2.3468100000000001
 20
-0.90988
 30
0.0
 10
-2.1664700000000003
 20
-0.8133600000000001
 30
0.0
 10
-2.1664700000000003
 20
-0.8133600000000001
 30
0.0
 10
-2.0496300000000001
 20
-0.76256
 30
0.0
 10
-2.0191500000000002
 20
-0.6000000000000001
 30
0.0
 10
-2.0496300000000001
 20
-0.4857
 30
0.0
 10
-2.0496300000000001
 20
-0.4857
 30
0.0
 10
-2.2934700000000001
 20
-0.23932
 30
0.0
 10
-2.3671300000000004
 20
0.31185
 30
0.0
 10
-2.7328900000000003
 20
0.31185
 30
0.0
 10
-2.7328900000000003
 20
0.31185
 30
0.0
 10
-2.6135100000000002
 20
0.47695
 30
0.0
 10
-2.69733
 20
0.6547500000000001
 30
0.0
 10
-2.7176500000000003
 20
0.8350900000000001
 30
0.0
 10
-2.7176500000000003
 20
0.8350900000000001
 30
0.0
 10
-2.2553700000000001
 20
1.40659
 30
0.0
 10
-1.5289300000000001
 20
1.8485500000000001
 30
0.0
 10
-0.82535
 20
1.8002900000000002
 30
0.0
 10
-0.82535
 20
1.8002900000000002
 30
0.0
 10
-1.11999
 20
1.9958700000000003
 30
0.0
 10
-1.4781300000000002
 20
1.7850500000000002
 30
0.0
 10
-1.75753
 20
1.6529700000000001
 30
0.0
 10
-1.75753
 20
1.6529700000000001
 30
0.0
 10
-1.75753
 20
1.6529700000000001
 30
0.0
 10
-2.0191500000000002
 20
1.57169
 30
0.0
 10
-2.0191500000000002
 20
1.57169
 30
0.0
 10
-2.0191500000000002
 20
1.57169
 30
0.0
 10
-1.9861300000000002
 20
2.0288900000000001
 30
0.0
 10
-1.46289
 20
1.9958700000000003
 30
0.0
 10
-1.1352300000000002
 20
2.0619100000000001
 30
0.0
  0
SPLINE
  5
30
100
AcDbEntity
  8
Ebene 1
 62
     7
100
AcDbSpline
210
0.0
220
0.0
230
1.0
 70
     1
 71
     3
 72
    32
 73
    28
 74
     0
 42
0.0000000001
 43
0.0000000001
 40
0.0
 40
0.0
 40
0.0
 40
0.0
 40
0.1428571428571429
 40
0.1428571428571429
 40
0.1428571428571429
 40
0.1428571428571429
 40
0.2857142857142857
 40
0.2857142857142857
 40
0.2857142857142857
 40
0.2857142857142857
 40
0.4285714285714286
 40
0.4285714285714286
 40
0.4285714285714286
 40
0.4285714285714286
 40
0.5714285714285714
 40
0.5714285714285714
 40
0.5714285714285714
 40
0.5714285714285714
 40
0.7142857142857142
 40
0.7142857142857142
 40
0.7142857142857142
 40
0.7142857142857142
 40
0.857142857142857
 40
0.857142857142857
 40
0.857142857142857
 40
0.857142857142857
 40
1.0
 40
1.0
 40
1.0
 40
1.0
 10
-2.2299700000000002
 20
1.8485500000000001
 30
0.0
 10
-2.3442700000000003
 20
1.57169
 30
0.0
 10
-2.6287500000000001
 20
1.3253100000000002
 30
0.0
 10
-2.8548100000000001
 20
1.0814700000000002
 30
0.0
 10
-2.8548100000000001
 20
1.0814700000000002
 30
0.0
 10
-3.0681700000000003
 20
1.1779900000000001
 30
0.0
 10
-3.3348700000000004
 20
1.1627500000000002
 30
0.0
 10
-3.5329900000000003
 20
1.0332100000000002
 30
0.0
 10
-3.5329900000000003
 20
1.0332100000000002
 30
0.0
 10
-3.6218900000000005
 20
1.2922900000000002
 30
0.0
 10
-3.4720300000000002
 20
1.7012300000000002
 30
0.0
 10
-3.1824700000000004
 20
1.49041
 30
0.0
 10
-3.1824700000000004
 20
1.49041
 30
0.0
 10
-3.0427700000000004
 20
1.4726300000000001
 30
0.0
 10
-2.9081500000000005
 20
1.1779900000000001
 30
0.0
 10
-2.7862300000000002
 20
1.3761100000000002
 30
0.0
 10
-2.7862300000000002
 20
1.3761100000000002
 30
0.0
 10
-2.9411700000000001
 20
1.5386700000000002
 30
0.0
 10
-3.1850100000000001
 20
1.57169
 30
0.0
 10
-3.3907500000000002
 20
1.6047100000000001
 30
0.0
 10
-3.3907500000000002
 20
1.6047100000000001
 30
0.0
 10
-3.4059900000000001
 20
1.6859900000000001
 30
0.0
 10
-3.3475700000000002
 20
1.7342500000000001
 30
0.0
 10
-3.3196300000000001
 20
1.8002900000000002
 30
0.0
 10
-3.3196300000000001
 20
1.8002900000000002
 30
0.0
 10
-2.9640300000000002
 20
1.7342500000000001
 30
0.0
 10
-2.5754100000000002
 20
1.7850500000000002
 30
0.0
 10
-2.2299700000000002
 20
1.8485500000000001
 30
0.0
  0
SPLINE
  5
31
100
AcDbEntity
  8
Ebene 1
 62
     7
100
AcDbSpline
210
0.0
220
0.0
230
1.0
 70
     1
 71
     3
 72
   168
 73
   164
 74
     0
 42
0.0000000001
 43
0.0000000001
 40
0.0
 40
0.0
 40
0.0
 40
0.0
 40
0.024390243902439
 40
0.024390243902439
 40
0.024390243902439
 40
0.024390243902439
 40
0.0487804878048781
 40
0.0487804878048781
 40
0.0487804878048781
 40
0.0487804878048781
 40
0.0731707317073171
 40
0.0731707317073171
 40
0.0731707317073171
 40
0.0731707317073171
 40
0.0975609756097561
 40
0.0975609756097561
 40
0.0975609756097561
 40
0.0975609756097561
 40
0.1219512195121951
 40
0.1219512195121951
 40
0.1219512195121951
 40
0.1219512195121951
 40
0.1463414634146341
 40
0.1463414634146341
 40
0.1463414634146341
 40
0.1463414634146341
 40
0.1707317073170732
 40
0.1707317073170732
 40
0.1707317073170732
 40
0.1707317073170732
 40
0.1951219512195122
 40
0.1951219512195122
 40
0.1951219512195122
 40
0.1951219512195122
 40
0.2195121951219512
 40
0.2195121951219512
 40
0.2195121951219512
 40
0.2195121951219512
 40
0.2439024390243902
 40
0.2439024390243902
 40
0.2439024390243902
 40
0.2439024390243902
 40
0.2682926829268292
 40
0.2682926829268292
 40
0.2682926829268292
 40
0.2682926829268292
 40
0.2926829268292683
 40
0.2926829268292683
 40
0.2926829268292683
 40
0.2926829268292683
 40
0.3170731707317073
 40
0.3170731707317073
 40
0.3170731707317073
 40
0.3170731707317073
 40
0.3414634146341464
 40
0.3414634146341464
 40
0.3414634146341464
 40
0.3414634146341464
 40
0.3658536585365854
 40
0.3658536585365854
 40
0.3658536585365854
 40
0.3658536585365854
 40
0.3902439024390245
 40
0.3902439024390245
 40
0.3902439024390245
 40
0.3902439024390245
 40
0.4146341463414635
 40
0.4146341463414635
 40
0.4146341463414635
 40
0.4146341463414635
 40
0.4390243902439026
 40
0.4390243902439026
 40
0.4390243902439026
 40
0.4390243902439026
 40
0.4634146341463416
 40
0.4634146341463416
 40
0.4634146341463416
 40
0.4634146341463416
 40
0.4878048780487806
 40
0.4878048780487806
 40
0.4878048780487806
 40
0.4878048780487806
 40
0.5121951219512196
 40
0.5121951219512196
 40
0.5121951219512196
 40
0.5121951219512196
 40
0.5365853658536587
 40
0.5365853658536587
 40
0.5365853658536587
 40
0.5365853658536587
 40
0.5609756097560977
 40
0.5609756097560977
 40
0.5609756097560977
 40
0.5609756097560977
 40
0.5853658536585368
 40
0.5853658536585368
 40
0.5853658536585368
 40
0.5853658536585368
 40
0.6097560975609758
 40
0.6097560975609758
 40
0.6097560975609758
 40
0.6097560975609758
 40
0.6341463414634149
 40
0.6341463414634149
 40
0.6341463414634149
 40
0.6341463414634149
 40
0.6585365853658539
 40
0.6585365853658539
 40
0.6585365853658539
 40
0.6585365853658539
 40
0.682926829268293
 40
0.682926829268293
 40
0.682926829268293
 40
0.682926829268293
 40
0.707317073170732
 40
0.707317073170732
 40
0.707317073170732
 40
0.707317073170732
 40
0.7317073170731711
 40
0.7317073170731711
 40
0.7317073170731711
 40
0.7317073170731711
 40
0.7560975609756101
 40
0.7560975609756101
 40
0.7560975609756101
 40
0.7560975609756101
 40
0.7804878048780491
 40
0.7804878048780491
 40
0.7804878048780491
 40
0.7804878048780491
 40
0.8048780487804882
 40
0.8048780487804882
 40
0.8048780487804882
 40
0.8048780487804882
 40
0.8292682926829272
 40
0.8292682926829272
 40
0.8292682926829272
 40
0.8292682926829272
 40
0.8536585365853663
 40
0.8536585365853663
 40
0.8536585365853663
 40
0.8536585365853663
 40
0.8780487804878053
 40
0.8780487804878053
 40
0.8780487804878053
 40
0.8780487804878053
 40
0.9024390243902444
 40
0.9024390243902444
 40
0.9024390243902444
 40
0.9024390243902444
 40
0.9268292682926834
 40
0.9268292682926834
 40
0.9268292682926834
 40
0.9268292682926834
 40
0.9512195121951225
 40
0.9512195121951225
 40
0.9512195121951225
 40
0.9512195121951225
 40
0.9756097560975615
 40
0.9756097560975615
 40
0.9756097560975615
 40
0.9756097560975615
 40
1.0
 40
1.0
 40
1.0
 40
1.0
 10
0.28716
 20
1.18815
 30
0.0
 10
0.25414
 20
1.3100700000000001
 30
0.0
 10
0.21858
 20
1.4370700000000001
 30
0.0
 10
0.21858
 20
1.57169
 30
0.0
 10
0.21858
 20
1.57169
 30
0.0
 10
0.21858
 20
1.57169
 30
0.0
 10
0.21858
 20
1.7190100000000001
 30
0.0
 10
0.21858
 20
1.7190100000000001
 30
0.0
 10
0.21858
 20
1.7190100000000001
 30
0.0
 10
0.74182
 20
1.7190100000000001
 30
0.0
 10
0.4954400000000001
 20
0.9493900000000001
 30
0.0
 10
0.9196200000000001
 20
0.78683
 30
0.0
 10
0.9196200000000001
 20
0.78683
 30
0.0
 10
0.9196200000000001
 20
0.78683
 30
0.0
 10
0.7748400000000001
 20
1.0332100000000002
 30
0.0
 10
0.7748400000000001
 20
1.0332100000000002
 30
0.0
 10
0.7748400000000001
 20
1.0332100000000002
 30
0.0
 10
0.7748400000000001
 20
1.0332100000000002
 30
0.0
 10
0.7088000000000001
 20
1.49041
 30
0.0
 10
0.7088000000000001
 20
1.49041
 30
0.0
 10
0.7088000000000001
 20
1.49041
 30
0.0
 10
0.95264
 20
1.4573900000000002
 30
0.0
 10
1.1177400000000002
 20
1.2110100000000001
 30
0.0
 10
1.31332
 20
1.0814700000000002
 30
0.0
 10
1.31332
 20
1.0814700000000002
 30
0.0
 10
1.1837800000000001
 20
-0.17582
 30
0.0
 10
2.3115400000000004
 20
-1.41788
 30
0.0
 10
1.4606400000000002
 20
-2.60914
 30
0.0
 10
1.4606400000000002
 20
-2.60914
 30
0.0
 10
1.4606400000000002
 20
-2.60914
 30
0.0
 10
1.4276200000000001
 20
-2.8225000000000002
 30
0.0
 10
1.4276200000000001
 20
-2.8225000000000002
 30
0.0
 10
1.4276200000000001
 20
-2.8225000000000002
 30
0.0
 10
1.7705200000000001
 20
-2.3805400000000003
 30
0.0
 10
1.9991200000000002
 20
-1.7938000000000001
 30
0.0
 10
1.9356200000000001
 20
-1.1892800000000001
 30
0.0
 10
1.9356200000000001
 20
-1.1892800000000001
 30
0.0
 10
1.8035400000000001
 20
-0.4374400000000001
 30
0.0
 10
1.1837800000000001
 20
0.16707
 30
0.0
 10
1.3946000000000001
 20
1.0001900000000001
 30
0.0
 10
1.3946000000000001
 20
1.0001900000000001
 30
0.0
 10
1.4606400000000002
 20
1.0001900000000001
 30
0.0
 10
1.4936600000000002
 20
0.9671700000000001
 30
0.0
 10
1.5419200000000002
 20
0.93415
 30
0.0
 10
1.5419200000000002
 20
0.93415
 30
0.0
 10
1.5927200000000001
 20
0.9189100000000001
 30
0.0
 10
1.6232000000000002
 20
0.8858900000000001
 30
0.0
 10
1.65622
 20
0.85287
 30
0.0
 10
1.65622
 20
0.85287
 30
0.0
 10
1.7044800000000002
 20
0.37789
 30
0.0
 10
2.0169000000000001
 20
-0.01072
 30
0.0
 10
2.3115400000000004
 20
-0.3714
 30
0.0
 10
2.3115400000000004
 20
-0.3714
 30
0.0
 10
2.4410800000000004
 20
-0.9759200000000001
 30
0.0
 10
2.8500200000000002
 20
-1.49916
 30
0.0
 10
2.8322400000000001
 20
-2.1214600000000003
 30
0.0
 10
2.8322400000000001
 20
-2.1214600000000003
 30
0.0
 10
2.9313000000000002
 20
-1.7430000000000001
 30
0.0
 10
2.7357200000000002
 20
-1.3518400000000002
 30
0.0
 10
2.6036400000000004
 20
-1.0089400000000002
 30
0.0
 10
2.6036400000000004
 20
-1.0089400000000002
 30
0.0
 10
3.1116400000000004
 20
-1.5626600000000002
 30
0.0
 10
3.2107000000000001
 20
-2.6929600000000002
 30
0.0
 10
2.4741000000000004
 20
-3.1171400000000005
 30
0.0
 10
2.4741000000000004
 20
-3.1171400000000005
 30
0.0
 10
2.6036400000000004
 20
-2.6929600000000002
 30
0.0
 10
2.63666
 20
-2.2027400000000004
 30
0.0
 10
2.42584
 20
-1.7938000000000001
 30
0.0
 10
2.42584
 20
-1.7938000000000001
 30
0.0
 10
2.4080600000000003
 20
-1.7607800000000002
 30
0.0
 10
2.37758
 20
-1.7607800000000002
 30
0.0
 10
2.37758
 20
-1.7938000000000001
 30
0.0
 10
2.37758
 20
-1.7938000000000001
 30
0.0
 10
2.5223600000000004
 20
-2.1519400000000002
 30
0.0
 10
2.5884
 20
-2.5939000000000001
 30
0.0
 10
2.3928200000000004
 20
-2.9545800000000004
 30
0.0
 10
2.3928200000000004
 20
-2.9545800000000004
 30
0.0
 10
1.7552800000000002
 20
-3.4270200000000002
 30
0.0
 10
0.9856600000000001
 20
-4.0493200000000007
 30
0.0
 10
1.3311000000000002
 20
-4.9307000000000007
 30
0.0
 10
1.3311000000000002
 20
-4.9307000000000007
 30
0.0
 10
1.2472800000000002
 20
-4.9154600000000004
 30
0.0
 10
1.1660000000000001
 20
-4.8672000000000004
 30
0.0
 10
1.0847200000000001
 20
-4.8164000000000007
 30
0.0
 10
1.0847200000000001
 20
-4.8164000000000007
 30
0.0
 10
0.78246
 20
-4.2550600000000003
 30
0.0
 10
1.0263
 20
-3.6022800000000004
 30
0.0
 10
1.4936600000000002
 20
-3.2212800000000001
 30
0.0
 10
1.4936600000000002
 20
-3.2212800000000001
 30
0.0
 10
1.8264000000000002
 20
-2.9495000000000005
 30
0.0
 10
1.6105
 20
-3.0460200000000004
 30
0.0
 10
1.35904
 20
-3.2466800000000005
 30
0.0
 10
1.35904
 20
-3.2466800000000005
 30
0.0
 10
1.19648
 20
-3.3762200000000004
 30
0.0
 10
1.0923400000000001
 20
-3.5616400000000001
 30
0.0
 10
0.9856600000000001
 20
-3.7394400000000001
 30
0.0
 10
0.9856600000000001
 20
-3.7394400000000001
 30
0.0
 10
0.9043800000000001
 20
-3.9172400000000005
 30
0.0
 10
0.8383400000000001
 20
-4.1128200000000001
 30
0.0
 10
0.8561200000000001
 20
-4.3261799999999999
 30
0.0
 10
0.8561200000000001
 20
-4.3261799999999999
 30
0.0
 10
0.8561200000000001
 20
-4.4074600000000004
 30
0.0
 10
0.8561200000000001
 20
-4.5065200000000001
 30
0.0
 10
0.88914
 20
-4.5878000000000005
 30
0.0
 10
0.88914
 20
-4.5878000000000005
 30
0.0
 10
0.6122800000000001
 20
-4.3744400000000008
 30
0.0
 10
0.38114
 20
-4.0010600000000007
 30
0.0
 10
0.3659
 20
-3.6403800000000004
 30
0.0
 10
0.3659
 20
-3.6403800000000004
 30
0.0
 10
0.4802
 20
-3.3279600000000005
 30
0.0
 10
0.66054
 20
-3.0206200000000001
 30
0.0
 10
0.64276
 20
-2.6929600000000002
 30
0.0
 10
0.64276
 20
-2.6929600000000002
 30
0.0
 10
0.64276
 20
-2.6929600000000002
 30
0.0
 10
0.5945
 20
-2.8733000000000004
 30
0.0
 10
0.5945
 20
-2.8733000000000004
 30
0.0
 10
0.5945
 20
-2.8733000000000004
 30
0.0
 10
0.52846
 20
-3.0688800000000001
 30
0.0
 10
0.4319400000000001
 20
-3.2466800000000005
 30
0.0
 10
0.31764
 20
-3.4270200000000002
 30
0.0
 10
0.31764
 20
-3.4270200000000002
 30
0.0
 10
0.18556
 20
-3.6226000000000003
 30
0.0
 10
0.10428
 20
-3.8867600000000002
 30
0.0
 10
0.17032
 20
-4.1128200000000001
 30
0.0
 10
0.17032
 20
-4.1128200000000001
 30
0.0
 10
-0.02525
 20
-3.9172400000000005
 30
0.0
 10
-0.15479
 20
-3.6073600000000003
 30
0.0
 10
-0.10653
 20
-3.3279600000000005
 30
0.0
 10
-0.10653
 20
-3.3279600000000005
 30
0.0
 10
-0.04049
 20
-2.9698200000000003
 30
0.0
 10
0.2516000000000001
 20
-2.7259800000000003
 30
0.0
 10
0.44718
 20
-2.4313400000000001
 30
0.0
 10
0.44718
 20
-2.4313400000000001
 30
0.0
 10
0.44718
 20
-2.4313400000000001
 30
0.0
 10
0.3659
 20
-2.5126200000000001
 30
0.0
 10
0.3659
 20
-2.5126200000000001
 30
0.0
 10
0.3659
 20
-2.5126200000000001
 30
0.0
 10
0.1373
 20
-2.7564600000000001
 30
0.0
 10
-0.12177
 20
-2.9876
 30
0.0
 10
-0.26909
 20
-3.2797000000000001
 30
0.0
 10
-0.26909
 20
-3.2797000000000001
 30
0.0
 10
-0.25385
 20
-2.52786
 30
0.0
 10
0.4954400000000001
 20
-2.0376400000000001
 30
0.0
 10
0.7570600000000001
 20
-1.41788
 30
0.0
 10
0.7570600000000001
 20
-1.41788
 30
0.0
 10
0.66054
 20
-1.4813800000000001
 30
0.0
 10
0.4954400000000001
 20
-1.6947400000000001
 30
0.0
 10
0.38114
 20
-1.6464800000000002
 30
0.0
 10
0.38114
 20
-1.6464800000000002
 30
0.0
 10
1.4606400000000002
 20
-0.92766
 30
0.0
 10
0.6275200000000001
 20
0.36011
 30
0.0
 10
0.05348
 20
1.0332100000000002
 30
0.0
 10
0.05348
 20
1.0332100000000002
 30
0.0
 10
-0.02525
 20
1.27705
 30
0.0
 10
-0.18781
 20
1.6047100000000001
 30
0.0
 10
-0.07351
 20
1.8485500000000001
 30
0.0
 10
-0.07351
 20
1.8485500000000001
 30
0.0
 10
0.22112
 20
1.7748900000000001
 30
0.0
 10
0.11444
 20
1.3659500000000002
 30
0.0
 10
0.2617600000000001
 20
1.1322700000000001
 30
0.0
 10
0.2617600000000001
 20
1.1322700000000001
 30
0.0
 10
0.37098
 20
0.95701
 30
0.0
 10
0.32272
 20
1.0509900000000001
 30
0.0
 10
0.28716
 20
1.18815
 30
0.0
  0
SPLINE
  5
32
100
AcDbEntity
  8
Ebene 1
 62
     7
100
AcDbSpline
210
0.0
220
0.0
230
1.0
 70
     1
 71
     3
 72
    12
 73
     8
 74
     0
 42
0.0000000001
 43
0.0000000001
 40
0.0
 40
0.0
 40
0.0
 40
0.0
 40
0.5
 40
0.5
 40
0.5
 40
0.5
 40
1.0
 40
1.0
 40
1.0
 40
1.0
 10
-2.52461
 20
1.3761100000000002
 30
0.0
 10
-2.4357100000000003
 20
1.3761100000000002
 30
0.0
 10
-2.6008100000000001
 20
1.22879
 30
0.0
 10
-2.5576300000000001
 20
1.3253100000000002
 30
0.0
 10
-2.5576300000000001
 20
1.3253100000000002
 30
0.0
 10
-2.5576300000000001
 20
1.3253100000000002
 30
0.0
 10
-2.52461
 20
1.3761100000000002
 30
0.0
 10
-2.52461
 20
1.3761100000000002
 30
0.0
  0
SPLINE
  5
33
100
AcDbEntity
  8
Ebene 1
100
AcDbSpline
210
0.0
220
0.0
230
1.0
 70
     1
 71
     3
 72
    48
 73
    44
 74
     0
 42
0.0000000001
 43
0.0000000001
 40
0.0
 40
0.0
 40
0.0
 40
0.0
 40
0.0909090909090909
 40
0.0909090909090909
 40
0.0909090909090909
 40
0.0909090909090909
 40
0.1818181818181818
 40
0.1818181818181818
 40
0.1818181818181818
 40
0.1818181818181818
 40
0.2727272727272727
 40
0.2727272727272727
 40
0.2727272727272727
 40
0.2727272727272727
 40
0.3636363636363637
 40
0.3636363636363637
 40
0.3636363636363637
 40
0.3636363636363637
 40
0.4545454545454546
 40
0.4545454545454546
 40
0.4545454545454546
 40
0.4545454545454546
 40
0.5454545454545455
 40
0.5454545454545455
 40
0.5454545454545455
 40
0.5454545454545455
 40
0.6363636363636365
 40
0.6363636363636365
 40
0.6363636363636365
 40
0.6363636363636365
 40
0.7272727272727274
 40
0.7272727272727274
 40
0.7272727272727274
 40
0.7272727272727274
 40
0.8181818181818183
 40
0.8181818181818183
 40
0.8181818181818183
 40
0.8181818181818183
 40
0.9090909090909093
 40
0.9090909090909093
 40
0.9090909090909093
 40
0.9090909090909093
 40
1.0
 40
1.0
 40
1.0
 40
1.0
 10
-1.00569
 20
1.2922900000000002
 30
0.0
 10
-0.9066300000000001
 20
1.27705
 30
0.0
 10
-0.75931
 20
1.3430900000000001
 30
0.0
 10
-0.69581
 20
1.2440300000000002
 30
0.0
 10
-0.69581
 20
1.2440300000000002
 30
0.0
 10
-0.69581
 20
1.2440300000000002
 30
0.0
 10
-0.97267
 20
1.1779900000000001
 30
0.0
 10
-0.97267
 20
1.1779900000000001
 30
0.0
 10
-0.97267
 20
1.1779900000000001
 30
0.0
 10
-0.74407
 20
1.0332100000000002
 30
0.0
 10
-0.4824500000000001
 20
0.7385700000000001
 30
0.0
 10
-0.26909
 20
0.5404500000000001
 30
0.0
 10
-0.26909
 20
0.5404500000000001
 30
0.0
 10
-0.36815
 20
0.47695
 30
0.0
 10
-0.4494300000000001
 20
0.6725300000000001
 30
0.0
 10
-0.54849
 20
0.6877700000000001
 30
0.0
 10
-0.54849
 20
0.6877700000000001
 30
0.0
 10
-0.54849
 20
0.6877700000000001
 30
0.0
 10
-0.9396500000000001
 20
0.42615
 30
0.0
 10
-0.9396500000000001
 20
0.42615
 30
0.0
 10
-0.9396500000000001
 20
0.42615
 30
0.0
 10
-1.00569
 20
0.34487
 30
0.0
 10
-1.0691900000000001
 20
0.24835
 30
0.0
 10
-1.16825
 20
0.20009
 30
0.0
 10
-1.16825
 20
0.20009
 30
0.0
 10
-1.16825
 20
0.20009
 30
0.0
 10
-1.2673100000000002
 20
0.11627
 30
0.0
 10
-1.2673100000000002
 20
0.11627
 30
0.0
 10
-1.2673100000000002
 20
0.11627
 30
0.0
 10
-1.2342900000000001
 20
0.05277
 30
0.0
 10
-1.1352300000000002
 20
0.14929
 30
0.0
 10
-1.08697
 20
0.08325
 30
0.0
 10
-1.08697
 20
0.08325
 30
0.0
 10
-1.6584700000000001
 20
-0.19106
 30
0.0
 10
-1.9200900000000001
 20
0.5404500000000001
 30
0.0
 10
-2.3722100000000004
 20
0.6242700000000001
 30
0.0
 10
-2.3722100000000004
 20
0.6242700000000001
 30
0.0
 10
-2.3722100000000004
 20
0.6242700000000001
 30
0.0
 10
-2.4712700000000001
 20
0.8020700000000001
 30
0.0
 10
-2.4712700000000001
 20
0.8020700000000001
 30
0.0
 10
-2.4712700000000001
 20
0.8020700000000001
 30
0.0
 10
-1.9200900000000001
 20
0.39313
 30
0.0
 10
-1.4959100000000001
 20
1.1779900000000001
 30
0.0
 10
-1.00569
 20
1.2922900000000002
 30
0.0
  0
SPLINE
  5
34
100
AcDbEntity
  8
Ebene 1
 62
     7
100
AcDbSpline
210
0.0
220
0.0
230
1.0
 70
     1
 71
     3
 72
    12
 73
     8
 74
     0
 42
0.0000000001
 43
0.0000000001
 40
0.0
 40
0.0
 40
0.0
 40
0.0
 40
0.5
 40
0.5
 40
0.5
 40
0.5
 40
1.0
 40
1.0
 40
1.0
 40
1.0
 10
-2.6084300000000002
 20
1.27705
 30
0.0
 10
-2.56779
 20
1.2440300000000002
 30
0.0
 10
-2.6516100000000002
 20
1.1779900000000001
 30
0.0
 10
-2.6846300000000003
 20
1.1779900000000001
 30
0.0
 10
-2.6846300000000003
 20
1.1779900000000001
 30
0.0
 10
-2.6795500000000003
 20
1.22879
 30
0.0
 10
-2.6338300000000001
 20
1.2440300000000002
 30
0.0
 10
-2.6084300000000002
 20
1.27705
 30
0.0
  0
SPLINE
  5
35
100
AcDbEntity
  8
Ebene 1
 62
     7
100
AcDbSpline
210
0.0
220
0.0
230
1.0
 70
     1
 71
     3
 72
    28
 73
    24
 74
     0
 42
0.0000000001
 43
0.0000000001
 40
0.0
 40
0.0
 40
0.0
 40
0.0
 40
0.1666666666666667
 40
0.1666666666666667
 40
0.1666666666666667
 40
0.1666666666666667
 40
0.3333333333333333
 40
0.3333333333333333
 40
0.3333333333333333
 40
0.3333333333333333
 40
0.5
 40
0.5
 40
0.5
 40
0.5
 40
0.6666666666666666
 40
0.6666666666666666
 40
0.6666666666666666
 40
0.6666666666666666
 40
0.8333333333333333
 40
0.8333333333333333
 40
0.8333333333333333
 40
0.8333333333333333
 40
1.0
 40
1.0
 40
1.0
 40
1.0
 10
-3.2764500000000001
 20
1.0484500000000001
 30
0.0
 10
-3.0122900000000001
 20
1.0967100000000001
 30
0.0
 10
-2.8776700000000002
 20
0.8198500000000001
 30
0.0
 10
-2.8065500000000001
 20
0.6242700000000001
 30
0.0
 10
-2.8065500000000001
 20
0.6242700000000001
 30
0.0
 10
-2.8624300000000003
 20
0.35503
 30
0.0
 10
-3.0503900000000002
 20
0.05277
 30
0.0
 10
-3.3374100000000002
 20
0.00197
 30
0.0
 10
-3.3374100000000002
 20
0.00197
 30
0.0
 10
-3.3729700000000005
 20
0.06801
 30
0.0
 10
-3.2358100000000003
 20
0.08325
 30
0.0
 10
-3.2053300000000005
 20
0.14929
 30
0.0
 10
-3.2053300000000005
 20
0.14929
 30
0.0
 10
-2.8624300000000003
 20
0.32963
 30
0.0
 10
-2.9183100000000004
 20
0.72079
 30
0.0
 10
-3.1672300000000004
 20
0.9493900000000001
 30
0.0
 10
-3.1672300000000004
 20
0.9493900000000001
 30
0.0
 10
-3.3348700000000004
 20
0.9824100000000001
 30
0.0
 10
-3.4796500000000004
 20
0.8858900000000001
 30
0.0
 10
-3.6142700000000003
 20
0.8198500000000001
 30
0.0
 10
-3.6142700000000003
 20
0.8198500000000001
 30
0.0
 10
-3.5406100000000005
 20
0.9493900000000001
 30
0.0
 10
-3.3907500000000002
 20
1.0001900000000001
 30
0.0
 10
-3.2764500000000001
 20
1.0484500000000001
 30
0.0
  0
SPLINE
  5
36
100
AcDbEntity
  8
Ebene 1
 62
     7
100
AcDbSpline
210
0.0
220
0.0
230
1.0
 70
     1
 71
     3
 72
    16
 73
    12
 74
     0
 42
0.0000000001
 43
0.0000000001
 40
0.0
 40
0.0
 40
0.0
 40
0.0
 40
0.3333333333333333
 40
0.3333333333333333
 40
0.3333333333333333
 40
0.3333333333333333
 40
0.6666666666666666
 40
0.6666666666666666
 40
0.6666666666666666
 40
0.6666666666666666
 40
1.0
 40
1.0
 40
1.0
 40
1.0
 10
-3.3272500000000003
 20
0.8020700000000001
 30
0.0
 10
-3.1037300000000001
 20
0.6242700000000001
 30
0.0
 10
-3.0961100000000004
 20
0.23057
 30
0.0
 10
-3.4085300000000003
 20
0.13405
 30
0.0
 10
-3.4085300000000003
 20
0.13405
 30
0.0
 10
-3.5279100000000003
 20
0.29661
 30
0.0
 10
-3.6193500000000003
 20
0.5074300000000001
 30
0.0
 10
-3.5837900000000005
 20
0.72079
 30
0.0
 10
-3.5837900000000005
 20
0.72079
 30
0.0
 10
-3.5837900000000005
 20
0.72079
 30
0.0
 10
-3.3272500000000003
 20
0.8020700000000001
 30
0.0
 10
-3.3272500000000003
 20
0.8020700000000001
 30
0.0
  0
SPLINE
  5
37
100
AcDbEntity
  8
Ebene 1
 62
     7
100
AcDbSpline
210
0.0
220
0.0
230
1.0
 70
     1
 71
     3
 72
    12
 73
     8
 74
     0
 42
0.0000000001
 43
0.0000000001
 40
0.0
 40
0.0
 40
0.0
 40
0.0
 40
0.5
 40
0.5
 40
0.5
 40
0.5
 40
1.0
 40
1.0
 40
1.0
 40
1.0
 10
-1.3968500000000001
 20
0.63951
 30
0.0
 10
-1.3638300000000001
 20
0.6064900000000001
 30
0.0
 10
-1.5111500000000002
 20
0.5252100000000001
 30
0.0
 10
-1.54417
 20
0.57347
 30
0.0
 10
-1.54417
 20
0.57347
 30
0.0
 10
-1.54417
 20
0.57347
 30
0.0
 10
-1.3968500000000001
 20
0.63951
 30
0.0
 10
-1.3968500000000001
 20
0.63951
 30
0.0
  0
SPLINE
  5
38
100
AcDbEntity
  8
Ebene 1
100
AcDbSpline
210
0.0
220
0.0
230
1.0
 70
     1
 71
     3
 72
    28
 73
    24
 74
     0
 42
0.0000000001
 43
0.0000000001
 40
0.0
 40
0.0
 40
0.0
 40
0.0
 40
0.1666666666666667
 40
0.1666666666666667
 40
0.1666666666666667
 40
0.1666666666666667
 40
0.3333333333333333
 40
0.3333333333333333
 40
0.3333333333333333
 40
0.3333333333333333
 40
0.5
 40
0.5
 40
0.5
 40
0.5
 40
0.6666666666666666
 40
0.6666666666666666
 40
0.6666666666666666
 40
0.6666666666666666
 40
0.8333333333333333
 40
0.8333333333333333
 40
0.8333333333333333
 40
0.8333333333333333
 40
1.0
 40
1.0
 40
1.0
 40
1.0
 10
0.8383400000000001
 20
0.4109100000000001
 30
0.0
 10
0.8383400000000001
 20
0.4109100000000001
 30
0.0
 10
0.9196200000000001
 20
0.4109100000000001
 30
0.0
 10
0.9196200000000001
 20
0.4109100000000001
 30
0.0
 10
0.9196200000000001
 20
0.4109100000000001
 30
0.0
 10
0.9043800000000001
 20
0.36011
 30
0.0
 10
0.9196200000000001
 20
0.31185
 30
0.0
 10
0.9374000000000001
 20
0.2635900000000001
 30
0.0
 10
0.9374000000000001
 20
0.2635900000000001
 30
0.0
 10
1.2803000000000002
 20
-0.12502
 30
0.0
 10
1.4123800000000002
 20
-0.7473200000000001
 30
0.0
 10
1.15076
 20
-1.2223000000000002
 30
0.0
 10
1.15076
 20
-1.2223000000000002
 30
0.0
 10
1.0364600000000002
 20
-1.3518400000000002
 30
0.0
 10
1.0034400000000001
 20
-1.5804400000000001
 30
0.0
 10
0.8383400000000001
 20
-1.6617200000000001
 30
0.0
 10
0.8383400000000001
 20
-1.6617200000000001
 30
0.0
 10
1.2803000000000002
 20
-1.12324
 30
0.0
 10
1.4123800000000002
 20
-0.29012
 30
0.0
 10
0.88914
 20
0.24835
 30
0.0
 10
0.88914
 20
0.24835
 30
0.0
 10
0.87136
 20
0.31185
 30
0.0
 10
0.8383400000000001
 20
0.34487
 30
0.0
 10
0.8383400000000001
 20
0.4109100000000001
 30
0.0
  0
SPLINE
  5
39
100
AcDbEntity
  8
Ebene 1
 62
     7
100
AcDbSpline
210
0.0
220
0.0
230
1.0
 70
     1
 71
     3
 72
   144
 73
   140
 74
     0
 42
0.0000000001
 43
0.0000000001
 40
0.0
 40
0.0
 40
0.0
 40
0.0
 40
0.0285714285714286
 40
0.0285714285714286
 40
0.0285714285714286
 40
0.0285714285714286
 40
0.0571428571428571
 40
0.0571428571428571
 40
0.0571428571428571
 40
0.0571428571428571
 40
0.0857142857142857
 40
0.0857142857142857
 40
0.0857142857142857
 40
0.0857142857142857
 40
0.1142857142857143
 40
0.1142857142857143
 40
0.1142857142857143
 40
0.1142857142857143
 40
0.1428571428571429
 40
0.1428571428571429
 40
0.1428571428571429
 40
0.1428571428571429
 40
0.1714285714285714
 40
0.1714285714285714
 40
0.1714285714285714
 40
0.1714285714285714
 40
0.2
 40
0.2
 40
0.2
 40
0.2
 40
0.2285714285714286
 40
0.2285714285714286
 40
0.2285714285714286
 40
0.2285714285714286
 40
0.2571428571428572
 40
0.2571428571428572
 40
0.2571428571428572
 40
0.2571428571428572
 40
0.2857142857142858
 40
0.2857142857142858
 40
0.2857142857142858
 40
0.2857142857142858
 40
0.3142857142857143
 40
0.3142857142857143
 40
0.3142857142857143
 40
0.3142857142857143
 40
0.3428571428571429
 40
0.3428571428571429
 40
0.3428571428571429
 40
0.3428571428571429
 40
0.3714285714285715
 40
0.3714285714285715
 40
0.3714285714285715
 40
0.3714285714285715
 40
0.4000000000000001
 40
0.4000000000000001
 40
0.4000000000000001
 40
0.4000000000000001
 40
0.4285714285714287
 40
0.4285714285714287
 40
0.4285714285714287
 40
0.4285714285714287
 40
0.4571428571428572
 40
0.4571428571428572
 40
0.4571428571428572
 40
0.4571428571428572
 40
0.4857142857142858
 40
0.4857142857142858
 40
0.4857142857142858
 40
0.4857142857142858
 40
0.5142857142857144
 40
0.5142857142857144
 40
0.5142857142857144
 40
0.5142857142857144
 40
0.5428571428571429
 40
0.5428571428571429
 40
0.5428571428571429
 40
0.5428571428571429
 40
0.5714285714285715
 40
0.5714285714285715
 40
0.5714285714285715
 40
0.5714285714285715
 40
0.6000000000000001
 40
0.6000000000000001
 40
0.6000000000000001
 40
0.6000000000000001
 40
0.6285714285714287
 40
0.6285714285714287
 40
0.6285714285714287
 40
0.6285714285714287
 40
0.6571428571428573
 40
0.6571428571428573
 40
0.6571428571428573
 40
0.6571428571428573
 40
0.6857142857142858
 40
0.6857142857142858
 40
0.6857142857142858
 40
0.6857142857142858
 40
0.7142857142857144
 40
0.7142857142857144
 40
0.7142857142857144
 40
0.7142857142857144
 40
0.742857142857143
 40
0.742857142857143
 40
0.742857142857143
 40
0.742857142857143
 40
0.7714285714285716
 40
0.7714285714285716
 40
0.7714285714285716
 40
0.7714285714285716
 40
0.8000000000000002
 40
0.8000000000000002
 40
0.8000000000000002
 40
0.8000000000000002
 40
0.8285714285714287
 40
0.8285714285714287
 40
0.8285714285714287
 40
0.8285714285714287
 40
0.8571428571428573
 40
0.8571428571428573
 40
0.8571428571428573
 40
0.8571428571428573
 40
0.8857142857142859
 40
0.8857142857142859
 40
0.8857142857142859
 40
0.8857142857142859
 40
0.9142857142857145
 40
0.9142857142857145
 40
0.9142857142857145
 40
0.9142857142857145
 40
0.9428571428571431
 40
0.9428571428571431
 40
0.9428571428571431
 40
0.9428571428571431
 40
0.9714285714285716
 40
0.9714285714285716
 40
0.9714285714285716
 40
0.9714285714285716
 40
1.0
 40
1.0
 40
1.0
 40
1.0
 10
0.14238
 20
0.11119
 30
0.0
 10
0.18556
 20
0.17215
 30
0.0
 10
0.34304
 20
0.22295
 30
0.0
 10
0.33288
 20
0.31185
 30
0.0
 10
0.33288
 20
0.31185
 30
0.0
 10
0.33288
 20
0.31185
 30
0.0
 10
0.44718
 20
0.16707
 30
0.0
 10
0.44718
 20
0.16707
 30
0.0
 10
0.44718
 20
0.16707
 30
0.0
 10
0.23382
 20
-0.3714
 30
0.0
 10
0.4802
 20
-0.9606800000000001
 30
0.0
 10
0.3659
 20
-1.49916
 30
0.0
 10
0.3659
 20
-1.49916
 30
0.0
 10
-0.13701
 20
-1.9741400000000002
 30
0.0
 10
-0.49769
 20
-2.4338800000000003
 30
0.0
 10
-0.8380500000000001
 20
-3.0231600000000003
 30
0.0
 10
-0.8380500000000001
 20
-3.0231600000000003
 30
0.0
 10
-1.2800100000000001
 20
-3.4956000000000005
 30
0.0
 10
-2.1004300000000002
 20
-2.8733000000000004
 30
0.0
 10
-2.2960100000000003
 20
-3.1831800000000001
 30
0.0
 10
-2.2960100000000003
 20
-3.1831800000000001
 30
0.0
 10
-2.2960100000000003
 20
-3.1831800000000001
 30
0.0
 10
-2.5703300000000002
 20
-3.1831800000000001
 30
0.0
 10
-2.5703300000000002
 20
-3.1831800000000001
 30
0.0
 10
-2.5703300000000002
 20
-3.1831800000000001
 30
0.0
 10
-2.6820900000000001
 20
-3.0358600000000004
 30
0.0
 10
-2.7989300000000004
 20
-2.1697200000000003
 30
0.0
 10
-2.6566900000000002
 20
-2.4948400000000004
 30
0.0
 10
-2.6566900000000002
 20
-2.4948400000000004
 30
0.0
 10
-2.6566900000000002
 20
-2.4948400000000004
 30
0.0
 10
-2.6236700000000002
 20
-2.7082000000000002
 30
0.0
 10
-2.6236700000000002
 20
-2.7082000000000002
 30
0.0
 10
-2.6236700000000002
 20
-2.7082000000000002
 30
0.0
 10
-2.4915900000000004
 20
-2.9876
 30
0.0
 10
-2.7024100000000004
 20
-2.4313400000000001
 30
0.0
 10
-2.5423900000000001
 20
-2.4313400000000001
 30
0.0
 10
-2.5423900000000001
 20
-2.4313400000000001
 30
0.0
 10
-2.4077700000000002
 20
-2.26878
 30
0.0
 10
-2.48143
 20
-2.7564600000000001
 30
0.0
 10
-2.39507
 20
-2.8555200000000003
 30
0.0
 10
-2.39507
 20
-2.8555200000000003
 30
0.0
 10
-2.35697
 20
-2.7564600000000001
 30
0.0
 10
-2.5017500000000004
 20
-2.2992600000000003
 30
0.0
 10
-2.2807700000000004
 20
-2.4465800000000004
 30
0.0
 10
-2.2807700000000004
 20
-2.4465800000000004
 30
0.0
 10
-2.2807700000000004
 20
-2.7742400000000003
 30
0.0
 10
-2.1664700000000003
 20
-2.8555200000000003
 30
0.0
 10
-2.2299700000000002
 20
-2.4796
 30
0.0
 10
-2.2299700000000002
 20
-2.4796
 30
0.0
 10
-2.1664700000000003
 20
-2.5126200000000001
 30
0.0
 10
-2.1334500000000003
 20
-2.5786600000000002
 30
0.0
 10
-2.1486900000000002
 20
-2.6421600000000001
 30
0.0
 10
-2.1486900000000002
 20
-2.6421600000000001
 30
0.0
 10
-2.1486900000000002
 20
-2.6421600000000001
 30
0.0
 10
-2.1486900000000002
 20
-2.7742400000000003
 30
0.0
 10
-2.1486900000000002
 20
-2.7742400000000003
 30
0.0
 10
-2.1486900000000002
 20
-2.7742400000000003
 30
0.0
 10
-1.9861300000000002
 20
-2.8555200000000003
 30
0.0
 10
-2.2299700000000002
 20
-2.1849600000000002
 30
0.0
 10
-1.9861300000000002
 20
-2.4618200000000003
 30
0.0
 10
-1.9861300000000002
 20
-2.4618200000000003
 30
0.0
 10
-1.9861300000000002
 20
-2.4618200000000003
 30
0.0
 10
-1.8388100000000001
 20
-2.4465800000000004
 30
0.0
 10
-1.8388100000000001
 20
-2.4465800000000004
 30
0.0
 10
-1.8388100000000001
 20
-2.4465800000000004
 30
0.0
 10
-1.8388100000000001
 20
-2.4465800000000004
 30
0.0
 10
-1.8235700000000001
 20
-2.26878
 30
0.0
 10
-1.8235700000000001
 20
-2.26878
 30
0.0
 10
-1.8235700000000001
 20
-2.26878
 30
0.0
 10
-1.7245100000000002
 20
-2.3653000000000004
 30
0.0
 10
-1.8540500000000002
 20
-2.60914
 30
0.0
 10
-1.7397500000000001
 20
-2.7259800000000003
 30
0.0
 10
-1.7397500000000001
 20
-2.7259800000000003
 30
0.0
 10
-1.6762500000000002
 20
-2.60914
 30
0.0
 10
-1.8388100000000001
 20
-2.2992600000000003
 30
0.0
 10
-1.54417
 20
-2.31704
 30
0.0
 10
-1.54417
 20
-2.31704
 30
0.0
 10
-1.54417
 20
-2.4135600000000004
 30
0.0
 10
-1.6102100000000001
 20
-2.7259800000000003
 30
0.0
 10
-1.4781300000000002
 20
-2.6599400000000002
 30
0.0
 10
-1.4781300000000002
 20
-2.6599400000000002
 30
0.0
 10
-1.6432300000000002
 20
-2.3322800000000004
 30
0.0
 10
-1.29779
 20
-2.1367000000000003
 30
0.0
 10
-1.2165100000000002
 20
-2.4618200000000003
 30
0.0
 10
-1.2165100000000002
 20
-2.4618200000000003
 30
0.0
 10
-1.1555500000000001
 20
-2.4796
 30
0.0
 10
-1.21397
 20
-2.3475200000000003
 30
0.0
 10
-1.20381
 20
-2.2891000000000004
 30
0.0
 10
-1.20381
 20
-2.2891000000000004
 30
0.0
 10
-1.1885700000000001
 20
-2.2154400000000001
 30
0.0
 10
-1.1809500000000002
 20
-2.1341600000000001
 30
0.0
 10
-1.1352300000000002
 20
-2.0706600000000002
 30
0.0
 10
-1.1352300000000002
 20
-2.0706600000000002
 30
0.0
 10
-1.0691900000000001
 20
-2.3475200000000003
 30
0.0
 10
-0.9879100000000001
 20
-2.0046200000000001
 30
0.0
 10
-0.9244100000000001
 20
-1.9081000000000001
 30
0.0
 10
-0.9244100000000001
 20
-1.9081000000000001
 30
0.0
 10
-0.67803
 20
-1.9081000000000001
 30
0.0
 10
-1.00569
 20
-2.1697200000000003
 30
0.0
 10
-0.9396500000000001
 20
-2.31704
 30
0.0
 10
-0.9396500000000001
 20
-2.31704
 30
0.0
 10
-0.8913900000000001
 20
-2.2179800000000003
 30
0.0
 10
-0.75931
 20
-1.9081000000000001
 30
0.0
 10
-0.61199
 20
-2.0376400000000001
 30
0.0
 10
-0.61199
 20
-2.0376400000000001
 30
0.0
 10
-0.61199
 20
-2.0376400000000001
 30
0.0
 10
-0.69581
 20
-2.3653000000000004
 30
0.0
 10
-0.69581
 20
-2.3653000000000004
 30
0.0
 10
-0.69581
 20
-2.3653000000000004
 30
0.0
 10
-0.46467
 20
-2.0376400000000001
 30
0.0
 10
-0.23607
 20
-1.4661400000000002
 30
0.0
 10
-0.4164100000000001
 20
-1.12324
 30
0.0
 10
-0.4164100000000001
 20
-1.12324
 30
0.0
 10
-0.4824500000000001
 20
-1.3848600000000002
 30
0.0
 10
-0.46467
 20
-1.7760200000000002
 30
0.0
 10
-0.75931
 20
-1.92334
 30
0.0
 10
-0.75931
 20
-1.92334
 30
0.0
 10
-0.36815
 20
-1.5321800000000001
 30
0.0
 10
-0.5789700000000001
 20
-0.9429000000000001
 30
0.0
 10
-0.59675
 20
-0.4857
 30
0.0
 10
-0.59675
 20
-0.4857
 30
0.0
 10
-0.5154700000000001
 20
-0.38664
 30
0.0
 10
-0.5154700000000001
 20
-0.53396
 30
0.0
 10
-0.5154700000000001
 20
-0.6000000000000001
 30
0.0
 10
-0.5154700000000001
 20
-0.6000000000000001
 30
0.0
 10
-0.5154700000000001
 20
-0.6000000000000001
 30
0.0
 10
-0.49769
 20
-0.76256
 30
0.0
 10
-0.49769
 20
-0.76256
 30
0.0
 10
-0.49769
 20
-0.76256
 30
0.0
 10
-0.43165
 20
-1.2553200000000002
 30
0.0
 10
-0.46467
 20
-0.12502
 30
0.0
 10
-0.35037
 20
-0.47046
 30
0.0
 10
-0.35037
 20
-0.47046
 30
0.0
 10
-0.4494300000000001
 20
-0.7473200000000001
 30
0.0
 10
-0.17003
 20
-1.4026400000000001
 30
0.0
 10
-0.3021100000000001
 20
-0.8286000000000001
 30
0.0
 10
-0.3021100000000001
 20
-0.8286000000000001
 30
0.0
 10
0.30494
 20
-0.9606800000000001
 30
0.0
 10
0.1246
 20
0.08325
 30
0.0
 10
0.14238
 20
0.11119
 30
0.0
  0
SPLINE
  5
3A
100
AcDbEntity
  8
Ebene 1
 62
     7
100
AcDbSpline
210
0.0
220
0.0
230
1.0
 70
     1
 71
     3
 72
    16
 73
    12
 74
     0
 42
0.0000000001
 43
0.0000000001
 40
0.0
 40
0.0
 40
0.0
 40
0.0
 40
0.3333333333333333
 40
0.3333333333333333
 40
0.3333333333333333
 40
0.3333333333333333
 40
0.6666666666666666
 40
0.6666666666666666
 40
0.6666666666666666
 40
0.6666666666666666
 40
1.0
 40
1.0
 40
1.0
 40
1.0
 10
-3.4415500000000003
 20
-0.01072
 30
0.0
 10
-3.4415500000000003
 20
-0.01072
 30
0.0
 10
-3.4110700000000005
 20
-0.01072
 30
0.0
 10
-3.4110700000000005
 20
-0.01072
 30
0.0
 10
-3.4110700000000005
 20
-0.01072
 30
0.0
 10
-3.4110700000000005
 20
-0.01072
 30
0.0
 10
-3.3958300000000001
 20
-0.41966
 30
0.0
 10
-3.3958300000000001
 20
-0.41966
 30
0.0
 10
-3.3958300000000001
 20
-0.41966
 30
0.0
 10
-3.5152100000000002
 20
-0.27234
 30
0.0
 10
-3.4313900000000004
 20
-0.092
 30
0.0
 10
-3.4415500000000003
 20
-0.01072
 30
0.0
  0
SPLINE
  5
3B
100
AcDbEntity
  8
Ebene 1
 62
     7
100
AcDbSpline
210
0.0
220
0.0
230
1.0
 70
     1
 71
     3
 72
    16
 73
    12
 74
     0
 42
0.0000000001
 43
0.0000000001
 40
0.0
 40
0.0
 40
0.0
 40
0.0
 40
0.3333333333333333
 40
0.3333333333333333
 40
0.3333333333333333
 40
0.3333333333333333
 40
0.6666666666666666
 40
0.6666666666666666
 40
0.6666666666666666
 40
0.6666666666666666
 40
1.0
 40
1.0
 40
1.0
 40
1.0
 10
-1.4781300000000002
 20
-0.63302
 30
0.0
 10
-1.29779
 20
-0.6812800000000001
 30
0.0
 10
-1.3968500000000001
 20
-0.90988
 30
0.0
 10
-1.3155700000000001
 20
-1.0241800000000001
 30
0.0
 10
-1.3155700000000001
 20
-1.0241800000000001
 30
0.0
 10
-1.3155700000000001
 20
-1.0241800000000001
 30
0.0
 10
-1.3485900000000002
 20
-1.04196
 30
0.0
 10
-1.3485900000000002
 20
-1.04196
 30
0.0
 10
-1.3485900000000002
 20
-1.04196
 30
0.0
 10
-1.46289
 20
-0.9429000000000001
 30
0.0
 10
-1.3968500000000001
 20
-0.76256
 30
0.0
 10
-1.4781300000000002
 20
-0.63302
 30
0.0
  0
SPLINE
  5
3C
100
AcDbEntity
  8
Ebene 1
 62
     7
100
AcDbSpline
210
0.0
220
0.0
230
1.0
 70
     1
 71
     3
 72
    16
 73
    12
 74
     0
 42
0.0000000001
 43
0.0000000001
 40
0.0
 40
0.0
 40
0.0
 40
0.0
 40
0.3333333333333333
 40
0.3333333333333333
 40
0.3333333333333333
 40
0.3333333333333333
 40
0.6666666666666666
 40
0.6666666666666666
 40
0.6666666666666666
 40
0.6666666666666666
 40
1.0
 40
1.0
 40
1.0
 40
1.0
 10
-1.33081
 20
-0.76256
 30
0.0
 10
-1.2165100000000002
 20
-0.7955800000000001
 30
0.0
 10
-1.2165100000000002
 20
-0.9429000000000001
 30
0.0
 10
-1.1352300000000002
 20
-1.0089400000000002
 30
0.0
 10
-1.1352300000000002
 20
-1.0089400000000002
 30
0.0
 10
-1.1352300000000002
 20
-1.0089400000000002
 30
0.0
 10
-1.1834900000000002
 20
-1.07498
 30
0.0
 10
-1.1834900000000002
 20
-1.07498
 30
0.0
 10
-1.1834900000000002
 20
-1.07498
 30
0.0
 10
-1.3485900000000002
 20
-1.0572000000000001
 30
0.0
 10
-1.2673100000000002
 20
-0.8616200000000001
 30
0.0
 10
-1.33081
 20
-0.76256
 30
0.0
  0
SPLINE
  5
3D
100
AcDbEntity
  8
Ebene 1
 62
     7
100
AcDbSpline
210
0.0
220
0.0
230
1.0
 70
     1
 71
     3
 72
    84
 73
    80
 74
     0
 42
0.0000000001
 43
0.0000000001
 40
0.0
 40
0.0
 40
0.0
 40
0.0
 40
0.05
 40
0.05
 40
0.05
 40
0.05
 40
0.1
 40
0.1
 40
0.1
 40
0.1
 40
0.15
 40
0.15
 40
0.15
 40
0.15
 40
0.2
 40
0.2
 40
0.2
 40
0.2
 40
0.25
 40
0.25
 40
0.25
 40
0.25
 40
0.3
 40
0.3
 40
0.3
 40
0.3
 40
0.35
 40
0.35
 40
0.35
 40
0.35
 40
0.4
 40
0.4
 40
0.4
 40
0.4
 40
0.45
 40
0.45
 40
0.45
 40
0.45
 40
0.4999999999999999
 40
0.4999999999999999
 40
0.4999999999999999
 40
0.4999999999999999
 40
0.5499999999999999
 40
0.5499999999999999
 40
0.5499999999999999
 40
0.5499999999999999
 40
0.6
 40
0.6
 40
0.6
 40
0.6
 40
0.65
 40
0.65
 40
0.65
 40
0.65
 40
0.7000000000000001
 40
0.7000000000000001
 40
0.7000000000000001
 40
0.7000000000000001
 40
0.7500000000000001
 40
0.7500000000000001
 40
0.7500000000000001
 40
0.7500000000000001
 40
0.8000000000000002
 40
0.8000000000000002
 40
0.8000000000000002
 40
0.8000000000000002
 40
0.8500000000000002
 40
0.8500000000000002
 40
0.8500000000000002
 40
0.8500000000000002
 40
0.9000000000000002
 40
0.9000000000000002
 40
0.9000000000000002
 40
0.9000000000000002
 40
0.9500000000000003
 40
0.9500000000000003
 40
0.9500000000000003
 40
0.9500000000000003
 40
1.0
 40
1.0
 40
1.0
 40
1.0
 10
-3.3348700000000004
 20
-1.8319000000000001
 30
0.0
 10
-3.2053300000000005
 20
-1.6083800000000001
 30
0.0
 10
-3.0834100000000002
 20
-1.2756400000000001
 30
0.0
 10
-3.11389
 20
-1.7430000000000001
 30
0.0
 10
-3.11389
 20
-1.7430000000000001
 30
0.0
 10
-3.03261
 20
-1.8573000000000002
 30
0.0
 10
-2.9792700000000001
 20
-1.6795000000000002
 30
0.0
 10
-2.9208500000000002
 20
-1.6617200000000001
 30
0.0
 10
-2.9208500000000002
 20
-1.6617200000000001
 30
0.0
 10
-2.8776700000000002
 20
-1.8090400000000002
 30
0.0
 10
-3.0580100000000003
 20
-1.8090400000000002
 30
0.0
 10
-2.9995900000000004
 20
-1.9563600000000001
 30
0.0
 10
-2.9995900000000004
 20
-1.9563600000000001
 30
0.0
 10
-2.9995900000000004
 20
-1.9563600000000001
 30
0.0
 10
-2.9538700000000002
 20
-2.1367000000000003
 30
0.0
 10
-2.9538700000000002
 20
-2.1367000000000003
 30
0.0
 10
-2.9538700000000002
 20
-2.1367000000000003
 30
0.0
 10
-3.3653500000000003
 20
-2.9545800000000004
 30
0.0
 10
-3.3983700000000003
 20
-3.5260800000000003
 30
0.0
 10
-3.2307300000000003
 20
-4.39222
 30
0.0
 10
-3.2307300000000003
 20
-4.39222
 30
0.0
 10
-3.3120100000000003
 20
-4.3109400000000004
 30
0.0
 10
-3.4009100000000001
 20
-4.1636200000000008
 30
0.0
 10
-3.5050500000000002
 20
-4.1788600000000002
 30
0.0
 10
-3.5050500000000002
 20
-4.1788600000000002
 30
0.0
 10
-3.4618700000000002
 20
-4.2779199999999999
 30
0.0
 10
-3.4085300000000003
 20
-4.3744400000000008
 30
0.0
 10
-3.3958300000000001
 20
-4.4912800000000006
 30
0.0
 10
-3.3958300000000001
 20
-4.4912800000000006
 30
0.0
 10
-3.5075900000000004
 20
-4.4176200000000003
 30
0.0
 10
-3.5761700000000003
 20
-4.2169600000000003
 30
0.0
 10
-3.6599900000000005
 20
-4.1229800000000001
 30
0.0
 10
-3.6599900000000005
 20
-4.1229800000000001
 30
0.0
 10
-4.0079700000000003
 20
-3.7343600000000001
 30
0.0
 10
-4.1324300000000003
 20
-3.3101800000000003
 30
0.0
 10
-3.8657300000000001
 20
-2.8225000000000002
 30
0.0
 10
-3.8657300000000001
 20
-2.8225000000000002
 30
0.0
 10
-4.01051
 20
-2.8733000000000004
 30
0.0
 10
-4.0765500000000001
 20
-3.2797000000000001
 30
0.0
 10
-4.1375100000000007
 20
-3.4752800000000001
 30
0.0
 10
-4.1375100000000007
 20
-3.4752800000000001
 30
0.0
 10
-4.2137100000000007
 20
-2.9368000000000003
 30
0.0
 10
-4.0155900000000004
 20
-2.3805400000000003
 30
0.0
 10
-3.6396700000000002
 20
-1.9893800000000001
 30
0.0
 10
-3.6396700000000002
 20
-1.9893800000000001
 30
0.0
 10
-3.5101300000000002
 20
-1.7760200000000002
 30
0.0
 10
-3.9546300000000003
 20
-2.2179800000000003
 30
0.0
 10
-4.0714700000000006
 20
-2.26878
 30
0.0
 10
-4.0714700000000006
 20
-2.26878
 30
0.0
 10
-4.0714700000000006
 20
-2.26878
 30
0.0
 10
-3.5380700000000003
 20
-1.4813800000000001
 30
0.0
 10
-3.5380700000000003
 20
-1.4813800000000001
 30
0.0
 10
-3.5380700000000003
 20
-1.4813800000000001
 30
0.0
 10
-3.5380700000000003
 20
-1.4813800000000001
 30
0.0
 10
-3.3374100000000002
 20
-1.0089400000000002
 30
0.0
 10
-3.3374100000000002
 20
-1.0089400000000002
 30
0.0
 10
-3.3374100000000002
 20
-1.0089400000000002
 30
0.0
 10
-3.3374100000000002
 20
-1.0089400000000002
 30
0.0
 10
-3.2612100000000002
 20
-0.78034
 30
0.0
 10
-3.2612100000000002
 20
-0.78034
 30
0.0
 10
-3.2612100000000002
 20
-0.78034
 30
0.0
 10
-3.1926300000000003
 20
-1.12324
 30
0.0
 10
-3.3450300000000004
 20
-1.49916
 30
0.0
 10
-3.5558500000000004
 20
-1.7760200000000002
 30
0.0
 10
-3.5558500000000004
 20
-1.7760200000000002
 30
0.0
 10
-3.5964900000000002
 20
-1.8090400000000002
 30
0.0
 10
-3.5101300000000002
 20
-1.8420600000000003
 30
0.0
 10
-3.5050500000000002
 20
-1.7938000000000001
 30
0.0
 10
-3.5050500000000002
 20
-1.7938000000000001
 30
0.0
 10
-3.5050500000000002
 20
-1.7938000000000001
 30
0.0
 10
-3.2815300000000001
 20
-1.4661400000000002
 30
0.0
 10
-3.2815300000000001
 20
-1.4661400000000002
 30
0.0
 10
-3.2815300000000001
 20
-1.4661400000000002
 30
0.0
 10
-3.2815300000000001
 20
-1.4661400000000002
 30
0.0
 10
-3.3729700000000005
 20
-1.8090400000000002
 30
0.0
 10
-3.3729700000000005
 20
-1.8090400000000002
 30
0.0
 10
-3.3729700000000005
 20
-1.8090400000000002
 30
0.0
 10
-3.4161500000000005
 20
-1.9716000000000002
 30
0.0
 10
-3.4415500000000003
 20
-2.01478
 30
0.0
 10
-3.3348700000000004
 20
-1.8319000000000001
 30
0.0
  0
SPLINE
  5
3E
100
AcDbEntity
  8
Ebene 1
100
AcDbSpline
210
0.0
220
0.0
230
1.0
 70
     1
 71
     3
 72
    16
 73
    12
 74
     0
 42
0.0000000001
 43
0.0000000001
 40
0.0
 40
0.0
 40
0.0
 40
0.0
 40
0.3333333333333333
 40
0.3333333333333333
 40
0.3333333333333333
 40
0.3333333333333333
 40
0.6666666666666666
 40
0.6666666666666666
 40
0.6666666666666666
 40
0.6666666666666666
 40
1.0
 40
1.0
 40
1.0
 40
1.0
 10
1.4454
 20
-1.04196
 30
0.0
 10
1.5089000000000001
 20
-1.6795000000000002
 30
0.0
 10
0.74182
 20
-2.23576
 30
0.0
 10
1.0364600000000002
 20
-2.9215600000000004
 30
0.0
 10
1.0364600000000002
 20
-2.9215600000000004
 30
0.0
 10
1.0364600000000002
 20
-2.9368000000000003
 30
0.0
 10
1.0364600000000002
 20
-2.9698200000000003
 30
0.0
 10
1.01868
 20
-2.9876
 30
0.0
 10
1.01868
 20
-2.9876
 30
0.0
 10
0.57926
 20
-2.2992600000000003
 30
0.0
 10
1.31332
 20
-1.6947400000000001
 30
0.0
 10
1.4454
 20
-1.04196
 30
0.0
  0
SPLINE
  5
3F
100
AcDbEntity
  8
Ebene 1
 62
     7
100
AcDbSpline
210
0.0
220
0.0
230
1.0
 70
     1
 71
     3
 72
    12
 73
     8
 74
     0
 42
0.0000000001
 43
0.0000000001
 40
0.0
 40
0.0
 40
0.0
 40
0.0
 40
0.5
 40
0.5
 40
0.5
 40
0.5
 40
1.0
 40
1.0
 40
1.0
 40
1.0
 10
-1.4781300000000002
 20
-1.0572000000000001
 30
0.0
 10
-1.3155700000000001
 20
-1.0572000000000001
 30
0.0
 10
-1.3155700000000001
 20
-1.3518400000000002
 30
0.0
 10
-1.3638300000000001
 20
-1.4509000000000001
 30
0.0
 10
-1.3638300000000001
 20
-1.4509000000000001
 30
0.0
 10
-1.3638300000000001
 20
-1.4509000000000001
 30
0.0
 10
-1.4781300000000002
 20
-1.0572000000000001
 30
0.0
 10
-1.4781300000000002
 20
-1.0572000000000001
 30
0.0
  0
SPLINE
  5
40
100
AcDbEntity
  8
Ebene 1
 62
     7
100
AcDbSpline
210
0.0
220
0.0
230
1.0
 70
     1
 71
     3
 72
    12
 73
     8
 74
     0
 42
0.0000000001
 43
0.0000000001
 40
0.0
 40
0.0
 40
0.0
 40
0.0
 40
0.5
 40
0.5
 40
0.5
 40
0.5
 40
1.0
 40
1.0
 40
1.0
 40
1.0
 10
-1.11999
 20
-1.07498
 30
0.0
 10
-1.03617
 20
-1.1080000000000001
 30
0.0
 10
-1.03617
 20
-1.2858000000000001
 30
0.0
 10
-1.0539500000000002
 20
-1.3518400000000002
 30
0.0
 10
-1.0539500000000002
 20
-1.3518400000000002
 30
0.0
 10
-1.08697
 20
-1.2705600000000001
 30
0.0
 10
-1.16825
 20
-1.1715
 30
0.0
 10
-1.11999
 20
-1.07498
 30
0.0
  0
SPLINE
  5
41
100
AcDbEntity
  8
Ebene 1
 62
     7
100
AcDbSpline
210
0.0
220
0.0
230
1.0
 70
     1
 71
     3
 72
    16
 73
    12
 74
     0
 42
0.0000000001
 43
0.0000000001
 40
0.0
 40
0.0
 40
0.0
 40
0.0
 40
0.3333333333333333
 40
0.3333333333333333
 40
0.3333333333333333
 40
0.3333333333333333
 40
0.6666666666666666
 40
0.6666666666666666
 40
0.6666666666666666
 40
0.6666666666666666
 40
1.0
 40
1.0
 40
1.0
 40
1.0
 10
-3.0630900000000003
 20
-1.0902200000000002
 30
0.0
 10
-2.9741900000000001
 20
-1.1715
 30
0.0
 10
-3.0453100000000002
 20
-1.3035800000000002
 30
0.0
 10
-3.0681700000000003
 20
-1.41788
 30
0.0
 10
-3.0681700000000003
 20
-1.41788
 30
0.0
 10
-3.0681700000000003
 20
-1.41788
 30
0.0
 10
-3.1240500000000004
 20
-1.41788
 30
0.0
 10
-3.1240500000000004
 20
-1.41788
 30
0.0
 10
-3.1240500000000004
 20
-1.41788
 30
0.0
 10
-3.1240500000000004
 20
-1.41788
 30
0.0
 10
-3.0630900000000003
 20
-1.0902200000000002
 30
0.0
 10
-3.0630900000000003
 20
-1.0902200000000002
 30
0.0
  0
SPLINE
  5
42
100
AcDbEntity
  8
Ebene 1
 62
     7
100
AcDbSpline
210
0.0
220
0.0
230
1.0
 70
     1
 71
     3
 72
    12
 73
     8
 74
     0
 42
0.0000000001
 43
0.0000000001
 40
0.0
 40
0.0
 40
0.0
 40
0.0
 40
0.5
 40
0.5
 40
0.5
 40
0.5
 40
1.0
 40
1.0
 40
1.0
 40
1.0
 10
-1.2673100000000002
 20
-1.12324
 30
0.0
 10
-1.1504700000000001
 20
-1.12324
 30
0.0
 10
-1.2165100000000002
 20
-1.2858000000000001
 30
0.0
 10
-1.1834900000000002
 20
-1.3518400000000002
 30
0.0
 10
-1.1834900000000002
 20
-1.3518400000000002
 30
0.0
 10
-1.2825500000000001
 20
-1.3366
 30
0.0
 10
-1.29779
 20
-1.20452
 30
0.0
 10
-1.2673100000000002
 20
-1.12324
 30
0.0
  0
SPLINE
  5
43
100
AcDbEntity
  8
Ebene 1
 62
     7
100
AcDbSpline
210
0.0
220
0.0
230
1.0
 70
     1
 71
     3
 72
    16
 73
    12
 74
     0
 42
0.0000000001
 43
0.0000000001
 40
0.0
 40
0.0
 40
0.0
 40
0.0
 40
0.3333333333333333
 40
0.3333333333333333
 40
0.3333333333333333
 40
0.3333333333333333
 40
0.6666666666666666
 40
0.6666666666666666
 40
0.6666666666666666
 40
0.6666666666666666
 40
1.0
 40
1.0
 40
1.0
 40
1.0
 10
-1.6584700000000001
 20
-1.1384800000000002
 30
0.0
 10
-1.6584700000000001
 20
-1.1384800000000002
 30
0.0
 10
-1.6102100000000001
 20
-1.1384800000000002
 30
0.0
 10
-1.6102100000000001
 20
-1.1384800000000002
 30
0.0
 10
-1.6102100000000001
 20
-1.1384800000000002
 30
0.0
 10
-1.5924300000000002
 20
-1.2858000000000001
 30
0.0
 10
-1.4959100000000001
 20
-1.4813800000000001
 30
0.0
 10
-1.5619500000000002
 20
-1.6134600000000001
 30
0.0
 10
-1.5619500000000002
 20
-1.6134600000000001
 30
0.0
 10
-1.6914900000000002
 20
-1.5144000000000002
 30
0.0
 10
-1.8870700000000002
 20
-1.2375400000000001
 30
0.0
 10
-1.6584700000000001
 20
-1.1384800000000002
 30
0.0
  0
SPLINE
  5
44
100
AcDbEntity
  8
Ebene 1
 62
     7
100
AcDbSpline
210
0.0
220
0.0
230
1.0
 70
     1
 71
     3
 72
    16
 73
    12
 74
     0
 42
0.0000000001
 43
0.0000000001
 40
0.0
 40
0.0
 40
0.0
 40
0.0
 40
0.3333333333333333
 40
0.3333333333333333
 40
0.3333333333333333
 40
0.3333333333333333
 40
0.6666666666666666
 40
0.6666666666666666
 40
0.6666666666666666
 40
0.6666666666666666
 40
1.0
 40
1.0
 40
1.0
 40
1.0
 10
-1.8870700000000002
 20
-1.2223000000000002
 30
0.0
 10
-1.7905500000000001
 20
-1.3518400000000002
 30
0.0
 10
-1.8235700000000001
 20
-1.5321800000000001
 30
0.0
 10
-1.8235700000000001
 20
-1.6947400000000001
 30
0.0
 10
-1.8235700000000001
 20
-1.6947400000000001
 30
0.0
 10
-1.8235700000000001
 20
-1.6947400000000001
 30
0.0
 10
-1.8870700000000002
 20
-1.6617200000000001
 30
0.0
 10
-1.8870700000000002
 20
-1.6617200000000001
 30
0.0
 10
-1.8870700000000002
 20
-1.6617200000000001
 30
0.0
 10
-1.9200900000000001
 20
-1.49916
 30
0.0
 10
-2.1156700000000002
 20
-1.3188200000000001
 30
0.0
 10
-1.8870700000000002
 20
-1.2223000000000002
 30
0.0
  0
SPLINE
  5
45
100
AcDbEntity
  8
Ebene 1
 62
     7
100
AcDbSpline
210
0.0
220
0.0
230
1.0
 70
     1
 71
     3
 72
    12
 73
     8
 74
     0
 42
0.0000000001
 43
0.0000000001
 40
0.0
 40
0.0
 40
0.0
 40
0.0
 40
0.5
 40
0.5
 40
0.5
 40
0.5
 40
1.0
 40
1.0
 40
1.0
 40
1.0
 10
-2.9995900000000004
 20
-1.3035800000000002
 30
0.0
 10
-2.8776700000000002
 20
-1.3848600000000002
 30
0.0
 10
-2.94625
 20
-1.6464800000000002
 30
0.0
 10
-3.0580100000000003
 20
-1.7099800000000001
 30
0.0
 10
-3.0580100000000003
 20
-1.7099800000000001
 30
0.0
 10
-3.0580100000000003
 20
-1.7099800000000001
 30
0.0
 10
-2.9995900000000004
 20
-1.3035800000000002
 30
0.0
 10
-2.9995900000000004
 20
-1.3035800000000002
 30
0.0
  0
SPLINE
  5
46
100
AcDbEntity
  8
Ebene 1
 62
     7
100
AcDbSpline
210
0.0
220
0.0
230
1.0
 70
     1
 71
     3
 72
    12
 73
     8
 74
     0
 42
0.0000000001
 43
0.0000000001
 40
0.0
 40
0.0
 40
0.0
 40
0.0
 40
0.5
 40
0.5
 40
0.5
 40
0.5
 40
1.0
 40
1.0
 40
1.0
 40
1.0
 10
-2.1664700000000003
 20
-1.3366
 30
0.0
 10
-2.0826500000000001
 20
-1.4813800000000001
 30
0.0
 10
-1.9353300000000002
 20
-1.6617200000000001
 30
0.0
 10
-2.0191500000000002
 20
-1.8420600000000003
 30
0.0
 10
-2.0191500000000002
 20
-1.8420600000000003
 30
0.0
 10
-2.2147300000000003
 20
-1.8090400000000002
 30
0.0
 10
-2.1817100000000003
 20
-1.4813800000000001
 30
0.0
 10
-2.1664700000000003
 20
-1.3366
 30
0.0
  0
SPLINE
  5
47
100
AcDbEntity
  8
Ebene 1
 62
     7
100
AcDbSpline
210
0.0
220
0.0
230
1.0
 70
     1
 71
     3
 72
    16
 73
    12
 74
     0
 42
0.0000000001
 43
0.0000000001
 40
0.0
 40
0.0
 40
0.0
 40
0.0
 40
0.3333333333333333
 40
0.3333333333333333
 40
0.3333333333333333
 40
0.3333333333333333
 40
0.6666666666666666
 40
0.6666666666666666
 40
0.6666666666666666
 40
0.6666666666666666
 40
1.0
 40
1.0
 40
1.0
 40
1.0
 10
-2.4103100000000004
 20
-1.3696200000000001
 30
0.0
 10
-2.2426700000000004
 20
-1.4331200000000002
 30
0.0
 10
-2.2960100000000003
 20
-1.6947400000000001
 30
0.0
 10
-2.2147300000000003
 20
-1.8420600000000003
 30
0.0
 10
-2.2147300000000003
 20
-1.8420600000000003
 30
0.0
 10
-2.27061
 20
-1.8903200000000002
 30
0.0
 10
-2.3493500000000003
 20
-1.92334
 30
0.0
 10
-2.4280900000000001
 20
-1.9081000000000001
 30
0.0
 10
-2.4280900000000001
 20
-1.9081000000000001
 30
0.0
 10
-2.5398500000000004
 20
-1.7760200000000002
 30
0.0
 10
-2.52461
 20
-1.4813800000000001
 30
0.0
 10
-2.4103100000000004
 20
-1.3696200000000001
 30
0.0
  0
SPLINE
  5
48
100
AcDbEntity
  8
Ebene 1
 62
     7
100
AcDbSpline
210
0.0
220
0.0
230
1.0
 70
     1
 71
     3
 72
    12
 73
     8
 74
     0
 42
0.0000000001
 43
0.0000000001
 40
0.0
 40
0.0
 40
0.0
 40
0.0
 40
0.5
 40
0.5
 40
0.5
 40
0.5
 40
1.0
 40
1.0
 40
1.0
 40
1.0
 10
-2.8192500000000003
 20
-1.3848600000000002
 30
0.0
 10
-2.6693900000000004
 20
-1.4661400000000002
 30
0.0
 10
-2.6897100000000003
 20
-1.6795000000000002
 30
0.0
 10
-2.8344900000000002
 20
-1.7607800000000002
 30
0.0
 10
-2.8344900000000002
 20
-1.7607800000000002
 30
0.0
 10
-2.8344900000000002
 20
-1.7607800000000002
 30
0.0
 10
-2.8192500000000003
 20
-1.3848600000000002
 30
0.0
 10
-2.8192500000000003
 20
-1.3848600000000002
 30
0.0
  0
SPLINE
  5
49
100
AcDbEntity
  8
Ebene 1
 62
     7
100
AcDbSpline
210
0.0
220
0.0
230
1.0
 70
     1
 71
     3
 72
    16
 73
    12
 74
     0
 42
0.0000000001
 43
0.0000000001
 40
0.0
 40
0.0
 40
0.0
 40
0.0
 40
0.3333333333333333
 40
0.3333333333333333
 40
0.3333333333333333
 40
0.3333333333333333
 40
0.6666666666666666
 40
0.6666666666666666
 40
0.6666666666666666
 40
0.6666666666666666
 40
1.0
 40
1.0
 40
1.0
 40
1.0
 10
-2.6236700000000002
 20
-1.3848600000000002
 30
0.0
 10
-2.6084300000000002
 20
-1.3848600000000002
 30
0.0
 10
-2.5931900000000003
 20
-1.4026400000000001
 30
0.0
 10
-2.5906500000000001
 20
-1.41788
 30
0.0
 10
-2.5906500000000001
 20
-1.41788
 30
0.0
 10
-2.61097
 20
-1.5626600000000002
 30
0.0
 10
-2.5042900000000001
 20
-1.7607800000000002
 30
0.0
 10
-2.6338300000000001
 20
-1.8573000000000002
 30
0.0
 10
-2.6338300000000001
 20
-1.8573000000000002
 30
0.0
 10
-2.6363700000000003
 20
-1.7099800000000001
 30
0.0
 10
-2.7151100000000001
 20
-1.49916
 30
0.0
 10
-2.6236700000000002
 20
-1.3848600000000002
 30
0.0
  0
SPLINE
  5
4A
100
AcDbEntity
  8
Ebene 1
 62
     7
100
AcDbSpline
210
0.0
220
0.0
230
1.0
 70
     1
 71
     3
 72
    20
 73
    16
 74
     0
 42
0.0000000001
 43
0.0000000001
 40
0.0
 40
0.0
 40
0.0
 40
0.0
 40
0.25
 40
0.25
 40
0.25
 40
0.25
 40
0.5
 40
0.5
 40
0.5
 40
0.5
 40
0.75
 40
0.75
 40
0.75
 40
0.75
 40
1.0
 40
1.0
 40
1.0
 40
1.0
 10
-1.4298700000000002
 20
-1.6464800000000002
 30
0.0
 10
-1.3968500000000001
 20
-1.6947400000000001
 30
0.0
 10
-1.33081
 20
-1.6134600000000001
 30
0.0
 10
-1.29779
 20
-1.6617200000000001
 30
0.0
 10
-1.29779
 20
-1.6617200000000001
 30
0.0
 10
-1.29779
 20
-1.8420600000000003
 30
0.0
 10
-1.3485900000000002
 20
-2.0224000000000002
 30
0.0
 10
-1.3968500000000001
 20
-2.1849600000000002
 30
0.0
 10
-1.3968500000000001
 20
-2.1849600000000002
 30
0.0
 10
-1.3968500000000001
 20
-2.1849600000000002
 30
0.0
 10
-1.4781300000000002
 20
-2.2179800000000003
 30
0.0
 10
-1.4781300000000002
 20
-2.2179800000000003
 30
0.0
 10
-1.4781300000000002
 20
-2.2179800000000003
 30
0.0
 10
-1.4781300000000002
 20
-2.0376400000000001
 30
0.0
 10
-1.5771900000000001
 20
-1.7938000000000001
 30
0.0
 10
-1.4298700000000002
 20
-1.6464800000000002
 30
0.0
  0
SPLINE
  5
4B
100
AcDbEntity
  8
Ebene 1
 62
     7
100
AcDbSpline
210
0.0
220
0.0
230
1.0
 70
     1
 71
     3
 72
    20
 73
    16
 74
     0
 42
0.0000000001
 43
0.0000000001
 40
0.0
 40
0.0
 40
0.0
 40
0.0
 40
0.25
 40
0.25
 40
0.25
 40
0.25
 40
0.5
 40
0.5
 40
0.5
 40
0.5
 40
0.75
 40
0.75
 40
0.75
 40
0.75
 40
1.0
 40
1.0
 40
1.0
 40
1.0
 10
-1.24953
 20
-1.7099800000000001
 30
0.0
 10
-1.2342900000000001
 20
-1.7099800000000001
 30
0.0
 10
-1.2012700000000001
 20
-1.7099800000000001
 30
0.0
 10
-1.1834900000000002
 20
-1.7277600000000002
 30
0.0
 10
-1.1834900000000002
 20
-1.7277600000000002
 30
0.0
 10
-1.16825
 20
-1.8750800000000001
 30
0.0
 10
-1.2012700000000001
 20
-2.0554200000000002
 30
0.0
 10
-1.24953
 20
-2.2027400000000004
 30
0.0
 10
-1.24953
 20
-2.2027400000000004
 30
0.0
 10
-1.2825500000000001
 20
-2.1849600000000002
 30
0.0
 10
-1.3155700000000001
 20
-2.1849600000000002
 30
0.0
 10
-1.3485900000000002
 20
-2.2027400000000004
 30
0.0
 10
-1.3485900000000002
 20
-2.2027400000000004
 30
0.0
 10
-1.3485900000000002
 20
-2.2027400000000004
 30
0.0
 10
-1.24953
 20
-1.7099800000000001
 30
0.0
 10
-1.24953
 20
-1.7099800000000001
 30
0.0
  0
SPLINE
  5
4C
100
AcDbEntity
  8
Ebene 1
 62
     7
100
AcDbSpline
210
0.0
220
0.0
230
1.0
 70
     1
 71
     3
 72
    24
 73
    20
 74
     0
 42
0.0000000001
 43
0.0000000001
 40
0.0
 40
0.0
 40
0.0
 40
0.0
 40
0.2
 40
0.2
 40
0.2
 40
0.2
 40
0.4
 40
0.4
 40
0.4
 40
0.4
 40
0.6000000000000001
 40
0.6000000000000001
 40
0.6000000000000001
 40
0.6000000000000001
 40
0.8
 40
0.8
 40
0.8
 40
0.8
 40
1.0
 40
1.0
 40
1.0
 40
1.0
 10
-1.7397500000000001
 20
-1.7430000000000001
 30
0.0
 10
-1.7397500000000001
 20
-1.7430000000000001
 30
0.0
 10
-1.6432300000000002
 20
-1.7607800000000002
 30
0.0
 10
-1.6432300000000002
 20
-1.7607800000000002
 30
0.0
 10
-1.6432300000000002
 20
-1.7607800000000002
 30
0.0
 10
-1.6432300000000002
 20
-1.7607800000000002
 30
0.0
 10
-1.6254500000000001
 20
-1.8090400000000002
 30
0.0
 10
-1.6254500000000001
 20
-1.8090400000000002
 30
0.0
 10
-1.6254500000000001
 20
-1.8090400000000002
 30
0.0
 10
-1.6914900000000002
 20
-1.9563600000000001
 30
0.0
 10
-1.54417
 20
-2.1849600000000002
 30
0.0
 10
-1.6762500000000002
 20
-2.31704
 30
0.0
 10
-1.6762500000000002
 20
-2.31704
 30
0.0
 10
-1.6914900000000002
 20
-2.31704
 30
0.0
 10
-1.7092700000000001
 20
-2.31704
 30
0.0
 10
-1.7245100000000002
 20
-2.2992600000000003
 30
0.0
 10
-1.7245100000000002
 20
-2.2992600000000003
 30
0.0
 10
-1.7397500000000001
 20
-2.1214600000000003
 30
0.0
 10
-1.7905500000000001
 20
-1.9411200000000002
 30
0.0
 10
-1.7397500000000001
 20
-1.7430000000000001
 30
0.0
  0
SPLINE
  5
4D
100
AcDbEntity
  8
Ebene 1
 62
     7
100
AcDbSpline
210
0.0
220
0.0
230
1.0
 70
     1
 71
     3
 72
    28
 73
    24
 74
     0
 42
0.0000000001
 43
0.0000000001
 40
0.0
 40
0.0
 40
0.0
 40
0.0
 40
0.1666666666666667
 40
0.1666666666666667
 40
0.1666666666666667
 40
0.1666666666666667
 40
0.3333333333333333
 40
0.3333333333333333
 40
0.3333333333333333
 40
0.3333333333333333
 40
0.5
 40
0.5
 40
0.5
 40
0.5
 40
0.6666666666666666
 40
0.6666666666666666
 40
0.6666666666666666
 40
0.6666666666666666
 40
0.8333333333333333
 40
0.8333333333333333
 40
0.8333333333333333
 40
0.8333333333333333
 40
1.0
 40
1.0
 40
1.0
 40
1.0
 10
-1.9200900000000001
 20
-1.8420600000000003
 30
0.0
 10
-1.9023100000000002
 20
-1.8420600000000003
 30
0.0
 10
-1.8870700000000002
 20
-1.8420600000000003
 30
0.0
 10
-1.8718300000000001
 20
-1.8573000000000002
 30
0.0
 10
-1.8718300000000001
 20
-1.8573000000000002
 30
0.0
 10
-1.8540500000000002
 20
-2.0554200000000002
 30
0.0
 10
-1.8235700000000001
 20
-2.23576
 30
0.0
 10
-1.9023100000000002
 20
-2.4135600000000004
 30
0.0
 10
-1.9023100000000002
 20
-2.4135600000000004
 30
0.0
 10
-1.9023100000000002
 20
-2.4135600000000004
 30
0.0
 10
-1.9531100000000001
 20
-2.4135600000000004
 30
0.0
 10
-1.9531100000000001
 20
-2.4135600000000004
 30
0.0
 10
-1.9531100000000001
 20
-2.4135600000000004
 30
0.0
 10
-2.0496300000000001
 20
-2.3805400000000003
 30
0.0
 10
-2.0674100000000002
 20
-2.23576
 30
0.0
 10
-2.0013700000000001
 20
-2.1519400000000002
 30
0.0
 10
-2.0013700000000001
 20
-2.1519400000000002
 30
0.0
 10
-2.0343900000000001
 20
-2.0884400000000003
 30
0.0
 10
-2.1004300000000002
 20
-2.0046200000000001
 30
0.0
 10
-2.1004300000000002
 20
-1.92334
 30
0.0
 10
-2.1004300000000002
 20
-1.92334
 30
0.0
 10
-2.1004300000000002
 20
-1.92334
 30
0.0
 10
-1.9200900000000001
 20
-1.8420600000000003
 30
0.0
 10
-1.9200900000000001
 20
-1.8420600000000003
 30
0.0
  0
SPLINE
  5
4E
100
AcDbEntity
  8
Ebene 1
 62
     7
100
AcDbSpline
210
0.0
220
0.0
230
1.0
 70
     1
 71
     3
 72
    16
 73
    12
 74
     0
 42
0.0000000001
 43
0.0000000001
 40
0.0
 40
0.0
 40
0.0
 40
0.0
 40
0.3333333333333333
 40
0.3333333333333333
 40
0.3333333333333333
 40
0.3333333333333333
 40
0.6666666666666666
 40
0.6666666666666666
 40
0.6666666666666666
 40
0.6666666666666666
 40
1.0
 40
1.0
 40
1.0
 40
1.0
 10
-2.9487900000000002
 20
-1.8903200000000002
 30
0.0
 10
-2.7532100000000002
 20
-1.9081000000000001
 30
0.0
 10
-2.8395700000000001
 20
-2.1519400000000002
 30
0.0
 10
-2.7532100000000002
 20
-2.2840200000000004
 30
0.0
 10
-2.7532100000000002
 20
-2.2840200000000004
 30
0.0
 10
-2.7557500000000004
 20
-2.2992600000000003
 30
0.0
 10
-2.7684500000000001
 20
-2.31704
 30
0.0
 10
-2.7862300000000002
 20
-2.31704
 30
0.0
 10
-2.7862300000000002
 20
-2.31704
 30
0.0
 10
-2.8675100000000002
 20
-2.1849600000000002
 30
0.0
 10
-2.94625
 20
-2.0376400000000001
 30
0.0
 10
-2.9487900000000002
 20
-1.8903200000000002
 30
0.0
  0
SPLINE
  5
4F
100
AcDbEntity
  8
Ebene 1
 62
     7
100
AcDbSpline
210
0.0
220
0.0
230
1.0
 70
     1
 71
     3
 72
    16
 73
    12
 74
     0
 42
0.0000000001
 43
0.0000000001
 40
0.0
 40
0.0
 40
0.0
 40
0.0
 40
0.3333333333333333
 40
0.3333333333333333
 40
0.3333333333333333
 40
0.3333333333333333
 40
0.6666666666666666
 40
0.6666666666666666
 40
0.6666666666666666
 40
0.6666666666666666
 40
1.0
 40
1.0
 40
1.0
 40
1.0
 10
-2.7532100000000002
 20
-1.92334
 30
0.0
 10
-2.5881100000000004
 20
-1.9563600000000001
 30
0.0
 10
-2.5779500000000004
 20
-2.2027400000000004
 30
0.0
 10
-2.5779500000000004
 20
-2.3805400000000003
 30
0.0
 10
-2.5779500000000004
 20
-2.3805400000000003
 30
0.0
 10
-2.5779500000000004
 20
-2.3805400000000003
 30
0.0
 10
-2.6185900000000002
 20
-2.3805400000000003
 30
0.0
 10
-2.6185900000000002
 20
-2.3805400000000003
 30
0.0
 10
-2.6185900000000002
 20
-2.3805400000000003
 30
0.0
 10
-2.7049500000000002
 20
-2.23576
 30
0.0
 10
-2.7557500000000004
 20
-2.0884400000000003
 30
0.0
 10
-2.7532100000000002
 20
-1.92334
 30
0.0
  0
SPLINE
  5
50
100
AcDbEntity
  8
Ebene 1
 62
     7
100
AcDbSpline
210
0.0
220
0.0
230
1.0
 70
     1
 71
     3
 72
    20
 73
    16
 74
     0
 42
0.0000000001
 43
0.0000000001
 40
0.0
 40
0.0
 40
0.0
 40
0.0
 40
0.25
 40
0.25
 40
0.25
 40
0.25
 40
0.5
 40
0.5
 40
0.5
 40
0.5
 40
0.75
 40
0.75
 40
0.75
 40
0.75
 40
1.0
 40
1.0
 40
1.0
 40
1.0
 10
-2.2477500000000004
 20
-1.9411200000000002
 30
0.0
 10
-2.2477500000000004
 20
-1.9411200000000002
 30
0.0
 10
-2.1969500000000002
 20
-1.9411200000000002
 30
0.0
 10
-2.1969500000000002
 20
-1.9411200000000002
 30
0.0
 10
-2.1969500000000002
 20
-1.9411200000000002
 30
0.0
 10
-2.1664700000000003
 20
-2.0706600000000002
 30
0.0
 10
-2.1664700000000003
 20
-2.26878
 30
0.0
 10
-2.2147300000000003
 20
-2.3805400000000003
 30
0.0
 10
-2.2147300000000003
 20
-2.3805400000000003
 30
0.0
 10
-2.2833100000000002
 20
-2.26878
 30
0.0
 10
-2.3010900000000003
 20
-2.1036800000000002
 30
0.0
 10
-2.3239500000000004
 20
-1.9563600000000001
 30
0.0
 10
-2.3239500000000004
 20
-1.9563600000000001
 30
0.0
 10
-2.3239500000000004
 20
-1.9563600000000001
 30
0.0
 10
-2.2477500000000004
 20
-1.9411200000000002
 30
0.0
 10
-2.2477500000000004
 20
-1.9411200000000002
 30
0.0
  0
SPLINE
  5
51
100
AcDbEntity
  8
Ebene 1
 62
     7
100
AcDbSpline
210
0.0
220
0.0
230
1.0
 70
     1
 71
     3
 72
    16
 73
    12
 74
     0
 42
0.0000000001
 43
0.0000000001
 40
0.0
 40
0.0
 40
0.0
 40
0.0
 40
0.3333333333333333
 40
0.3333333333333333
 40
0.3333333333333333
 40
0.3333333333333333
 40
0.6666666666666666
 40
0.6666666666666666
 40
0.6666666666666666
 40
0.6666666666666666
 40
1.0
 40
1.0
 40
1.0
 40
1.0
 10
-2.5093700000000001
 20
-1.9741400000000002
 30
0.0
 10
-2.3163300000000002
 20
-1.9411200000000002
 30
0.0
 10
-2.4255500000000003
 20
-2.2027400000000004
 30
0.0
 10
-2.3772900000000003
 20
-2.31704
 30
0.0
 10
-2.3772900000000003
 20
-2.31704
 30
0.0
 10
-2.3823700000000003
 20
-2.3322800000000004
 30
0.0
 10
-2.39507
 20
-2.3475200000000003
 30
0.0
 10
-2.4103100000000004
 20
-2.3475200000000003
 30
0.0
 10
-2.4103100000000004
 20
-2.3475200000000003
 30
0.0
 10
-2.4103100000000004
 20
-2.3475200000000003
 30
0.0
 10
-2.5093700000000001
 20
-1.9741400000000002
 30
0.0
 10
-2.5093700000000001
 20
-1.9741400000000002
 30
0.0
  0
SPLINE
  5
52
100
AcDbEntity
  8
Ebene 1
100
AcDbSpline
210
0.0
220
0.0
230
1.0
 70
     1
 71
     3
 72
    28
 73
    24
 74
     0
 42
0.0000000001
 43
0.0000000001
 40
0.0
 40
0.0
 40
0.0
 40
0.0
 40
0.1666666666666667
 40
0.1666666666666667
 40
0.1666666666666667
 40
0.1666666666666667
 40
0.3333333333333333
 40
0.3333333333333333
 40
0.3333333333333333
 40
0.3333333333333333
 40
0.5
 40
0.5
 40
0.5
 40
0.5
 40
0.6666666666666666
 40
0.6666666666666666
 40
0.6666666666666666
 40
0.6666666666666666
 40
0.8333333333333333
 40
0.8333333333333333
 40
0.8333333333333333
 40
0.8333333333333333
 40
1.0
 40
1.0
 40
1.0
 40
1.0
 10
-3.3577300000000001
 20
-2.1697200000000003
 30
0.0
 10
-3.3196300000000001
 20
-2.26878
 30
0.0
 10
-3.6193500000000003
 20
-2.60914
 30
0.0
 10
-3.3628100000000001
 20
-2.4135600000000004
 30
0.0
 10
-3.3628100000000001
 20
-2.4135600000000004
 30
0.0
 10
-3.2866100000000005
 20
-2.3475200000000003
 30
0.0
 10
-3.2256500000000004
 20
-2.26878
 30
0.0
 10
-3.1824700000000004
 20
-2.1849600000000002
 30
0.0
 10
-3.1824700000000004
 20
-2.1849600000000002
 30
0.0
 10
-3.1189700000000005
 20
-2.1900400000000002
 30
0.0
 10
-3.1723100000000004
 20
-2.3399000000000001
 30
0.0
 10
-3.2205700000000004
 20
-2.4313400000000001
 30
0.0
 10
-3.2205700000000004
 20
-2.4313400000000001
 30
0.0
 10
-3.3297900000000005
 20
-2.6396200000000003
 30
0.0
 10
-3.5380700000000003
 20
-2.8834600000000004
 30
0.0
 10
-3.5075900000000004
 20
-3.1349200000000002
 30
0.0
 10
-3.5075900000000004
 20
-3.1349200000000002
 30
0.0
 10
-3.5812500000000003
 20
-3.0841200000000004
 30
0.0
 10
-3.5812500000000003
 20
-2.9545800000000004
 30
0.0
 10
-3.5863300000000002
 20
-2.8555200000000003
 30
0.0
 10
-3.5863300000000002
 20
-2.8555200000000003
 30
0.0
 10
-3.6142700000000003
 20
-2.5939000000000001
 30
0.0
 10
-3.5025100000000005
 20
-2.3653000000000004
 30
0.0
 10
-3.3577300000000001
 20
-2.1697200000000003
 30
0.0
  0
SPLINE
  5
53
100
AcDbEntity
  8
Ebene 1
 62
     7
100
AcDbSpline
210
0.0
220
0.0
230
1.0
 70
     1
 71
     3
 72
    16
 73
    12
 74
     0
 42
0.0000000001
 43
0.0000000001
 40
0.0
 40
0.0
 40
0.0
 40
0.0
 40
0.3333333333333333
 40
0.3333333333333333
 40
0.3333333333333333
 40
0.3333333333333333
 40
0.6666666666666666
 40
0.6666666666666666
 40
0.6666666666666666
 40
0.6666666666666666
 40
1.0
 40
1.0
 40
1.0
 40
1.0
 10
-2.9005300000000003
 20
-2.31704
 30
0.0
 10
-2.8802100000000004
 20
-2.31704
 30
0.0
 10
-2.8573500000000003
 20
-2.3322800000000004
 30
0.0
 10
-2.8522700000000003
 20
-2.3475200000000003
 30
0.0
 10
-2.8522700000000003
 20
-2.3475200000000003
 30
0.0
 10
-2.8522700000000003
 20
-2.3475200000000003
 30
0.0
 10
-3.2891500000000002
 20
-3.2797000000000001
 30
0.0
 10
-3.2891500000000002
 20
-3.2797000000000001
 30
0.0
 10
-3.2891500000000002
 20
-3.2797000000000001
 30
0.0
 10
-3.2612100000000002
 20
-2.9215600000000004
 30
0.0
 10
-3.0427700000000004
 20
-2.6269200000000001
 30
0.0
 10
-2.9005300000000003
 20
-2.31704
 30
0.0
  0
SPLINE
  5
54
100
AcDbEntity
  8
Ebene 1
100
AcDbSpline
210
0.0
220
0.0
230
1.0
 70
     1
 71
     3
 72
    16
 73
    12
 74
     0
 42
0.0000000001
 43
0.0000000001
 40
0.0
 40
0.0
 40
0.0
 40
0.0
 40
0.3333333333333333
 40
0.3333333333333333
 40
0.3333333333333333
 40
0.3333333333333333
 40
0.6666666666666666
 40
0.6666666666666666
 40
0.6666666666666666
 40
0.6666666666666666
 40
1.0
 40
1.0
 40
1.0
 40
1.0
 10
-3.7996900000000005
 20
-2.8555200000000003
 30
0.0
 10
-3.7768300000000004
 20
-2.8555200000000003
 30
0.0
 10
-3.7387300000000003
 20
-2.8555200000000003
 30
0.0
 10
-3.7514300000000005
 20
-2.8885400000000003
 30
0.0
 10
-3.7514300000000005
 20
-2.8885400000000003
 30
0.0
 10
-3.9089100000000001
 20
-3.2797000000000001
 30
0.0
 10
-3.6701500000000005
 20
-3.6886400000000004
 30
0.0
 10
-3.5914100000000002
 20
-4.0340800000000003
 30
0.0
 10
-3.5914100000000002
 20
-4.0340800000000003
 30
0.0
 10
-3.8733500000000003
 20
-3.7216600000000004
 30
0.0
 10
-3.9343100000000004
 20
-3.2466800000000005
 30
0.0
 10
-3.7996900000000005
 20
-2.8555200000000003
 30
0.0
  0
ENDSEC
  0
SECTION
  2
OBJECTS
  0
DICTIONARY
  5
19
100
AcDbDictionary
280
     0
281
     1
  3
ACAD_GROUP
350
1A
  3
ACAD_MLINESTYLE
350
1B
  3
ACAD_LAYOUT
350
1E
  3
ACAD_PLOTSETTINGS
350
22
  3
ACAD_PLOTSTYLENAME
350
1F
  3
ACAD_WIPEOUT_VARS
350
23
  0
DICTIONARY
  5
1A
102
{ACAD_REACTORS
330
19
102
}
100
AcDbDictionary
280
     0
281
     1
  0
DICTIONARY
  5
1B
102
{ACAD_REACTORS
330
19
102
}
100
AcDbDictionary
280
     0
281
     1
  3
Standard
350
1C
  0
MLINESTYLE
  5
1C
102
{ACAD_REACTORS
330
1B
102
}
100
AcDbMlineStyle
  2
Standard
 70
     0
  3

 62
     0
 51
90.0
 52
90.0
 71
     2
 49
0.5
 62
   256
  6
BYLAYER
 49
-0.5
 62
   256
  6
BYLAYER
  0
ACDBDICTIONARYWDFLT
  5
1F
102
{ACAD_REACTORS
330
19
102
}
100
AcDbDictionary
281
     1
  3
Normal
350
1D
100
AcDbDictionaryWithDefault
340
1D
  0
ACDBPLACEHOLDER
  5
1D
102
{ACAD_REACTORS
330
1F
102
}
  0
LAYOUT
  5
20
102
{ACAD_REACTORS
330
1E
102
}
100
AcDbPlotSettings
  1

  2

  4

  6

 40
0.0
 41
0.0
 42
0.0
 43
0.0
 44
0.0
 45
0.0
 46
0.0
 47
0.0
 48
0.0
 49
0.0
140
0.0
141
0.0
142
1.0
143
1.0
 70
  1024
 72
     0
 73
     0
 74
     0
  7

 75
     0
147
1.0
148
0.0
149
0.0
100
AcDbLayout
  1
Model
 70
     0
 71
     0
 10
0.0
 20
0.0
 11
0.0
 21
0.0
 12
0.0
 22
0.0
 32
0.0
 14
0.0
 24
0.0
 34
0.0
 15
0.0
 25
0.0
 35
0.0
146
0.0
 13
0.0
 23
0.0
 33
0.0
 16
0.0
 26
0.0
 36
0.0
 17
0.0
 27
0.0
 37
0.0
 76
     0
330
A
331
0
345
0
346
0
  0
LAYOUT
  5
21
102
{ACAD_REACTORS
330
1E
102
}
100
AcDbPlotSettings
  1

  2

  4

  6

 40
0.0
 41
0.0
 42
0.0
 43
0.0
 44
0.0
 45
0.0
 46
0.0
 47
0.0
 48
0.0
 49
0.0
140
0.0
141
0.0
142
1.0
143
1.0
 70
     0
 72
     0
 73
     0
 74
     0
  7

 75
     0
147
1.0
148
0.0
149
0.0
100
AcDbLayout
  1
Layout1
 70
     0
 71
     0
 10
0.0
 20
0.0
 11
0.0
 21
0.0
 12
0.0
 22
0.0
 32
0.0
 14
0.0
 24
0.0
 34
0.0
 15
0.0
 25
0.0
 35
0.0
146
0.0
 13
0.0
 23
0.0
 33
0.0
 16
0.0
 26
0.0
 36
0.0
 17
0.0
 27
0.0
 37
0.0
 76
     0
330
B
331
0
345
0
346
0
  0
DICTIONARY
  5
1E
102
{ACAD_REACTORS
330
19
102
}
100
AcDbDictionary
280
     0
281
     1
  3
Layout1
350
21
  3
Model
350
20
  0
DICTIONARY
  5
22
102
{ACAD_REACTORS
330
19
102
}
100
AcDbDictionary
280
     0
281
     1
  0
WIPEOUTVARIABLES
  5
23
100
AcDbWipeoutVariables
 70
     1
  0
ENDSEC
  0
EOF
