  0
SECTION
  2
HEADER
  9
$ACADVER
  1
AC1015
  9
$ACADMAINTVER
 70
     6
  9
$DWGCODEPAGE
  3
DOS850
  9
$INSBASE
 10
0.0
 20
0.0
 30
0.0
  9
$EXTMIN
 10
-4.57614
 20
-7.02874
 30
1.000000E+20
  9
$EXTMAX
 10
4.57976
 20
7.02253
 30
-1.000000E+20
  9
$LIMMIN
 10
0.0
 20
0.0
  9
$LIMMAX
 10
0.0
 20
0.0
  9
$ORTHOMODE
 70
     0
  9
$REGENMODE
 70
     1
  9
$FILLMODE
 70
     1
  9
$QTEXTMODE
 70
     0
  9
$MIRRTEXT
 70
     1
  9
$LTSCALE
 40
1.0
  9
$ATTMODE
 70
     1
  9
$TEXTSIZE
 40
0.2
  9
$TRACEWID
 40
0.05
  9
$TEXTSTYLE
  7
Standard
  9
$CLAYER
  8
0
  9
$CELTYPE
  6
Continuous
  9
$CECOLOR
 62
   256
  9
$CELTSCALE
 40
1.0
  9
$DISPSILH
 70
     0
  9
$DIMSCALE
 40
1.0
  9
$DIMASZ
 40
0.18
  9
$DIMEXO
 40
0.0625
  9
$DIMDLI
 40
0.38
  9
$DIMRND
 40
0.0
  9
$DIMDLE
 40
0.0
  9
$DIMEXE
 40
0.18
  9
$DIMTP
 40
0.0
  9
$DIMTM
 40
0.0
  9
$DIMTXT
 40
0.18
  9
$DIMCEN
 40
0.09
  9
$DIMTSZ
 40
0.0
  9
$DIMTOL
 70
     0
  9
$DIMLIM
 70
     0
  9
$DIMTIH
 70
     1
  9
$DIMTOH
 70
     1
  9
$DIMSE1
 70
     0
  9
$DIMSE2
 70
     0
  9
$DIMTAD
 70
     0
  9
$DIMZIN
 70
     0
  9
$DIMBLK
  1

  9
$DIMASO
 70
     1
  9
$DIMSHO
 70
     1
  9
$DIMPOST
  1

  9
$DIMAPOST
  1

  9
$DIMALT
 70
     0
  9
$DIMALTD
 70
     2
  9
$DIMALTF
 40
25.4
  9
$DIMLFAC
 40
1.0
  9
$DIMTOFL
 70
     0
  9
$DIMTVP
 40
0.0
  9
$DIMTIX
 70
     0
  9
$DIMSOXD
 70
     0
  9
$DIMSAH
 70
     0
  9
$DIMBLK1
  1

  9
$DIMBLK2
  1

  9
$DIMSTYLE
  2
Standard
  9
$DIMCLRD
 70
     0
  9
$DIMCLRE
 70
     0
  9
$DIMCLRT
 70
     0
  9
$DIMTFAC
 40
1.0
  9
$DIMGAP
 40
0.09
  9
$DIMJUST
 70
     0
  9
$DIMSD1
 70
     0
  9
$DIMSD2
 70
     0
  9
$DIMTOLJ
 70
     1
  9
$DIMTZIN
 70
     0
  9
$DIMALTZ
 70
     0
  9
$DIMALTTZ
 70
     0
  9
$DIMUPT
 70
     0
  9
$DIMDEC
 70
     4
  9
$DIMTDEC
 70
     4
  9
$DIMALTU
 70
     2
  9
$DIMALTTD
 70
     2
  9
$DIMTXSTY
  7
Standard
  9
$DIMAUNIT
 70
     0
  9
$DIMADEC
 70
     0
  9
$DIMALTRND
 40
0.0
  9
$DIMAZIN
 70
     0
  9
$DIMDSEP
 70
     0
  9
$DIMATFIT
 70
     3
  9
$DIMFRAC
 70
     0
  9
$DIMLDRBLK
  1

  9
$DIMLUNIT
 70
     2
  9
$DIMLWD
 70
     0
  9
$DIMLWE
 70
     0
  9
$DIMTMOVE
 70
     0
  9
$LUNITS
 70
     2
  9
$LUPREC
 70
     4
  9
$SKETCHINC
 40
0.1
  9
$FILLETRAD
 40
0.0
  9
$AUNITS
 70
     0
  9
$AUPREC
 70
     0
  9
$MENU
  1
acad
  9
$ELEVATION
 40
0.0
  9
$PELEVATION
 40
0.0
  9
$THICKNESS
 40
0.0
  9
$LIMCHECK
 70
     0
  9
$CHAMFERA
 40
0.0
  9
$CHAMFERB
 40
0.0
  9
$CHAMFERC
 40
0.0
  9
$CHAMFERD
 40
0.0
  9
$SKPOLY
 70
     0
  9
$TDCREATE
 40
0.000000000
  9
$TDUCREATE
 40
0.000000000
  9
$TDUPDATE
 40
0.000000000
  9
$TDUUPDATE
 40
0.000000000
  9
$TDINDWG
 40
0.0000000000
  9
$TDUSRTIMER
 40
0.0000000000
  9
$USRTIMER
 70
     1
  9
$ANGBASE
 50
0.0
  9
$ANGDIR
 70
     0
  9
$PDMODE
 70
     0
  9
$PDSIZE
 40
0.0
  9
$PLINEWID
 40
0.0
  9
$SPLFRAME
 70
     0
  9
$SPLINETYPE
 70
     6
  9
$SPLINESEGS
 70
     8
  9
$HANDSEED
  5
4F
  9
$SURFTAB1
 70
     6
  9
$SURFTAB2
 70
     6
  9
$SURFTYPE
 70
     6
  9
$SURFU
 70
     6
  9
$SURFV
 70
     6
  9
$UCSBASE
  2

  9
$UCSNAME
  2

  9
$UCSORG
 10
0.0
 20
0.0
 30
0.0
  9
$UCSXDIR
 10
1.0
 20
0.0
 30
0.0
  9
$UCSYDIR
 10
0.0
 20
1.0
 30
0.0
  9
$UCSORTHOREF
  2

  9
$UCSORTHOVIEW
 70
     0
  9
$UCSORGTOP
 10
0.0
 20
0.0
 30
0.0
  9
$UCSORGBOTTOM
 10
0.0
 20
0.0
 30
0.0
  9
$UCSORGLEFT
 10
0.0
 20
0.0
 30
0.0
  9
$UCSORGRIGHT
 10
0.0
 20
0.0
 30
0.0
  9
$UCSORGFRONT
 10
0.0
 20
0.0
 30
0.0
  9
$UCSORGBACK
 10
0.0
 20
0.0
 30
0.0
  9
$PUCSBASE
  2

  9
$PUCSNAME
  2

  9
$PUCSORG
 10
0.0
 20
0.0
 30
0.0
  9
$PUCSXDIR
 10
1.0
 20
0.0
 30
0.0
  9
$PUCSYDIR
 10
0.0
 20
1.0
 30
0.0
  9
$PUCSORTHOREF
  2

  9
$PUCSORTHOVIEW
 70
     0
  9
$PUCSORGTOP
 10
0.0
 20
0.0
 30
0.0
  9
$PUCSORGBOTTOM
 10
0.0
 20
0.0
 30
0.0
  9
$PUCSORGLEFT
 10
0.0
 20
0.0
 30
0.0
  9
$PUCSORGRIGHT
 10
0.0
 20
0.0
 30
0.0
  9
$PUCSORGFRONT
 10
0.0
 20
0.0
 30
0.0
  9
$PUCSORGBACK
 10
0.0
 20
0.0
 30
0.0
  9
$USERI1
 70
     0
  9
$USERI2
 70
     0
  9
$USERI3
 70
     0
  9
$USERI4
 70
     0
  9
$USERI5
 70
     0
  9
$USERR1
 40
0.0
  9
$USERR2
 40
0.0
  9
$USERR3
 40
0.0
  9
$USERR4
 40
0.0
  9
$USERR5
 40
0.0
  9
$WORLDVIEW
 70
     1
  9
$SHADEDGE
 70
     3
  9
$SHADEDIF
 70
    70
  9
$TILEMODE
 70
     1
  9
$MAXACTVP
 70
    16
  9
$PINSBASE
 10
0.0
 20
0.0
 30
0.0
  9
$PLIMCHECK
 70
     0
  9
$PEXTMIN
 10
1.000000E+20
 20
1.000000E+20
 30
1.000000E+20
  9
$PEXTMAX
 10
-1.000000E+20
 20
-1.000000E+20
 30
-1.000000E+20
  9
$PLIMMIN
 10
0.0
 20
0.0
  9
$PLIMMAX
 10
12.0
 20
9.0
  9
$UNITMODE
 70
     0
  9
$VISRETAIN
 70
     0
  9
$PLINEGEN
 70
     1
  9
$PSLTSCALE
 70
     0
  9
$TREEDEPTH
 70
  3020
  9
$CMLSTYLE
  2
Standard
  9
$CMLJUST
 70
     0
  9
$CMLSCALE
 40
1.0
  9
$PROXYGRAPHICS
 70
     0
  9
$MEASUREMENT
 70
     0
  9
$CELWEIGHT
370
     0
  9
$ENDCAPS
280
     0
  9
$JOINSTYLE
280
     0
  9
$LWDISPLAY
290
     0
  9
$INSUNITS
 70
     5
  9
$HYPERLINKBASE
  1

  9
$XEDIT
290
     1
  9
$CEPSNTYPE
380
     0
  9
$PSTYLEMODE
290
     1
  9
$FINGERPRINTGUID
  2

  9
$VERSIONGUID
  2

  9
$EXTNAMES
290
     1
  9
$PSVPSCALE
 40
0.0
  0
ENDSEC
  0
SECTION
  2
CLASSES
  0
CLASS
  1
LWPOLYLINE
  2
AcDbPolyline
  3
AutoCAD 2000
 90
    32768
280
     0
281
     1
  0
CLASS
  1
IMAGE
  2
AcDbRasterImage
  3
ISM
 90
    32895
280
     0
281
     1
  0
CLASS
  1
OLE2FRAME
  2
AcDbOle2Frame
  3
AutoCAD 2000
 90
    32768
280
     0
281
     1
  0
CLASS
  1
HATCH
  2
AcDbHatch
  3
AutoCAD 2000
 90
    32768
280
     0
281
     1
  0
CLASS
  1
DICTIONARYVAR
  2
AcDbDictionaryVar
  3
AutoCAD 2000
 90
    32768
280
     0
281
     0
  0
CLASS
  1
RASTERVARIABLES
  2
AcDbRasterVariables
  3
ISM
 90
    32768
280
     0
281
     0
  0
CLASS
  1
IMAGEDEF
  2
AcDbRasterImageDef
  3
ISM
 90
    32768
280
     0
281
     0
  0
CLASS
  1
IMAGEDEF_REACTOR
  2
AcDbRasterImageDefReactor
  3
ISM
 90
    32769
280
     0
281
     0
  0
CLASS
  1
IDBUFFER
  2
AcDbIdBuffer
  3
AutoCAD 2000
 90
    32768
280
     0
281
     0
  0
CLASS
  1
SPATIAL_FILTER
  2
AcDbSpatialFilter
  3
AutoCAD 2000
 90
    32768
280
     0
281
     0
  0
CLASS
  1
XRECORD
  2
AcDbXrecord
  3
AutoCAD 2000
 90
    32768
280
     0
281
     0
  0
CLASS
  1
SORTENTSTABLE
  2
AcDbSortentsTable
  3
AutoCAD 2000
 90
    32768
280
     0
281
     0
  0
CLASS
  1
LAYER_INDEX
  2
AcDbLayerIndex
  3
AutoCAD 2000
 90
    32768
280
     0
281
     0
  0
CLASS
  1
SPATIAL_INDEX
  2
AcDbSpatialIndex
  3
AutoCAD 2000
 90
    32768
280
     0
281
     0
  0
CLASS
  1
OBJECT_PTR
  2
CAseDLPNTableRecord
  3
"ASE-LPNTableRecord"
 90
    32769
280
     0
281
     0
  0
CLASS
  1
LAYOUT
  2
AcDbLayout
  3
AutoCAD 2000
 90
        0
280
     0
281
     0
  0
CLASS
  1
PLOTSETTINGS
  2
AcDbPlotSettings
  3
AutoCAD 2000
 90
    32768
280
     0
281
     0
  0
CLASS
  1
ACDBDICTIONARYWDFLT
  2
AcDbDictionaryWithDefault
  3
AutoCAD 2000
 90
        0
280
     0
281
     0
  0
CLASS
  1
ACDBPLACEHOLDER
  2
AcDbPlaceHolder
  3
AutoCAD 2000
 90
        0
280
     0
281
     0
  0
CLASS
  1
VBA_PROJECT
  2
AcDbVbaProject
  3
acadvba
 90
    32768
280
     0
281
     0
  0
CLASS
  1
WIPEOUT
  2
AcDbWipeout
  3
WipeOut|AutoCAD Express Tool|expresstools@autodesk.com
 90
    32895
280
     0
281
     1
  0
CLASS
  1
WIPEOUTVARIABLES
  2
AcDbWipeoutVariables
  3
WipeOut|AutoCAD Express Tool|expresstools@autodesk.com
 90
        0
280
     0
281
     0
  0
CLASS
  1
RTEXT
  2
RText
  3
RText|AutoCAD Express Tool|expresstools@autodesk.com
 90
    32768
280
     0
281
     1
  0
CLASS
  1
ARCALIGNEDTEXT
  2
AcDbArcAlignedText
  3
ATEXT|AutoCAD Express Tool|expresstools@autodesk.com
 90
    32768
280
     0
281
     1
  0
ENDSEC
  0
SECTION
  2
TABLES
  0
TABLE
  2
VPORT
  5
7
100
AcDbSymbolTable
 70
     1
  0
VPORT
  5
15
100
AcDbSymbolTableRecord
100
AcDbViewportTableRecord
  2
*ACTIVE
 70
     0
 10
0.0
 20
0.0
 11
1.0
 21
1.0
 12
6.591288
 22
4.579184
 13
0.0
 23
0.0
 14
1.0
 24
1.0
 15
0.0
 25
0.0
 16
0.0
 26
0.0
 36
1.0
 17
0.0
 27
0.0
 37
0.0
 40
9.158369
 41
0.688564
 42
50.0
 43
0.0
 44
0.0
 50
0.0
 51
0.0
 71
     0
 72
   100
 73
     1
 74
     1
 75
     0
 76
     0
 77
     0
 78
     0
281
     0
 65
     0
110
0.0
120
0.0
130
0.0
111
1.0
121
0.0
131
0.0
112
0.0
122
1.0
132
0.0
345
0
346
0
 79
     0
146
0.0
  0
ENDTAB
  0
TABLE
  2
LTYPE
  5
4
100
AcDbSymbolTable
 70
     3
  0
LTYPE
  5
11
100
AcDbSymbolTableRecord
100
AcDbLinetypeTableRecord
  2
ByBlock
 70
    64
  3

 72
    65
 73
     0
 40
0.0
  0
LTYPE
  5
12
100
AcDbSymbolTableRecord
100
AcDbLinetypeTableRecord
  2
ByLayer
 70
    64
  3

 72
    65
 73
     0
 40
0.0
  0
LTYPE
  5
13
100
AcDbSymbolTableRecord
100
AcDbLinetypeTableRecord
  2
Continuous
 70
    64
  3
Solid line
 72
    65
 73
     0
 40
0.0
  0
ENDTAB
  0
TABLE
  2
LAYER
  5
2
100
AcDbSymbolTable
 70
     2
  0
LAYER
  5
14
100
AcDbSymbolTableRecord
100
AcDbLayerTableRecord
  2
0
 70
     0
 62
     7
  6
Continuous
290
     1
370
    -3
390
1D
  0
LAYER
  5
24
100
AcDbSymbolTableRecord
100
AcDbLayerTableRecord
  2
Ebene 1
 70
     0
 62
     7
  6
Continuous
290
     1
370
    -3
390
1F
  0
ENDTAB
  0
TABLE
  2
STYLE
  5
3
100
AcDbSymbolTable
 70
     1
  0
STYLE
  5
17
100
AcDbSymbolTableRecord
100
AcDbTextStyleTableRecord
  2
Standard
 70
     0
 40
0.0
 41
1.0
 50
0.0
 71
     0
 42
0.0
  3
txt
  4

  0
ENDTAB
  0
TABLE
  2
VIEW
  5
5
100
AcDbSymbolTable
 70
     0
  0
ENDTAB
  0
TABLE
  2
UCS
  5
6
100
AcDbSymbolTable
 70
     0
  0
ENDTAB
  0
TABLE
  2
APPID
  5
8
100
AcDbSymbolTable
 70
     1
  0
APPID
  5
16
100
AcDbSymbolTableRecord
100
AcDbRegAppTableRecord
  2
ACAD
 70
     0
  0
ENDTAB
  0
TABLE
  2
DIMSTYLE
  5
9
100
AcDbSymbolTable
 70
     1
100
AcDbDimStyleTable
 71
     0
  0
DIMSTYLE
105
18
100
AcDbSymbolTableRecord
100
AcDbDimStyleTableRecord
  2
Standard
 70
     0
  3

  4

 40
1.0
 41
0.18
 42
0.0625
 43
0.38
 44
0.18
 45
0.0
 46
0.0
 47
0.0
 48
0.0
 71
     0
 72
     0
 73
     1
 74
     1
 75
     0
 76
     0
 77
     0
 78
     0
 79
     0
140
0.18
141
0.09
142
0.0
143
25.4
144
1.0
145
0.0
146
1.0
147
0.09
148
0.0
170
     0
171
     2
172
     0
173
     0
174
     0
175
     0
176
     0
177
     0
178
     0
179
     0
271
     4
272
     4
273
     2
274
     2
275
     0
276
     0
277
     2
278
    46
279
     0
280
     0
281
     0
282
     0
283
     1
284
     0
285
     0
286
     0
288
     0
340
17
341
0
342
0
343
0
344
0
371
    -2
372
    -2
  0
ENDTAB
  0
TABLE
  2
BLOCK_RECORD
  5
1
100
AcDbSymbolTable
 70
     0
  0
BLOCK_RECORD
  5
A
100
AcDbSymbolTableRecord
100
AcDbBlockTableRecord
  2
*MODEL_SPACE
340
20
  0
BLOCK_RECORD
  5
B
100
AcDbSymbolTableRecord
100
AcDbBlockTableRecord
  2
*PAPER_SPACE
340
21
  0
ENDTAB
  0
ENDSEC
  0
SECTION
  2
BLOCKS
  0
BLOCK
  5
D
100
AcDbEntity
  8
0
100
AcDbBlockBegin
  2
*MODEL_SPACE
 70
     0
 10
0.0
 20
0.0
 30
0.0
  3
*MODEL_SPACE
  1

  0
ENDBLK
  5
E
100
AcDbEntity
  8
0
100
AcDbBlockEnd
  0
BLOCK
  5
F
100
AcDbEntity
 67
     1
  8
0
100
AcDbBlockBegin
  2
*PAPER_SPACE
 70
     0
 10
0.0
 20
0.0
 30
0.0
  3
*PAPER_SPACE
  1

  0
ENDBLK
  5
10
100
AcDbEntity
 67
     1
  8
0
100
AcDbBlockEnd
  0
ENDSEC
  0
SECTION
  2
ENTITIES
  0
SPLINE
  5
25
100
AcDbEntity
  8
Ebene 1
100
AcDbSpline
210
0.0
220
0.0
230
1.0
 70
     1
 71
     3
 72
   168
 73
   164
 74
     0
 42
0.0000000001
 43
0.0000000001
 40
0.0
 40
0.0
 40
0.0
 40
0.0
 40
0.024390243902439
 40
0.024390243902439
 40
0.024390243902439
 40
0.024390243902439
 40
0.0487804878048781
 40
0.0487804878048781
 40
0.0487804878048781
 40
0.0487804878048781
 40
0.0731707317073171
 40
0.0731707317073171
 40
0.0731707317073171
 40
0.0731707317073171
 40
0.0975609756097561
 40
0.0975609756097561
 40
0.0975609756097561
 40
0.0975609756097561
 40
0.1219512195121951
 40
0.1219512195121951
 40
0.1219512195121951
 40
0.1219512195121951
 40
0.1463414634146341
 40
0.1463414634146341
 40
0.1463414634146341
 40
0.1463414634146341
 40
0.1707317073170732
 40
0.1707317073170732
 40
0.1707317073170732
 40
0.1707317073170732
 40
0.1951219512195122
 40
0.1951219512195122
 40
0.1951219512195122
 40
0.1951219512195122
 40
0.2195121951219512
 40
0.2195121951219512
 40
0.2195121951219512
 40
0.2195121951219512
 40
0.2439024390243902
 40
0.2439024390243902
 40
0.2439024390243902
 40
0.2439024390243902
 40
0.2682926829268292
 40
0.2682926829268292
 40
0.2682926829268292
 40
0.2682926829268292
 40
0.2926829268292683
 40
0.2926829268292683
 40
0.2926829268292683
 40
0.2926829268292683
 40
0.3170731707317073
 40
0.3170731707317073
 40
0.3170731707317073
 40
0.3170731707317073
 40
0.3414634146341464
 40
0.3414634146341464
 40
0.3414634146341464
 40
0.3414634146341464
 40
0.3658536585365854
 40
0.3658536585365854
 40
0.3658536585365854
 40
0.3658536585365854
 40
0.3902439024390245
 40
0.3902439024390245
 40
0.3902439024390245
 40
0.3902439024390245
 40
0.4146341463414635
 40
0.4146341463414635
 40
0.4146341463414635
 40
0.4146341463414635
 40
0.4390243902439026
 40
0.4390243902439026
 40
0.4390243902439026
 40
0.4390243902439026
 40
0.4634146341463416
 40
0.4634146341463416
 40
0.4634146341463416
 40
0.4634146341463416
 40
0.4878048780487806
 40
0.4878048780487806
 40
0.4878048780487806
 40
0.4878048780487806
 40
0.5121951219512196
 40
0.5121951219512196
 40
0.5121951219512196
 40
0.5121951219512196
 40
0.5365853658536587
 40
0.5365853658536587
 40
0.5365853658536587
 40
0.5365853658536587
 40
0.5609756097560977
 40
0.5609756097560977
 40
0.5609756097560977
 40
0.5609756097560977
 40
0.5853658536585368
 40
0.5853658536585368
 40
0.5853658536585368
 40
0.5853658536585368
 40
0.6097560975609758
 40
0.6097560975609758
 40
0.6097560975609758
 40
0.6097560975609758
 40
0.6341463414634149
 40
0.6341463414634149
 40
0.6341463414634149
 40
0.6341463414634149
 40
0.6585365853658539
 40
0.6585365853658539
 40
0.6585365853658539
 40
0.6585365853658539
 40
0.682926829268293
 40
0.682926829268293
 40
0.682926829268293
 40
0.682926829268293
 40
0.707317073170732
 40
0.707317073170732
 40
0.707317073170732
 40
0.707317073170732
 40
0.7317073170731711
 40
0.7317073170731711
 40
0.7317073170731711
 40
0.7317073170731711
 40
0.7560975609756101
 40
0.7560975609756101
 40
0.7560975609756101
 40
0.7560975609756101
 40
0.7804878048780491
 40
0.7804878048780491
 40
0.7804878048780491
 40
0.7804878048780491
 40
0.8048780487804882
 40
0.8048780487804882
 40
0.8048780487804882
 40
0.8048780487804882
 40
0.8292682926829272
 40
0.8292682926829272
 40
0.8292682926829272
 40
0.8292682926829272
 40
0.8536585365853663
 40
0.8536585365853663
 40
0.8536585365853663
 40
0.8536585365853663
 40
0.8780487804878053
 40
0.8780487804878053
 40
0.8780487804878053
 40
0.8780487804878053
 40
0.9024390243902444
 40
0.9024390243902444
 40
0.9024390243902444
 40
0.9024390243902444
 40
0.9268292682926834
 40
0.9268292682926834
 40
0.9268292682926834
 40
0.9268292682926834
 40
0.9512195121951225
 40
0.9512195121951225
 40
0.9512195121951225
 40
0.9512195121951225
 40
0.9756097560975615
 40
0.9756097560975615
 40
0.9756097560975615
 40
0.9756097560975615
 40
1.0
 40
1.0
 40
1.0
 40
1.0
 10
3.3808800000000003
 20
-4.6894
 30
0.0
 10
3.4418400000000005
 20
-4.7986200000000006
 30
0.0
 10
3.5028000000000001
 20
-4.90022
 30
0.0
 10
3.5231200000000005
 20
-5.0272200000000007
 30
0.0
 10
3.5231200000000005
 20
-5.0272200000000007
 30
0.0
 10
3.1980000000000004
 20
-4.6259000000000006
 30
0.0
 10
2.3191600000000001
 20
-4.0645600000000002
 30
0.0
 10
1.9508600000000003
 20
-3.2466800000000005
 30
0.0
 10
1.9508600000000003
 20
-3.2466800000000005
 30
0.0
 10
1.52668
 20
-2.9469600000000002
 30
0.0
 10
0.63768
 20
-3.2568400000000004
 30
0.0
 10
0.5487800000000001
 20
-2.6015200000000003
 30
0.0
 10
0.5487800000000001
 20
-2.6015200000000003
 30
0.0
 10
0.6072000000000001
 20
-2.65232
 30
0.0
 10
0.8383400000000001
 20
-2.7945600000000002
 30
0.0
 10
0.7545200000000001
 20
-2.6269200000000001
 30
0.0
 10
0.7545200000000001
 20
-2.6269200000000001
 30
0.0
 10
0.52846
 20
-2.5380200000000004
 30
0.0
 10
0.3405
 20
-2.2256
 30
0.0
 10
0.6732400000000001
 20
-2.27894
 30
0.0
 10
0.6732400000000001
 20
-2.27894
 30
0.0
 10
0.47512
 20
-2.1189200000000001
 30
0.0
 10
0.37098
 20
-1.9817600000000002
 30
0.0
 10
0.36082
 20
-1.7836400000000001
 30
0.0
 10
0.36082
 20
-1.7836400000000001
 30
0.0
 10
0.22366
 20
-1.9563600000000001
 30
0.0
 10
0.05348
 20
-1.9487400000000001
 30
0.0
 10
-0.08875
 20
-1.7836400000000001
 30
0.0
 10
-0.08875
 20
-1.7836400000000001
 30
0.0
 10
-0.03795
 20
-1.9258800000000003
 30
0.0
 10
-0.00747
 20
-1.9766800000000002
 30
0.0
 10
-0.05573
 20
-2.0325600000000001
 30
0.0
 10
-0.05573
 20
-2.0325600000000001
 30
0.0
 10
-0.22337
 20
-2.2230600000000003
 30
0.0
 10
-0.7669300000000001
 20
-2.06812
 30
0.0
 10
-0.8609100000000001
 20
-2.1290800000000001
 30
0.0
 10
-0.8609100000000001
 20
-2.1290800000000001
 30
0.0
 10
-0.9777500000000001
 20
-2.0097
 30
0.0
 10
-0.9548900000000001
 20
-1.8115800000000002
 30
0.0
 10
-1.03617
 20
-1.6439400000000002
 30
0.0
 10
-1.03617
 20
-1.6439400000000002
 30
0.0
 10
-1.12253
 20
-1.4636
 30
0.0
 10
-1.24953
 20
-1.33152
 30
0.0
 10
-1.4349500000000002
 20
-1.1816600000000002
 30
0.0
 10
-1.4349500000000002
 20
-1.1816600000000002
 30
0.0
 10
-1.9556500000000001
 20
-0.88956
 30
0.0
 10
-2.6160500000000004
 20
-0.74224
 30
0.0
 10
-2.82179
 20
-0.12248
 30
0.0
 10
-2.82179
 20
-0.12248
 30
0.0
 10
-2.7201900000000001
 20
-0.1301
 30
0.0
 10
-2.5779500000000004
 20
-0.17836
 30
0.0
 10
-2.5830300000000004
 20
-0.01326
 30
0.0
 10
-2.5830300000000004
 20
-0.01326
 30
0.0
 10
-2.5830300000000004
 20
-0.01326
 30
0.0
 10
-2.7328900000000003
 20
0.32963
 30
0.0
 10
-2.7328900000000003
 20
0.32963
 30
0.0
 10
-2.7328900000000003
 20
0.32963
 30
0.0
 10
-3.1164300000000003
 20
0.65983
 30
0.0
 10
-3.5660100000000003
 20
0.91383
 30
0.0
 10
-3.3958300000000001
 20
1.4802500000000001
 30
0.0
 10
-3.3958300000000001
 20
1.4802500000000001
 30
0.0
 10
-4.26959
 20
1.6885300000000001
 30
0.0
 10
-4.0333700000000006
 20
2.8289900000000001
 30
0.0
 10
-4.02067
 20
3.4563700000000002
 30
0.0
 10
-4.02067
 20
3.4563700000000002
 30
0.0
 10
-4.3762700000000008
 20
3.9135700000000004
 30
0.0
 10
-4.6683700000000004
 20
4.5739700000000001
 30
0.0
 10
-4.5489900000000008
 20
5.1505500000000008
 30
0.0
 10
-4.5489900000000008
 20
5.1505500000000008
 30
0.0
 10
-4.3661099999999999
 20
4.8279700000000005
 30
0.0
 10
-4.1756100000000007
 20
4.3021900000000004
 30
0.0
 10
-3.7590500000000002
 20
4.16249
 30
0.0
 10
-3.7590500000000002
 20
4.16249
 30
0.0
 10
-3.9978100000000003
 20
4.85337
 30
0.0
 10
-4.0409900000000007
 20
5.6534700000000004
 30
0.0
 10
-3.8860500000000004
 20
6.3265700000000002
 30
0.0
 10
-3.8860500000000004
 20
6.3265700000000002
 30
0.0
 10
-3.7133300000000005
 20
5.8541300000000005
 30
0.0
 10
-3.4644100000000004
 20
5.3258100000000006
 30
0.0
 10
-3.0757900000000005
 20
4.9625900000000005
 30
0.0
 10
-3.0757900000000005
 20
4.9625900000000005
 30
0.0
 10
-2.8370300000000004
 20
5.1911900000000006
 30
0.0
 10
-2.5119100000000003
 20
5.3994700000000009
 30
0.0
 10
-2.18425
 20
5.4680500000000007
 30
0.0
 10
-2.18425
 20
5.4680500000000007
 30
0.0
 10
-1.7194300000000002
 20
5.77285
 30
0.0
 10
-1.1428500000000001
 20
5.8846100000000003
 30
0.0
 10
-0.6069100000000001
 20
6.0395500000000002
 30
0.0
 10
-0.6069100000000001
 20
6.0395500000000002
 30
0.0
 10
-0.57389
 20
6.4002300000000005
 30
0.0
 10
-0.99299
 20
6.9564900000000005
 30
0.0
 10
-1.0183900000000001
 20
7.0225300000000006
 30
0.0
 10
-1.0183900000000001
 20
7.0225300000000006
 30
0.0
 10
-0.38847
 20
6.8955300000000008
 30
0.0
 10
0.07126
 20
6.5246900000000005
 30
0.0
 10
0.43702
 20
6.0751100000000005
 30
0.0
 10
0.43702
 20
6.0751100000000005
 30
0.0
 10
0.9018400000000001
 20
6.0573300000000003
 30
0.0
 10
1.2295
 20
5.8007900000000001
 30
0.0
 10
1.6841600000000001
 20
5.8820700000000006
 30
0.0
 10
1.6841600000000001
 20
5.8820700000000006
 30
0.0
 10
2.6138000000000003
 20
4.9981500000000008
 30
0.0
 10
3.3580200000000002
 20
3.3827100000000003
 30
0.0
 10
2.6036400000000004
 20
2.1838300000000004
 30
0.0
 10
2.6036400000000004
 20
2.1838300000000004
 30
0.0
 10
2.6061800000000002
 20
1.9933300000000003
 30
0.0
 10
2.8195400000000004
 20
1.8968100000000001
 30
0.0
 10
2.8246200000000004
 20
1.7037700000000002
 30
0.0
 10
2.8246200000000004
 20
1.7037700000000002
 30
0.0
 10
2.5680800000000001
 20
1.2592700000000001
 30
0.0
 10
2.5528400000000002
 20
0.7588900000000001
 30
0.0
 10
2.6950800000000004
 20
0.30423
 30
0.0
 10
2.6950800000000004
 20
0.30423
 30
0.0
 10
2.7458800000000001
 20
0.13913
 30
0.0
 10
2.8906600000000005
 20
0.02991
 30
0.0
 10
2.9490800000000004
 20
-0.13772
 30
0.0
 10
2.9490800000000004
 20
-0.13772
 30
0.0
 10
3.0125800000000003
 20
-0.31806
 30
0.0
 10
3.0557600000000003
 20
-0.5644400000000001
 30
0.0
 10
3.0710000000000002
 20
-0.7549400000000001
 30
0.0
 10
3.0710000000000002
 20
-0.7549400000000001
 30
0.0
 10
3.0760800000000001
 20
-1.3162800000000001
 30
0.0
 10
2.8093800000000004
 20
-1.8776200000000001
 30
0.0
 10
2.9440000000000004
 20
-2.48468
 30
0.0
 10
2.9440000000000004
 20
-2.48468
 30
0.0
 10
3.5028000000000001
 20
-3.0130000000000003
 30
0.0
 10
3.7745800000000003
 20
-3.7394400000000001
 30
0.0
 10
4.3511600000000001
 20
-4.2652200000000002
 30
0.0
 10
4.3511600000000001
 20
-4.2652200000000002
 30
0.0
 10
4.4070400000000003
 20
-4.5928800000000001
 30
0.0
 10
4.2317800000000005
 20
-4.2093400000000001
 30
0.0
 10
4.1124000000000001
 20
-4.1509200000000002
 30
0.0
 10
4.1124000000000001
 20
-4.1509200000000002
 30
0.0
 10
3.7110800000000004
 20
-3.8105600000000002
 30
0.0
 10
4.7575600000000007
 20
-5.1720000000000006
 30
0.0
 10
4.3156000000000008
 20
-4.6944800000000004
 30
0.0
 10
4.3156000000000008
 20
-4.6944800000000004
 30
0.0
 10
4.3156000000000008
 20
-4.6944800000000004
 30
0.0
 10
4.1403400000000001
 20
-4.5547800000000001
 30
0.0
 10
4.1403400000000001
 20
-4.5547800000000001
 30
0.0
 10
4.1403400000000001
 20
-4.5547800000000001
 30
0.0
 10
4.1378000000000004
 20
-4.6589200000000002
 30
0.0
 10
4.5416600000000003
 20
-5.4971200000000007
 30
0.0
 10
4.17082
 20
-5.02468
 30
0.0
 10
4.17082
 20
-5.02468
 30
0.0
 10
4.4375200000000001
 20
-5.6114200000000007
 30
0.0
 10
4.0311200000000005
 20
-6.5232800000000006
 30
0.0
 10
4.5797600000000003
 20
-7.0287400000000009
 30
0.0
 10
4.5797600000000003
 20
-7.0287400000000009
 30
0.0
 10
3.8380800000000002
 20
-6.6325000000000003
 30
0.0
 10
4.2419400000000005
 20
-5.7003200000000005
 30
0.0
 10
3.9854000000000003
 20
-5.0958000000000006
 30
0.0
 10
3.9854000000000003
 20
-5.0958000000000006
 30
0.0
 10
3.9092000000000002
 20
-5.1262800000000004
 30
0.0
 10
3.9625400000000002
 20
-5.4361600000000001
 30
0.0
 10
3.8558600000000003
 20
-5.2380400000000007
 30
0.0
 10
3.8558600000000003
 20
-5.2380400000000007
 30
0.0
 10
3.8355400000000004
 20
-4.9535600000000004
 30
0.0
 10
3.7212400000000003
 20
-4.7021000000000006
 30
0.0
 10
3.4596200000000001
 20
-4.6309800000000001
 30
0.0
 10
3.4596200000000001
 20
-4.6309800000000001
 30
0.0
 10
3.2996000000000003
 20
-4.5878000000000005
 30
0.0
 10
3.3224600000000004
 20
-4.5852600000000008
 30
0.0
 10
3.3808800000000003
 20
-4.6894
 30
0.0
  0
SPLINE
  5
26
100
AcDbEntity
  8
Ebene 1
100
AcDbSpline
210
0.0
220
0.0
230
1.0
 70
     1
 71
     3
 72
    36
 73
    32
 74
     0
 42
0.0000000001
 43
0.0000000001
 40
0.0
 40
0.0
 40
0.0
 40
0.0
 40
0.125
 40
0.125
 40
0.125
 40
0.125
 40
0.25
 40
0.25
 40
0.25
 40
0.25
 40
0.375
 40
0.375
 40
0.375
 40
0.375
 40
0.5
 40
0.5
 40
0.5
 40
0.5
 40
0.625
 40
0.625
 40
0.625
 40
0.625
 40
0.75
 40
0.75
 40
0.75
 40
0.75
 40
0.875
 40
0.875
 40
0.875
 40
0.875
 40
1.0
 40
1.0
 40
1.0
 40
1.0
 10
1.0720200000000002
 20
-0.0031
 30
0.0
 10
1.0720200000000002
 20
-0.0031
 30
0.0
 10
0.86882
 20
-0.3104400000000001
 30
0.0
 10
0.86882
 20
-0.3104400000000001
 30
0.0
 10
0.86882
 20
-0.3104400000000001
 30
0.0
 10
1.0009000000000001
 20
-0.41204
 30
0.0
 10
1.1279000000000001
 20
-0.49586
 30
0.0
 10
1.2295
 20
-0.6203200000000001
 30
0.0
 10
1.2295
 20
-0.6203200000000001
 30
0.0
 10
1.2269600000000001
 20
-0.7346200000000001
 30
0.0
 10
1.0872600000000001
 20
-0.7879600000000001
 30
0.0
 10
1.1406000000000001
 20
-0.90988
 30
0.0
 10
1.1406000000000001
 20
-0.90988
 30
0.0
 10
0.87136
 20
-1.2273800000000001
 30
0.0
 10
1.2422000000000002
 20
-1.8192000000000002
 30
0.0
 10
1.5495400000000001
 20
-2.06304
 30
0.0
 10
1.5495400000000001
 20
-2.06304
 30
0.0
 10
1.5520800000000001
 20
-2.0122400000000003
 30
0.0
 10
1.6359000000000001
 20
-1.9411200000000002
 30
0.0
 10
1.7019400000000002
 20
-1.9385800000000002
 30
0.0
 10
1.7019400000000002
 20
-1.9385800000000002
 30
0.0
 10
1.6155800000000002
 20
-1.8090400000000002
 30
0.0
 10
1.6333600000000001
 20
-1.63124
 30
0.0
 10
1.8010000000000002
 20
-1.5626600000000002
 30
0.0
 10
1.8010000000000002
 20
-1.5626600000000002
 30
0.0
 10
1.5444600000000002
 20
-1.25278
 30
0.0
 10
2.17692
 20
-1.2350000000000001
 30
0.0
 10
2.1743800000000002
 20
-1.03434
 30
0.0
 10
2.1743800000000002
 20
-1.03434
 30
0.0
 10
2.1642200000000003
 20
-0.5238
 30
0.0
 10
1.5901800000000001
 20
-0.08692
 30
0.0
 10
1.0720200000000002
 20
-0.0031
 30
0.0
  0
SPLINE
  5
27
100
AcDbEntity
  8
Ebene 1
 62
     7
100
AcDbSpline
210
0.0
220
0.0
230
1.0
 70
     1
 71
     3
 72
    88
 73
    84
 74
     0
 42
0.0000000001
 43
0.0000000001
 40
0.0
 40
0.0
 40
0.0
 40
0.0
 40
0.0476190476190476
 40
0.0476190476190476
 40
0.0476190476190476
 40
0.0476190476190476
 40
0.0952380952380952
 40
0.0952380952380952
 40
0.0952380952380952
 40
0.0952380952380952
 40
0.1428571428571429
 40
0.1428571428571429
 40
0.1428571428571429
 40
0.1428571428571429
 40
0.1904761904761905
 40
0.1904761904761905
 40
0.1904761904761905
 40
0.1904761904761905
 40
0.2380952380952381
 40
0.2380952380952381
 40
0.2380952380952381
 40
0.2380952380952381
 40
0.2857142857142857
 40
0.2857142857142857
 40
0.2857142857142857
 40
0.2857142857142857
 40
0.3333333333333333
 40
0.3333333333333333
 40
0.3333333333333333
 40
0.3333333333333333
 40
0.3809523809523809
 40
0.3809523809523809
 40
0.3809523809523809
 40
0.3809523809523809
 40
0.4285714285714286
 40
0.4285714285714286
 40
0.4285714285714286
 40
0.4285714285714286
 40
0.4761904761904762
 40
0.4761904761904762
 40
0.4761904761904762
 40
0.4761904761904762
 40
0.5238095238095237
 40
0.5238095238095237
 40
0.5238095238095237
 40
0.5238095238095237
 40
0.5714285714285714
 40
0.5714285714285714
 40
0.5714285714285714
 40
0.5714285714285714
 40
0.6190476190476191
 40
0.6190476190476191
 40
0.6190476190476191
 40
0.6190476190476191
 40
0.6666666666666667
 40
0.6666666666666667
 40
0.6666666666666667
 40
0.6666666666666667
 40
0.7142857142857144
 40
0.7142857142857144
 40
0.7142857142857144
 40
0.7142857142857144
 40
0.7619047619047621
 40
0.7619047619047621
 40
0.7619047619047621
 40
0.7619047619047621
 40
0.8095238095238098
 40
0.8095238095238098
 40
0.8095238095238098
 40
0.8095238095238098
 40
0.8571428571428574
 40
0.8571428571428574
 40
0.8571428571428574
 40
0.8571428571428574
 40
0.9047619047619051
 40
0.9047619047619051
 40
0.9047619047619051
 40
0.9047619047619051
 40
0.9523809523809528
 40
0.9523809523809528
 40
0.9523809523809528
 40
0.9523809523809528
 40
1.0
 40
1.0
 40
1.0
 40
1.0
 10
-0.7135900000000001
 20
6.778690000000001
 30
0.0
 10
0.0738
 20
6.6364500000000008
 30
0.0
 10
0.49798
 20
5.9125500000000004
 30
0.0
 10
0.8561200000000001
 20
5.3105700000000002
 30
0.0
 10
0.8561200000000001
 20
5.3105700000000002
 30
0.0
 10
0.9704200000000001
 20
5.1454700000000004
 30
0.0
 10
1.2295
 20
4.7111300000000007
 30
0.0
 10
1.3692000000000002
 20
4.8736900000000007
 30
0.0
 10
1.3692000000000002
 20
4.8736900000000007
 30
0.0
 10
0.9780400000000001
 20
5.1175300000000004
 30
0.0
 10
1.6359000000000001
 20
5.4426500000000004
 30
0.0
 10
1.61304
 20
5.7677700000000005
 30
0.0
 10
1.61304
 20
5.7677700000000005
 30
0.0
 10
1.8518000000000001
 20
5.5899700000000001
 30
0.0
 10
2.04738
 20
5.3715300000000008
 30
0.0
 10
2.2277200000000001
 20
5.1581700000000001
 30
0.0
 10
2.2277200000000001
 20
5.1581700000000001
 30
0.0
 10
1.5825600000000002
 20
3.9415100000000005
 30
0.0
 10
0.36082
 20
3.0144100000000003
 30
0.0
 10
-0.9371100000000001
 20
2.42767
 30
0.0
 10
-0.9371100000000001
 20
2.42767
 30
0.0
 10
-1.0641100000000001
 20
2.38449
 30
0.0
 10
-1.24953
 20
2.2803500000000003
 30
0.0
 10
-1.3460500000000002
 20
2.29813
 30
0.0
 10
-1.3460500000000002
 20
2.29813
 30
0.0
 10
-1.2444500000000001
 20
2.5013300000000003
 30
0.0
 10
-0.9701300000000001
 20
2.6257900000000003
 30
0.0
 10
-0.82789
 20
2.7553300000000003
 30
0.0
 10
-0.82789
 20
2.7553300000000003
 30
0.0
 10
-1.4120900000000001
 20
2.6054700000000004
 30
0.0
 10
-1.71435
 20
2.04921
 30
0.0
 10
-2.1207500000000001
 20
1.6682100000000002
 30
0.0
 10
-2.1207500000000001
 20
1.6682100000000002
 30
0.0
 10
-2.4890500000000002
 20
1.7012300000000002
 30
0.0
 10
-2.9005300000000003
 20
1.9323700000000001
 30
0.0
 10
-3.2281900000000001
 20
1.6859900000000001
 30
0.0
 10
-3.2281900000000001
 20
1.6859900000000001
 30
0.0
 10
-3.2281900000000001
 20
1.6859900000000001
 30
0.0
 10
-2.8192500000000003
 20
1.7164700000000002
 30
0.0
 10
-2.8192500000000003
 20
1.7164700000000002
 30
0.0
 10
-2.8192500000000003
 20
1.7164700000000002
 30
0.0
 10
-3.0376900000000004
 20
1.5970900000000001
 30
0.0
 10
-3.3882100000000004
 20
1.5132700000000001
 30
0.0
 10
-3.5583900000000002
 20
1.5945500000000001
 30
0.0
 10
-3.5583900000000002
 20
1.5945500000000001
 30
0.0
 10
-3.8682700000000003
 20
1.7190100000000001
 30
0.0
 10
-4.0562300000000002
 20
2.2270100000000004
 30
0.0
 10
-3.9927300000000003
 20
2.59531
 30
0.0
 10
-3.9927300000000003
 20
2.59531
 30
0.0
 10
-3.8860500000000004
 20
2.4911700000000003
 30
0.0
 10
-3.8962100000000004
 20
2.38449
 30
0.0
 10
-3.8200100000000003
 20
2.3311500000000001
 30
0.0
 10
-3.8200100000000003
 20
2.3311500000000001
 30
0.0
 10
-3.6523700000000003
 20
2.2143100000000002
 30
0.0
 10
-3.4059900000000001
 20
2.2625700000000002
 30
0.0
 10
-3.3374100000000002
 20
2.5013300000000003
 30
0.0
 10
-3.3374100000000002
 20
2.5013300000000003
 30
0.0
 10
-3.2180300000000002
 20
2.3311500000000001
 30
0.0
 10
-2.8700500000000004
 20
2.3641700000000001
 30
0.0
 10
-2.8979900000000001
 20
2.6130900000000001
 30
0.0
 10
-2.8979900000000001
 20
2.6130900000000001
 30
0.0
 10
-3.3221700000000003
 20
3.5249500000000005
 30
0.0
 10
-4.0663900000000002
 20
4.4901500000000008
 30
0.0
 10
-3.7184100000000004
 20
5.5340900000000008
 30
0.0
 10
-3.7184100000000004
 20
5.5340900000000008
 30
0.0
 10
-3.7184100000000004
 20
5.5340900000000008
 30
0.0
 10
-3.3602700000000003
 20
5.1302300000000001
 30
0.0
 10
-3.3602700000000003
 20
5.1302300000000001
 30
0.0
 10
-3.3602700000000003
 20
5.1302300000000001
 30
0.0
 10
-3.2434300000000005
 20
4.9219500000000007
 30
0.0
 10
-2.9919700000000002
 20
4.8178100000000006
 30
0.0
 10
-2.8929100000000001
 20
4.5993700000000004
 30
0.0
 10
-2.8929100000000001
 20
4.5993700000000004
 30
0.0
 10
-2.9665700000000004
 20
3.8602300000000005
 30
0.0
 10
-2.2502900000000001
 20
2.0644500000000003
 30
0.0
 10
-1.5771900000000001
 20
3.3115900000000003
 30
0.0
 10
-1.5771900000000001
 20
3.3115900000000003
 30
0.0
 10
-0.4062500000000001
 20
2.9712300000000003
 30
0.0
 10
1.1177400000000002
 20
4.9879900000000008
 30
0.0
 10
-0.40117
 20
5.4299500000000007
 30
0.0
 10
-0.40117
 20
5.4299500000000007
 30
0.0
 10
-0.44181
 20
5.8719100000000006
 30
0.0
 10
-0.5154700000000001
 20
6.3799100000000006
 30
0.0
 10
-0.7135900000000001
 20
6.778690000000001
 30
0.0
  0
SPLINE
  5
28
100
AcDbEntity
  8
Ebene 1
 62
     7
100
AcDbSpline
210
0.0
220
0.0
230
1.0
 70
     1
 71
     3
 72
    48
 73
    44
 74
     0
 42
0.0000000001
 43
0.0000000001
 40
0.0
 40
0.0
 40
0.0
 40
0.0
 40
0.0909090909090909
 40
0.0909090909090909
 40
0.0909090909090909
 40
0.0909090909090909
 40
0.1818181818181818
 40
0.1818181818181818
 40
0.1818181818181818
 40
0.1818181818181818
 40
0.2727272727272727
 40
0.2727272727272727
 40
0.2727272727272727
 40
0.2727272727272727
 40
0.3636363636363637
 40
0.3636363636363637
 40
0.3636363636363637
 40
0.3636363636363637
 40
0.4545454545454546
 40
0.4545454545454546
 40
0.4545454545454546
 40
0.4545454545454546
 40
0.5454545454545455
 40
0.5454545454545455
 40
0.5454545454545455
 40
0.5454545454545455
 40
0.6363636363636365
 40
0.6363636363636365
 40
0.6363636363636365
 40
0.6363636363636365
 40
0.7272727272727274
 40
0.7272727272727274
 40
0.7272727272727274
 40
0.7272727272727274
 40
0.8181818181818183
 40
0.8181818181818183
 40
0.8181818181818183
 40
0.8181818181818183
 40
0.9090909090909093
 40
0.9090909090909093
 40
0.9090909090909093
 40
0.9090909090909093
 40
1.0
 40
1.0
 40
1.0
 40
1.0
 10
-1.4146300000000001
 20
5.7042700000000002
 30
0.0
 10
-1.1428500000000001
 20
5.7677700000000005
 30
0.0
 10
-0.86599
 20
5.8668300000000002
 30
0.0
 10
-0.5992900000000001
 20
5.8261900000000004
 30
0.0
 10
-0.5992900000000001
 20
5.8261900000000004
 30
0.0
 10
-0.5992900000000001
 20
5.8261900000000004
 30
0.0
 10
-0.55103
 20
5.2369100000000008
 30
0.0
 10
-0.55103
 20
5.2369100000000008
 30
0.0
 10
-0.55103
 20
5.2369100000000008
 30
0.0
 10
-0.4265700000000001
 20
5.2851700000000008
 30
0.0
 10
-0.27671
 20
5.3740700000000006
 30
0.0
 10
-0.06843
 20
5.1556300000000004
 30
0.0
 10
-0.06843
 20
5.1556300000000004
 30
0.0
 10
0.4827400000000001
 20
4.4012500000000001
 30
0.0
 10
-0.33005
 20
3.5046300000000001
 30
0.0
 10
-1.2368300000000001
 20
3.3420700000000001
 30
0.0
 10
-1.2368300000000001
 20
3.3420700000000001
 30
0.0
 10
-1.38161
 20
3.3293700000000004
 30
0.0
 10
-1.54925
 20
3.4106500000000004
 30
0.0
 10
-1.6864100000000002
 20
3.3954100000000005
 30
0.0
 10
-1.6864100000000002
 20
3.3954100000000005
 30
0.0
 10
-1.8007100000000003
 20
3.2760300000000004
 30
0.0
 10
-1.7803900000000001
 20
3.0398100000000001
 30
0.0
 10
-1.9759700000000002
 20
2.9712300000000003
 30
0.0
 10
-1.9759700000000002
 20
2.9712300000000003
 30
0.0
 10
-2.65415
 20
3.1668100000000003
 30
0.0
 10
-2.8573500000000003
 20
4.1574100000000005
 30
0.0
 10
-2.7862300000000002
 20
4.7517700000000005
 30
0.0
 10
-2.7862300000000002
 20
4.7517700000000005
 30
0.0
 10
-2.7862300000000002
 20
4.7517700000000005
 30
0.0
 10
-2.9360900000000001
 20
4.89147
 30
0.0
 10
-2.9360900000000001
 20
4.89147
 30
0.0
 10
-2.9360900000000001
 20
4.89147
 30
0.0
 10
-2.8014700000000001
 20
4.9727500000000004
 30
0.0
 10
-2.5373100000000002
 20
5.3054900000000007
 30
0.0
 10
-2.4407900000000002
 20
5.0718100000000002
 30
0.0
 10
-2.4407900000000002
 20
5.0718100000000002
 30
0.0
 10
-2.4407900000000002
 20
5.0718100000000002
 30
0.0
 10
-2.3696700000000002
 20
5.0870500000000005
 30
0.0
 10
-2.3696700000000002
 20
5.0870500000000005
 30
0.0
 10
-2.3696700000000002
 20
5.0870500000000005
 30
0.0
 10
-2.2020300000000002
 20
5.4451900000000002
 30
0.0
 10
-1.7702300000000002
 20
5.5874300000000003
 30
0.0
 10
-1.4146300000000001
 20
5.7042700000000002
 30
0.0
  0
SPLINE
  5
29
100
AcDbEntity
  8
Ebene 1
 62
     7
100
AcDbSpline
210
0.0
220
0.0
230
1.0
 70
     1
 71
     3
 72
    16
 73
    12
 74
     0
 42
0.0000000001
 43
0.0000000001
 40
0.0
 40
0.0
 40
0.0
 40
0.0
 40
0.3333333333333333
 40
0.3333333333333333
 40
0.3333333333333333
 40
0.3333333333333333
 40
0.6666666666666666
 40
0.6666666666666666
 40
0.6666666666666666
 40
0.6666666666666666
 40
1.0
 40
1.0
 40
1.0
 40
1.0
 10
0.5386200000000001
 20
5.9531900000000002
 30
0.0
 10
0.8764400000000001
 20
5.9658900000000008
 30
0.0
 10
1.1685400000000001
 20
5.7753900000000007
 30
0.0
 10
1.3844400000000001
 20
5.5544100000000007
 30
0.0
 10
1.3844400000000001
 20
5.5544100000000007
 30
0.0
 10
1.3006200000000001
 20
5.4299500000000007
 30
0.0
 10
1.2142600000000001
 20
5.3054900000000007
 30
0.0
 10
1.0644
 20
5.2343700000000002
 30
0.0
 10
1.0644
 20
5.2343700000000002
 30
0.0
 10
1.0644
 20
5.2343700000000002
 30
0.0
 10
0.5386200000000001
 20
5.9531900000000002
 30
0.0
 10
0.5386200000000001
 20
5.9531900000000002
 30
0.0
  0
SPLINE
  5
2A
100
AcDbEntity
  8
Ebene 1
 62
     7
100
AcDbSpline
210
0.0
220
0.0
230
1.0
 70
     1
 71
     3
 72
    12
 73
     8
 74
     0
 42
0.0000000001
 43
0.0000000001
 40
0.0
 40
0.0
 40
0.0
 40
0.0
 40
0.5
 40
0.5
 40
0.5
 40
0.5
 40
1.0
 40
1.0
 40
1.0
 40
1.0
 10
-4.0359100000000003
 20
4.2361500000000003
 30
0.0
 10
-3.9444700000000004
 20
4.1980500000000003
 30
0.0
 10
-3.8530300000000004
 20
4.1396300000000004
 30
0.0
 10
-3.8047700000000004
 20
4.07613
 30
0.0
 10
-3.8047700000000004
 20
4.07613
 30
0.0
 10
-3.9139900000000005
 20
4.0151700000000003
 30
0.0
 10
-3.9901900000000001
 20
4.1675700000000004
 30
0.0
 10
-4.0359100000000003
 20
4.2361500000000003
 30
0.0
  0
SPLINE
  5
2B
100
AcDbEntity
  8
Ebene 1
 62
     7
100
AcDbSpline
210
0.0
220
0.0
230
1.0
 70
     1
 71
     3
 72
    20
 73
    16
 74
     0
 42
0.0000000001
 43
0.0000000001
 40
0.0
 40
0.0
 40
0.0
 40
0.0
 40
0.25
 40
0.25
 40
0.25
 40
0.25
 40
0.5
 40
0.5
 40
0.5
 40
0.5
 40
0.75
 40
0.75
 40
0.75
 40
0.75
 40
1.0
 40
1.0
 40
1.0
 40
1.0
 10
-3.7006300000000003
 20
4.0151700000000003
 30
0.0
 10
-3.5634700000000001
 20
3.4944700000000002
 30
0.0
 10
-3.0707100000000001
 20
3.05505
 30
0.0
 10
-3.0554700000000001
 20
2.4987900000000001
 30
0.0
 10
-3.0554700000000001
 20
2.4987900000000001
 30
0.0
 10
-3.1875500000000003
 20
2.4403700000000002
 30
0.0
 10
-3.2891500000000002
 20
2.5851500000000001
 30
0.0
 10
-3.3526500000000001
 20
2.6588100000000003
 30
0.0
 10
-3.3526500000000001
 20
2.6588100000000003
 30
0.0
 10
-3.4390100000000001
 20
2.5648300000000002
 30
0.0
 10
-3.4796500000000004
 20
2.3997300000000004
 30
0.0
 10
-3.6701500000000005
 20
2.4098900000000003
 30
0.0
 10
-3.6701500000000005
 20
2.4098900000000003
 30
0.0
 10
-4.09687
 20
2.8493100000000005
 30
0.0
 10
-3.9038300000000001
 20
3.5300300000000004
 30
0.0
 10
-3.7006300000000003
 20
4.0151700000000003
 30
0.0
  0
SPLINE
  5
2C
100
AcDbEntity
  8
Ebene 1
 62
     7
100
AcDbSpline
210
0.0
220
0.0
230
1.0
 70
     1
 71
     3
 72
   160
 73
   156
 74
     0
 42
0.0000000001
 43
0.0000000001
 40
0.0
 40
0.0
 40
0.0
 40
0.0
 40
0.0256410256410256
 40
0.0256410256410256
 40
0.0256410256410256
 40
0.0256410256410256
 40
0.0512820512820513
 40
0.0512820512820513
 40
0.0512820512820513
 40
0.0512820512820513
 40
0.0769230769230769
 40
0.0769230769230769
 40
0.0769230769230769
 40
0.0769230769230769
 40
0.1025641025641026
 40
0.1025641025641026
 40
0.1025641025641026
 40
0.1025641025641026
 40
0.1282051282051282
 40
0.1282051282051282
 40
0.1282051282051282
 40
0.1282051282051282
 40
0.1538461538461538
 40
0.1538461538461538
 40
0.1538461538461538
 40
0.1538461538461538
 40
0.1794871794871795
 40
0.1794871794871795
 40
0.1794871794871795
 40
0.1794871794871795
 40
0.2051282051282051
 40
0.2051282051282051
 40
0.2051282051282051
 40
0.2051282051282051
 40
0.2307692307692307
 40
0.2307692307692307
 40
0.2307692307692307
 40
0.2307692307692307
 40
0.2564102564102564
 40
0.2564102564102564
 40
0.2564102564102564
 40
0.2564102564102564
 40
0.2820512820512821
 40
0.2820512820512821
 40
0.2820512820512821
 40
0.2820512820512821
 40
0.3076923076923077
 40
0.3076923076923077
 40
0.3076923076923077
 40
0.3076923076923077
 40
0.3333333333333334
 40
0.3333333333333334
 40
0.3333333333333334
 40
0.3333333333333334
 40
0.358974358974359
 40
0.358974358974359
 40
0.358974358974359
 40
0.358974358974359
 40
0.3846153846153847
 40
0.3846153846153847
 40
0.3846153846153847
 40
0.3846153846153847
 40
0.4102564102564104
 40
0.4102564102564104
 40
0.4102564102564104
 40
0.4102564102564104
 40
0.435897435897436
 40
0.435897435897436
 40
0.435897435897436
 40
0.435897435897436
 40
0.4615384615384617
 40
0.4615384615384617
 40
0.4615384615384617
 40
0.4615384615384617
 40
0.4871794871794873
 40
0.4871794871794873
 40
0.4871794871794873
 40
0.4871794871794873
 40
0.512820512820513
 40
0.512820512820513
 40
0.512820512820513
 40
0.512820512820513
 40
0.5384615384615387
 40
0.5384615384615387
 40
0.5384615384615387
 40
0.5384615384615387
 40
0.5641025641025643
 40
0.5641025641025643
 40
0.5641025641025643
 40
0.5641025641025643
 40
0.58974358974359
 40
0.58974358974359
 40
0.58974358974359
 40
0.58974358974359
 40
0.6153846153846156
 40
0.6153846153846156
 40
0.6153846153846156
 40
0.6153846153846156
 40
0.6410256410256413
 40
0.6410256410256413
 40
0.6410256410256413
 40
0.6410256410256413
 40
0.666666666666667
 40
0.666666666666667
 40
0.666666666666667
 40
0.666666666666667
 40
0.6923076923076926
 40
0.6923076923076926
 40
0.6923076923076926
 40
0.6923076923076926
 40
0.7179487179487183
 40
0.7179487179487183
 40
0.7179487179487183
 40
0.7179487179487183
 40
0.743589743589744
 40
0.743589743589744
 40
0.743589743589744
 40
0.743589743589744
 40
0.7692307692307696
 40
0.7692307692307696
 40
0.7692307692307696
 40
0.7692307692307696
 40
0.7948717948717953
 40
0.7948717948717953
 40
0.7948717948717953
 40
0.7948717948717953
 40
0.8205128205128209
 40
0.8205128205128209
 40
0.8205128205128209
 40
0.8205128205128209
 40
0.8461538461538466
 40
0.8461538461538466
 40
0.8461538461538466
 40
0.8461538461538466
 40
0.8717948717948723
 40
0.8717948717948723
 40
0.8717948717948723
 40
0.8717948717948723
 40
0.8974358974358979
 40
0.8974358974358979
 40
0.8974358974358979
 40
0.8974358974358979
 40
0.9230769230769236
 40
0.9230769230769236
 40
0.9230769230769236
 40
0.9230769230769236
 40
0.9487179487179492
 40
0.9487179487179492
 40
0.9487179487179492
 40
0.9487179487179492
 40
0.9743589743589749
 40
0.9743589743589749
 40
0.9743589743589749
 40
0.9743589743589749
 40
1.0
 40
1.0
 40
1.0
 40
1.0
 10
0.1373
 20
-1.16388
 30
0.0
 10
0.1373
 20
-1.16388
 30
0.0
 10
-0.06843
 20
-1.1308600000000002
 30
0.0
 10
-0.06843
 20
-1.1308600000000002
 30
0.0
 10
-0.06843
 20
-1.1308600000000002
 30
0.0
 10
-0.06843
 20
-1.1308600000000002
 30
0.0
 10
-0.37069
 20
-0.61778
 30
0.0
 10
-0.37069
 20
-0.61778
 30
0.0
 10
-0.37069
 20
-0.61778
 30
0.0
 10
-0.39101
 20
-0.61778
 30
0.0
 10
-0.40117
 20
-0.63302
 30
0.0
 10
-0.40879
 20
-0.6457200000000001
 30
0.0
 10
-0.40879
 20
-0.6457200000000001
 30
0.0
 10
-0.35799
 20
-0.8362200000000001
 30
0.0
 10
-0.26655
 20
-1.0064000000000002
 30
0.0
 10
-0.18019
 20
-1.1791200000000002
 30
0.0
 10
-0.18019
 20
-1.1791200000000002
 30
0.0
 10
-0.3122700000000001
 20
-1.3899400000000002
 30
0.0
 10
-0.33513
 20
-1.2985000000000002
 30
0.0
 10
-0.4494300000000001
 20
-1.24516
 30
0.0
 10
-0.4494300000000001
 20
-1.24516
 30
0.0
 10
-0.25893
 20
-1.5245600000000001
 30
0.0
 10
-0.35291
 20
-1.4077200000000001
 30
0.0
 10
-0.5662700000000001
 20
-1.2629400000000002
 30
0.0
 10
-0.5662700000000001
 20
-1.2629400000000002
 30
0.0
 10
-0.65517
 20
-1.3594600000000001
 30
0.0
 10
-0.63231
 20
-1.3975600000000001
 30
0.0
 10
-0.7567700000000001
 20
-1.3061200000000002
 30
0.0
 10
-0.7567700000000001
 20
-1.3061200000000002
 30
0.0
 10
-1.12507
 20
-1.9030200000000002
 30
0.0
 10
-2.3544300000000002
 20
-0.03612
 30
0.0
 10
-1.8642100000000001
 20
0.9290700000000001
 30
0.0
 10
-1.8642100000000001
 20
0.9290700000000001
 30
0.0
 10
-2.0064500000000001
 20
0.8655700000000001
 30
0.0
 10
-2.05471
 20
0.6674500000000001
 30
0.0
 10
-2.2502900000000001
 20
0.6750700000000001
 30
0.0
 10
-2.2502900000000001
 20
0.6750700000000001
 30
0.0
 10
-2.6084300000000002
 20
0.74365
 30
0.0
 10
-2.5474700000000001
 20
0.51505
 30
0.0
 10
-2.4763500000000001
 20
0.24581
 30
0.0
 10
-2.4763500000000001
 20
0.24581
 30
0.0
 10
-2.3899900000000001
 20
-0.07676
 30
0.0
 10
-2.22235
 20
-0.45014
 30
0.0
 10
-1.9480300000000002
 20
-0.3079
 30
0.0
 10
-1.9480300000000002
 20
-0.3079
 30
0.0
 10
-1.9480300000000002
 20
-0.3079
 30
0.0
 10
-1.7422900000000001
 20
-0.8667
 30
0.0
 10
-1.7422900000000001
 20
-0.8667
 30
0.0
 10
-1.7422900000000001
 20
-0.8667
 30
0.0
 10
-1.9734300000000002
 20
-0.7041400000000001
 30
0.0
 10
-2.3417300000000001
 20
-0.69398
 30
0.0
 10
-2.52461
 20
-0.4476000000000001
 30
0.0
 10
-2.52461
 20
-0.4476000000000001
 30
0.0
 10
-2.52461
 20
-0.4476000000000001
 30
0.0
 10
-2.6287500000000001
 20
-0.24694
 30
0.0
 10
-2.6287500000000001
 20
-0.24694
 30
0.0
 10
-2.6287500000000001
 20
-0.24694
 30
0.0
 10
-2.4738100000000003
 20
-0.01834
 30
0.0
 10
-2.5601700000000003
 20
0.18485
 30
0.0
 10
-2.6947900000000002
 20
0.39313
 30
0.0
 10
-2.6947900000000002
 20
0.39313
 30
0.0
 10
-2.8090900000000003
 20
0.5658500000000001
 30
0.0
 10
-2.9716500000000003
 20
0.7182500000000001
 30
0.0
 10
-3.1392900000000004
 20
0.82747
 30
0.0
 10
-3.1392900000000004
 20
0.82747
 30
0.0
 10
-3.2561300000000002
 20
0.9036700000000001
 30
0.0
 10
-3.3069300000000004
 20
0.9392300000000001
 30
0.0
 10
-3.2916900000000004
 20
1.0814700000000002
 30
0.0
 10
-3.2916900000000004
 20
1.0814700000000002
 30
0.0
 10
-3.2916900000000004
 20
1.0814700000000002
 30
0.0
 10
-3.2637500000000004
 20
1.44469
 30
0.0
 10
-3.2637500000000004
 20
1.44469
 30
0.0
 10
-3.2637500000000004
 20
1.44469
 30
0.0
 10
-3.1875500000000003
 20
1.4497700000000002
 30
0.0
 10
-3.1215100000000002
 20
1.3862700000000001
 30
0.0
 10
-3.0554700000000001
 20
1.3557900000000001
 30
0.0
 10
-3.0554700000000001
 20
1.3557900000000001
 30
0.0
 10
-3.2789900000000003
 20
1.7240900000000001
 30
0.0
 10
-2.3214100000000002
 20
1.6758300000000002
 30
0.0
 10
-2.02677
 20
1.5056500000000002
 30
0.0
 10
-2.02677
 20
1.5056500000000002
 30
0.0
 10
-1.7829300000000001
 20
2.2092300000000002
 30
0.0
 10
-0.8558300000000001
 20
2.2320900000000004
 30
0.0
 10
-0.29957
 20
2.6308700000000003
 30
0.0
 10
-0.29957
 20
2.6308700000000003
 30
0.0
 10
-0.28687
 20
2.4733900000000002
 30
0.0
 10
-0.6018300000000001
 20
2.3006700000000002
 30
0.0
 10
-0.49515
 20
2.1838300000000004
 30
0.0
 10
-0.49515
 20
2.1838300000000004
 30
0.0
 10
-0.00239
 20
2.6791300000000002
 30
0.0
 10
0.44464
 20
3.2023700000000002
 30
0.0
 10
1.06186
 20
3.5478100000000001
 30
0.0
 10
1.06186
 20
3.5478100000000001
 30
0.0
 10
0.8104000000000001
 20
3.1109300000000002
 30
0.0
 10
1.1914
 20
2.4479900000000003
 30
0.0
 10
1.6892400000000001
 20
2.4403700000000002
 30
0.0
 10
1.6892400000000001
 20
2.4403700000000002
 30
0.0
 10
1.8543400000000001
 20
2.4530700000000003
 30
0.0
 10
2.0423
 20
2.55213
 30
0.0
 10
1.9940400000000003
 20
2.5927700000000002
 30
0.0
 10
1.9940400000000003
 20
2.5927700000000002
 30
0.0
 10
1.4784200000000001
 20
2.3667100000000003
 30
0.0
 10
1.0415400000000001
 20
2.9585300000000001
 30
0.0
 10
1.19394
 20
3.3801700000000001
 30
0.0
 10
1.19394
 20
3.3801700000000001
 30
0.0
 10
1.4276200000000001
 20
3.8830900000000002
 30
0.0
 10
1.8365600000000002
 20
4.3072699999999999
 30
0.0
 10
2.1464400000000001
 20
4.7771700000000008
 30
0.0
 10
2.1464400000000001
 20
4.7771700000000008
 30
0.0
 10
3.0252800000000004
 20
4.2056700000000005
 30
0.0
 10
3.0633800000000004
 20
2.8543900000000004
 30
0.0
 10
2.42584
 20
2.0847700000000002
 30
0.0
 10
2.42584
 20
2.0847700000000002
 30
0.0
 10
1.9737200000000001
 20
1.3303900000000002
 30
0.0
 10
1.6892400000000001
 20
2.3438500000000002
 30
0.0
 10
2.4385400000000002
 20
2.47085
 30
0.0
 10
2.4385400000000002
 20
2.47085
 30
0.0
 10
2.5350600000000001
 20
2.6130900000000001
 30
0.0
 10
2.5833200000000001
 20
2.80105
 30
0.0
 10
2.5680800000000001
 20
2.9763100000000002
 30
0.0
 10
2.5680800000000001
 20
2.9763100000000002
 30
0.0
 10
2.4029800000000003
 20
2.8315300000000003
 30
0.0
 10
2.4080600000000003
 20
2.5191100000000004
 30
0.0
 10
2.16168
 20
2.4302100000000002
 30
0.0
 10
2.16168
 20
2.4302100000000002
 30
0.0
 10
1.8772000000000002
 20
2.4073500000000001
 30
0.0
 10
1.7375
 20
2.17875
 30
0.0
 10
1.7197200000000001
 20
1.9349100000000001
 30
0.0
 10
1.7197200000000001
 20
1.9349100000000001
 30
0.0
 10
1.7654400000000001
 20
1.8282300000000002
 30
0.0
 10
1.7197200000000001
 20
1.6936100000000001
 30
0.0
 10
1.8264000000000002
 20
1.61487
 30
0.0
 10
1.8264000000000002
 20
1.61487
 30
0.0
 10
1.9991200000000002
 20
1.48787
 30
0.0
 10
2.2251800000000004
 20
1.7088500000000002
 30
0.0
 10
2.3598000000000003
 20
1.5970900000000001
 30
0.0
 10
2.3598000000000003
 20
1.5970900000000001
 30
0.0
 10
2.0143600000000004
 20
0.8249300000000001
 30
0.0
 10
1.2574400000000001
 20
0.36265
 30
0.0
 10
0.7164200000000001
 20
-0.31298
 30
0.0
 10
0.7164200000000001
 20
-0.31298
 30
0.0
 10
0.40146
 20
-0.29012
 30
0.0
 10
-0.09637
 20
-0.28504
 30
0.0
 10
-0.16495
 20
0.04007
 30
0.0
 10
-0.16495
 20
0.04007
 30
0.0
 10
-0.31735
 20
-0.19868
 30
0.0
 10
-0.04557
 20
-0.35108
 30
0.0
 10
0.18302
 20
-0.35108
 30
0.0
 10
0.18302
 20
-0.35108
 30
0.0
 10
0.22366
 20
-0.63302
 30
0.0
 10
0.39384
 20
-0.9048000000000001
 30
0.0
 10
0.22112
 20
-1.1054600000000001
 30
0.0
 10
0.22112
 20
-1.1054600000000001
 30
0.0
 10
0.02808
 20
-0.8387600000000001
 30
0.0
 10
-0.09891
 20
-0.7676400000000001
 30
0.0
 10
0.1373
 20
-1.16388
 30
0.0
  0
SPLINE
  5
2D
100
AcDbEntity
  8
Ebene 1
100
AcDbSpline
210
0.0
220
0.0
230
1.0
 70
     1
 71
     3
 72
    16
 73
    12
 74
     0
 42
0.0000000001
 43
0.0000000001
 40
0.0
 40
0.0
 40
0.0
 40
0.0
 40
0.3333333333333333
 40
0.3333333333333333
 40
0.3333333333333333
 40
0.3333333333333333
 40
0.6666666666666666
 40
0.6666666666666666
 40
0.6666666666666666
 40
0.6666666666666666
 40
1.0
 40
1.0
 40
1.0
 40
1.0
 10
-2.5601700000000003
 20
2.5673700000000004
 30
0.0
 10
-2.3722100000000004
 20
2.5978500000000002
 30
0.0
 10
-2.1740900000000001
 20
2.5546700000000002
 30
0.0
 10
-2.0318500000000004
 20
2.4429100000000004
 30
0.0
 10
-2.0318500000000004
 20
2.4429100000000004
 30
0.0
 10
-2.1969500000000002
 20
2.3946500000000004
 30
0.0
 10
-2.10297
 20
2.0974700000000004
 30
0.0
 10
-2.3290300000000004
 20
2.04921
 30
0.0
 10
-2.3290300000000004
 20
2.04921
 30
0.0
 10
-2.6312900000000004
 20
2.01111
 30
0.0
 10
-2.8903700000000003
 20
2.41751
 30
0.0
 10
-2.5601700000000003
 20
2.5673700000000004
 30
0.0
  0
SPLINE
  5
2E
100
AcDbEntity
  8
Ebene 1
100
AcDbSpline
210
0.0
220
0.0
230
1.0
 70
     1
 71
     3
 72
    24
 73
    20
 74
     0
 42
0.0000000001
 43
0.0000000001
 40
0.0
 40
0.0
 40
0.0
 40
0.0
 40
0.2
 40
0.2
 40
0.2
 40
0.2
 40
0.4
 40
0.4
 40
0.4
 40
0.4
 40
0.6000000000000001
 40
0.6000000000000001
 40
0.6000000000000001
 40
0.6000000000000001
 40
0.8
 40
0.8
 40
0.8
 40
0.8
 40
1.0
 40
1.0
 40
1.0
 40
1.0
 10
-0.6932700000000001
 20
2.2320900000000004
 30
0.0
 10
-0.67549
 20
2.2422500000000003
 30
0.0
 10
-0.63231
 20
2.2270100000000004
 30
0.0
 10
-0.63993
 20
2.2016100000000001
 30
0.0
 10
-0.63993
 20
2.2016100000000001
 30
0.0
 10
-0.9142500000000001
 20
1.8028300000000002
 30
0.0
 10
-1.5670300000000001
 20
1.8485500000000001
 30
0.0
 10
-1.75499
 20
1.3811900000000001
 30
0.0
 10
-1.75499
 20
1.3811900000000001
 30
0.0
 10
-1.75499
 20
1.3811900000000001
 30
0.0
 10
-1.8083300000000002
 20
1.3659500000000002
 30
0.0
 10
-1.8083300000000002
 20
1.3659500000000002
 30
0.0
 10
-1.8083300000000002
 20
1.3659500000000002
 30
0.0
 10
-1.8286500000000001
 20
1.5335900000000002
 30
0.0
 10
-1.6686300000000001
 20
1.6529700000000001
 30
0.0
 10
-1.63053
 20
1.8206100000000001
 30
0.0
 10
-1.63053
 20
1.8206100000000001
 30
0.0
 10
-1.3231900000000001
 20
1.9603100000000002
 30
0.0
 10
-0.9218700000000001
 20
1.9806300000000001
 30
0.0
 10
-0.6932700000000001
 20
2.2320900000000004
 30
0.0
  0
SPLINE
  5
2F
100
AcDbEntity
  8
Ebene 1
100
AcDbSpline
210
0.0
220
0.0
230
1.0
 70
     1
 71
     3
 72
    72
 73
    68
 74
     0
 42
0.0000000001
 43
0.0000000001
 40
0.0
 40
0.0
 40
0.0
 40
0.0
 40
0.0588235294117647
 40
0.0588235294117647
 40
0.0588235294117647
 40
0.0588235294117647
 40
0.1176470588235294
 40
0.1176470588235294
 40
0.1176470588235294
 40
0.1176470588235294
 40
0.1764705882352941
 40
0.1764705882352941
 40
0.1764705882352941
 40
0.1764705882352941
 40
0.2352941176470588
 40
0.2352941176470588
 40
0.2352941176470588
 40
0.2352941176470588
 40
0.2941176470588235
 40
0.2941176470588235
 40
0.2941176470588235
 40
0.2941176470588235
 40
0.3529411764705883
 40
0.3529411764705883
 40
0.3529411764705883
 40
0.3529411764705883
 40
0.411764705882353
 40
0.411764705882353
 40
0.411764705882353
 40
0.411764705882353
 40
0.4705882352941177
 40
0.4705882352941177
 40
0.4705882352941177
 40
0.4705882352941177
 40
0.5294117647058824
 40
0.5294117647058824
 40
0.5294117647058824
 40
0.5294117647058824
 40
0.5882352941176471
 40
0.5882352941176471
 40
0.5882352941176471
 40
0.5882352941176471
 40
0.6470588235294118
 40
0.6470588235294118
 40
0.6470588235294118
 40
0.6470588235294118
 40
0.7058823529411765
 40
0.7058823529411765
 40
0.7058823529411765
 40
0.7058823529411765
 40
0.7647058823529412
 40
0.7647058823529412
 40
0.7647058823529412
 40
0.7647058823529412
 40
0.823529411764706
 40
0.823529411764706
 40
0.823529411764706
 40
0.823529411764706
 40
0.8823529411764707
 40
0.8823529411764707
 40
0.8823529411764707
 40
0.8823529411764707
 40
0.9411764705882354
 40
0.9411764705882354
 40
0.9411764705882354
 40
0.9411764705882354
 40
1.0
 40
1.0
 40
1.0
 40
1.0
 10
0.51068
 20
2.3565500000000004
 30
0.0
 10
0.5614800000000001
 20
2.3565500000000004
 30
0.0
 10
0.6859400000000001
 20
2.3971900000000002
 30
0.0
 10
0.7062600000000001
 20
2.3286100000000003
 30
0.0
 10
0.7062600000000001
 20
2.3286100000000003
 30
0.0
 10
0.48528
 20
2.3235300000000003
 30
0.0
 10
0.22874
 20
1.9653900000000002
 30
0.0
 10
0.29478
 20
1.8536300000000001
 30
0.0
 10
0.29478
 20
1.8536300000000001
 30
0.0
 10
0.8383400000000001
 20
2.2295500000000001
 30
0.0
 10
1.5038200000000002
 20
1.9780900000000001
 30
0.0
 10
1.3920600000000001
 20
1.3456300000000001
 30
0.0
 10
1.3920600000000001
 20
1.3456300000000001
 30
0.0
 10
1.2955400000000001
 20
1.3253100000000002
 30
0.0
 10
1.2218800000000001
 20
1.5234300000000001
 30
0.0
 10
1.14568
 20
1.3735700000000002
 30
0.0
 10
1.14568
 20
1.3735700000000002
 30
0.0
 10
1.14568
 20
1.3735700000000002
 30
0.0
 10
0.9856600000000001
 20
1.0941700000000001
 30
0.0
 10
0.9856600000000001
 20
1.0941700000000001
 30
0.0
 10
0.9856600000000001
 20
1.0941700000000001
 30
0.0
 10
0.9856600000000001
 20
1.0941700000000001
 30
0.0
 10
0.7773800000000001
 20
0.7995300000000001
 30
0.0
 10
0.7773800000000001
 20
0.7995300000000001
 30
0.0
 10
0.7773800000000001
 20
0.7995300000000001
 30
0.0
 10
0.7469
 20
0.78683
 30
0.0
 10
0.7138800000000001
 20
0.72079
 30
0.0
 10
0.7773800000000001
 20
0.7411100000000001
 30
0.0
 10
0.7773800000000001
 20
0.7411100000000001
 30
0.0
 10
1.02884
 20
0.7588900000000001
 30
0.0
 10
1.2396600000000002
 20
0.9189100000000001
 30
0.0
 10
1.4454
 20
1.03067
 30
0.0
 10
1.4454
 20
1.03067
 30
0.0
 10
1.3819000000000001
 20
0.89351
 30
0.0
 10
1.2295
 20
0.7741300000000001
 30
0.0
 10
1.0796400000000002
 20
0.70047
 30
0.0
 10
1.0796400000000002
 20
0.70047
 30
0.0
 10
0.4954400000000001
 20
0.40837
 30
0.0
 10
-0.23099
 20
0.32455
 30
0.0
 10
-0.7135900000000001
 20
0.83001
 30
0.0
 10
-0.7135900000000001
 20
0.83001
 30
0.0
 10
-0.8304300000000001
 20
0.87065
 30
0.0
 10
-0.65263
 20
0.6953900000000001
 30
0.0
 10
-0.7669300000000001
 20
0.74365
 30
0.0
 10
-0.7669300000000001
 20
0.74365
 30
0.0
 10
-0.7669300000000001
 20
0.74365
 30
0.0
 10
-0.8151900000000001
 20
0.7766700000000001
 30
0.0
 10
-0.8151900000000001
 20
0.7766700000000001
 30
0.0
 10
-0.8151900000000001
 20
0.7766700000000001
 30
0.0
 10
-0.8380500000000001
 20
0.8630300000000001
 30
0.0
 10
-0.7872500000000001
 20
0.9392300000000001
 30
0.0
 10
-0.76439
 20
1.0103500000000001
 30
0.0
 10
-0.76439
 20
1.0103500000000001
 30
0.0
 10
-0.76439
 20
1.0103500000000001
 30
0.0
 10
-1.75499
 20
0.9951100000000001
 30
0.0
 10
-1.75499
 20
0.9951100000000001
 30
0.0
 10
-1.75499
 20
0.9951100000000001
 30
0.0
 10
-1.8692900000000001
 20
1.0433700000000001
 30
0.0
 10
-1.9048500000000002
 20
1.1652900000000002
 30
0.0
 10
-1.9200900000000001
 20
1.2821300000000002
 30
0.0
 10
-1.9200900000000001
 20
1.2821300000000002
 30
0.0
 10
-1.7067300000000001
 20
1.0992500000000001
 30
0.0
 10
-1.2723900000000001
 20
1.15513
 30
0.0
 10
-0.9777500000000001
 20
1.0560700000000001
 30
0.0
 10
-0.9777500000000001
 20
1.0560700000000001
 30
0.0
 10
-0.20813
 20
1.0789300000000002
 30
0.0
 10
-0.02525
 20
1.9755500000000001
 30
0.0
 10
0.51068
 20
2.3565500000000004
 30
0.0
  0
SPLINE
  5
30
100
AcDbEntity
  8
Ebene 1
100
AcDbSpline
210
0.0
220
0.0
230
1.0
 70
     1
 71
     3
 72
    24
 73
    20
 74
     0
 42
0.0000000001
 43
0.0000000001
 40
0.0
 40
0.0
 40
0.0
 40
0.0
 40
0.2
 40
0.2
 40
0.2
 40
0.2
 40
0.4
 40
0.4
 40
0.4
 40
0.4
 40
0.6000000000000001
 40
0.6000000000000001
 40
0.6000000000000001
 40
0.6000000000000001
 40
0.8
 40
0.8
 40
0.8
 40
0.8
 40
1.0
 40
1.0
 40
1.0
 40
1.0
 10
-2.4509500000000002
 20
1.44215
 30
0.0
 10
-2.3798300000000001
 20
1.4396100000000001
 30
0.0
 10
-2.3112500000000002
 20
1.44723
 30
0.0
 10
-2.2452100000000002
 20
1.4269100000000001
 30
0.0
 10
-2.2452100000000002
 20
1.4269100000000001
 30
0.0
 10
-2.2452100000000002
 20
1.4269100000000001
 30
0.0
 10
-2.05979
 20
1.3938900000000001
 30
0.0
 10
-2.05979
 20
1.3938900000000001
 30
0.0
 10
-2.05979
 20
1.3938900000000001
 30
0.0
 10
-2.1740900000000001
 20
1.2846700000000002
 30
0.0
 10
-2.3671300000000004
 20
1.4751700000000001
 30
0.0
 10
-2.4763500000000001
 20
1.3456300000000001
 30
0.0
 10
-2.4763500000000001
 20
1.3456300000000001
 30
0.0
 10
-2.4763500000000001
 20
1.3456300000000001
 30
0.0
 10
-2.51953
 20
1.3507100000000001
 30
0.0
 10
-2.51953
 20
1.3507100000000001
 30
0.0
 10
-2.51953
 20
1.3507100000000001
 30
0.0
 10
-2.51953
 20
1.3507100000000001
 30
0.0
 10
-2.4509500000000002
 20
1.44215
 30
0.0
 10
-2.4509500000000002
 20
1.44215
 30
0.0
  0
SPLINE
  5
31
100
AcDbEntity
  8
Ebene 1
100
AcDbSpline
210
0.0
220
0.0
230
1.0
 70
     1
 71
     3
 72
    52
 73
    48
 74
     0
 42
0.0000000001
 43
0.0000000001
 40
0.0
 40
0.0
 40
0.0
 40
0.0
 40
0.0833333333333333
 40
0.0833333333333333
 40
0.0833333333333333
 40
0.0833333333333333
 40
0.1666666666666667
 40
0.1666666666666667
 40
0.1666666666666667
 40
0.1666666666666667
 40
0.25
 40
0.25
 40
0.25
 40
0.25
 40
0.3333333333333333
 40
0.3333333333333333
 40
0.3333333333333333
 40
0.3333333333333333
 40
0.4166666666666666
 40
0.4166666666666666
 40
0.4166666666666666
 40
0.4166666666666666
 40
0.4999999999999999
 40
0.4999999999999999
 40
0.4999999999999999
 40
0.4999999999999999
 40
0.5833333333333333
 40
0.5833333333333333
 40
0.5833333333333333
 40
0.5833333333333333
 40
0.6666666666666666
 40
0.6666666666666666
 40
0.6666666666666666
 40
0.6666666666666666
 40
0.75
 40
0.75
 40
0.75
 40
0.75
 40
0.8333333333333334
 40
0.8333333333333334
 40
0.8333333333333334
 40
0.8333333333333334
 40
0.9166666666666667
 40
0.9166666666666667
 40
0.9166666666666667
 40
0.9166666666666667
 40
1.0
 40
1.0
 40
1.0
 40
1.0
 10
-1.7473700000000001
 20
0.57601
 30
0.0
 10
-1.6914900000000002
 20
0.53537
 30
0.0
 10
-1.7753100000000002
 20
0.4210700000000001
 30
0.0
 10
-1.6838700000000002
 20
0.37281
 30
0.0
 10
-1.6838700000000002
 20
0.37281
 30
0.0
 10
-1.6076700000000002
 20
0.4007500000000001
 30
0.0
 10
-1.54925
 20
0.55823
 30
0.0
 10
-1.4324100000000002
 20
0.6039500000000001
 30
0.0
 10
-1.4324100000000002
 20
0.6039500000000001
 30
0.0
 10
-1.03871
 20
0.46933
 30
0.0
 10
-0.72121
 20
0.10611
 30
0.0
 10
-0.51039
 20
-0.23678
 30
0.0
 10
-0.51039
 20
-0.23678
 30
0.0
 10
-0.4926100000000001
 20
-0.7320800000000001
 30
0.0
 10
-0.9777500000000001
 20
-0.4806200000000001
 30
0.0
 10
-1.2749300000000001
 20
-0.41204
 30
0.0
 10
-1.2749300000000001
 20
-0.41204
 30
0.0
 10
-1.1580900000000001
 20
-0.50348
 30
0.0
 10
-1.24953
 20
-0.65588
 30
0.0
 10
-1.1961900000000001
 20
-0.7752600000000001
 30
0.0
 10
-1.1961900000000001
 20
-0.7752600000000001
 30
0.0
 10
-1.0742700000000001
 20
-0.8387600000000001
 30
0.0
 10
-0.9472700000000001
 20
-0.9581400000000001
 30
0.0
 10
-0.9396500000000001
 20
-1.08006
 30
0.0
 10
-0.9396500000000001
 20
-1.08006
 30
0.0
 10
-1.07681
 20
-0.8794000000000001
 30
0.0
 10
-1.38161
 20
-0.8540000000000001
 30
0.0
 10
-1.3435100000000002
 20
-0.5415800000000001
 30
0.0
 10
-1.3435100000000002
 20
-0.5415800000000001
 30
0.0
 10
-1.37653
 20
-0.6254000000000001
 30
0.0
 10
-1.37653
 20
-0.7320800000000001
 30
0.0
 10
-1.46289
 20
-0.7930400000000001
 30
0.0
 10
-1.46289
 20
-0.7930400000000001
 30
0.0
 10
-1.50607
 20
-0.80574
 30
0.0
 10
-1.5111500000000002
 20
-0.73716
 30
0.0
 10
-1.5517900000000002
 20
-0.71938
 30
0.0
 10
-1.5517900000000002
 20
-0.71938
 30
0.0
 10
-1.7397500000000001
 20
-0.38664
 30
0.0
 10
-1.5594100000000002
 20
0.00197
 30
0.0
 10
-1.8896100000000002
 20
0.3169300000000001
 30
0.0
 10
-1.8896100000000002
 20
0.3169300000000001
 30
0.0
 10
-1.8388100000000001
 20
0.40329
 30
0.0
 10
-1.7905500000000001
 20
0.35249
 30
0.0
 10
-1.7600700000000002
 20
0.43377
 30
0.0
 10
-1.7600700000000002
 20
0.43377
 30
0.0
 10
-1.7778500000000002
 20
0.48203
 30
0.0
 10
-1.7702300000000002
 20
0.53029
 30
0.0
 10
-1.7473700000000001
 20
0.57601
 30
0.0
  0
SPLINE
  5
32
100
AcDbEntity
  8
Ebene 1
 62
     7
100
AcDbSpline
210
0.0
220
0.0
230
1.0
 70
     1
 71
     3
 72
   140
 73
   136
 74
     0
 42
0.0000000001
 43
0.0000000001
 40
0.0
 40
0.0
 40
0.0
 40
0.0
 40
0.0294117647058824
 40
0.0294117647058824
 40
0.0294117647058824
 40
0.0294117647058824
 40
0.0588235294117647
 40
0.0588235294117647
 40
0.0588235294117647
 40
0.0588235294117647
 40
0.0882352941176471
 40
0.0882352941176471
 40
0.0882352941176471
 40
0.0882352941176471
 40
0.1176470588235294
 40
0.1176470588235294
 40
0.1176470588235294
 40
0.1176470588235294
 40
0.1470588235294118
 40
0.1470588235294118
 40
0.1470588235294118
 40
0.1470588235294118
 40
0.1764705882352941
 40
0.1764705882352941
 40
0.1764705882352941
 40
0.1764705882352941
 40
0.2058823529411765
 40
0.2058823529411765
 40
0.2058823529411765
 40
0.2058823529411765
 40
0.2352941176470589
 40
0.2352941176470589
 40
0.2352941176470589
 40
0.2352941176470589
 40
0.2647058823529412
 40
0.2647058823529412
 40
0.2647058823529412
 40
0.2647058823529412
 40
0.2941176470588235
 40
0.2941176470588235
 40
0.2941176470588235
 40
0.2941176470588235
 40
0.3235294117647059
 40
0.3235294117647059
 40
0.3235294117647059
 40
0.3235294117647059
 40
0.3529411764705883
 40
0.3529411764705883
 40
0.3529411764705883
 40
0.3529411764705883
 40
0.3823529411764706
 40
0.3823529411764706
 40
0.3823529411764706
 40
0.3823529411764706
 40
0.411764705882353
 40
0.411764705882353
 40
0.411764705882353
 40
0.411764705882353
 40
0.4411764705882353
 40
0.4411764705882353
 40
0.4411764705882353
 40
0.4411764705882353
 40
0.4705882352941177
 40
0.4705882352941177
 40
0.4705882352941177
 40
0.4705882352941177
 40
0.5
 40
0.5
 40
0.5
 40
0.5
 40
0.5294117647058824
 40
0.5294117647058824
 40
0.5294117647058824
 40
0.5294117647058824
 40
0.5588235294117647
 40
0.5588235294117647
 40
0.5588235294117647
 40
0.5588235294117647
 40
0.5882352941176471
 40
0.5882352941176471
 40
0.5882352941176471
 40
0.5882352941176471
 40
0.6176470588235294
 40
0.6176470588235294
 40
0.6176470588235294
 40
0.6176470588235294
 40
0.6470588235294118
 40
0.6470588235294118
 40
0.6470588235294118
 40
0.6470588235294118
 40
0.6764705882352942
 40
0.6764705882352942
 40
0.6764705882352942
 40
0.6764705882352942
 40
0.7058823529411765
 40
0.7058823529411765
 40
0.7058823529411765
 40
0.7058823529411765
 40
0.7352941176470589
 40
0.7352941176470589
 40
0.7352941176470589
 40
0.7352941176470589
 40
0.7647058823529412
 40
0.7647058823529412
 40
0.7647058823529412
 40
0.7647058823529412
 40
0.7941176470588236
 40
0.7941176470588236
 40
0.7941176470588236
 40
0.7941176470588236
 40
0.823529411764706
 40
0.823529411764706
 40
0.823529411764706
 40
0.823529411764706
 40
0.8529411764705883
 40
0.8529411764705883
 40
0.8529411764705883
 40
0.8529411764705883
 40
0.8823529411764707
 40
0.8823529411764707
 40
0.8823529411764707
 40
0.8823529411764707
 40
0.911764705882353
 40
0.911764705882353
 40
0.911764705882353
 40
0.911764705882353
 40
0.9411764705882354
 40
0.9411764705882354
 40
0.9411764705882354
 40
0.9411764705882354
 40
0.9705882352941178
 40
0.9705882352941178
 40
0.9705882352941178
 40
0.9705882352941178
 40
1.0
 40
1.0
 40
1.0
 40
1.0
 10
1.9838800000000001
 20
-2.8834600000000004
 30
0.0
 10
1.8848200000000002
 20
-2.8326600000000002
 30
0.0
 10
1.7273400000000001
 20
-2.81488
 30
0.0
 10
1.6663800000000002
 20
-2.7259800000000003
 30
0.0
 10
1.6663800000000002
 20
-2.7259800000000003
 30
0.0
 10
1.6663800000000002
 20
-2.7259800000000003
 30
0.0
 10
1.7146400000000002
 20
-2.7056600000000004
 30
0.0
 10
1.7146400000000002
 20
-2.7056600000000004
 30
0.0
 10
1.7146400000000002
 20
-2.7056600000000004
 30
0.0
 10
1.7146400000000002
 20
-2.7056600000000004
 30
0.0
 10
1.7019400000000002
 20
-2.6650200000000002
 30
0.0
 10
1.7019400000000002
 20
-2.6650200000000002
 30
0.0
 10
1.7019400000000002
 20
-2.6650200000000002
 30
0.0
 10
1.7019400000000002
 20
-2.6650200000000002
 30
0.0
 10
1.65622
 20
-2.6294600000000004
 30
0.0
 10
1.65622
 20
-2.6294600000000004
 30
0.0
 10
1.65622
 20
-2.6294600000000004
 30
0.0
 10
1.9711800000000002
 20
-2.5329400000000004
 30
0.0
 10
1.8416400000000002
 20
-2.0071600000000003
 30
0.0
 10
2.1845400000000001
 20
-1.9639800000000001
 30
0.0
 10
2.1845400000000001
 20
-1.9639800000000001
 30
0.0
 10
2.0245200000000003
 20
-1.9411200000000002
 30
0.0
 10
2.1388200000000004
 20
-1.8547600000000002
 30
0.0
 10
2.2404200000000003
 20
-1.8547600000000002
 30
0.0
 10
2.2404200000000003
 20
-1.8547600000000002
 30
0.0
 10
2.0448400000000002
 20
-1.6388600000000002
 30
0.0
 10
2.0600800000000001
 20
-1.6363200000000002
 30
0.0
 10
1.9813400000000001
 20
-1.4128000000000001
 30
0.0
 10
1.9813400000000001
 20
-1.4128000000000001
 30
0.0
 10
1.8975200000000001
 20
-1.4229600000000002
 30
0.0
 10
1.9432400000000001
 20
-1.5220200000000002
 30
0.0
 10
1.8518000000000001
 20
-1.5017
 30
0.0
 10
1.8518000000000001
 20
-1.5017
 30
0.0
 10
1.8518000000000001
 20
-1.5017
 30
0.0
 10
1.8746600000000002
 20
-1.3442200000000002
 30
0.0
 10
1.8746600000000002
 20
-1.3442200000000002
 30
0.0
 10
1.8746600000000002
 20
-1.3442200000000002
 30
0.0
 10
1.8746600000000002
 20
-1.3442200000000002
 30
0.0
 10
1.9330800000000001
 20
-1.3696200000000001
 30
0.0
 10
1.9330800000000001
 20
-1.3696200000000001
 30
0.0
 10
1.9330800000000001
 20
-1.3696200000000001
 30
0.0
 10
2.05246
 20
-1.4280400000000002
 30
0.0
 10
1.8568800000000001
 20
-1.1537200000000001
 30
0.0
 10
2.0169000000000001
 20
-1.3035800000000002
 30
0.0
 10
2.0169000000000001
 20
-1.3035800000000002
 30
0.0
 10
2.0677000000000003
 20
-1.3010400000000002
 30
0.0
 10
2.0804
 20
-1.3442200000000002
 30
0.0
 10
2.1058000000000003
 20
-1.37724
 30
0.0
 10
2.1058000000000003
 20
-1.37724
 30
0.0
 10
2.1540600000000003
 20
-1.4255000000000002
 30
0.0
 10
2.1159600000000003
 20
-1.5296400000000001
 30
0.0
 10
2.17692
 20
-1.5702800000000001
 30
0.0
 10
2.17692
 20
-1.5702800000000001
 30
0.0
 10
2.2734400000000003
 20
-1.4255000000000002
 30
0.0
 10
2.2785200000000003
 20
-1.4407400000000001
 30
0.0
 10
2.12866
 20
-1.2756400000000001
 30
0.0
 10
2.12866
 20
-1.2756400000000001
 30
0.0
 10
2.5528400000000002
 20
-0.65842
 30
0.0
 10
1.7146400000000002
 20
-0.10724
 30
0.0
 10
1.2472800000000002
 20
0.16453
 30
0.0
 10
1.2472800000000002
 20
0.16453
 30
0.0
 10
1.2472800000000002
 20
0.16453
 30
0.0
 10
1.5952600000000001
 20
0.4439300000000001
 30
0.0
 10
1.5952600000000001
 20
0.4439300000000001
 30
0.0
 10
1.5952600000000001
 20
0.4439300000000001
 30
0.0
 10
1.6486000000000001
 20
0.25089
 30
0.0
 10
1.7781400000000001
 20
-0.0285
 30
0.0
 10
2.0346800000000003
 20
0.02737
 30
0.0
 10
2.0346800000000003
 20
0.02737
 30
0.0
 10
2.3521800000000002
 20
0.23057
 30
0.0
 10
2.0296000000000003
 20
0.7106300000000001
 30
0.0
 10
2.20486
 20
0.9951100000000001
 30
0.0
 10
2.20486
 20
0.9951100000000001
 30
0.0
 10
2.20486
 20
0.9951100000000001
 30
0.0
 10
2.2988400000000002
 20
0.6039500000000001
 30
0.0
 10
2.2988400000000002
 20
0.6039500000000001
 30
0.0
 10
2.2988400000000002
 20
0.6039500000000001
 30
0.0
 10
2.2988400000000002
 20
0.6039500000000001
 30
0.0
 10
2.3115400000000004
 20
0.30931
 30
0.0
 10
2.3115400000000004
 20
0.30931
 30
0.0
 10
2.3115400000000004
 20
0.30931
 30
0.0
 10
2.5350600000000001
 20
0.6674500000000001
 30
0.0
 10
2.0600800000000001
 20
1.3253100000000002
 30
0.0
 10
2.5604600000000004
 20
1.5488300000000002
 30
0.0
 10
2.5604600000000004
 20
1.5488300000000002
 30
0.0
 10
2.5731600000000001
 20
1.0154300000000001
 30
0.0
 10
2.4436200000000001
 20
0.38805
 30
0.0
 10
2.5325200000000003
 20
-0.16566
 30
0.0
 10
2.5325200000000003
 20
-0.16566
 30
0.0
 10
2.6061800000000002
 20
-0.1301
 30
0.0
 10
2.50712
 20
0.16199
 30
0.0
 10
2.5553800000000004
 20
0.29661
 30
0.0
 10
2.5553800000000004
 20
0.29661
 30
0.0
 10
3.0862400000000001
 20
-0.37648
 30
0.0
 10
3.0049600000000001
 20
-1.1207
 30
0.0
 10
2.6519000000000004
 20
-1.8674600000000001
 30
0.0
 10
2.6519000000000004
 20
-1.8674600000000001
 30
0.0
 10
2.6341200000000002
 20
-2.3449800000000001
 30
0.0
 10
2.8424
 20
-1.3924800000000002
 30
0.0
 10
2.8881200000000002
 20
-1.5550400000000002
 30
0.0
 10
2.8881200000000002
 20
-1.5550400000000002
 30
0.0
 10
2.8881200000000002
 20
-1.5550400000000002
 30
0.0
 10
2.8017600000000003
 20
-1.8496800000000002
 30
0.0
 10
2.8017600000000003
 20
-1.8496800000000002
 30
0.0
 10
2.8017600000000003
 20
-1.8496800000000002
 30
0.0
 10
2.8017600000000003
 20
-1.8496800000000002
 30
0.0
 10
2.7103200000000003
 20
-2.2535400000000001
 30
0.0
 10
2.7103200000000003
 20
-2.2535400000000001
 30
0.0
 10
2.7103200000000003
 20
-2.2535400000000001
 30
0.0
 10
2.7281000000000004
 20
-2.31704
 30
0.0
 10
2.71286
 20
-2.3805400000000003
 30
0.0
 10
2.6925400000000002
 20
-2.4338800000000003
 30
0.0
 10
2.6925400000000002
 20
-2.4338800000000003
 30
0.0
 10
2.5630000000000002
 20
-2.7615400000000001
 30
0.0
 10
2.6341200000000002
 20
-1.8039600000000002
 30
0.0
 10
2.4868000000000001
 20
-2.18242
 30
0.0
 10
2.4868000000000001
 20
-2.18242
 30
0.0
 10
2.4868000000000001
 20
-2.18242
 30
0.0
 10
2.50712
 20
-2.3195800000000002
 30
0.0
 10
2.50712
 20
-2.3195800000000002
 30
0.0
 10
2.50712
 20
-2.3195800000000002
 30
0.0
 10
2.50204
 20
-2.3627600000000002
 30
0.0
 10
2.5147400000000002
 20
-2.4084800000000004
 30
0.0
 10
2.4893400000000003
 20
-2.43642
 30
0.0
 10
2.4893400000000003
 20
-2.43642
 30
0.0
 10
2.5325200000000003
 20
-2.8301200000000004
 30
0.0
 10
2.2074000000000003
 20
-1.9766800000000002
 30
0.0
 10
2.3293200000000001
 20
-2.52786
 30
0.0
 10
2.3293200000000001
 20
-2.52786
 30
0.0
 10
2.5782400000000001
 20
-3.0511000000000004
 30
0.0
 10
1.8010000000000002
 20
-2.3449800000000001
 30
0.0
 10
1.8416400000000002
 20
-2.6777200000000003
 30
0.0
 10
1.8416400000000002
 20
-2.6777200000000003
 30
0.0
 10
1.8822800000000002
 20
-2.7590000000000003
 30
0.0
 10
1.9178400000000002
 20
-2.8250400000000004
 30
0.0
 10
1.9838800000000001
 20
-2.8834600000000004
 30
0.0
  0
SPLINE
  5
33
100
AcDbEntity
  8
Ebene 1
 62
     7
100
AcDbSpline
210
0.0
220
0.0
230
1.0
 70
     1
 71
     3
 72
    24
 73
    20
 74
     0
 42
0.0000000001
 43
0.0000000001
 40
0.0
 40
0.0
 40
0.0
 40
0.0
 40
0.2
 40
0.2
 40
0.2
 40
0.2
 40
0.4
 40
0.4
 40
0.4
 40
0.4
 40
0.6000000000000001
 40
0.6000000000000001
 40
0.6000000000000001
 40
0.6000000000000001
 40
0.8
 40
0.8
 40
0.8
 40
0.8
 40
1.0
 40
1.0
 40
1.0
 40
1.0
 10
1.8314800000000002
 20
0.5709300000000001
 30
0.0
 10
1.9127600000000002
 20
0.5887100000000001
 30
0.0
 10
1.9889600000000001
 20
0.61919
 30
0.0
 10
2.0753200000000001
 20
0.6115700000000001
 30
0.0
 10
2.0753200000000001
 20
0.6115700000000001
 30
0.0
 10
2.0753200000000001
 20
0.6115700000000001
 30
0.0
 10
2.0956400000000004
 20
0.53791
 30
0.0
 10
2.0956400000000004
 20
0.53791
 30
0.0
 10
2.0956400000000004
 20
0.53791
 30
0.0
 10
2.0245200000000003
 20
0.42361
 30
0.0
 10
2.17692
 20
0.24327
 30
0.0
 10
2.0880200000000002
 20
0.13659
 30
0.0
 10
2.0880200000000002
 20
0.13659
 30
0.0
 10
1.8619600000000001
 20
0.09849
 30
0.0
 10
1.7629000000000001
 20
0.32455
 30
0.0
 10
1.69686
 20
0.49981
 30
0.0
 10
1.69686
 20
0.49981
 30
0.0
 10
1.69686
 20
0.49981
 30
0.0
 10
1.8314800000000002
 20
0.5709300000000001
 30
0.0
 10
1.8314800000000002
 20
0.5709300000000001
 30
0.0
  0
SPLINE
  5
34
100
AcDbEntity
  8
Ebene 1
 62
     7
100
AcDbSpline
210
0.0
220
0.0
230
1.0
 70
     1
 71
     3
 72
    16
 73
    12
 74
     0
 42
0.0000000001
 43
0.0000000001
 40
0.0
 40
0.0
 40
0.0
 40
0.0
 40
0.3333333333333333
 40
0.3333333333333333
 40
0.3333333333333333
 40
0.3333333333333333
 40
0.6666666666666666
 40
0.6666666666666666
 40
0.6666666666666666
 40
0.6666666666666666
 40
1.0
 40
1.0
 40
1.0
 40
1.0
 10
0.27192
 20
-0.36124
 30
0.0
 10
0.27192
 20
-0.36124
 30
0.0
 10
0.3354200000000001
 20
-0.3637800000000001
 30
0.0
 10
0.3354200000000001
 20
-0.3637800000000001
 30
0.0
 10
0.3354200000000001
 20
-0.3637800000000001
 30
0.0
 10
0.41162
 20
-0.49332
 30
0.0
 10
0.5640200000000001
 20
-0.6838200000000001
 30
0.0
 10
0.4395600000000001
 20
-0.82606
 30
0.0
 10
0.4395600000000001
 20
-0.82606
 30
0.0
 10
0.33288
 20
-0.69906
 30
0.0
 10
0.2897
 20
-0.5238
 30
0.0
 10
0.27192
 20
-0.36124
 30
0.0
  0
SPLINE
  5
35
100
AcDbEntity
  8
Ebene 1
 62
     7
100
AcDbSpline
210
0.0
220
0.0
230
1.0
 70
     1
 71
     3
 72
    16
 73
    12
 74
     0
 42
0.0000000001
 43
0.0000000001
 40
0.0
 40
0.0
 40
0.0
 40
0.0
 40
0.3333333333333333
 40
0.3333333333333333
 40
0.3333333333333333
 40
0.3333333333333333
 40
0.6666666666666666
 40
0.6666666666666666
 40
0.6666666666666666
 40
0.6666666666666666
 40
1.0
 40
1.0
 40
1.0
 40
1.0
 10
0.8205600000000001
 20
-0.49586
 30
0.0
 10
0.8205600000000001
 20
-0.49586
 30
0.0
 10
1.1304400000000001
 20
-0.69652
 30
0.0
 10
1.1304400000000001
 20
-0.69652
 30
0.0
 10
1.1304400000000001
 20
-0.69652
 30
0.0
 10
1.1304400000000001
 20
-0.69652
 30
0.0
 10
1.11012
 20
-0.7397
 30
0.0
 10
1.11012
 20
-0.7397
 30
0.0
 10
1.11012
 20
-0.7397
 30
0.0
 10
0.9882000000000001
 20
-0.6762
 30
0.0
 10
0.83072
 20
-0.65588
 30
0.0
 10
0.8205600000000001
 20
-0.49586
 30
0.0
  0
SPLINE
  5
36
100
AcDbEntity
  8
Ebene 1
 62
     7
100
AcDbSpline
210
0.0
220
0.0
230
1.0
 70
     1
 71
     3
 72
    16
 73
    12
 74
     0
 42
0.0000000001
 43
0.0000000001
 40
0.0
 40
0.0
 40
0.0
 40
0.0
 40
0.3333333333333333
 40
0.3333333333333333
 40
0.3333333333333333
 40
0.3333333333333333
 40
0.6666666666666666
 40
0.6666666666666666
 40
0.6666666666666666
 40
0.6666666666666666
 40
1.0
 40
1.0
 40
1.0
 40
1.0
 10
0.6656200000000001
 20
-0.67874
 30
0.0
 10
0.6656200000000001
 20
-0.67874
 30
0.0
 10
1.02884
 20
-0.9378200000000001
 30
0.0
 10
1.02884
 20
-0.9378200000000001
 30
0.0
 10
1.02884
 20
-0.9378200000000001
 30
0.0
 10
1.01868
 20
-0.9632200000000001
 30
0.0
 10
0.9907400000000001
 20
-0.9886200000000001
 30
0.0
 10
0.9628000000000001
 20
-1.00132
 30
0.0
 10
0.9628000000000001
 20
-1.00132
 30
0.0
 10
0.8231000000000001
 20
-0.9352800000000001
 30
0.0
 10
0.6935600000000001
 20
-0.8387600000000001
 30
0.0
 10
0.6656200000000001
 20
-0.67874
 30
0.0
  0
SPLINE
  5
37
100
AcDbEntity
  8
Ebene 1
 62
     7
100
AcDbSpline
210
0.0
220
0.0
230
1.0
 70
     1
 71
     3
 72
    20
 73
    16
 74
     0
 42
0.0000000001
 43
0.0000000001
 40
0.0
 40
0.0
 40
0.0
 40
0.0
 40
0.25
 40
0.25
 40
0.25
 40
0.25
 40
0.5
 40
0.5
 40
0.5
 40
0.5
 40
0.75
 40
0.75
 40
0.75
 40
0.75
 40
1.0
 40
1.0
 40
1.0
 40
1.0
 10
0.5208400000000001
 20
-0.8286000000000001
 30
0.0
 10
0.5208400000000001
 20
-0.8286000000000001
 30
0.0
 10
0.5665600000000001
 20
-0.82098
 30
0.0
 10
0.5665600000000001
 20
-0.82098
 30
0.0
 10
0.5665600000000001
 20
-0.82098
 30
0.0
 10
0.6834
 20
-0.9606800000000001
 30
0.0
 10
0.85104
 20
-1.03688
 30
0.0
 10
0.99582
 20
-1.1207
 30
0.0
 10
0.99582
 20
-1.1207
 30
0.0
 10
0.9247000000000001
 20
-1.1715
 30
0.0
 10
0.8739000000000001
 20
-1.2299200000000001
 30
0.0
 10
0.7596000000000001
 20
-1.2299200000000001
 30
0.0
 10
0.7596000000000001
 20
-1.2299200000000001
 30
0.0
 10
0.6224400000000001
 20
-1.1334000000000002
 30
0.0
 10
0.5487800000000001
 20
-0.9937
 30
0.0
 10
0.5208400000000001
 20
-0.8286000000000001
 30
0.0
  0
SPLINE
  5
38
100
AcDbEntity
  8
Ebene 1
 62
     7
100
AcDbSpline
210
0.0
220
0.0
230
1.0
 70
     1
 71
     3
 72
    16
 73
    12
 74
     0
 42
0.0000000001
 43
0.0000000001
 40
0.0
 40
0.0
 40
0.0
 40
0.0
 40
0.3333333333333333
 40
0.3333333333333333
 40
0.3333333333333333
 40
0.3333333333333333
 40
0.6666666666666666
 40
0.6666666666666666
 40
0.6666666666666666
 40
0.6666666666666666
 40
1.0
 40
1.0
 40
1.0
 40
1.0
 10
0.29224
 20
-1.0445
 30
0.0
 10
0.4675
 20
-1.1003800000000001
 30
0.0
 10
0.6884800000000001
 20
-1.20198
 30
0.0
 10
0.785
 20
-1.3493000000000002
 30
0.0
 10
0.785
 20
-1.3493000000000002
 30
0.0
 10
0.6757800000000001
 20
-1.5271000000000001
 30
0.0
 10
0.42686
 20
-1.4534400000000001
 30
0.0
 10
0.3887600000000001
 20
-1.2807200000000001
 30
0.0
 10
0.3887600000000001
 20
-1.2807200000000001
 30
0.0
 10
0.29224
 20
-1.2324600000000001
 30
0.0
 10
0.24144
 20
-1.12832
 30
0.0
 10
0.29224
 20
-1.0445
 30
0.0
  0
SPLINE
  5
39
100
AcDbEntity
  8
Ebene 1
 62
     7
100
AcDbSpline
210
0.0
220
0.0
230
1.0
 70
     1
 71
     3
 72
    16
 73
    12
 74
     0
 42
0.0000000001
 43
0.0000000001
 40
0.0
 40
0.0
 40
0.0
 40
0.0
 40
0.3333333333333333
 40
0.3333333333333333
 40
0.3333333333333333
 40
0.3333333333333333
 40
0.6666666666666666
 40
0.6666666666666666
 40
0.6666666666666666
 40
0.6666666666666666
 40
1.0
 40
1.0
 40
1.0
 40
1.0
 10
-0.20813
 20
-1.25024
 30
0.0
 10
-0.20813
 20
-1.25024
 30
0.0
 10
0.28716
 20
-1.7633200000000002
 30
0.0
 10
0.28716
 20
-1.7633200000000002
 30
0.0
 10
0.28716
 20
-1.7633200000000002
 30
0.0
 10
0.28716
 20
-1.7633200000000002
 30
0.0
 10
0.15
 20
-1.8649200000000001
 30
0.0
 10
0.15
 20
-1.8649200000000001
 30
0.0
 10
0.15
 20
-1.8649200000000001
 30
0.0
 10
-0.09637
 20
-1.7379200000000001
 30
0.0
 10
-0.3021100000000001
 20
-1.4940800000000001
 30
0.0
 10
-0.20813
 20
-1.25024
 30
0.0
  0
SPLINE
  5
3A
100
AcDbEntity
  8
Ebene 1
 62
     7
100
AcDbSpline
210
0.0
220
0.0
230
1.0
 70
     1
 71
     3
 72
    16
 73
    12
 74
     0
 42
0.0000000001
 43
0.0000000001
 40
0.0
 40
0.0
 40
0.0
 40
0.0
 40
0.3333333333333333
 40
0.3333333333333333
 40
0.3333333333333333
 40
0.3333333333333333
 40
0.6666666666666666
 40
0.6666666666666666
 40
0.6666666666666666
 40
0.6666666666666666
 40
1.0
 40
1.0
 40
1.0
 40
1.0
 10
-0.00239
 20
-1.1994400000000001
 30
0.0
 10
0.24144
 20
-1.2096
 30
0.0
 10
0.4090800000000001
 20
-1.4305800000000002
 30
0.0
 10
0.57164
 20
-1.5652000000000001
 30
0.0
 10
0.57164
 20
-1.5652000000000001
 30
0.0
 10
0.5259200000000001
 20
-1.6058400000000002
 30
0.0
 10
0.48782
 20
-1.6464800000000002
 30
0.0
 10
0.42178
 20
-1.6642600000000001
 30
0.0
 10
0.42178
 20
-1.6642600000000001
 30
0.0
 10
0.27446
 20
-1.5118600000000002
 30
0.0
 10
0.09666
 20
-1.3874000000000002
 30
0.0
 10
-0.00239
 20
-1.1994400000000001
 30
0.0
  0
SPLINE
  5
3B
100
AcDbEntity
  8
Ebene 1
 62
     7
100
AcDbSpline
210
0.0
220
0.0
230
1.0
 70
     1
 71
     3
 72
    12
 73
     8
 74
     0
 42
0.0000000001
 43
0.0000000001
 40
0.0
 40
0.0
 40
0.0
 40
0.0
 40
0.5
 40
0.5
 40
0.5
 40
0.5
 40
1.0
 40
1.0
 40
1.0
 40
1.0
 10
-0.9701300000000001
 20
-1.4559800000000001
 30
0.0
 10
-0.7567700000000001
 20
-1.5220200000000002
 30
0.0
 10
-0.61707
 20
-1.8496800000000002
 30
0.0
 10
-0.8126500000000001
 20
-2.0097
 30
0.0
 10
-0.8126500000000001
 20
-2.0097
 30
0.0
 10
-0.9396500000000001
 20
-1.8623800000000001
 30
0.0
 10
-0.92949
 20
-1.6287
 30
0.0
 10
-0.9701300000000001
 20
-1.4559800000000001
 30
0.0
  0
SPLINE
  5
3C
100
AcDbEntity
  8
Ebene 1
 62
     7
100
AcDbSpline
210
0.0
220
0.0
230
1.0
 70
     1
 71
     3
 72
    24
 73
    20
 74
     0
 42
0.0000000001
 43
0.0000000001
 40
0.0
 40
0.0
 40
0.0
 40
0.0
 40
0.2
 40
0.2
 40
0.2
 40
0.2
 40
0.4
 40
0.4
 40
0.4
 40
0.4
 40
0.6000000000000001
 40
0.6000000000000001
 40
0.6000000000000001
 40
0.6000000000000001
 40
0.8
 40
0.8
 40
0.8
 40
0.8
 40
1.0
 40
1.0
 40
1.0
 40
1.0
 10
-0.57135
 20
-1.3569200000000001
 30
0.0
 10
-0.5434100000000001
 20
-1.3493000000000002
 30
0.0
 10
-0.51039
 20
-1.3569200000000001
 30
0.0
 10
-0.48499
 20
-1.3696200000000001
 30
0.0
 10
-0.48499
 20
-1.3696200000000001
 30
0.0
 10
-0.3656100000000001
 20
-1.5347200000000001
 30
0.0
 10
-0.16495
 20
-1.6744200000000002
 30
0.0
 10
-0.14463
 20
-1.8877800000000002
 30
0.0
 10
-0.14463
 20
-1.8877800000000002
 30
0.0
 10
-0.14463
 20
-1.8877800000000002
 30
0.0
 10
-0.11415
 20
-1.9589000000000001
 30
0.0
 10
-0.11415
 20
-1.9589000000000001
 30
0.0
 10
-0.11415
 20
-1.9589000000000001
 30
0.0
 10
-0.17257
 20
-2.0224000000000002
 30
0.0
 10
-0.22083
 20
-2.01478
 30
0.0
 10
-0.30973
 20
-2.02494
 30
0.0
 10
-0.30973
 20
-2.02494
 30
0.0
 10
-0.25893
 20
-1.8014200000000002
 30
0.0
 10
-0.6424700000000001
 20
-1.58552
 30
0.0
 10
-0.57135
 20
-1.3569200000000001
 30
0.0
  0
SPLINE
  5
3D
100
AcDbEntity
  8
Ebene 1
 62
     7
100
AcDbSpline
210
0.0
220
0.0
230
1.0
 70
     1
 71
     3
 72
    16
 73
    12
 74
     0
 42
0.0000000001
 43
0.0000000001
 40
0.0
 40
0.0
 40
0.0
 40
0.0
 40
0.3333333333333333
 40
0.3333333333333333
 40
0.3333333333333333
 40
0.3333333333333333
 40
0.6666666666666666
 40
0.6666666666666666
 40
0.6666666666666666
 40
0.6666666666666666
 40
1.0
 40
1.0
 40
1.0
 40
1.0
 10
-0.74407
 20
-1.4636
 30
0.0
 10
-0.5459500000000001
 20
-1.5779000000000001
 30
0.0
 10
-0.47737
 20
-1.8217400000000001
 30
0.0
 10
-0.3859300000000001
 20
-2.0274800000000002
 30
0.0
 10
-0.3859300000000001
 20
-2.0274800000000002
 30
0.0
 10
-0.45705
 20
-2.0833600000000003
 30
0.0
 10
-0.5459500000000001
 20
-2.0782800000000003
 30
0.0
 10
-0.61453
 20
-2.0351000000000004
 30
0.0
 10
-0.61453
 20
-2.0351000000000004
 30
0.0
 10
-0.6196100000000001
 20
-1.8471400000000002
 30
0.0
 10
-0.69835
 20
-1.6541000000000001
 30
0.0
 10
-0.74407
 20
-1.4636
 30
0.0
  0
SPLINE
  5
3E
100
AcDbEntity
  8
Ebene 1
 62
     7
100
AcDbSpline
210
0.0
220
0.0
230
1.0
 70
     1
 71
     3
 72
    16
 73
    12
 74
     0
 42
0.0000000001
 43
0.0000000001
 40
0.0
 40
0.0
 40
0.0
 40
0.0
 40
0.3333333333333333
 40
0.3333333333333333
 40
0.3333333333333333
 40
0.3333333333333333
 40
0.6666666666666666
 40
0.6666666666666666
 40
0.6666666666666666
 40
0.6666666666666666
 40
1.0
 40
1.0
 40
1.0
 40
1.0
 10
1.9076800000000003
 20
-1.6998200000000001
 30
0.0
 10
1.9838800000000001
 20
-1.7252200000000002
 30
0.0
 10
2.0727800000000003
 20
-1.8039600000000002
 30
0.0
 10
2.0448400000000002
 20
-1.8852400000000002
 30
0.0
 10
2.0448400000000002
 20
-1.8852400000000002
 30
0.0
 10
1.9838800000000001
 20
-1.9081000000000001
 30
0.0
 10
1.9076800000000003
 20
-1.8852400000000002
 30
0.0
 10
1.8492600000000001
 20
-1.8547600000000002
 30
0.0
 10
1.8492600000000001
 20
-1.8547600000000002
 30
0.0
 10
1.8695800000000002
 20
-1.8090400000000002
 30
0.0
 10
1.9229200000000002
 20
-1.7531600000000001
 30
0.0
 10
1.9076800000000003
 20
-1.6998200000000001
 30
0.0
  0
SPLINE
  5
3F
100
AcDbEntity
  8
Ebene 1
 62
     7
100
AcDbSpline
210
0.0
220
0.0
230
1.0
 70
     1
 71
     3
 72
    20
 73
    16
 74
     0
 42
0.0000000001
 43
0.0000000001
 40
0.0
 40
0.0
 40
0.0
 40
0.0
 40
0.25
 40
0.25
 40
0.25
 40
0.25
 40
0.5
 40
0.5
 40
0.5
 40
0.5
 40
0.75
 40
0.75
 40
0.75
 40
0.75
 40
1.0
 40
1.0
 40
1.0
 40
1.0
 10
1.6409800000000001
 20
-2.0224000000000002
 30
0.0
 10
1.7248000000000001
 20
-1.9614400000000001
 30
0.0
 10
1.8772000000000002
 20
-2.0757400000000001
 30
0.0
 10
1.9000600000000001
 20
-1.9766800000000002
 30
0.0
 10
1.9000600000000001
 20
-1.9766800000000002
 30
0.0
 10
1.9000600000000001
 20
-1.9766800000000002
 30
0.0
 10
1.9356200000000001
 20
-1.9843000000000002
 30
0.0
 10
1.9356200000000001
 20
-1.9843000000000002
 30
0.0
 10
1.9356200000000001
 20
-1.9843000000000002
 30
0.0
 10
1.9635600000000002
 20
-2.0859000000000001
 30
0.0
 10
1.9051400000000001
 20
-2.1722600000000001
 30
0.0
 10
1.8594200000000001
 20
-2.2535400000000001
 30
0.0
 10
1.8594200000000001
 20
-2.2535400000000001
 30
0.0
 10
1.7603600000000001
 20
-2.2103600000000001
 30
0.0
 10
1.6028800000000001
 20
-2.1341600000000001
 30
0.0
 10
1.6409800000000001
 20
-2.0224000000000002
 30
0.0
  0
SPLINE
  5
40
100
AcDbEntity
  8
Ebene 1
 62
     7
100
AcDbSpline
210
0.0
220
0.0
230
1.0
 70
     1
 71
     3
 72
    12
 73
     8
 74
     0
 42
0.0000000001
 43
0.0000000001
 40
0.0
 40
0.0
 40
0.0
 40
0.0
 40
0.5
 40
0.5
 40
0.5
 40
0.5
 40
1.0
 40
1.0
 40
1.0
 40
1.0
 10
0.55132
 20
-2.3907000000000003
 30
0.0
 10
0.55132
 20
-2.3907000000000003
 30
0.0
 10
0.8002400000000001
 20
-2.5634200000000003
 30
0.0
 10
0.8002400000000001
 20
-2.5634200000000003
 30
0.0
 10
0.8002400000000001
 20
-2.5634200000000003
 30
0.0
 10
0.7062600000000001
 20
-2.5685000000000002
 30
0.0
 10
0.5945
 20
-2.4694400000000001
 30
0.0
 10
0.55132
 20
-2.3907000000000003
 30
0.0
  0
SPLINE
  5
41
100
AcDbEntity
  8
Ebene 1
 62
     7
100
AcDbSpline
210
0.0
220
0.0
230
1.0
 70
     1
 71
     3
 72
    20
 73
    16
 74
     0
 42
0.0000000001
 43
0.0000000001
 40
0.0
 40
0.0
 40
0.0
 40
0.0
 40
0.25
 40
0.25
 40
0.25
 40
0.25
 40
0.5
 40
0.5
 40
0.5
 40
0.5
 40
0.75
 40
0.75
 40
0.75
 40
0.75
 40
1.0
 40
1.0
 40
1.0
 40
1.0
 10
1.6079600000000001
 20
-2.5151600000000003
 30
0.0
 10
1.5063600000000001
 20
-2.5735800000000002
 30
0.0
 10
1.4454
 20
-2.4237200000000003
 30
0.0
 10
1.4936600000000002
 20
-2.3475200000000003
 30
0.0
 10
1.4936600000000002
 20
-2.3475200000000003
 30
0.0
 10
1.4936600000000002
 20
-2.3475200000000003
 30
0.0
 10
1.7705200000000001
 20
-2.4262600000000001
 30
0.0
 10
1.7705200000000001
 20
-2.4262600000000001
 30
0.0
 10
1.7705200000000001
 20
-2.4262600000000001
 30
0.0
 10
1.8035400000000001
 20
-2.4821400000000002
 30
0.0
 10
1.7552800000000002
 20
-2.5481800000000003
 30
0.0
 10
1.6892400000000001
 20
-2.5583400000000003
 30
0.0
 10
1.6892400000000001
 20
-2.5583400000000003
 30
0.0
 10
1.6892400000000001
 20
-2.5583400000000003
 30
0.0
 10
1.6079600000000001
 20
-2.5151600000000003
 30
0.0
 10
1.6079600000000001
 20
-2.5151600000000003
 30
0.0
  0
SPLINE
  5
42
100
AcDbEntity
  8
Ebene 1
 62
     7
100
AcDbSpline
210
0.0
220
0.0
230
1.0
 70
     1
 71
     3
 72
    12
 73
     8
 74
     0
 42
0.0000000001
 43
0.0000000001
 40
0.0
 40
0.0
 40
0.0
 40
0.0
 40
0.5
 40
0.5
 40
0.5
 40
0.5
 40
1.0
 40
1.0
 40
1.0
 40
1.0
 10
1.1761600000000001
 20
-2.4897600000000004
 30
0.0
 10
1.3031600000000001
 20
-2.5837400000000001
 30
0.0
 10
1.5749400000000002
 20
-2.57104
 30
0.0
 10
1.5470000000000002
 20
-2.7793200000000002
 30
0.0
 10
1.5470000000000002
 20
-2.7793200000000002
 30
0.0
 10
1.36158
 20
-2.9647400000000004
 30
0.0
 10
1.19648
 20
-2.6574000000000004
 30
0.0
 10
1.1761600000000001
 20
-2.4897600000000004
 30
0.0
  0
SPLINE
  5
43
100
AcDbEntity
  8
Ebene 1
 62
     7
100
AcDbSpline
210
0.0
220
0.0
230
1.0
 70
     1
 71
     3
 72
    16
 73
    12
 74
     0
 42
0.0000000001
 43
0.0000000001
 40
0.0
 40
0.0
 40
0.0
 40
0.0
 40
0.3333333333333333
 40
0.3333333333333333
 40
0.3333333333333333
 40
0.3333333333333333
 40
0.6666666666666666
 40
0.6666666666666666
 40
0.6666666666666666
 40
0.6666666666666666
 40
1.0
 40
1.0
 40
1.0
 40
1.0
 10
0.6072000000000001
 20
-2.7132800000000001
 30
0.0
 10
0.6681600000000001
 20
-2.7488400000000004
 30
0.0
 10
0.71896
 20
-2.7564600000000001
 30
0.0
 10
0.7900800000000001
 20
-2.7666200000000001
 30
0.0
 10
0.7900800000000001
 20
-2.7666200000000001
 30
0.0
 10
0.7900800000000001
 20
-2.7666200000000001
 30
0.0
 10
0.912
 20
-2.9520400000000002
 30
0.0
 10
0.912
 20
-2.9520400000000002
 30
0.0
 10
0.912
 20
-2.9520400000000002
 30
0.0
 10
0.78754
 20
-2.90124
 30
0.0
 10
0.6224400000000001
 20
-2.8428200000000001
 30
0.0
 10
0.6072000000000001
 20
-2.7132800000000001
 30
0.0
  0
SPLINE
  5
44
100
AcDbEntity
  8
Ebene 1
 62
     7
100
AcDbSpline
210
0.0
220
0.0
230
1.0
 70
     1
 71
     3
 72
    16
 73
    12
 74
     0
 42
0.0000000001
 43
0.0000000001
 40
0.0
 40
0.0
 40
0.0
 40
0.0
 40
0.3333333333333333
 40
0.3333333333333333
 40
0.3333333333333333
 40
0.3333333333333333
 40
0.6666666666666666
 40
0.6666666666666666
 40
0.6666666666666666
 40
0.6666666666666666
 40
1.0
 40
1.0
 40
1.0
 40
1.0
 10
0.8993000000000001
 20
-2.7209000000000003
 30
0.0
 10
1.01868
 20
-2.7666200000000001
 30
0.0
 10
1.1253600000000001
 20
-2.8656800000000002
 30
0.0
 10
1.27014
 20
-2.8402800000000004
 30
0.0
 10
1.27014
 20
-2.8402800000000004
 30
0.0
 10
1.27014
 20
-2.8402800000000004
 30
0.0
 10
1.3006200000000001
 20
-2.8758400000000002
 30
0.0
 10
1.3006200000000001
 20
-2.8758400000000002
 30
0.0
 10
1.3006200000000001
 20
-2.8758400000000002
 30
0.0
 10
1.2422000000000002
 20
-3.1069800000000001
 30
0.0
 10
0.8967600000000001
 20
-2.9215600000000004
 30
0.0
 10
0.8993000000000001
 20
-2.7209000000000003
 30
0.0
  0
SPLINE
  5
45
100
AcDbEntity
  8
Ebene 1
 62
     7
100
AcDbSpline
210
0.0
220
0.0
230
1.0
 70
     1
 71
     3
 72
    16
 73
    12
 74
     0
 42
0.0000000001
 43
0.0000000001
 40
0.0
 40
0.0
 40
0.0
 40
0.0
 40
0.3333333333333333
 40
0.3333333333333333
 40
0.3333333333333333
 40
0.3333333333333333
 40
0.6666666666666666
 40
0.6666666666666666
 40
0.6666666666666666
 40
0.6666666666666666
 40
1.0
 40
1.0
 40
1.0
 40
1.0
 10
1.52922
 20
-2.8352000000000004
 30
0.0
 10
1.6486000000000001
 20
-2.7793200000000002
 30
0.0
 10
1.6028800000000001
 20
-2.9215600000000004
 30
0.0
 10
1.7095600000000002
 20
-2.9393400000000001
 30
0.0
 10
1.7095600000000002
 20
-2.9393400000000001
 30
0.0
 10
1.7095600000000002
 20
-2.9393400000000001
 30
0.0
 10
1.7171800000000002
 20
-2.9622000000000002
 30
0.0
 10
1.7171800000000002
 20
-2.9622000000000002
 30
0.0
 10
1.7171800000000002
 20
-2.9622000000000002
 30
0.0
 10
1.6460600000000001
 20
-2.9520400000000002
 30
0.0
 10
1.4708000000000001
 20
-2.9317200000000003
 30
0.0
 10
1.52922
 20
-2.8352000000000004
 30
0.0
  0
SPLINE
  5
46
100
AcDbEntity
  8
Ebene 1
 62
     7
100
AcDbSpline
210
0.0
220
0.0
230
1.0
 70
     1
 71
     3
 72
    16
 73
    12
 74
     0
 42
0.0000000001
 43
0.0000000001
 40
0.0
 40
0.0
 40
0.0
 40
0.0
 40
0.3333333333333333
 40
0.3333333333333333
 40
0.3333333333333333
 40
0.3333333333333333
 40
0.6666666666666666
 40
0.6666666666666666
 40
0.6666666666666666
 40
0.6666666666666666
 40
1.0
 40
1.0
 40
1.0
 40
1.0
 10
1.3234800000000002
 20
-2.9520400000000002
 30
0.0
 10
1.3793600000000001
 20
-2.9164800000000004
 30
0.0
 10
1.3819000000000001
 20
-2.9825200000000001
 30
0.0
 10
1.40476
 20
-3.0053800000000002
 30
0.0
 10
1.40476
 20
-3.0053800000000002
 30
0.0
 10
1.40476
 20
-3.0053800000000002
 30
0.0
 10
1.2980800000000001
 20
-3.0333200000000002
 30
0.0
 10
1.2980800000000001
 20
-3.0333200000000002
 30
0.0
 10
1.2980800000000001
 20
-3.0333200000000002
 30
0.0
 10
1.2980800000000001
 20
-3.0333200000000002
 30
0.0
 10
1.3234800000000002
 20
-2.9520400000000002
 30
0.0
 10
1.3234800000000002
 20
-2.9520400000000002
 30
0.0
  0
SPLINE
  5
47
100
AcDbEntity
  8
Ebene 1
 62
     7
100
AcDbSpline
210
0.0
220
0.0
230
1.0
 70
     1
 71
     3
 72
    20
 73
    16
 74
     0
 42
0.0000000001
 43
0.0000000001
 40
0.0
 40
0.0
 40
0.0
 40
0.0
 40
0.25
 40
0.25
 40
0.25
 40
0.25
 40
0.5
 40
0.5
 40
0.5
 40
0.5
 40
0.75
 40
0.75
 40
0.75
 40
0.75
 40
1.0
 40
1.0
 40
1.0
 40
1.0
 10
2.9135200000000001
 20
-2.8606000000000003
 30
0.0
 10
2.9948000000000001
 20
-2.8987000000000003
 30
0.0
 10
3.0938600000000003
 20
-2.9469600000000002
 30
0.0
 10
3.1319600000000003
 20
-3.0257000000000001
 30
0.0
 10
3.1319600000000003
 20
-3.0257000000000001
 30
0.0
 10
3.1319600000000003
 20
-3.0257000000000001
 30
0.0
 10
3.2691200000000005
 20
-3.03078
 30
0.0
 10
3.2691200000000005
 20
-3.03078
 30
0.0
 10
3.2691200000000005
 20
-3.03078
 30
0.0
 10
3.3910400000000003
 20
-3.2162000000000002
 30
0.0
 10
3.5409000000000002
 20
-3.3889200000000002
 30
0.0
 10
3.6323400000000001
 20
-3.5895800000000002
 30
0.0
 10
3.6323400000000001
 20
-3.5895800000000002
 30
0.0
 10
3.3935800000000005
 20
-3.3508200000000001
 30
0.0
 10
2.9694000000000003
 20
-3.2365200000000001
 30
0.0
 10
2.9135200000000001
 20
-2.8606000000000003
 30
0.0
  0
SPLINE
  5
48
100
AcDbEntity
  8
Ebene 1
 62
     7
100
AcDbSpline
210
0.0
220
0.0
230
1.0
 70
     1
 71
     3
 72
    16
 73
    12
 74
     0
 42
0.0000000001
 43
0.0000000001
 40
0.0
 40
0.0
 40
0.0
 40
0.0
 40
0.3333333333333333
 40
0.3333333333333333
 40
0.3333333333333333
 40
0.3333333333333333
 40
0.6666666666666666
 40
0.6666666666666666
 40
0.6666666666666666
 40
0.6666666666666666
 40
1.0
 40
1.0
 40
1.0
 40
1.0
 10
3.3478600000000003
 20
-4.0975800000000007
 30
0.0
 10
3.1878400000000005
 20
-4.0721800000000004
 30
0.0
 10
3.0176600000000002
 20
-3.9502600000000001
 30
0.0
 10
2.9338400000000004
 20
-3.8334200000000003
 30
0.0
 10
2.9338400000000004
 20
-3.8334200000000003
 30
0.0
 10
2.9338400000000004
 20
-3.8334200000000003
 30
0.0
 10
2.4512400000000003
 20
-3.0917400000000002
 30
0.0
 10
2.4512400000000003
 20
-3.0917400000000002
 30
0.0
 10
2.4512400000000003
 20
-3.0917400000000002
 30
0.0
 10
2.9541600000000003
 20
-3.2390600000000003
 30
0.0
 10
2.9414600000000002
 20
-3.8613600000000003
 30
0.0
 10
3.3478600000000003
 20
-4.0975800000000007
 30
0.0
  0
SPLINE
  5
49
100
AcDbEntity
  8
Ebene 1
 62
     7
100
AcDbSpline
210
0.0
220
0.0
230
1.0
 70
     1
 71
     3
 72
    12
 73
     8
 74
     0
 42
0.0000000001
 43
0.0000000001
 40
0.0
 40
0.0
 40
0.0
 40
0.0
 40
0.5
 40
0.5
 40
0.5
 40
0.5
 40
1.0
 40
1.0
 40
1.0
 40
1.0
 10
2.1921600000000003
 20
-3.4397200000000003
 30
0.0
 10
2.3191600000000001
 20
-3.4676600000000004
 30
0.0
 10
2.33948
 20
-3.6581600000000001
 30
0.0
 10
2.38774
 20
-3.7724600000000001
 30
0.0
 10
2.38774
 20
-3.7724600000000001
 30
0.0
 10
2.2963
 20
-3.6861000000000002
 30
0.0
 10
2.2277200000000001
 20
-3.5667200000000001
 30
0.0
 10
2.1921600000000003
 20
-3.4397200000000003
 30
0.0
  0
SPLINE
  5
4A
100
AcDbEntity
  8
Ebene 1
 62
     7
100
AcDbSpline
210
0.0
220
0.0
230
1.0
 70
     1
 71
     3
 72
    28
 73
    24
 74
     0
 42
0.0000000001
 43
0.0000000001
 40
0.0
 40
0.0
 40
0.0
 40
0.0
 40
0.1666666666666667
 40
0.1666666666666667
 40
0.1666666666666667
 40
0.1666666666666667
 40
0.3333333333333333
 40
0.3333333333333333
 40
0.3333333333333333
 40
0.3333333333333333
 40
0.5
 40
0.5
 40
0.5
 40
0.5
 40
0.6666666666666666
 40
0.6666666666666666
 40
0.6666666666666666
 40
0.6666666666666666
 40
0.8333333333333333
 40
0.8333333333333333
 40
0.8333333333333333
 40
0.8333333333333333
 40
1.0
 40
1.0
 40
1.0
 40
1.0
 10
3.7034600000000002
 20
-4.6513
 30
0.0
 10
3.3199200000000002
 20
-4.4430200000000006
 30
0.0
 10
2.9008200000000004
 20
-4.3287200000000006
 30
0.0
 10
2.7865200000000003
 20
-3.8537400000000002
 30
0.0
 10
2.7865200000000003
 20
-3.8537400000000002
 30
0.0
 10
2.6722200000000003
 20
-3.8715200000000003
 30
0.0
 10
2.8246200000000004
 20
-4.1102800000000004
 30
0.0
 10
2.79922
 20
-4.2042600000000006
 30
0.0
 10
2.79922
 20
-4.2042600000000006
 30
0.0
 10
2.6138000000000003
 20
-4.0315400000000006
 30
0.0
 10
2.5325200000000003
 20
-3.7470600000000003
 30
0.0
 10
2.5528400000000002
 20
-3.5108400000000004
 30
0.0
 10
2.5528400000000002
 20
-3.5108400000000004
 30
0.0
 10
2.7890600000000001
 20
-3.7419800000000003
 30
0.0
 10
2.9160600000000003
 20
-4.0772600000000008
 30
0.0
 10
3.2462600000000004
 20
-4.2195
 30
0.0
 10
3.2462600000000004
 20
-4.2195
 30
0.0
 10
3.2792800000000004
 20
-4.2728400000000004
 30
0.0
 10
3.1599000000000004
 20
-4.2195
 30
0.0
 10
3.1929200000000004
 20
-4.2753800000000002
 30
0.0
 10
3.1929200000000004
 20
-4.2753800000000002
 30
0.0
 10
3.3681800000000002
 20
-4.4201600000000001
 30
0.0
 10
3.7949000000000002
 20
-4.6157400000000006
 30
0.0
 10
3.7034600000000002
 20
-4.6513
 30
0.0
  0
SPLINE
  5
4B
100
AcDbEntity
  8
Ebene 1
 62
     7
100
AcDbSpline
210
0.0
220
0.0
230
1.0
 70
     1
 71
     3
 72
    12
 73
     8
 74
     0
 42
0.0000000001
 43
0.0000000001
 40
0.0
 40
0.0
 40
0.0
 40
0.0
 40
0.5
 40
0.5
 40
0.5
 40
0.5
 40
1.0
 40
1.0
 40
1.0
 40
1.0
 10
3.0659200000000002
 20
-3.5108400000000004
 30
0.0
 10
3.3224600000000004
 20
-3.5819600000000005
 30
0.0
 10
3.5459800000000001
 20
-3.7699200000000004
 30
0.0
 10
3.5967800000000003
 20
-4.0137600000000004
 30
0.0
 10
3.5967800000000003
 20
-4.0137600000000004
 30
0.0
 10
3.3199200000000002
 20
-3.9909000000000003
 30
0.0
 10
3.1192600000000001
 20
-3.7623000000000002
 30
0.0
 10
3.0659200000000002
 20
-3.5108400000000004
 30
0.0
  0
SPLINE
  5
4C
100
AcDbEntity
  8
Ebene 1
 62
     7
100
AcDbSpline
210
0.0
220
0.0
230
1.0
 70
     1
 71
     3
 72
    16
 73
    12
 74
     0
 42
0.0000000001
 43
0.0000000001
 40
0.0
 40
0.0
 40
0.0
 40
0.0
 40
0.3333333333333333
 40
0.3333333333333333
 40
0.3333333333333333
 40
0.3333333333333333
 40
0.6666666666666666
 40
0.6666666666666666
 40
0.6666666666666666
 40
0.6666666666666666
 40
1.0
 40
1.0
 40
1.0
 40
1.0
 10
3.6018600000000003
 20
-3.8435800000000002
 30
0.0
 10
3.8101400000000005
 20
-3.9807400000000004
 30
0.0
 10
3.9600000000000004
 20
-4.2118800000000007
 30
0.0
 10
4.1149400000000007
 20
-4.3998400000000002
 30
0.0
 10
4.1149400000000007
 20
-4.3998400000000002
 30
0.0
 10
4.0336600000000002
 20
-4.4125400000000008
 30
0.0
 10
3.8761800000000002
 20
-4.3388800000000005
 30
0.0
 10
3.8965000000000005
 20
-4.2372800000000002
 30
0.0
 10
3.8965000000000005
 20
-4.2372800000000002
 30
0.0
 10
3.7390200000000005
 20
-4.1509200000000002
 30
0.0
 10
3.6602800000000002
 20
-3.9985200000000005
 30
0.0
 10
3.6018600000000003
 20
-3.8435800000000002
 30
0.0
  0
SPLINE
  5
4D
100
AcDbEntity
  8
Ebene 1
 62
     7
100
AcDbSpline
210
0.0
220
0.0
230
1.0
 70
     1
 71
     3
 72
    16
 73
    12
 74
     0
 42
0.0000000001
 43
0.0000000001
 40
0.0
 40
0.0
 40
0.0
 40
0.0
 40
0.3333333333333333
 40
0.3333333333333333
 40
0.3333333333333333
 40
0.3333333333333333
 40
0.6666666666666666
 40
0.6666666666666666
 40
0.6666666666666666
 40
0.6666666666666666
 40
1.0
 40
1.0
 40
1.0
 40
1.0
 10
3.2894400000000004
 20
-4.1941000000000006
 30
0.0
 10
3.5713800000000004
 20
-4.2245800000000004
 30
0.0
 10
3.7771200000000005
 20
-4.4709600000000007
 30
0.0
 10
4.0108000000000006
 20
-4.5776400000000006
 30
0.0
 10
4.0108000000000006
 20
-4.5776400000000006
 30
0.0
 10
4.0108000000000006
 20
-4.5776400000000006
 30
0.0
 10
4.1073200000000005
 20
-4.8011600000000003
 30
0.0
 10
4.1073200000000005
 20
-4.8011600000000003
 30
0.0
 10
4.1073200000000005
 20
-4.8011600000000003
 30
0.0
 10
3.8888800000000003
 20
-4.56494
 30
0.0
 10
3.6094800000000005
 20
-4.3617400000000002
 30
0.0
 10
3.2894400000000004
 20
-4.1941000000000006
 30
0.0
  0
SPLINE
  5
4E
100
AcDbEntity
  8
Ebene 1
 62
     7
100
AcDbSpline
210
0.0
220
0.0
230
1.0
 70
     1
 71
     3
 72
    16
 73
    12
 74
     0
 42
0.0000000001
 43
0.0000000001
 40
0.0
 40
0.0
 40
0.0
 40
0.0
 40
0.3333333333333333
 40
0.3333333333333333
 40
0.3333333333333333
 40
0.3333333333333333
 40
0.6666666666666666
 40
0.6666666666666666
 40
0.6666666666666666
 40
0.6666666666666666
 40
1.0
 40
1.0
 40
1.0
 40
1.0
 10
3.7669600000000001
 20
-4.7325800000000005
 30
0.0
 10
3.8101400000000005
 20
-4.7249600000000003
 30
0.0
 10
3.8888800000000003
 20
-4.7529000000000003
 30
0.0
 10
3.9117400000000004
 20
-4.8341800000000008
 30
0.0
 10
3.9117400000000004
 20
-4.8341800000000008
 30
0.0
 10
4.0057200000000002
 20
-4.8595800000000002
 30
0.0
 10
4.0184200000000008
 20
-4.9713400000000005
 30
0.0
 10
4.0235000000000003
 20
-5.0475400000000006
 30
0.0
 10
4.0235000000000003
 20
-5.0475400000000006
 30
0.0
 10
4.0235000000000003
 20
-5.0475400000000006
 30
0.0
 10
3.7669600000000001
 20
-4.7325800000000005
 30
0.0
 10
3.7669600000000001
 20
-4.7325800000000005
 30
0.0
  0
ENDSEC
  0
SECTION
  2
OBJECTS
  0
DICTIONARY
  5
19
100
AcDbDictionary
280
     0
281
     1
  3
ACAD_GROUP
350
1A
  3
ACAD_MLINESTYLE
350
1B
  3
ACAD_LAYOUT
350
1E
  3
ACAD_PLOTSETTINGS
350
22
  3
ACAD_PLOTSTYLENAME
350
1F
  3
ACAD_WIPEOUT_VARS
350
23
  0
DICTIONARY
  5
1A
102
{ACAD_REACTORS
330
19
102
}
100
AcDbDictionary
280
     0
281
     1
  0
DICTIONARY
  5
1B
102
{ACAD_REACTORS
330
19
102
}
100
AcDbDictionary
280
     0
281
     1
  3
Standard
350
1C
  0
MLINESTYLE
  5
1C
102
{ACAD_REACTORS
330
1B
102
}
100
AcDbMlineStyle
  2
Standard
 70
     0
  3

 62
     0
 51
90.0
 52
90.0
 71
     2
 49
0.5
 62
   256
  6
BYLAYER
 49
-0.5
 62
   256
  6
BYLAYER
  0
ACDBDICTIONARYWDFLT
  5
1F
102
{ACAD_REACTORS
330
19
102
}
100
AcDbDictionary
281
     1
  3
Normal
350
1D
100
AcDbDictionaryWithDefault
340
1D
  0
ACDBPLACEHOLDER
  5
1D
102
{ACAD_REACTORS
330
1F
102
}
  0
LAYOUT
  5
20
102
{ACAD_REACTORS
330
1E
102
}
100
AcDbPlotSettings
  1

  2

  4

  6

 40
0.0
 41
0.0
 42
0.0
 43
0.0
 44
0.0
 45
0.0
 46
0.0
 47
0.0
 48
0.0
 49
0.0
140
0.0
141
0.0
142
1.0
143
1.0
 70
  1024
 72
     0
 73
     0
 74
     0
  7

 75
     0
147
1.0
148
0.0
149
0.0
100
AcDbLayout
  1
Model
 70
     0
 71
     0
 10
0.0
 20
0.0
 11
0.0
 21
0.0
 12
0.0
 22
0.0
 32
0.0
 14
0.0
 24
0.0
 34
0.0
 15
0.0
 25
0.0
 35
0.0
146
0.0
 13
0.0
 23
0.0
 33
0.0
 16
0.0
 26
0.0
 36
0.0
 17
0.0
 27
0.0
 37
0.0
 76
     0
330
A
331
0
345
0
346
0
  0
LAYOUT
  5
21
102
{ACAD_REACTORS
330
1E
102
}
100
AcDbPlotSettings
  1

  2

  4

  6

 40
0.0
 41
0.0
 42
0.0
 43
0.0
 44
0.0
 45
0.0
 46
0.0
 47
0.0
 48
0.0
 49
0.0
140
0.0
141
0.0
142
1.0
143
1.0
 70
     0
 72
     0
 73
     0
 74
     0
  7

 75
     0
147
1.0
148
0.0
149
0.0
100
AcDbLayout
  1
Layout1
 70
     0
 71
     0
 10
0.0
 20
0.0
 11
0.0
 21
0.0
 12
0.0
 22
0.0
 32
0.0
 14
0.0
 24
0.0
 34
0.0
 15
0.0
 25
0.0
 35
0.0
146
0.0
 13
0.0
 23
0.0
 33
0.0
 16
0.0
 26
0.0
 36
0.0
 17
0.0
 27
0.0
 37
0.0
 76
     0
330
B
331
0
345
0
346
0
  0
DICTIONARY
  5
1E
102
{ACAD_REACTORS
330
19
102
}
100
AcDbDictionary
280
     0
281
     1
  3
Layout1
350
21
  3
Model
350
20
  0
DICTIONARY
  5
22
102
{ACAD_REACTORS
330
19
102
}
100
AcDbDictionary
280
     0
281
     1
  0
WIPEOUTVARIABLES
  5
23
100
AcDbWipeoutVariables
 70
     1
  0
ENDSEC
  0
EOF
