  0
SECTION
  2
HEADER
  9
$ACADVER
  1
AC1015
  9
$ACADMAINTVER
 70
     6
  9
$DWGCODEPAGE
  3
DOS850
  9
$INSBASE
 10
0.0
 20
0.0
 30
0.0
  9
$EXTMIN
 10
-4.04317
 20
-6.23626
 30
1.000000E+20
  9
$EXTMAX
 10
4.0487
 20
6.23005
 30
-1.000000E+20
  9
$LIMMIN
 10
0.0
 20
0.0
  9
$LIMMAX
 10
0.0
 20
0.0
  9
$ORTHOMODE
 70
     0
  9
$REGENMODE
 70
     1
  9
$FILLMODE
 70
     1
  9
$QTEXTMODE
 70
     0
  9
$MIRRTEXT
 70
     1
  9
$LTSCALE
 40
1.0
  9
$ATTMODE
 70
     1
  9
$TEXTSIZE
 40
0.2
  9
$TRACEWID
 40
0.05
  9
$TEXTSTYLE
  7
Standard
  9
$CLAYER
  8
0
  9
$CELTYPE
  6
Continuous
  9
$CECOLOR
 62
   256
  9
$CELTSCALE
 40
1.0
  9
$DISPSILH
 70
     0
  9
$DIMSCALE
 40
1.0
  9
$DIMASZ
 40
0.18
  9
$DIMEXO
 40
0.0625
  9
$DIMDLI
 40
0.38
  9
$DIMRND
 40
0.0
  9
$DIMDLE
 40
0.0
  9
$DIMEXE
 40
0.18
  9
$DIMTP
 40
0.0
  9
$DIMTM
 40
0.0
  9
$DIMTXT
 40
0.18
  9
$DIMCEN
 40
0.09
  9
$DIMTSZ
 40
0.0
  9
$DIMTOL
 70
     0
  9
$DIMLIM
 70
     0
  9
$DIMTIH
 70
     1
  9
$DIMTOH
 70
     1
  9
$DIMSE1
 70
     0
  9
$DIMSE2
 70
     0
  9
$DIMTAD
 70
     0
  9
$DIMZIN
 70
     0
  9
$DIMBLK
  1

  9
$DIMASO
 70
     1
  9
$DIMSHO
 70
     1
  9
$DIMPOST
  1

  9
$DIMAPOST
  1

  9
$DIMALT
 70
     0
  9
$DIMALTD
 70
     2
  9
$DIMALTF
 40
25.4
  9
$DIMLFAC
 40
1.0
  9
$DIMTOFL
 70
     0
  9
$DIMTVP
 40
0.0
  9
$DIMTIX
 70
     0
  9
$DIMSOXD
 70
     0
  9
$DIMSAH
 70
     0
  9
$DIMBLK1
  1

  9
$DIMBLK2
  1

  9
$DIMSTYLE
  2
Standard
  9
$DIMCLRD
 70
     0
  9
$DIMCLRE
 70
     0
  9
$DIMCLRT
 70
     0
  9
$DIMTFAC
 40
1.0
  9
$DIMGAP
 40
0.09
  9
$DIMJUST
 70
     0
  9
$DIMSD1
 70
     0
  9
$DIMSD2
 70
     0
  9
$DIMTOLJ
 70
     1
  9
$DIMTZIN
 70
     0
  9
$DIMALTZ
 70
     0
  9
$DIMALTTZ
 70
     0
  9
$DIMUPT
 70
     0
  9
$DIMDEC
 70
     4
  9
$DIMTDEC
 70
     4
  9
$DIMALTU
 70
     2
  9
$DIMALTTD
 70
     2
  9
$DIMTXSTY
  7
Standard
  9
$DIMAUNIT
 70
     0
  9
$DIMADEC
 70
     0
  9
$DIMALTRND
 40
0.0
  9
$DIMAZIN
 70
     0
  9
$DIMDSEP
 70
     0
  9
$DIMATFIT
 70
     3
  9
$DIMFRAC
 70
     0
  9
$DIMLDRBLK
  1

  9
$DIMLUNIT
 70
     2
  9
$DIMLWD
 70
     0
  9
$DIMLWE
 70
     0
  9
$DIMTMOVE
 70
     0
  9
$LUNITS
 70
     2
  9
$LUPREC
 70
     4
  9
$SKETCHINC
 40
0.1
  9
$FILLETRAD
 40
0.0
  9
$AUNITS
 70
     0
  9
$AUPREC
 70
     0
  9
$MENU
  1
acad
  9
$ELEVATION
 40
0.0
  9
$PELEVATION
 40
0.0
  9
$THICKNESS
 40
0.0
  9
$LIMCHECK
 70
     0
  9
$CHAMFERA
 40
0.0
  9
$CHAMFERB
 40
0.0
  9
$CHAMFERC
 40
0.0
  9
$CHAMFERD
 40
0.0
  9
$SKPOLY
 70
     0
  9
$TDCREATE
 40
0.000000000
  9
$TDUCREATE
 40
0.000000000
  9
$TDUPDATE
 40
0.000000000
  9
$TDUUPDATE
 40
0.000000000
  9
$TDINDWG
 40
0.0000000000
  9
$TDUSRTIMER
 40
0.0000000000
  9
$USRTIMER
 70
     1
  9
$ANGBASE
 50
0.0
  9
$ANGDIR
 70
     0
  9
$PDMODE
 70
     0
  9
$PDSIZE
 40
0.0
  9
$PLINEWID
 40
0.0
  9
$SPLFRAME
 70
     0
  9
$SPLINETYPE
 70
     6
  9
$SPLINESEGS
 70
     8
  9
$HANDSEED
  5
9E
  9
$SURFTAB1
 70
     6
  9
$SURFTAB2
 70
     6
  9
$SURFTYPE
 70
     6
  9
$SURFU
 70
     6
  9
$SURFV
 70
     6
  9
$UCSBASE
  2

  9
$UCSNAME
  2

  9
$UCSORG
 10
0.0
 20
0.0
 30
0.0
  9
$UCSXDIR
 10
1.0
 20
0.0
 30
0.0
  9
$UCSYDIR
 10
0.0
 20
1.0
 30
0.0
  9
$UCSORTHOREF
  2

  9
$UCSORTHOVIEW
 70
     0
  9
$UCSORGTOP
 10
0.0
 20
0.0
 30
0.0
  9
$UCSORGBOTTOM
 10
0.0
 20
0.0
 30
0.0
  9
$UCSORGLEFT
 10
0.0
 20
0.0
 30
0.0
  9
$UCSORGRIGHT
 10
0.0
 20
0.0
 30
0.0
  9
$UCSORGFRONT
 10
0.0
 20
0.0
 30
0.0
  9
$UCSORGBACK
 10
0.0
 20
0.0
 30
0.0
  9
$PUCSBASE
  2

  9
$PUCSNAME
  2

  9
$PUCSORG
 10
0.0
 20
0.0
 30
0.0
  9
$PUCSXDIR
 10
1.0
 20
0.0
 30
0.0
  9
$PUCSYDIR
 10
0.0
 20
1.0
 30
0.0
  9
$PUCSORTHOREF
  2

  9
$PUCSORTHOVIEW
 70
     0
  9
$PUCSORGTOP
 10
0.0
 20
0.0
 30
0.0
  9
$PUCSORGBOTTOM
 10
0.0
 20
0.0
 30
0.0
  9
$PUCSORGLEFT
 10
0.0
 20
0.0
 30
0.0
  9
$PUCSORGRIGHT
 10
0.0
 20
0.0
 30
0.0
  9
$PUCSORGFRONT
 10
0.0
 20
0.0
 30
0.0
  9
$PUCSORGBACK
 10
0.0
 20
0.0
 30
0.0
  9
$USERI1
 70
     0
  9
$USERI2
 70
     0
  9
$USERI3
 70
     0
  9
$USERI4
 70
     0
  9
$USERI5
 70
     0
  9
$USERR1
 40
0.0
  9
$USERR2
 40
0.0
  9
$USERR3
 40
0.0
  9
$USERR4
 40
0.0
  9
$USERR5
 40
0.0
  9
$WORLDVIEW
 70
     1
  9
$SHADEDGE
 70
     3
  9
$SHADEDIF
 70
    70
  9
$TILEMODE
 70
     1
  9
$MAXACTVP
 70
    16
  9
$PINSBASE
 10
0.0
 20
0.0
 30
0.0
  9
$PLIMCHECK
 70
     0
  9
$PEXTMIN
 10
1.000000E+20
 20
1.000000E+20
 30
1.000000E+20
  9
$PEXTMAX
 10
-1.000000E+20
 20
-1.000000E+20
 30
-1.000000E+20
  9
$PLIMMIN
 10
0.0
 20
0.0
  9
$PLIMMAX
 10
12.0
 20
9.0
  9
$UNITMODE
 70
     0
  9
$VISRETAIN
 70
     0
  9
$PLINEGEN
 70
     1
  9
$PSLTSCALE
 70
     0
  9
$TREEDEPTH
 70
  3020
  9
$CMLSTYLE
  2
Standard
  9
$CMLJUST
 70
     0
  9
$CMLSCALE
 40
1.0
  9
$PROXYGRAPHICS
 70
     0
  9
$MEASUREMENT
 70
     0
  9
$CELWEIGHT
370
     0
  9
$ENDCAPS
280
     0
  9
$JOINSTYLE
280
     0
  9
$LWDISPLAY
290
     0
  9
$INSUNITS
 70
     5
  9
$HYPERLINKBASE
  1

  9
$XEDIT
290
     1
  9
$CEPSNTYPE
380
     0
  9
$PSTYLEMODE
290
     1
  9
$FINGERPRINTGUID
  2

  9
$VERSIONGUID
  2

  9
$EXTNAMES
290
     1
  9
$PSVPSCALE
 40
0.0
  0
ENDSEC
  0
SECTION
  2
CLASSES
  0
CLASS
  1
LWPOLYLINE
  2
AcDbPolyline
  3
AutoCAD 2000
 90
    32768
280
     0
281
     1
  0
CLASS
  1
IMAGE
  2
AcDbRasterImage
  3
ISM
 90
    32895
280
     0
281
     1
  0
CLASS
  1
OLE2FRAME
  2
AcDbOle2Frame
  3
AutoCAD 2000
 90
    32768
280
     0
281
     1
  0
CLASS
  1
HATCH
  2
AcDbHatch
  3
AutoCAD 2000
 90
    32768
280
     0
281
     1
  0
CLASS
  1
DICTIONARYVAR
  2
AcDbDictionaryVar
  3
AutoCAD 2000
 90
    32768
280
     0
281
     0
  0
CLASS
  1
RASTERVARIABLES
  2
AcDbRasterVariables
  3
ISM
 90
    32768
280
     0
281
     0
  0
CLASS
  1
IMAGEDEF
  2
AcDbRasterImageDef
  3
ISM
 90
    32768
280
     0
281
     0
  0
CLASS
  1
IMAGEDEF_REACTOR
  2
AcDbRasterImageDefReactor
  3
ISM
 90
    32769
280
     0
281
     0
  0
CLASS
  1
IDBUFFER
  2
AcDbIdBuffer
  3
AutoCAD 2000
 90
    32768
280
     0
281
     0
  0
CLASS
  1
SPATIAL_FILTER
  2
AcDbSpatialFilter
  3
AutoCAD 2000
 90
    32768
280
     0
281
     0
  0
CLASS
  1
XRECORD
  2
AcDbXrecord
  3
AutoCAD 2000
 90
    32768
280
     0
281
     0
  0
CLASS
  1
SORTENTSTABLE
  2
AcDbSortentsTable
  3
AutoCAD 2000
 90
    32768
280
     0
281
     0
  0
CLASS
  1
LAYER_INDEX
  2
AcDbLayerIndex
  3
AutoCAD 2000
 90
    32768
280
     0
281
     0
  0
CLASS
  1
SPATIAL_INDEX
  2
AcDbSpatialIndex
  3
AutoCAD 2000
 90
    32768
280
     0
281
     0
  0
CLASS
  1
OBJECT_PTR
  2
CAseDLPNTableRecord
  3
"ASE-LPNTableRecord"
 90
    32769
280
     0
281
     0
  0
CLASS
  1
LAYOUT
  2
AcDbLayout
  3
AutoCAD 2000
 90
        0
280
     0
281
     0
  0
CLASS
  1
PLOTSETTINGS
  2
AcDbPlotSettings
  3
AutoCAD 2000
 90
    32768
280
     0
281
     0
  0
CLASS
  1
ACDBDICTIONARYWDFLT
  2
AcDbDictionaryWithDefault
  3
AutoCAD 2000
 90
        0
280
     0
281
     0
  0
CLASS
  1
ACDBPLACEHOLDER
  2
AcDbPlaceHolder
  3
AutoCAD 2000
 90
        0
280
     0
281
     0
  0
CLASS
  1
VBA_PROJECT
  2
AcDbVbaProject
  3
acadvba
 90
    32768
280
     0
281
     0
  0
CLASS
  1
WIPEOUT
  2
AcDbWipeout
  3
WipeOut|AutoCAD Express Tool|expresstools@autodesk.com
 90
    32895
280
     0
281
     1
  0
CLASS
  1
WIPEOUTVARIABLES
  2
AcDbWipeoutVariables
  3
WipeOut|AutoCAD Express Tool|expresstools@autodesk.com
 90
        0
280
     0
281
     0
  0
CLASS
  1
RTEXT
  2
RText
  3
RText|AutoCAD Express Tool|expresstools@autodesk.com
 90
    32768
280
     0
281
     1
  0
CLASS
  1
ARCALIGNEDTEXT
  2
AcDbArcAlignedText
  3
ATEXT|AutoCAD Express Tool|expresstools@autodesk.com
 90
    32768
280
     0
281
     1
  0
ENDSEC
  0
SECTION
  2
TABLES
  0
TABLE
  2
VPORT
  5
7
100
AcDbSymbolTable
 70
     1
  0
VPORT
  5
15
100
AcDbSymbolTableRecord
100
AcDbViewportTableRecord
  2
*ACTIVE
 70
     0
 10
0.0
 20
0.0
 11
1.0
 21
1.0
 12
6.591288
 22
4.579184
 13
0.0
 23
0.0
 14
1.0
 24
1.0
 15
0.0
 25
0.0
 16
0.0
 26
0.0
 36
1.0
 17
0.0
 27
0.0
 37
0.0
 40
9.158369
 41
0.688564
 42
50.0
 43
0.0
 44
0.0
 50
0.0
 51
0.0
 71
     0
 72
   100
 73
     1
 74
     1
 75
     0
 76
     0
 77
     0
 78
     0
281
     0
 65
     0
110
0.0
120
0.0
130
0.0
111
1.0
121
0.0
131
0.0
112
0.0
122
1.0
132
0.0
345
0
346
0
 79
     0
146
0.0
  0
ENDTAB
  0
TABLE
  2
LTYPE
  5
4
100
AcDbSymbolTable
 70
     3
  0
LTYPE
  5
11
100
AcDbSymbolTableRecord
100
AcDbLinetypeTableRecord
  2
ByBlock
 70
    64
  3

 72
    65
 73
     0
 40
0.0
  0
LTYPE
  5
12
100
AcDbSymbolTableRecord
100
AcDbLinetypeTableRecord
  2
ByLayer
 70
    64
  3

 72
    65
 73
     0
 40
0.0
  0
LTYPE
  5
13
100
AcDbSymbolTableRecord
100
AcDbLinetypeTableRecord
  2
Continuous
 70
    64
  3
Solid line
 72
    65
 73
     0
 40
0.0
  0
ENDTAB
  0
TABLE
  2
LAYER
  5
2
100
AcDbSymbolTable
 70
     2
  0
LAYER
  5
14
100
AcDbSymbolTableRecord
100
AcDbLayerTableRecord
  2
0
 70
     0
 62
     7
  6
Continuous
290
     1
370
    -3
390
1D
  0
LAYER
  5
24
100
AcDbSymbolTableRecord
100
AcDbLayerTableRecord
  2
Ebene 1
 70
     0
 62
     7
  6
Continuous
290
     1
370
    -3
390
1F
  0
ENDTAB
  0
TABLE
  2
STYLE
  5
3
100
AcDbSymbolTable
 70
     1
  0
STYLE
  5
17
100
AcDbSymbolTableRecord
100
AcDbTextStyleTableRecord
  2
Standard
 70
     0
 40
0.0
 41
1.0
 50
0.0
 71
     0
 42
0.0
  3
txt
  4

  0
ENDTAB
  0
TABLE
  2
VIEW
  5
5
100
AcDbSymbolTable
 70
     0
  0
ENDTAB
  0
TABLE
  2
UCS
  5
6
100
AcDbSymbolTable
 70
     0
  0
ENDTAB
  0
TABLE
  2
APPID
  5
8
100
AcDbSymbolTable
 70
     1
  0
APPID
  5
16
100
AcDbSymbolTableRecord
100
AcDbRegAppTableRecord
  2
ACAD
 70
     0
  0
ENDTAB
  0
TABLE
  2
DIMSTYLE
  5
9
100
AcDbSymbolTable
 70
     1
100
AcDbDimStyleTable
 71
     0
  0
DIMSTYLE
105
18
100
AcDbSymbolTableRecord
100
AcDbDimStyleTableRecord
  2
Standard
 70
     0
  3

  4

 40
1.0
 41
0.18
 42
0.0625
 43
0.38
 44
0.18
 45
0.0
 46
0.0
 47
0.0
 48
0.0
 71
     0
 72
     0
 73
     1
 74
     1
 75
     0
 76
     0
 77
     0
 78
     0
 79
     0
140
0.18
141
0.09
142
0.0
143
25.4
144
1.0
145
0.0
146
1.0
147
0.09
148
0.0
170
     0
171
     2
172
     0
173
     0
174
     0
175
     0
176
     0
177
     0
178
     0
179
     0
271
     4
272
     4
273
     2
274
     2
275
     0
276
     0
277
     2
278
    46
279
     0
280
     0
281
     0
282
     0
283
     1
284
     0
285
     0
286
     0
288
     0
340
17
341
0
342
0
343
0
344
0
371
    -2
372
    -2
  0
ENDTAB
  0
TABLE
  2
BLOCK_RECORD
  5
1
100
AcDbSymbolTable
 70
     0
  0
BLOCK_RECORD
  5
A
100
AcDbSymbolTableRecord
100
AcDbBlockTableRecord
  2
*MODEL_SPACE
340
20
  0
BLOCK_RECORD
  5
B
100
AcDbSymbolTableRecord
100
AcDbBlockTableRecord
  2
*PAPER_SPACE
340
21
  0
ENDTAB
  0
ENDSEC
  0
SECTION
  2
BLOCKS
  0
BLOCK
  5
D
100
AcDbEntity
  8
0
100
AcDbBlockBegin
  2
*MODEL_SPACE
 70
     0
 10
0.0
 20
0.0
 30
0.0
  3
*MODEL_SPACE
  1

  0
ENDBLK
  5
E
100
AcDbEntity
  8
0
100
AcDbBlockEnd
  0
BLOCK
  5
F
100
AcDbEntity
 67
     1
  8
0
100
AcDbBlockBegin
  2
*PAPER_SPACE
 70
     0
 10
0.0
 20
0.0
 30
0.0
  3
*PAPER_SPACE
  1

  0
ENDBLK
  5
10
100
AcDbEntity
 67
     1
  8
0
100
AcDbBlockEnd
  0
ENDSEC
  0
SECTION
  2
ENTITIES
  0
SPLINE
  5
25
100
AcDbEntity
  8
Ebene 1
100
AcDbSpline
210
0.0
220
0.0
230
1.0
 70
     1
 71
     3
 72
    96
 73
    92
 74
     0
 42
0.0000000001
 43
0.0000000001
 40
0.0
 40
0.0
 40
0.0
 40
0.0
 40
0.0434782608695652
 40
0.0434782608695652
 40
0.0434782608695652
 40
0.0434782608695652
 40
0.0869565217391304
 40
0.0869565217391304
 40
0.0869565217391304
 40
0.0869565217391304
 40
0.1304347826086957
 40
0.1304347826086957
 40
0.1304347826086957
 40
0.1304347826086957
 40
0.1739130434782609
 40
0.1739130434782609
 40
0.1739130434782609
 40
0.1739130434782609
 40
0.2173913043478261
 40
0.2173913043478261
 40
0.2173913043478261
 40
0.2173913043478261
 40
0.2608695652173913
 40
0.2608695652173913
 40
0.2608695652173913
 40
0.2608695652173913
 40
0.3043478260869565
 40
0.3043478260869565
 40
0.3043478260869565
 40
0.3043478260869565
 40
0.3478260869565217
 40
0.3478260869565217
 40
0.3478260869565217
 40
0.3478260869565217
 40
0.3913043478260869
 40
0.3913043478260869
 40
0.3913043478260869
 40
0.3913043478260869
 40
0.4347826086956521
 40
0.4347826086956521
 40
0.4347826086956521
 40
0.4347826086956521
 40
0.4782608695652173
 40
0.4782608695652173
 40
0.4782608695652173
 40
0.4782608695652173
 40
0.5217391304347825
 40
0.5217391304347825
 40
0.5217391304347825
 40
0.5217391304347825
 40
0.5652173913043477
 40
0.5652173913043477
 40
0.5652173913043477
 40
0.5652173913043477
 40
0.6086956521739129
 40
0.6086956521739129
 40
0.6086956521739129
 40
0.6086956521739129
 40
0.6521739130434781
 40
0.6521739130434781
 40
0.6521739130434781
 40
0.6521739130434781
 40
0.6956521739130432
 40
0.6956521739130432
 40
0.6956521739130432
 40
0.6956521739130432
 40
0.7391304347826084
 40
0.7391304347826084
 40
0.7391304347826084
 40
0.7391304347826084
 40
0.7826086956521736
 40
0.7826086956521736
 40
0.7826086956521736
 40
0.7826086956521736
 40
0.8260869565217388
 40
0.8260869565217388
 40
0.8260869565217388
 40
0.8260869565217388
 40
0.869565217391304
 40
0.869565217391304
 40
0.869565217391304
 40
0.869565217391304
 40
0.9130434782608692
 40
0.9130434782608692
 40
0.9130434782608692
 40
0.9130434782608692
 40
0.9565217391304344
 40
0.9565217391304344
 40
0.9565217391304344
 40
0.9565217391304344
 40
1.0
 40
1.0
 40
1.0
 40
1.0
 10
-1.6203700000000001
 20
6.2300500000000003
 30
0.0
 10
-1.00569
 20
6.2071900000000007
 30
0.0
 10
-0.8304300000000001
 20
5.5213900000000002
 30
0.0
 10
-0.53579
 20
5.1480100000000002
 30
0.0
 10
-0.53579
 20
5.1480100000000002
 30
0.0
 10
-0.42149
 20
5.1937300000000004
 30
0.0
 10
-0.22337
 20
5.1708700000000007
 30
0.0
 10
0.0103
 20
5.1378500000000003
 30
0.0
 10
0.0103
 20
5.1378500000000003
 30
0.0
 10
0.09412
 20
5.1251500000000005
 30
0.0
 10
0.18048
 20
5.1937300000000004
 30
0.0
 10
0.2617600000000001
 20
5.1988100000000008
 30
0.0
 10
0.2617600000000001
 20
5.1988100000000008
 30
0.0
 10
0.4725800000000001
 20
5.2064300000000001
 30
0.0
 10
0.61482
 20
5.1734100000000005
 30
0.0
 10
0.8408800000000001
 20
5.0972100000000005
 30
0.0
 10
0.8408800000000001
 20
5.0972100000000005
 30
0.0
 10
0.9704200000000001
 20
5.5417100000000001
 30
0.0
 10
1.18886
 20
6.1741700000000002
 30
0.0
 10
1.7603600000000001
 20
6.2300500000000003
 30
0.0
 10
1.7603600000000001
 20
6.2300500000000003
 30
0.0
 10
2.6569800000000003
 20
5.6915700000000005
 30
0.0
 10
2.12358
 20
4.4088700000000003
 30
0.0
 10
2.6265000000000001
 20
3.6316300000000004
 30
0.0
 10
2.6265000000000001
 20
3.6316300000000004
 30
0.0
 10
2.7712800000000004
 20
3.8094300000000003
 30
0.0
 10
2.9846400000000002
 20
4.0227900000000005
 30
0.0
 10
3.2589600000000001
 20
4.0050100000000004
 30
0.0
 10
3.2589600000000001
 20
4.0050100000000004
 30
0.0
 10
3.3910400000000003
 20
3.9592900000000002
 30
0.0
 10
3.4951800000000004
 20
3.8449900000000001
 30
0.0
 10
3.6018600000000003
 20
3.7611700000000003
 30
0.0
 10
3.6018600000000003
 20
3.7611700000000003
 30
0.0
 10
4.3994200000000001
 20
2.0720700000000001
 30
0.0
 10
3.9955600000000002
 20
0.04769
 30
0.0
 10
3.4291400000000003
 20
-1.62616
 30
0.0
 10
3.4291400000000003
 20
-1.62616
 30
0.0
 10
3.1040200000000002
 20
-1.7099800000000001
 30
0.0
 10
2.5858600000000003
 20
-1.4915400000000001
 30
0.0
 10
2.3852000000000002
 20
-1.8776200000000001
 30
0.0
 10
2.3852000000000002
 20
-1.8776200000000001
 30
0.0
 10
2.3191600000000001
 20
-2.52786
 30
0.0
 10
2.4436200000000001
 20
-3.6607000000000003
 30
0.0
 10
2.2556600000000002
 20
-3.9553400000000005
 30
0.0
 10
2.2556600000000002
 20
-3.9553400000000005
 30
0.0
 10
1.3768200000000002
 20
-4.2830000000000004
 30
0.0
 10
0.55894
 20
-4.1102800000000004
 30
0.0
 10
-0.29957
 20
-4.22966
 30
0.0
 10
-0.29957
 20
-4.22966
 30
0.0
 10
-0.29957
 20
-4.22966
 30
0.0
 10
-0.34529
 20
-6.0940200000000004
 30
0.0
 10
-0.34529
 20
-6.0940200000000004
 30
0.0
 10
-0.34529
 20
-6.0940200000000004
 30
0.0
 10
-0.4494300000000001
 20
-6.1854600000000008
 30
0.0
 10
-0.5789700000000001
 20
-6.2007000000000003
 30
0.0
 10
-0.7034300000000001
 20
-6.2362600000000006
 30
0.0
 10
-0.7034300000000001
 20
-6.2362600000000006
 30
0.0
 10
-1.0996700000000001
 20
-6.2311800000000002
 30
0.0
 10
-1.4933700000000001
 20
-6.2438800000000008
 30
0.0
 10
-1.8388100000000001
 20
-6.1118000000000006
 30
0.0
 10
-1.8388100000000001
 20
-6.1118000000000006
 30
0.0
 10
-2.0750300000000004
 20
-4.9154600000000004
 30
0.0
 10
-2.0293100000000002
 20
-3.4346400000000004
 30
0.0
 10
-2.0013700000000001
 20
-2.2891000000000004
 30
0.0
 10
-2.0013700000000001
 20
-2.2891000000000004
 30
0.0
 10
-2.0013700000000001
 20
-2.2891000000000004
 30
0.0
 10
-2.7430500000000002
 20
-1.7734800000000002
 30
0.0
 10
-2.7430500000000002
 20
-1.7734800000000002
 30
0.0
 10
-2.7430500000000002
 20
-1.7734800000000002
 30
0.0
 10
-2.9970500000000002
 20
-1.8014200000000002
 30
0.0
 10
-3.3069300000000004
 20
-1.8573000000000002
 30
0.0
 10
-3.5456900000000005
 20
-1.7303000000000002
 30
0.0
 10
-3.5456900000000005
 20
-1.7303000000000002
 30
0.0
 10
-4.0917900000000005
 20
-0.19614
 30
0.0
 10
-4.2086300000000003
 20
1.8028300000000002
 30
0.0
 10
-3.7946100000000005
 20
3.4741500000000003
 30
0.0
 10
-3.7946100000000005
 20
3.4741500000000003
 30
0.0
 10
-3.7184100000000004
 20
3.7814900000000002
 30
0.0
 10
-3.5279100000000003
 20
3.8043500000000003
 30
0.0
 10
-3.3551900000000003
 20
3.8119700000000005
 30
0.0
 10
-3.3551900000000003
 20
3.8119700000000005
 30
0.0
 10
-3.1291300000000004
 20
3.8627700000000003
 30
0.0
 10
-2.9157700000000002
 20
3.6697300000000004
 30
0.0
 10
-2.7938500000000004
 20
3.5274900000000002
 30
0.0
 10
-2.7938500000000004
 20
3.5274900000000002
 30
0.0
 10
-2.7735300000000001
 20
3.7814900000000002
 30
0.0
 10
-2.6287500000000001
 20
3.9770700000000003
 30
0.0
 10
-2.4153900000000004
 20
4.1320100000000002
 30
0.0
 10
-2.4153900000000004
 20
4.1320100000000002
 30
0.0
 10
-2.3874500000000003
 20
4.8990900000000002
 30
0.0
 10
-2.3112500000000002
 20
5.7957100000000006
 30
0.0
 10
-1.6203700000000001
 20
6.2300500000000003
 30
0.0
  0
SPLINE
  5
26
100
AcDbEntity
  8
Ebene 1
100
AcDbSpline
210
0.0
220
0.0
230
1.0
 70
     1
 71
     3
 72
    20
 73
    16
 74
     0
 42
0.0000000001
 43
0.0000000001
 40
0.0
 40
0.0
 40
0.0
 40
0.0
 40
0.25
 40
0.25
 40
0.25
 40
0.25
 40
0.5
 40
0.5
 40
0.5
 40
0.5
 40
0.75
 40
0.75
 40
0.75
 40
0.75
 40
1.0
 40
1.0
 40
1.0
 40
1.0
 10
-1.5848100000000001
 20
-0.2698
 30
0.0
 10
-1.5848100000000001
 20
-0.2698
 30
0.0
 10
-1.9581900000000001
 20
-0.39172
 30
0.0
 10
-1.9581900000000001
 20
-0.39172
 30
0.0
 10
-1.9581900000000001
 20
-0.39172
 30
0.0
 10
-2.0902700000000003
 20
-0.6889000000000001
 30
0.0
 10
-2.0953500000000003
 20
-1.08768
 30
0.0
 10
-1.8718300000000001
 20
-1.33406
 30
0.0
 10
-1.8718300000000001
 20
-1.33406
 30
0.0
 10
-1.7930900000000001
 20
-1.0521200000000002
 30
0.0
 10
-1.6508500000000002
 20
-0.78288
 30
0.0
 10
-1.38161
 20
-0.61016
 30
0.0
 10
-1.38161
 20
-0.61016
 30
0.0
 10
-1.3409700000000002
 20
-0.4603
 30
0.0
 10
-1.4400300000000001
 20
-0.28504
 30
0.0
 10
-1.5848100000000001
 20
-0.2698
 30
0.0
  0
SPLINE
  5
27
100
AcDbEntity
  8
Ebene 1
 62
     7
100
AcDbSpline
210
0.0
220
0.0
230
1.0
 70
     1
 71
     3
 72
    48
 73
    44
 74
     0
 42
0.0000000001
 43
0.0000000001
 40
0.0
 40
0.0
 40
0.0
 40
0.0
 40
0.0909090909090909
 40
0.0909090909090909
 40
0.0909090909090909
 40
0.0909090909090909
 40
0.1818181818181818
 40
0.1818181818181818
 40
0.1818181818181818
 40
0.1818181818181818
 40
0.2727272727272727
 40
0.2727272727272727
 40
0.2727272727272727
 40
0.2727272727272727
 40
0.3636363636363637
 40
0.3636363636363637
 40
0.3636363636363637
 40
0.3636363636363637
 40
0.4545454545454546
 40
0.4545454545454546
 40
0.4545454545454546
 40
0.4545454545454546
 40
0.5454545454545455
 40
0.5454545454545455
 40
0.5454545454545455
 40
0.5454545454545455
 40
0.6363636363636365
 40
0.6363636363636365
 40
0.6363636363636365
 40
0.6363636363636365
 40
0.7272727272727274
 40
0.7272727272727274
 40
0.7272727272727274
 40
0.7272727272727274
 40
0.8181818181818183
 40
0.8181818181818183
 40
0.8181818181818183
 40
0.8181818181818183
 40
0.9090909090909093
 40
0.9090909090909093
 40
0.9090909090909093
 40
0.9090909090909093
 40
1.0
 40
1.0
 40
1.0
 40
1.0
 10
-1.54925
 20
6.1767100000000008
 30
0.0
 10
-1.0539500000000002
 20
6.1208300000000007
 30
0.0
 10
-0.56881
 20
5.2572300000000007
 30
0.0
 10
-1.20381
 20
4.9524300000000006
 30
0.0
 10
-1.20381
 20
4.9524300000000006
 30
0.0
 10
-1.2876300000000001
 20
5.0311700000000004
 30
0.0
 10
-1.3866900000000002
 20
5.1200700000000001
 30
0.0
 10
-1.50099
 20
5.1581700000000001
 30
0.0
 10
-1.50099
 20
5.1581700000000001
 30
0.0
 10
-1.50099
 20
5.1581700000000001
 30
0.0
 10
-1.75753
 20
5.1429300000000007
 30
0.0
 10
-1.75753
 20
5.1429300000000007
 30
0.0
 10
-1.75753
 20
5.1429300000000007
 30
0.0
 10
-1.8921500000000002
 20
5.1226100000000008
 30
0.0
 10
-1.9759700000000002
 20
4.9930700000000003
 30
0.0
 10
-2.0445500000000001
 20
4.9067100000000003
 30
0.0
 10
-2.0445500000000001
 20
4.9067100000000003
 30
0.0
 10
-2.0775700000000001
 20
5.3359700000000005
 30
0.0
 10
-1.7473700000000001
 20
5.6153700000000004
 30
0.0
 10
-1.6203700000000001
 20
5.9709700000000003
 30
0.0
 10
-1.6203700000000001
 20
5.9709700000000003
 30
0.0
 10
-1.6203700000000001
 20
5.9709700000000003
 30
0.0
 10
-1.4501900000000001
 20
6.0268500000000005
 30
0.0
 10
-1.4501900000000001
 20
6.0268500000000005
 30
0.0
 10
-1.4501900000000001
 20
6.0268500000000005
 30
0.0
 10
-1.4501900000000001
 20
6.0268500000000005
 30
0.0
 10
-1.4501900000000001
 20
6.1055900000000003
 30
0.0
 10
-1.4501900000000001
 20
6.1055900000000003
 30
0.0
 10
-1.4501900000000001
 20
6.1055900000000003
 30
0.0
 10
-1.8032500000000002
 20
6.1233700000000004
 30
0.0
 10
-1.8667500000000001
 20
5.7423700000000002
 30
0.0
 10
-2.0623300000000002
 20
5.5467900000000006
 30
0.0
 10
-2.0623300000000002
 20
5.5467900000000006
 30
0.0
 10
-2.0623300000000002
 20
5.5467900000000006
 30
0.0
 10
-2.0623300000000002
 20
5.6585500000000009
 30
0.0
 10
-2.0623300000000002
 20
5.6585500000000009
 30
0.0
 10
-2.0623300000000002
 20
5.6585500000000009
 30
0.0
 10
-2.02677
 20
5.7220500000000003
 30
0.0
 10
-1.9886700000000002
 20
5.8084100000000003
 30
0.0
 10
-1.9327900000000002
 20
5.8566700000000003
 30
0.0
 10
-1.9327900000000002
 20
5.8566700000000003
 30
0.0
 10
-1.8743700000000001
 20
6.0141500000000008
 30
0.0
 10
-1.7041900000000001
 20
6.1259100000000002
 30
0.0
 10
-1.54925
 20
6.1767100000000008
 30
0.0
  0
SPLINE
  5
28
100
AcDbEntity
  8
Ebene 1
 62
     7
100
AcDbSpline
210
0.0
220
0.0
230
1.0
 70
     1
 71
     3
 72
    36
 73
    32
 74
     0
 42
0.0000000001
 43
0.0000000001
 40
0.0
 40
0.0
 40
0.0
 40
0.0
 40
0.125
 40
0.125
 40
0.125
 40
0.125
 40
0.25
 40
0.25
 40
0.25
 40
0.25
 40
0.375
 40
0.375
 40
0.375
 40
0.375
 40
0.5
 40
0.5
 40
0.5
 40
0.5
 40
0.625
 40
0.625
 40
0.625
 40
0.625
 40
0.75
 40
0.75
 40
0.75
 40
0.75
 40
0.875
 40
0.875
 40
0.875
 40
0.875
 40
1.0
 40
1.0
 40
1.0
 40
1.0
 10
1.4479400000000002
 20
6.0395500000000002
 30
0.0
 10
1.48604
 20
6.1589300000000007
 30
0.0
 10
1.6613000000000002
 20
6.0624100000000007
 30
0.0
 10
1.7248000000000001
 20
6.1614700000000004
 30
0.0
 10
1.7248000000000001
 20
6.1614700000000004
 30
0.0
 10
2.20994
 20
5.9887500000000005
 30
0.0
 10
2.1947000000000001
 20
5.3689900000000002
 30
0.0
 10
2.1007200000000004
 20
4.9422700000000006
 30
0.0
 10
2.1007200000000004
 20
4.9422700000000006
 30
0.0
 10
2.0753200000000001
 20
4.9575100000000001
 30
0.0
 10
2.0448400000000002
 20
4.9575100000000001
 30
0.0
 10
2.0219800000000001
 20
4.9422700000000006
 30
0.0
 10
2.0219800000000001
 20
4.9422700000000006
 30
0.0
 10
2.00928
 20
5.22675
 30
0.0
 10
1.6613000000000002
 20
5.2115100000000005
 30
0.0
 10
1.4708000000000001
 20
5.1302300000000001
 30
0.0
 10
1.4708000000000001
 20
5.1302300000000001
 30
0.0
 10
1.27268
 20
5.3334300000000008
 30
0.0
 10
1.31332
 20
5.6255300000000004
 30
0.0
 10
1.5139800000000001
 20
5.8033300000000008
 30
0.0
 10
1.5139800000000001
 20
5.8033300000000008
 30
0.0
 10
1.4987400000000002
 20
5.8312700000000008
 30
0.0
 10
1.4657200000000001
 20
5.8592100000000009
 30
0.0
 10
1.48858
 20
5.8973100000000001
 30
0.0
 10
1.48858
 20
5.8973100000000001
 30
0.0
 10
1.48858
 20
5.8973100000000001
 30
0.0
 10
1.7044800000000002
 20
6.0192300000000003
 30
0.0
 10
1.7044800000000002
 20
6.0192300000000003
 30
0.0
 10
1.7044800000000002
 20
6.0192300000000003
 30
0.0
 10
1.6587600000000002
 20
6.0979700000000001
 30
0.0
 10
1.5241400000000001
 20
6.0446300000000006
 30
0.0
 10
1.4479400000000002
 20
6.0395500000000002
 30
0.0
  0
SPLINE
  5
29
100
AcDbEntity
  8
Ebene 1
 62
     7
100
AcDbSpline
210
0.0
220
0.0
230
1.0
 70
     1
 71
     3
 72
    16
 73
    12
 74
     0
 42
0.0000000001
 43
0.0000000001
 40
0.0
 40
0.0
 40
0.0
 40
0.0
 40
0.3333333333333333
 40
0.3333333333333333
 40
0.3333333333333333
 40
0.3333333333333333
 40
0.6666666666666666
 40
0.6666666666666666
 40
0.6666666666666666
 40
0.6666666666666666
 40
1.0
 40
1.0
 40
1.0
 40
1.0
 10
1.3844400000000001
 20
5.9277900000000008
 30
0.0
 10
1.2930000000000001
 20
5.8287300000000002
 30
0.0
 10
1.2650600000000001
 20
5.7195100000000005
 30
0.0
 10
1.2447400000000002
 20
5.5874300000000003
 30
0.0
 10
1.2447400000000002
 20
5.5874300000000003
 30
0.0
 10
1.1634600000000002
 20
5.5366300000000006
 30
0.0
 10
1.10504
 20
5.4578900000000008
 30
0.0
 10
1.0466200000000001
 20
5.3994700000000009
 30
0.0
 10
1.0466200000000001
 20
5.3994700000000009
 30
0.0
 10
1.0872600000000001
 20
5.5950500000000005
 30
0.0
 10
1.2117200000000001
 20
5.8134900000000007
 30
0.0
 10
1.3844400000000001
 20
5.9277900000000008
 30
0.0
  0
SPLINE
  5
2A
100
AcDbEntity
  8
Ebene 1
 62
     7
100
AcDbSpline
210
0.0
220
0.0
230
1.0
 70
     1
 71
     3
 72
   112
 73
   108
 74
     0
 42
0.0000000001
 43
0.0000000001
 40
0.0
 40
0.0
 40
0.0
 40
0.0
 40
0.037037037037037
 40
0.037037037037037
 40
0.037037037037037
 40
0.037037037037037
 40
0.0740740740740741
 40
0.0740740740740741
 40
0.0740740740740741
 40
0.0740740740740741
 40
0.1111111111111111
 40
0.1111111111111111
 40
0.1111111111111111
 40
0.1111111111111111
 40
0.1481481481481481
 40
0.1481481481481481
 40
0.1481481481481481
 40
0.1481481481481481
 40
0.1851851851851852
 40
0.1851851851851852
 40
0.1851851851851852
 40
0.1851851851851852
 40
0.2222222222222222
 40
0.2222222222222222
 40
0.2222222222222222
 40
0.2222222222222222
 40
0.2592592592592592
 40
0.2592592592592592
 40
0.2592592592592592
 40
0.2592592592592592
 40
0.2962962962962963
 40
0.2962962962962963
 40
0.2962962962962963
 40
0.2962962962962963
 40
0.3333333333333333
 40
0.3333333333333333
 40
0.3333333333333333
 40
0.3333333333333333
 40
0.3703703703703704
 40
0.3703703703703704
 40
0.3703703703703704
 40
0.3703703703703704
 40
0.4074074074074074
 40
0.4074074074074074
 40
0.4074074074074074
 40
0.4074074074074074
 40
0.4444444444444444
 40
0.4444444444444444
 40
0.4444444444444444
 40
0.4444444444444444
 40
0.4814814814814815
 40
0.4814814814814815
 40
0.4814814814814815
 40
0.4814814814814815
 40
0.5185185185185185
 40
0.5185185185185185
 40
0.5185185185185185
 40
0.5185185185185185
 40
0.5555555555555556
 40
0.5555555555555556
 40
0.5555555555555556
 40
0.5555555555555556
 40
0.5925925925925926
 40
0.5925925925925926
 40
0.5925925925925926
 40
0.5925925925925926
 40
0.6296296296296295
 40
0.6296296296296295
 40
0.6296296296296295
 40
0.6296296296296295
 40
0.6666666666666665
 40
0.6666666666666665
 40
0.6666666666666665
 40
0.6666666666666665
 40
0.7037037037037035
 40
0.7037037037037035
 40
0.7037037037037035
 40
0.7037037037037035
 40
0.7407407407407405
 40
0.7407407407407405
 40
0.7407407407407405
 40
0.7407407407407405
 40
0.7777777777777775
 40
0.7777777777777775
 40
0.7777777777777775
 40
0.7777777777777775
 40
0.8148148148148144
 40
0.8148148148148144
 40
0.8148148148148144
 40
0.8148148148148144
 40
0.8518518518518514
 40
0.8518518518518514
 40
0.8518518518518514
 40
0.8518518518518514
 40
0.8888888888888884
 40
0.8888888888888884
 40
0.8888888888888884
 40
0.8888888888888884
 40
0.9259259259259254
 40
0.9259259259259254
 40
0.9259259259259254
 40
0.9259259259259254
 40
0.9629629629629624
 40
0.9629629629629624
 40
0.9629629629629624
 40
0.9629629629629624
 40
1.0
 40
1.0
 40
1.0
 40
1.0
 10
0.29224
 20
5.1429300000000007
 30
0.0
 10
0.6732400000000001
 20
5.1353100000000005
 30
0.0
 10
1.1609200000000002
 20
4.8152700000000008
 30
0.0
 10
1.4098400000000002
 20
4.8305100000000003
 30
0.0
 10
1.4098400000000002
 20
4.8305100000000003
 30
0.0
 10
1.5368400000000002
 20
4.3326700000000002
 30
0.0
 10
0.9043800000000001
 20
4.0075500000000002
 30
0.0
 10
1.0745600000000002
 20
3.5960700000000001
 30
0.0
 10
1.0745600000000002
 20
3.5960700000000001
 30
0.0
 10
1.2066400000000002
 20
3.4309700000000003
 30
0.0
 10
1.4758800000000001
 20
3.3522300000000005
 30
0.0
 10
1.65368
 20
3.5097100000000001
 30
0.0
 10
1.65368
 20
3.5097100000000001
 30
0.0
 10
1.7375
 20
3.8373700000000004
 30
0.0
 10
1.9330800000000001
 20
4.1116900000000003
 30
0.0
 10
2.0880200000000002
 20
4.4012500000000001
 30
0.0
 10
2.0880200000000002
 20
4.4012500000000001
 30
0.0
 10
2.9490800000000004
 20
3.7891100000000004
 30
0.0
 10
2.17184
 20
2.5597500000000002
 30
0.0
 10
2.8957400000000004
 20
1.8485500000000001
 30
0.0
 10
2.8957400000000004
 20
1.8485500000000001
 30
0.0
 10
2.8957400000000004
 20
1.8485500000000001
 30
0.0
 10
2.9313000000000002
 20
1.3481700000000001
 30
0.0
 10
2.9313000000000002
 20
1.3481700000000001
 30
0.0
 10
2.9313000000000002
 20
1.3481700000000001
 30
0.0
 10
2.5325200000000003
 20
1.0001900000000001
 30
0.0
 10
2.5680800000000001
 20
0.4744100000000001
 30
0.0
 10
2.6163400000000001
 20
0.00959
 30
0.0
 10
2.6163400000000001
 20
0.00959
 30
0.0
 10
2.2505800000000002
 20
-0.56952
 30
0.0
 10
1.6409800000000001
 20
-0.3307600000000001
 30
0.0
 10
1.10758
 20
-0.19614
 30
0.0
 10
1.10758
 20
-0.19614
 30
0.0
 10
1.1177400000000002
 20
-0.13772
 30
0.0
 10
1.2422000000000002
 20
-0.0666
 30
0.0
 10
1.1558400000000002
 20
-0.01072
 30
0.0
 10
1.1558400000000002
 20
-0.01072
 30
0.0
 10
1.1558400000000002
 20
-0.01072
 30
0.0
 10
1.0415400000000001
 20
-0.1682
 30
0.0
 10
1.0415400000000001
 20
-0.1682
 30
0.0
 10
1.0415400000000001
 20
-0.1682
 30
0.0
 10
0.9043800000000001
 20
-0.26472
 30
0.0
 10
0.7265800000000001
 20
-0.84384
 30
0.0
 10
0.91454
 20
-0.5441200000000001
 30
0.0
 10
0.91454
 20
-0.5441200000000001
 30
0.0
 10
1.1533
 20
-0.06914
 30
0.0
 10
0.8815200000000001
 20
-1.0927600000000002
 30
0.0
 10
1.1177400000000002
 20
-1.28834
 30
0.0
 10
1.1177400000000002
 20
-1.28834
 30
0.0
 10
1.1177400000000002
 20
-1.28834
 30
0.0
 10
1.18632
 20
-1.5753600000000001
 30
0.0
 10
1.18632
 20
-1.5753600000000001
 30
0.0
 10
1.18632
 20
-1.5753600000000001
 30
0.0
 10
0.4192400000000001
 20
-1.21214
 30
0.0
 10
-0.28941
 20
-1.3162800000000001
 30
0.0
 10
-1.07935
 20
-1.4534400000000001
 30
0.0
 10
-1.07935
 20
-1.4534400000000001
 30
0.0
 10
-1.0310900000000001
 20
-1.1943600000000001
 30
0.0
 10
-1.1453900000000001
 20
-0.6406400000000001
 30
0.0
 10
-1.1377700000000002
 20
-1.1943600000000001
 30
0.0
 10
-1.1377700000000002
 20
-1.1943600000000001
 30
0.0
 10
-1.4019300000000001
 20
-1.71252
 30
0.0
 10
-1.12761
 20
-0.27234
 30
0.0
 10
-1.0691900000000001
 20
-0.6685800000000001
 30
0.0
 10
-1.0691900000000001
 20
-0.6685800000000001
 30
0.0
 10
-0.86853
 20
-1.3442200000000002
 30
0.0
 10
-0.9752100000000001
 20
-0.4272800000000001
 30
0.0
 10
-1.2419100000000001
 20
-0.25456
 30
0.0
 10
-1.2419100000000001
 20
-0.25456
 30
0.0
 10
-1.75753
 20
-0.08946
 30
0.0
 10
-2.2629900000000003
 20
-0.6279400000000001
 30
0.0
 10
-2.7176500000000003
 20
-0.16058
 30
0.0
 10
-2.7176500000000003
 20
-0.16058
 30
0.0
 10
-2.6719300000000001
 20
0.33217
 30
0.0
 10
-2.6998700000000002
 20
0.9620900000000001
 30
0.0
 10
-3.1875500000000003
 20
1.27959
 30
0.0
 10
-3.1875500000000003
 20
1.27959
 30
0.0
 10
-3.0478500000000004
 20
1.6885300000000001
 30
0.0
 10
-3.11389
 20
2.22193
 30
0.0
 10
-2.7227300000000003
 20
2.50387
 30
0.0
 10
-2.7227300000000003
 20
2.50387
 30
0.0
 10
-2.7278100000000003
 20
2.5724500000000003
 30
0.0
 10
-2.8141700000000003
 20
2.4632300000000003
 30
0.0
 10
-2.8548100000000001
 20
2.4759300000000004
 30
0.0
 10
-2.8548100000000001
 20
2.4759300000000004
 30
0.0
 10
-2.6262100000000004
 20
3.0728300000000002
 30
0.0
 10
-2.9208500000000002
 20
3.9465900000000005
 30
0.0
 10
-2.1486900000000002
 20
4.2437700000000005
 30
0.0
 10
-2.1486900000000002
 20
4.2437700000000005
 30
0.0
 10
-1.9708900000000003
 20
3.8170500000000005
 30
0.0
 10
-1.6914900000000002
 20
2.8899500000000002
 30
0.0
 10
-1.1377700000000002
 20
3.5097100000000001
 30
0.0
 10
-1.1377700000000002
 20
3.5097100000000001
 30
0.0
 10
-1.0742700000000001
 20
3.5884500000000004
 30
0.0
 10
-1.0514100000000002
 20
3.6875100000000005
 30
0.0
 10
-1.0691900000000001
 20
3.7941900000000004
 30
0.0
 10
-1.0691900000000001
 20
3.7941900000000004
 30
0.0
 10
-1.3841500000000002
 20
3.9770700000000003
 30
0.0
 10
-1.4451100000000001
 20
4.4139500000000007
 30
0.0
 10
-1.33843
 20
4.7771700000000008
 30
0.0
 10
-1.33843
 20
4.7771700000000008
 30
0.0
 10
-0.9345700000000001
 20
4.9702100000000007
 30
0.0
 10
-0.41387
 20
5.2623100000000003
 30
0.0
 10
0.01792
 20
5.0057700000000001
 30
0.0
 10
0.01792
 20
5.0057700000000001
 30
0.0
 10
0.01792
 20
5.0057700000000001
 30
0.0
 10
0.29224
 20
5.1429300000000007
 30
0.0
 10
0.29224
 20
5.1429300000000007
 30
0.0
  0
SPLINE
  5
2B
100
AcDbEntity
  8
Ebene 1
 62
     7
100
AcDbSpline
210
0.0
220
0.0
230
1.0
 70
     1
 71
     3
 72
    20
 73
    16
 74
     0
 42
0.0000000001
 43
0.0000000001
 40
0.0
 40
0.0
 40
0.0
 40
0.0
 40
0.25
 40
0.25
 40
0.25
 40
0.25
 40
0.5
 40
0.5
 40
0.5
 40
0.5
 40
0.75
 40
0.75
 40
0.75
 40
0.75
 40
1.0
 40
1.0
 40
1.0
 40
1.0
 10
1.7248000000000001
 20
5.1429300000000007
 30
0.0
 10
1.8111600000000001
 20
5.0972100000000005
 30
0.0
 10
1.9864200000000001
 20
5.0768900000000006
 30
0.0
 10
1.9635600000000002
 20
4.9422700000000006
 30
0.0
 10
1.9635600000000002
 20
4.9422700000000006
 30
0.0
 10
1.8137000000000001
 20
5.1175300000000004
 30
0.0
 10
1.5368400000000002
 20
5.0565700000000007
 30
0.0
 10
1.3844400000000001
 20
4.9067100000000003
 30
0.0
 10
1.3844400000000001
 20
4.9067100000000003
 30
0.0
 10
1.36158
 20
4.9498900000000008
 30
0.0
 10
1.4149200000000002
 20
4.9727500000000004
 30
0.0
 10
1.4377800000000001
 20
5.0032300000000003
 30
0.0
 10
1.4377800000000001
 20
5.0032300000000003
 30
0.0
 10
1.4377800000000001
 20
5.0032300000000003
 30
0.0
 10
1.7248000000000001
 20
5.1429300000000007
 30
0.0
 10
1.7248000000000001
 20
5.1429300000000007
 30
0.0
  0
SPLINE
  5
2C
100
AcDbEntity
  8
Ebene 1
 62
     7
100
AcDbSpline
210
0.0
220
0.0
230
1.0
 70
     1
 71
     3
 72
    24
 73
    20
 74
     0
 42
0.0000000001
 43
0.0000000001
 40
0.0
 40
0.0
 40
0.0
 40
0.0
 40
0.2
 40
0.2
 40
0.2
 40
0.2
 40
0.4
 40
0.4
 40
0.4
 40
0.4
 40
0.6000000000000001
 40
0.6000000000000001
 40
0.6000000000000001
 40
0.6000000000000001
 40
0.8
 40
0.8
 40
0.8
 40
0.8
 40
1.0
 40
1.0
 40
1.0
 40
1.0
 10
-1.7041900000000001
 20
5.09213
 30
0.0
 10
-1.5187700000000002
 20
5.1251500000000005
 30
0.0
 10
-1.33081
 20
5.0337100000000001
 30
0.0
 10
-1.2419100000000001
 20
4.89147
 30
0.0
 10
-1.2419100000000001
 20
4.89147
 30
0.0
 10
-1.2419100000000001
 20
4.89147
 30
0.0
 10
-1.29017
 20
4.8686100000000003
 30
0.0
 10
-1.29017
 20
4.8686100000000003
 30
0.0
 10
-1.29017
 20
4.8686100000000003
 30
0.0
 10
-1.37907
 20
4.9321100000000007
 30
0.0
 10
-1.4730500000000002
 20
5.0260900000000008
 30
0.0
 10
-1.5975100000000002
 20
5.0184700000000007
 30
0.0
 10
-1.5975100000000002
 20
5.0184700000000007
 30
0.0
 10
-1.7219700000000002
 20
5.0108500000000005
 30
0.0
 10
-1.8769100000000001
 20
4.9016300000000008
 30
0.0
 10
-1.8896100000000002
 20
4.9270300000000002
 30
0.0
 10
-1.8896100000000002
 20
4.9270300000000002
 30
0.0
 10
-1.8896100000000002
 20
4.9270300000000002
 30
0.0
 10
-1.7041900000000001
 20
5.09213
 30
0.0
 10
-1.7041900000000001
 20
5.09213
 30
0.0
  0
SPLINE
  5
2D
100
AcDbEntity
  8
Ebene 1
 62
     7
100
AcDbSpline
210
0.0
220
0.0
230
1.0
 70
     1
 71
     3
 72
    56
 73
    52
 74
     0
 42
0.0000000001
 43
0.0000000001
 40
0.0
 40
0.0
 40
0.0
 40
0.0
 40
0.0769230769230769
 40
0.0769230769230769
 40
0.0769230769230769
 40
0.0769230769230769
 40
0.1538461538461539
 40
0.1538461538461539
 40
0.1538461538461539
 40
0.1538461538461539
 40
0.2307692307692308
 40
0.2307692307692308
 40
0.2307692307692308
 40
0.2307692307692308
 40
0.3076923076923077
 40
0.3076923076923077
 40
0.3076923076923077
 40
0.3076923076923077
 40
0.3846153846153846
 40
0.3846153846153846
 40
0.3846153846153846
 40
0.3846153846153846
 40
0.4615384615384616
 40
0.4615384615384616
 40
0.4615384615384616
 40
0.4615384615384616
 40
0.5384615384615386
 40
0.5384615384615386
 40
0.5384615384615386
 40
0.5384615384615386
 40
0.6153846153846154
 40
0.6153846153846154
 40
0.6153846153846154
 40
0.6153846153846154
 40
0.6923076923076923
 40
0.6923076923076923
 40
0.6923076923076923
 40
0.6923076923076923
 40
0.7692307692307692
 40
0.7692307692307692
 40
0.7692307692307692
 40
0.7692307692307692
 40
0.846153846153846
 40
0.846153846153846
 40
0.846153846153846
 40
0.846153846153846
 40
0.9230769230769229
 40
0.9230769230769229
 40
0.9230769230769229
 40
0.9230769230769229
 40
1.0
 40
1.0
 40
1.0
 40
1.0
 10
1.7756000000000001
 20
4.9702100000000007
 30
0.0
 10
2.3242400000000001
 20
4.6603300000000001
 30
0.0
 10
1.7908400000000002
 20
3.9542100000000002
 30
0.0
 10
1.5317600000000002
 20
3.6316300000000004
 30
0.0
 10
1.5317600000000002
 20
3.6316300000000004
 30
0.0
 10
1.4454
 20
3.6036900000000003
 30
0.0
 10
1.3412600000000001
 20
3.6011500000000001
 30
0.0
 10
1.2803000000000002
 20
3.6824300000000001
 30
0.0
 10
1.2803000000000002
 20
3.6824300000000001
 30
0.0
 10
1.2955400000000001
 20
3.7865700000000002
 30
0.0
 10
1.4276200000000001
 20
3.9973900000000002
 30
0.0
 10
1.3514200000000001
 20
4.0456500000000002
 30
0.0
 10
1.3514200000000001
 20
4.0456500000000002
 30
0.0
 10
1.3514200000000001
 20
4.0456500000000002
 30
0.0
 10
1.1787000000000001
 20
3.8551500000000005
 30
0.0
 10
1.1787000000000001
 20
3.8551500000000005
 30
0.0
 10
1.1787000000000001
 20
3.8551500000000005
 30
0.0
 10
1.1787000000000001
 20
3.8551500000000005
 30
0.0
 10
1.3285600000000002
 20
4.1777300000000004
 30
0.0
 10
1.3285600000000002
 20
4.1777300000000004
 30
0.0
 10
1.3285600000000002
 20
4.1777300000000004
 30
0.0
 10
1.35904
 20
4.2818700000000005
 30
0.0
 10
1.3895200000000001
 20
4.4037900000000008
 30
0.0
 10
1.4479400000000002
 20
4.4876100000000001
 30
0.0
 10
1.4479400000000002
 20
4.4876100000000001
 30
0.0
 10
1.4479400000000002
 20
4.4876100000000001
 30
0.0
 10
1.4708000000000001
 20
4.7441500000000003
 30
0.0
 10
1.4708000000000001
 20
4.7441500000000003
 30
0.0
 10
1.4708000000000001
 20
4.7441500000000003
 30
0.0
 10
1.4708000000000001
 20
4.7441500000000003
 30
0.0
 10
1.4708000000000001
 20
4.88131
 30
0.0
 10
1.4708000000000001
 20
4.88131
 30
0.0
 10
1.4708000000000001
 20
4.88131
 30
0.0
 10
1.4708000000000001
 20
4.88131
 30
0.0
 10
1.5343000000000002
 20
4.9371900000000002
 30
0.0
 10
1.5343000000000002
 20
4.9371900000000002
 30
0.0
 10
1.5343000000000002
 20
4.9371900000000002
 30
0.0
 10
1.6867000000000001
 20
4.6781100000000002
 30
0.0
 10
1.4276200000000001
 20
4.4012500000000001
 30
0.0
 10
1.4835
 20
4.1599500000000003
 30
0.0
 10
1.4835
 20
4.1599500000000003
 30
0.0
 10
1.5368400000000002
 20
4.1955100000000005
 30
0.0
 10
1.5724
 20
4.2615500000000006
 30
0.0
 10
1.6054200000000001
 20
4.3148900000000001
 30
0.0
 10
1.6054200000000001
 20
4.3148900000000001
 30
0.0
 10
1.6054200000000001
 20
4.3148900000000001
 30
0.0
 10
1.6765400000000001
 20
4.5180899999999999
 30
0.0
 10
1.6765400000000001
 20
4.5180899999999999
 30
0.0
 10
1.6765400000000001
 20
4.5180899999999999
 30
0.0
 10
1.7527400000000002
 20
4.6527100000000008
 30
0.0
 10
1.7502000000000002
 20
4.8178100000000006
 30
0.0
 10
1.7756000000000001
 20
4.9702100000000007
 30
0.0
  0
SPLINE
  5
2E
100
AcDbEntity
  8
Ebene 1
 62
     7
100
AcDbSpline
210
0.0
220
0.0
230
1.0
 70
     1
 71
     3
 72
    52
 73
    48
 74
     0
 42
0.0000000001
 43
0.0000000001
 40
0.0
 40
0.0
 40
0.0
 40
0.0
 40
0.0833333333333333
 40
0.0833333333333333
 40
0.0833333333333333
 40
0.0833333333333333
 40
0.1666666666666667
 40
0.1666666666666667
 40
0.1666666666666667
 40
0.1666666666666667
 40
0.25
 40
0.25
 40
0.25
 40
0.25
 40
0.3333333333333333
 40
0.3333333333333333
 40
0.3333333333333333
 40
0.3333333333333333
 40
0.4166666666666666
 40
0.4166666666666666
 40
0.4166666666666666
 40
0.4166666666666666
 40
0.4999999999999999
 40
0.4999999999999999
 40
0.4999999999999999
 40
0.4999999999999999
 40
0.5833333333333333
 40
0.5833333333333333
 40
0.5833333333333333
 40
0.5833333333333333
 40
0.6666666666666666
 40
0.6666666666666666
 40
0.6666666666666666
 40
0.6666666666666666
 40
0.75
 40
0.75
 40
0.75
 40
0.75
 40
0.8333333333333334
 40
0.8333333333333334
 40
0.8333333333333334
 40
0.8333333333333334
 40
0.9166666666666667
 40
0.9166666666666667
 40
0.9166666666666667
 40
0.9166666666666667
 40
1.0
 40
1.0
 40
1.0
 40
1.0
 10
-1.5848100000000001
 20
3.5224100000000003
 30
0.0
 10
-1.5848100000000001
 20
3.5224100000000003
 30
0.0
 10
-1.6483100000000002
 20
3.5274900000000002
 30
0.0
 10
-1.6483100000000002
 20
3.5274900000000002
 30
0.0
 10
-1.6483100000000002
 20
3.5274900000000002
 30
0.0
 10
-1.9886700000000002
 20
3.8145100000000003
 30
0.0
 10
-2.2299700000000002
 20
4.3783900000000004
 30
0.0
 10
-1.9632700000000001
 20
4.7822500000000003
 30
0.0
 10
-1.9632700000000001
 20
4.7822500000000003
 30
0.0
 10
-1.9810500000000002
 20
4.6044500000000008
 30
0.0
 10
-2.0293100000000002
 20
4.4088700000000003
 30
0.0
 10
-1.9810500000000002
 20
4.2285300000000001
 30
0.0
 10
-1.9810500000000002
 20
4.2285300000000001
 30
0.0
 10
-1.9708900000000003
 20
4.0837500000000002
 30
0.0
 10
-1.8997700000000002
 20
3.9161100000000002
 30
0.0
 10
-1.7778500000000002
 20
3.8373700000000004
 30
0.0
 10
-1.7778500000000002
 20
3.8373700000000004
 30
0.0
 10
-1.7778500000000002
 20
3.8373700000000004
 30
0.0
 10
-1.7422900000000001
 20
3.9161100000000002
 30
0.0
 10
-1.7422900000000001
 20
3.9161100000000002
 30
0.0
 10
-1.7422900000000001
 20
3.9161100000000002
 30
0.0
 10
-1.9023100000000002
 20
4.2234500000000006
 30
0.0
 10
-1.8870700000000002
 20
4.8990900000000002
 30
0.0
 10
-1.4146300000000001
 20
4.88131
 30
0.0
 10
-1.4146300000000001
 20
4.88131
 30
0.0
 10
-1.3943100000000002
 20
4.8686100000000003
 30
0.0
 10
-1.3612900000000001
 20
4.8559100000000006
 30
0.0
 10
-1.38161
 20
4.8203500000000004
 30
0.0
 10
-1.38161
 20
4.8203500000000004
 30
0.0
 10
-1.4679700000000002
 20
4.7390700000000008
 30
0.0
 10
-1.4400300000000001
 20
4.5765100000000007
 30
0.0
 10
-1.4476500000000001
 20
4.4520500000000007
 30
0.0
 10
-1.4476500000000001
 20
4.4520500000000007
 30
0.0
 10
-1.4552700000000001
 20
4.29711
 30
0.0
 10
-1.4400300000000001
 20
4.1396300000000004
 30
0.0
 10
-1.3587500000000001
 20
4.0227900000000005
 30
0.0
 10
-1.3587500000000001
 20
4.0227900000000005
 30
0.0
 10
-1.24699
 20
3.9008700000000003
 30
0.0
 10
-1.1428500000000001
 20
3.5960700000000001
 30
0.0
 10
-1.3943100000000002
 20
3.6595700000000004
 30
0.0
 10
-1.3943100000000002
 20
3.6595700000000004
 30
0.0
 10
-1.3943100000000002
 20
3.6595700000000004
 30
0.0
 10
-1.6965700000000001
 20
3.7941900000000004
 30
0.0
 10
-1.6965700000000001
 20
3.7941900000000004
 30
0.0
 10
-1.6965700000000001
 20
3.7941900000000004
 30
0.0
 10
-1.6762500000000002
 20
3.6849700000000003
 30
0.0
 10
-1.6457700000000002
 20
3.6265500000000004
 30
0.0
 10
-1.5848100000000001
 20
3.5224100000000003
 30
0.0
  0
SPLINE
  5
2F
100
AcDbEntity
  8
Ebene 1
100
AcDbSpline
210
0.0
220
0.0
230
1.0
 70
     1
 71
     3
 72
    24
 73
    20
 74
     0
 42
0.0000000001
 43
0.0000000001
 40
0.0
 40
0.0
 40
0.0
 40
0.0
 40
0.2
 40
0.2
 40
0.2
 40
0.2
 40
0.4
 40
0.4
 40
0.4
 40
0.4
 40
0.6000000000000001
 40
0.6000000000000001
 40
0.6000000000000001
 40
0.6000000000000001
 40
0.8
 40
0.8
 40
0.8
 40
0.8
 40
1.0
 40
1.0
 40
1.0
 40
1.0
 10
-0.4799100000000001
 20
4.0583499999999999
 30
0.0
 10
-0.38847
 20
4.0558100000000001
 30
0.0
 10
-0.20559
 20
4.0939100000000002
 30
0.0
 10
-0.25893
 20
3.9415100000000005
 30
0.0
 10
-0.25893
 20
3.9415100000000005
 30
0.0
 10
-0.42403
 20
3.9872300000000003
 30
0.0
 10
-0.6043700000000001
 20
3.9465900000000005
 30
0.0
 10
-0.7567700000000001
 20
3.8678500000000002
 30
0.0
 10
-0.7567700000000001
 20
3.8678500000000002
 30
0.0
 10
-0.78217
 20
3.8932500000000001
 30
0.0
 10
-0.8431300000000001
 20
3.9008700000000003
 30
0.0
 10
-0.8202700000000001
 20
3.9491300000000003
 30
0.0
 10
-0.8202700000000001
 20
3.9491300000000003
 30
0.0
 10
-0.7872500000000001
 20
3.9770700000000003
 30
0.0
 10
-0.7466100000000001
 20
3.9999300000000004
 30
0.0
 10
-0.7034300000000001
 20
4.0050100000000004
 30
0.0
 10
-0.7034300000000001
 20
4.0050100000000004
 30
0.0
 10
-0.7034300000000001
 20
4.0050100000000004
 30
0.0
 10
-0.4799100000000001
 20
4.0583499999999999
 30
0.0
 10
-0.4799100000000001
 20
4.0583499999999999
 30
0.0
  0
SPLINE
  5
30
100
AcDbEntity
  8
Ebene 1
100
AcDbSpline
210
0.0
220
0.0
230
1.0
 70
     1
 71
     3
 72
    20
 73
    16
 74
     0
 42
0.0000000001
 43
0.0000000001
 40
0.0
 40
0.0
 40
0.0
 40
0.0
 40
0.25
 40
0.25
 40
0.25
 40
0.25
 40
0.5
 40
0.5
 40
0.5
 40
0.5
 40
0.75
 40
0.75
 40
0.75
 40
0.75
 40
1.0
 40
1.0
 40
1.0
 40
1.0
 10
0.39638
 20
4.0227900000000005
 30
0.0
 10
0.39638
 20
4.0227900000000005
 30
0.0
 10
0.6732400000000001
 20
3.9872300000000003
 30
0.0
 10
0.6732400000000001
 20
3.9872300000000003
 30
0.0
 10
0.6732400000000001
 20
3.9872300000000003
 30
0.0
 10
0.6961000000000001
 20
3.9719900000000004
 30
0.0
 10
0.76468
 20
3.9338900000000003
 30
0.0
 10
0.7215
 20
3.9059500000000003
 30
0.0
 10
0.7215
 20
3.9059500000000003
 30
0.0
 10
0.5818000000000001
 20
3.9542100000000002
 30
0.0
 10
0.42178
 20
3.9592900000000002
 30
0.0
 10
0.29732
 20
3.9059500000000003
 30
0.0
 10
0.29732
 20
3.9059500000000003
 30
0.0
 10
0.29732
 20
3.9059500000000003
 30
0.0
 10
0.39638
 20
4.0227900000000005
 30
0.0
 10
0.39638
 20
4.0227900000000005
 30
0.0
  0
SPLINE
  5
31
100
AcDbEntity
  8
Ebene 1
 62
     7
100
AcDbSpline
210
0.0
220
0.0
230
1.0
 70
     1
 71
     3
 72
    36
 73
    32
 74
     0
 42
0.0000000001
 43
0.0000000001
 40
0.0
 40
0.0
 40
0.0
 40
0.0
 40
0.125
 40
0.125
 40
0.125
 40
0.125
 40
0.25
 40
0.25
 40
0.25
 40
0.25
 40
0.375
 40
0.375
 40
0.375
 40
0.375
 40
0.5
 40
0.5
 40
0.5
 40
0.5
 40
0.625
 40
0.625
 40
0.625
 40
0.625
 40
0.75
 40
0.75
 40
0.75
 40
0.75
 40
0.875
 40
0.875
 40
0.875
 40
0.875
 40
1.0
 40
1.0
 40
1.0
 40
1.0
 10
3.1218000000000004
 20
3.9364300000000005
 30
0.0
 10
3.8126800000000003
 20
3.8018100000000001
 30
0.0
 10
3.8584000000000005
 20
2.9229700000000003
 30
0.0
 10
3.9295200000000001
 20
2.3209900000000001
 30
0.0
 10
3.9295200000000001
 20
2.3209900000000001
 30
0.0
 10
3.6983800000000002
 20
2.2092300000000002
 30
0.0
 10
3.7822000000000005
 20
2.5292700000000004
 30
0.0
 10
3.6729800000000004
 20
2.6080100000000002
 30
0.0
 10
3.6729800000000004
 20
2.6080100000000002
 30
0.0
 10
3.6729800000000004
 20
2.6080100000000002
 30
0.0
 10
3.7390200000000005
 20
2.2701900000000004
 30
0.0
 10
3.7390200000000005
 20
2.2701900000000004
 30
0.0
 10
3.7390200000000005
 20
2.2701900000000004
 30
0.0
 10
3.5078800000000001
 20
2.2244700000000002
 30
0.0
 10
3.1980000000000004
 20
2.2295500000000001
 30
0.0
 10
3.1040200000000002
 20
2.4530700000000003
 30
0.0
 10
3.1040200000000002
 20
2.4530700000000003
 30
0.0
 10
3.1040200000000002
 20
2.4530700000000003
 30
0.0
 10
3.3300800000000002
 20
2.8670900000000001
 30
0.0
 10
3.3300800000000002
 20
2.8670900000000001
 30
0.0
 10
3.3300800000000002
 20
2.8670900000000001
 30
0.0
 10
3.3656400000000004
 20
2.9610700000000003
 30
0.0
 10
3.3377000000000003
 20
3.0626700000000002
 30
0.0
 10
3.3250000000000002
 20
3.1566500000000004
 30
0.0
 10
3.3250000000000002
 20
3.1566500000000004
 30
0.0
 10
3.1827600000000005
 20
3.4741500000000003
 30
0.0
 10
2.8805000000000001
 20
3.2531700000000003
 30
0.0
 10
2.6773000000000002
 20
3.1998300000000004
 30
0.0
 10
2.6773000000000002
 20
3.1998300000000004
 30
0.0
 10
2.5147400000000002
 20
3.5503500000000003
 30
0.0
 10
2.8347800000000003
 20
3.8272100000000004
 30
0.0
 10
3.1218000000000004
 20
3.9364300000000005
 30
0.0
  0
SPLINE
  5
32
100
AcDbEntity
  8
Ebene 1
 62
     7
100
AcDbSpline
210
0.0
220
0.0
230
1.0
 70
     1
 71
     3
 72
    16
 73
    12
 74
     0
 42
0.0000000001
 43
0.0000000001
 40
0.0
 40
0.0
 40
0.0
 40
0.0
 40
0.3333333333333333
 40
0.3333333333333333
 40
0.3333333333333333
 40
0.3333333333333333
 40
0.6666666666666666
 40
0.6666666666666666
 40
0.6666666666666666
 40
0.6666666666666666
 40
1.0
 40
1.0
 40
1.0
 40
1.0
 10
1.65622
 20
3.6265500000000004
 30
0.0
 10
1.5089000000000001
 20
3.3369900000000001
 30
0.0
 10
1.01614
 20
3.5630500000000005
 30
0.0
 10
1.0923400000000001
 20
3.8449900000000001
 30
0.0
 10
1.0923400000000001
 20
3.8449900000000001
 30
0.0
 10
1.09996
 20
3.8551500000000005
 30
0.0
 10
1.1253600000000001
 20
3.8500700000000001
 30
0.0
 10
1.1202800000000002
 20
3.8322900000000004
 30
0.0
 10
1.1202800000000002
 20
3.8322900000000004
 30
0.0
 10
1.1177400000000002
 20
3.5986100000000003
 30
0.0
 10
1.4682600000000001
 20
3.4538300000000004
 30
0.0
 10
1.65622
 20
3.6265500000000004
 30
0.0
  0
SPLINE
  5
33
100
AcDbEntity
  8
Ebene 1
 62
     7
100
AcDbSpline
210
0.0
220
0.0
230
1.0
 70
     1
 71
     3
 72
    12
 73
     8
 74
     0
 42
0.0000000001
 43
0.0000000001
 40
0.0
 40
0.0
 40
0.0
 40
0.0
 40
0.5
 40
0.5
 40
0.5
 40
0.5
 40
1.0
 40
1.0
 40
1.0
 40
1.0
 10
-1.1530100000000001
 20
3.7992700000000004
 30
0.0
 10
-1.0260100000000001
 20
3.5351100000000004
 30
0.0
 10
-1.5670300000000001
 20
3.1769700000000003
 30
0.0
 10
-1.7041900000000001
 20
3.4538300000000004
 30
0.0
 10
-1.7041900000000001
 20
3.4538300000000004
 30
0.0
 10
-1.4705100000000002
 20
3.3522300000000005
 30
0.0
 10
-1.1834900000000002
 20
3.5528900000000001
 30
0.0
 10
-1.1530100000000001
 20
3.7992700000000004
 30
0.0
  0
SPLINE
  5
34
100
AcDbEntity
  8
Ebene 1
100
AcDbSpline
210
0.0
220
0.0
230
1.0
 70
     1
 71
     3
 72
    24
 73
    20
 74
     0
 42
0.0000000001
 43
0.0000000001
 40
0.0
 40
0.0
 40
0.0
 40
0.0
 40
0.2
 40
0.2
 40
0.2
 40
0.2
 40
0.4
 40
0.4
 40
0.4
 40
0.4
 40
0.6000000000000001
 40
0.6000000000000001
 40
0.6000000000000001
 40
0.6000000000000001
 40
0.8
 40
0.8
 40
0.8
 40
0.8
 40
1.0
 40
1.0
 40
1.0
 40
1.0
 10
3.05322
 20
3.7992700000000004
 30
0.0
 10
3.0760800000000001
 20
3.7992700000000004
 30
0.0
 10
3.1040200000000002
 20
3.7992700000000004
 30
0.0
 10
3.1167200000000004
 20
3.7789500000000005
 30
0.0
 10
3.1167200000000004
 20
3.7789500000000005
 30
0.0
 10
3.1167200000000004
 20
3.7789500000000005
 30
0.0
 10
3.0049600000000001
 20
3.6900500000000003
 30
0.0
 10
3.0049600000000001
 20
3.6900500000000003
 30
0.0
 10
3.0049600000000001
 20
3.6900500000000003
 30
0.0
 10
3.0278200000000002
 20
3.5579700000000001
 30
0.0
 10
2.8779600000000003
 20
3.4817700000000005
 30
0.0
 10
2.79922
 20
3.4411300000000002
 30
0.0
 10
2.79922
 20
3.4411300000000002
 30
0.0
 10
2.8017600000000003
 20
3.5097100000000001
 30
0.0
 10
2.8779600000000003
 20
3.5528900000000001
 30
0.0
 10
2.92876
 20
3.5960700000000001
 30
0.0
 10
2.92876
 20
3.5960700000000001
 30
0.0
 10
2.9135200000000001
 20
3.6925900000000005
 30
0.0
 10
2.9744800000000002
 20
3.7637100000000001
 30
0.0
 10
3.05322
 20
3.7992700000000004
 30
0.0
  0
SPLINE
  5
35
100
AcDbEntity
  8
Ebene 1
 62
     7
100
AcDbSpline
210
0.0
220
0.0
230
1.0
 70
     1
 71
     3
 72
    28
 73
    24
 74
     0
 42
0.0000000001
 43
0.0000000001
 40
0.0
 40
0.0
 40
0.0
 40
0.0
 40
0.1666666666666667
 40
0.1666666666666667
 40
0.1666666666666667
 40
0.1666666666666667
 40
0.3333333333333333
 40
0.3333333333333333
 40
0.3333333333333333
 40
0.3333333333333333
 40
0.5
 40
0.5
 40
0.5
 40
0.5
 40
0.6666666666666666
 40
0.6666666666666666
 40
0.6666666666666666
 40
0.6666666666666666
 40
0.8333333333333333
 40
0.8333333333333333
 40
0.8333333333333333
 40
0.8333333333333333
 40
1.0
 40
1.0
 40
1.0
 40
1.0
 10
-3.2739100000000003
 20
3.7459300000000004
 30
0.0
 10
-2.7989300000000004
 20
3.8170500000000005
 30
0.0
 10
-2.6439900000000001
 20
2.7908900000000001
 30
0.0
 10
-3.1748500000000002
 20
3.1922100000000002
 30
0.0
 10
-3.1748500000000002
 20
3.1922100000000002
 30
0.0
 10
-3.1748500000000002
 20
3.1922100000000002
 30
0.0
 10
-3.2916900000000004
 20
3.1947500000000004
 30
0.0
 10
-3.2916900000000004
 20
3.1947500000000004
 30
0.0
 10
-3.2916900000000004
 20
3.1947500000000004
 30
0.0
 10
-3.3856700000000002
 20
3.1718900000000003
 30
0.0
 10
-3.4466300000000003
 20
3.1007700000000002
 30
0.0
 10
-3.4948900000000003
 20
3.0194900000000002
 30
0.0
 10
-3.4948900000000003
 20
3.0194900000000002
 30
0.0
 10
-3.6015700000000002
 20
2.8289900000000001
 30
0.0
 10
-3.5380700000000003
 20
2.5419700000000001
 30
0.0
 10
-3.2942300000000002
 20
2.5191100000000004
 30
0.0
 10
-3.2942300000000002
 20
2.5191100000000004
 30
0.0
 10
-3.1977100000000003
 20
2.29305
 30
0.0
 10
-3.4466300000000003
 20
2.13049
 30
0.0
 10
-3.6498300000000001
 20
2.1482700000000001
 30
0.0
 10
-3.6498300000000001
 20
2.1482700000000001
 30
0.0
 10
-3.6980900000000001
 20
2.7273900000000002
 30
0.0
 10
-3.6422100000000004
 20
3.3293700000000004
 30
0.0
 10
-3.2739100000000003
 20
3.7459300000000004
 30
0.0
  0
SPLINE
  5
36
100
AcDbEntity
  8
Ebene 1
 62
     7
100
AcDbSpline
210
0.0
220
0.0
230
1.0
 70
     1
 71
     3
 72
    12
 73
     8
 74
     0
 42
0.0000000001
 43
0.0000000001
 40
0.0
 40
0.0
 40
0.0
 40
0.0
 40
0.5
 40
0.5
 40
0.5
 40
0.5
 40
1.0
 40
1.0
 40
1.0
 40
1.0
 10
3.2411800000000004
 20
2.8670900000000001
 30
0.0
 10
3.2818200000000002
 20
3.0499700000000001
 30
0.0
 10
3.1853000000000002
 20
3.1998300000000004
 30
0.0
 10
3.0405200000000003
 20
3.2785700000000002
 30
0.0
 10
3.0405200000000003
 20
3.2785700000000002
 30
0.0
 10
3.2437200000000002
 20
3.2836500000000002
 30
0.0
 10
3.3453200000000001
 20
3.0245700000000002
 30
0.0
 10
3.2411800000000004
 20
2.8670900000000001
 30
0.0
  0
SPLINE
  5
37
100
AcDbEntity
  8
Ebene 1
 62
     7
100
AcDbSpline
210
0.0
220
0.0
230
1.0
 70
     1
 71
     3
 72
    16
 73
    12
 74
     0
 42
0.0000000001
 43
0.0000000001
 40
0.0
 40
0.0
 40
0.0
 40
0.0
 40
0.3333333333333333
 40
0.3333333333333333
 40
0.3333333333333333
 40
0.3333333333333333
 40
0.6666666666666666
 40
0.6666666666666666
 40
0.6666666666666666
 40
0.6666666666666666
 40
1.0
 40
1.0
 40
1.0
 40
1.0
 10
-3.7387300000000003
 20
3.2125300000000001
 30
0.0
 10
-3.7387300000000003
 20
3.2125300000000001
 30
0.0
 10
-3.7107900000000003
 20
2.1482700000000001
 30
0.0
 10
-3.7107900000000003
 20
2.1482700000000001
 30
0.0
 10
-3.7107900000000003
 20
2.1482700000000001
 30
0.0
 10
-3.7768300000000004
 20
2.1330300000000002
 30
0.0
 10
-3.8454100000000002
 20
2.1431900000000002
 30
0.0
 10
-3.9063700000000003
 20
2.1660500000000003
 30
0.0
 10
-3.9063700000000003
 20
2.1660500000000003
 30
0.0
 10
-3.8835100000000002
 20
2.5191100000000004
 30
0.0
 10
-3.8809700000000005
 20
2.8924900000000004
 30
0.0
 10
-3.7387300000000003
 20
3.2125300000000001
 30
0.0
  0
SPLINE
  5
38
100
AcDbEntity
  8
Ebene 1
 62
     7
100
AcDbSpline
210
0.0
220
0.0
230
1.0
 70
     1
 71
     3
 72
    16
 73
    12
 74
     0
 42
0.0000000001
 43
0.0000000001
 40
0.0
 40
0.0
 40
0.0
 40
0.0
 40
0.3333333333333333
 40
0.3333333333333333
 40
0.3333333333333333
 40
0.3333333333333333
 40
0.6666666666666666
 40
0.6666666666666666
 40
0.6666666666666666
 40
0.6666666666666666
 40
1.0
 40
1.0
 40
1.0
 40
1.0
 10
3.1040200000000002
 20
3.1439500000000002
 30
0.0
 10
3.3300800000000002
 20
2.8797900000000003
 30
0.0
 10
2.97194
 20
2.5597500000000002
 30
0.0
 10
2.7763600000000004
 20
2.3667100000000003
 30
0.0
 10
2.7763600000000004
 20
2.3667100000000003
 30
0.0
 10
2.7077800000000001
 20
2.4352900000000002
 30
0.0
 10
2.63666
 20
2.5495900000000002
 30
0.0
 10
2.6265000000000001
 20
2.6562700000000001
 30
0.0
 10
2.6265000000000001
 20
2.6562700000000001
 30
0.0
 10
2.8297000000000003
 20
2.7781900000000004
 30
0.0
 10
2.9668600000000001
 20
2.9610700000000003
 30
0.0
 10
3.1040200000000002
 20
3.1439500000000002
 30
0.0
  0
SPLINE
  5
39
100
AcDbEntity
  8
Ebene 1
 62
     7
100
AcDbSpline
210
0.0
220
0.0
230
1.0
 70
     1
 71
     3
 72
    16
 73
    12
 74
     0
 42
0.0000000001
 43
0.0000000001
 40
0.0
 40
0.0
 40
0.0
 40
0.0
 40
0.3333333333333333
 40
0.3333333333333333
 40
0.3333333333333333
 40
0.3333333333333333
 40
0.6666666666666666
 40
0.6666666666666666
 40
0.6666666666666666
 40
0.6666666666666666
 40
1.0
 40
1.0
 40
1.0
 40
1.0
 10
2.9668600000000001
 20
3.1261700000000001
 30
0.0
 10
2.8779600000000003
 20
3.0017100000000001
 30
0.0
 10
2.7230200000000004
 20
2.9280500000000003
 30
0.0
 10
2.59348
 20
2.8543900000000004
 30
0.0
 10
2.59348
 20
2.8543900000000004
 30
0.0
 10
2.59348
 20
2.8543900000000004
 30
0.0
 10
2.59348
 20
2.9153500000000001
 30
0.0
 10
2.59348
 20
2.9153500000000001
 30
0.0
 10
2.59348
 20
2.9153500000000001
 30
0.0
 10
2.71286
 20
2.9890100000000004
 30
0.0
 10
2.8271600000000001
 20
3.0880700000000001
 30
0.0
 10
2.9668600000000001
 20
3.1261700000000001
 30
0.0
  0
SPLINE
  5
3A
100
AcDbEntity
  8
Ebene 1
100
AcDbSpline
210
0.0
220
0.0
230
1.0
 70
     1
 71
     3
 72
    32
 73
    28
 74
     0
 42
0.0000000001
 43
0.0000000001
 40
0.0
 40
0.0
 40
0.0
 40
0.0
 40
0.1428571428571429
 40
0.1428571428571429
 40
0.1428571428571429
 40
0.1428571428571429
 40
0.2857142857142857
 40
0.2857142857142857
 40
0.2857142857142857
 40
0.2857142857142857
 40
0.4285714285714286
 40
0.4285714285714286
 40
0.4285714285714286
 40
0.4285714285714286
 40
0.5714285714285714
 40
0.5714285714285714
 40
0.5714285714285714
 40
0.5714285714285714
 40
0.7142857142857142
 40
0.7142857142857142
 40
0.7142857142857142
 40
0.7142857142857142
 40
0.857142857142857
 40
0.857142857142857
 40
0.857142857142857
 40
0.857142857142857
 40
1.0
 40
1.0
 40
1.0
 40
1.0
 10
-1.9988300000000001
 20
3.0728300000000002
 30
0.0
 10
-1.9988300000000001
 20
3.0728300000000002
 30
0.0
 10
-2.0953500000000003
 20
2.7172300000000003
 30
0.0
 10
-2.0953500000000003
 20
2.7172300000000003
 30
0.0
 10
-2.0953500000000003
 20
2.7172300000000003
 30
0.0
 10
-1.9988300000000001
 20
2.6689700000000003
 30
0.0
 10
-1.8515100000000002
 20
2.63341
 30
0.0
 10
-1.7930900000000001
 20
2.5622900000000004
 30
0.0
 10
-1.7930900000000001
 20
2.5622900000000004
 30
0.0
 10
-1.8134100000000002
 20
2.5318100000000001
 30
0.0
 10
-1.8464300000000002
 20
2.5419700000000001
 30
0.0
 10
-1.8769100000000001
 20
2.5394300000000003
 30
0.0
 10
-1.8769100000000001
 20
2.5394300000000003
 30
0.0
 10
-2.0801100000000003
 20
2.75787
 30
0.0
 10
-2.31379
 20
2.5800700000000001
 30
0.0
 10
-2.5271500000000002
 20
2.50895
 30
0.0
 10
-2.5271500000000002
 20
2.50895
 30
0.0
 10
-2.5271500000000002
 20
2.50895
 30
0.0
 10
-2.5271500000000002
 20
2.5699100000000001
 30
0.0
 10
-2.5271500000000002
 20
2.5699100000000001
 30
0.0
 10
-2.5271500000000002
 20
2.5699100000000001
 30
0.0
 10
-2.3823700000000003
 20
2.6461100000000002
 30
0.0
 10
-2.2782300000000002
 20
2.6359500000000002
 30
0.0
 10
-2.1740900000000001
 20
2.7477100000000001
 30
0.0
 10
-2.1740900000000001
 20
2.7477100000000001
 30
0.0
 10
-2.11313
 20
2.8137500000000002
 30
0.0
 10
-2.1486900000000002
 20
2.9839300000000004
 30
0.0
 10
-1.9988300000000001
 20
3.0728300000000002
 30
0.0
  0
SPLINE
  5
3B
100
AcDbEntity
  8
Ebene 1
 62
     7
100
AcDbSpline
210
0.0
220
0.0
230
1.0
 70
     1
 71
     3
 72
    16
 73
    12
 74
     0
 42
0.0000000001
 43
0.0000000001
 40
0.0
 40
0.0
 40
0.0
 40
0.0
 40
0.3333333333333333
 40
0.3333333333333333
 40
0.3333333333333333
 40
0.3333333333333333
 40
0.6666666666666666
 40
0.6666666666666666
 40
0.6666666666666666
 40
0.6666666666666666
 40
1.0
 40
1.0
 40
1.0
 40
1.0
 10
-3.3094700000000001
 20
3.0220300000000004
 30
0.0
 10
-3.1240500000000004
 20
3.0448900000000001
 30
0.0
 10
-2.9843500000000001
 20
2.9128100000000003
 30
0.0
 10
-2.8116300000000001
 20
2.8975700000000004
 30
0.0
 10
-2.8116300000000001
 20
2.8975700000000004
 30
0.0
 10
-2.8116300000000001
 20
2.8975700000000004
 30
0.0
 10
-2.8624300000000003
 20
2.6486500000000004
 30
0.0
 10
-2.8624300000000003
 20
2.6486500000000004
 30
0.0
 10
-2.8624300000000003
 20
2.6486500000000004
 30
0.0
 10
-3.0402300000000002
 20
2.7121500000000003
 30
0.0
 10
-3.2916900000000004
 20
2.80105
 30
0.0
 10
-3.3094700000000001
 20
3.0220300000000004
 30
0.0
  0
SPLINE
  5
3C
100
AcDbEntity
  8
Ebene 1
100
AcDbSpline
210
0.0
220
0.0
230
1.0
 70
     1
 71
     3
 72
    32
 73
    28
 74
     0
 42
0.0000000001
 43
0.0000000001
 40
0.0
 40
0.0
 40
0.0
 40
0.0
 40
0.1428571428571429
 40
0.1428571428571429
 40
0.1428571428571429
 40
0.1428571428571429
 40
0.2857142857142857
 40
0.2857142857142857
 40
0.2857142857142857
 40
0.2857142857142857
 40
0.4285714285714286
 40
0.4285714285714286
 40
0.4285714285714286
 40
0.4285714285714286
 40
0.5714285714285714
 40
0.5714285714285714
 40
0.5714285714285714
 40
0.5714285714285714
 40
0.7142857142857142
 40
0.7142857142857142
 40
0.7142857142857142
 40
0.7142857142857142
 40
0.857142857142857
 40
0.857142857142857
 40
0.857142857142857
 40
0.857142857142857
 40
1.0
 40
1.0
 40
1.0
 40
1.0
 10
1.7425800000000002
 20
2.9890100000000004
 30
0.0
 10
1.8619600000000001
 20
2.9509100000000004
 30
0.0
 10
1.7705200000000001
 20
2.71977
 30
0.0
 10
1.9381600000000001
 20
2.68167
 30
0.0
 10
1.9381600000000001
 20
2.68167
 30
0.0
 10
1.9381600000000001
 20
2.68167
 30
0.0
 10
2.1388200000000004
 20
2.5572100000000004
 30
0.0
 10
2.1388200000000004
 20
2.5572100000000004
 30
0.0
 10
2.1388200000000004
 20
2.5572100000000004
 30
0.0
 10
2.1947000000000001
 20
2.5267300000000001
 30
0.0
 10
2.3242400000000001
 20
2.4098900000000003
 30
0.0
 10
2.17692
 20
2.4073500000000001
 30
0.0
 10
2.17692
 20
2.4073500000000001
 30
0.0
 10
1.7298800000000001
 20
2.7985100000000003
 30
0.0
 10
1.19394
 20
2.3717900000000003
 30
0.0
 10
0.76468
 20
2.2701900000000004
 30
0.0
 10
0.76468
 20
2.2701900000000004
 30
0.0
 10
0.7519800000000001
 20
2.33623
 30
0.0
 10
0.8332600000000001
 20
2.3692500000000001
 30
0.0
 10
0.8789800000000001
 20
2.4022700000000001
 30
0.0
 10
0.8789800000000001
 20
2.4022700000000001
 30
0.0
 10
1.01868
 20
2.4886300000000001
 30
0.0
 10
1.1660000000000001
 20
2.5572100000000004
 30
0.0
 10
1.31586
 20
2.6207100000000003
 30
0.0
 10
1.31586
 20
2.6207100000000003
 30
0.0
 10
1.5216000000000001
 20
2.63849
 30
0.0
 10
1.7248000000000001
 20
2.7832700000000004
 30
0.0
 10
1.7425800000000002
 20
2.9890100000000004
 30
0.0
  0
SPLINE
  5
3D
100
AcDbEntity
  8
Ebene 1
 62
     7
100
AcDbSpline
210
0.0
220
0.0
230
1.0
 70
     1
 71
     3
 72
    12
 73
     8
 74
     0
 42
0.0000000001
 43
0.0000000001
 40
0.0
 40
0.0
 40
0.0
 40
0.0
 40
0.5
 40
0.5
 40
0.5
 40
0.5
 40
1.0
 40
1.0
 40
1.0
 40
1.0
 10
-3.4466300000000003
 20
2.9356700000000004
 30
0.0
 10
-3.4872700000000001
 20
2.7934300000000003
 30
0.0
 10
-3.3805900000000002
 20
2.71977
 30
0.0
 10
-3.3475700000000002
 20
2.6130900000000001
 30
0.0
 10
-3.3475700000000002
 20
2.6130900000000001
 30
0.0
 10
-3.4821900000000001
 20
2.6054700000000004
 30
0.0
 10
-3.5202900000000001
 20
2.8493100000000005
 30
0.0
 10
-3.4466300000000003
 20
2.9356700000000004
 30
0.0
  0
SPLINE
  5
3E
100
AcDbEntity
  8
Ebene 1
 62
     7
100
AcDbSpline
210
0.0
220
0.0
230
1.0
 70
     1
 71
     3
 72
    20
 73
    16
 74
     0
 42
0.0000000001
 43
0.0000000001
 40
0.0
 40
0.0
 40
0.0
 40
0.0
 40
0.25
 40
0.25
 40
0.25
 40
0.25
 40
0.5
 40
0.5
 40
0.5
 40
0.5
 40
0.75
 40
0.75
 40
0.75
 40
0.75
 40
1.0
 40
1.0
 40
1.0
 40
1.0
 10
-3.3424900000000002
 20
2.76295
 30
0.0
 10
-3.3424900000000002
 20
2.76295
 30
0.0
 10
-3.0884900000000002
 20
2.6054700000000004
 30
0.0
 10
-3.0884900000000002
 20
2.6054700000000004
 30
0.0
 10
-3.0884900000000002
 20
2.6054700000000004
 30
0.0
 10
-3.0681700000000003
 20
2.5343500000000003
 30
0.0
 10
-2.9995900000000004
 20
2.4962500000000003
 30
0.0
 10
-2.9335500000000003
 20
2.46577
 30
0.0
 10
-2.9335500000000003
 20
2.46577
 30
0.0
 10
-2.9335500000000003
 20
2.46577
 30
0.0
 10
-2.9513300000000005
 20
2.3895700000000004
 30
0.0
 10
-2.9513300000000005
 20
2.3895700000000004
 30
0.0
 10
-2.9513300000000005
 20
2.3895700000000004
 30
0.0
 10
-3.11389
 20
2.4479900000000003
 30
0.0
 10
-3.2510500000000002
 20
2.6156300000000003
 30
0.0
 10
-3.3424900000000002
 20
2.76295
 30
0.0
  0
SPLINE
  5
3F
100
AcDbEntity
  8
Ebene 1
100
AcDbSpline
210
0.0
220
0.0
230
1.0
 70
     1
 71
     3
 72
    24
 73
    20
 74
     0
 42
0.0000000001
 43
0.0000000001
 40
0.0
 40
0.0
 40
0.0
 40
0.0
 40
0.2
 40
0.2
 40
0.2
 40
0.2
 40
0.4
 40
0.4
 40
0.4
 40
0.4
 40
0.6000000000000001
 40
0.6000000000000001
 40
0.6000000000000001
 40
0.6000000000000001
 40
0.8
 40
0.8
 40
0.8
 40
0.8
 40
1.0
 40
1.0
 40
1.0
 40
1.0
 10
-1.0310900000000001
 20
2.4352900000000002
 30
0.0
 10
-0.76185
 20
2.4378300000000004
 30
0.0
 10
-0.55611
 20
2.17367
 30
0.0
 10
-0.28941
 20
2.2625700000000002
 30
0.0
 10
-0.28941
 20
2.2625700000000002
 30
0.0
 10
-0.26909
 20
2.2473300000000003
 30
0.0
 10
-0.22845
 20
2.2447900000000001
 30
0.0
 10
-0.22337
 20
2.21177
 30
0.0
 10
-0.22337
 20
2.21177
 30
0.0
 10
-0.3224300000000001
 20
2.1330300000000002
 30
0.0
 10
-0.47229
 20
2.0898500000000002
 30
0.0
 10
-0.59675
 20
2.1127100000000003
 30
0.0
 10
-0.59675
 20
2.1127100000000003
 30
0.0
 10
-0.63231
 20
2.3184500000000003
 30
0.0
 10
-0.9142500000000001
 20
2.2905100000000003
 30
0.0
 10
-1.0615700000000001
 20
2.3895700000000004
 30
0.0
 10
-1.0615700000000001
 20
2.3895700000000004
 30
0.0
 10
-1.0615700000000001
 20
2.3895700000000004
 30
0.0
 10
-1.0310900000000001
 20
2.4352900000000002
 30
0.0
 10
-1.0310900000000001
 20
2.4352900000000002
 30
0.0
  0
SPLINE
  5
40
100
AcDbEntity
  8
Ebene 1
 62
     7
100
AcDbSpline
210
0.0
220
0.0
230
1.0
 70
     1
 71
     3
 72
    24
 73
    20
 74
     0
 42
0.0000000001
 43
0.0000000001
 40
0.0
 40
0.0
 40
0.0
 40
0.0
 40
0.2
 40
0.2
 40
0.2
 40
0.2
 40
0.4
 40
0.4
 40
0.4
 40
0.4
 40
0.6000000000000001
 40
0.6000000000000001
 40
0.6000000000000001
 40
0.6000000000000001
 40
0.8
 40
0.8
 40
0.8
 40
0.8
 40
1.0
 40
1.0
 40
1.0
 40
1.0
 10
3.8965000000000005
 20
2.2803500000000003
 30
0.0
 10
3.9117400000000004
 20
2.2778100000000001
 30
0.0
 10
3.9473000000000003
 20
2.2905100000000003
 30
0.0
 10
3.9498400000000005
 20
2.2625700000000002
 30
0.0
 10
3.9498400000000005
 20
2.2625700000000002
 30
0.0
 10
3.9955600000000002
 20
1.7266300000000001
 30
0.0
 10
4.0311200000000005
 20
1.19323
 30
0.0
 10
3.8939600000000003
 20
0.68269
 30
0.0
 10
3.8939600000000003
 20
0.68269
 30
0.0
 10
3.8939600000000003
 20
0.68269
 30
0.0
 10
3.8507800000000003
 20
0.66491
 30
0.0
 10
3.8507800000000003
 20
0.66491
 30
0.0
 10
3.8507800000000003
 20
0.66491
 30
0.0
 10
3.7771200000000005
 20
1.1805300000000001
 30
0.0
 10
3.9574600000000002
 20
1.7190100000000001
 30
0.0
 10
3.8507800000000003
 20
2.2244700000000002
 30
0.0
 10
3.8507800000000003
 20
2.2244700000000002
 30
0.0
 10
3.8507800000000003
 20
2.2244700000000002
 30
0.0
 10
3.8965000000000005
 20
2.2803500000000003
 30
0.0
 10
3.8965000000000005
 20
2.2803500000000003
 30
0.0
  0
SPLINE
  5
41
100
AcDbEntity
  8
Ebene 1
 62
     7
100
AcDbSpline
210
0.0
220
0.0
230
1.0
 70
     1
 71
     3
 72
    44
 73
    40
 74
     0
 42
0.0000000001
 43
0.0000000001
 40
0.0
 40
0.0
 40
0.0
 40
0.0
 40
0.1
 40
0.1
 40
0.1
 40
0.1
 40
0.2
 40
0.2
 40
0.2
 40
0.2
 40
0.3
 40
0.3
 40
0.3
 40
0.3
 40
0.4
 40
0.4
 40
0.4
 40
0.4
 40
0.5
 40
0.5
 40
0.5
 40
0.5
 40
0.6
 40
0.6
 40
0.6
 40
0.6
 40
0.7
 40
0.7
 40
0.7
 40
0.7
 40
0.7999999999999999
 40
0.7999999999999999
 40
0.7999999999999999
 40
0.7999999999999999
 40
0.8999999999999999
 40
0.8999999999999999
 40
0.8999999999999999
 40
0.8999999999999999
 40
1.0
 40
1.0
 40
1.0
 40
1.0
 10
3.7085400000000002
 20
2.21177
 30
0.0
 10
3.7415600000000002
 20
2.2092300000000002
 30
0.0
 10
3.7847400000000002
 20
2.2244700000000002
 30
0.0
 10
3.8076000000000003
 20
2.1914500000000001
 30
0.0
 10
3.8076000000000003
 20
2.1914500000000001
 30
0.0
 10
3.8939600000000003
 20
1.6936100000000001
 30
0.0
 10
3.7745800000000003
 20
1.1678300000000001
 30
0.0
 10
3.7898200000000002
 20
0.6293500000000001
 30
0.0
 10
3.7898200000000002
 20
0.6293500000000001
 30
0.0
 10
3.5764600000000004
 20
0.5277500000000001
 30
0.0
 10
3.2691200000000005
 20
0.5048900000000001
 30
0.0
 10
3.1040200000000002
 20
0.7106300000000001
 30
0.0
 10
3.1040200000000002
 20
0.7106300000000001
 30
0.0
 10
3.1294200000000001
 20
0.93669
 30
0.0
 10
3.30722
 20
1.23641
 30
0.0
 10
3.5307400000000002
 20
1.23387
 30
0.0
 10
3.5307400000000002
 20
1.23387
 30
0.0
 10
3.5307400000000002
 20
1.23387
 30
0.0
 10
3.5840800000000002
 20
1.3024500000000001
 30
0.0
 10
3.5840800000000002
 20
1.3024500000000001
 30
0.0
 10
3.5840800000000002
 20
1.3024500000000001
 30
0.0
 10
3.5840800000000002
 20
1.3024500000000001
 30
0.0
 10
3.6552000000000002
 20
1.57423
 30
0.0
 10
3.6552000000000002
 20
1.57423
 30
0.0
 10
3.6552000000000002
 20
1.57423
 30
0.0
 10
3.6704400000000001
 20
1.8688700000000003
 30
0.0
 10
3.2284800000000002
 20
2.0542899999999999
 30
0.0
 10
3.1700600000000003
 20
1.69869
 30
0.0
 10
3.1700600000000003
 20
1.69869
 30
0.0
 10
3.1700600000000003
 20
1.69869
 30
0.0
 10
2.9897200000000002
 20
1.5970900000000001
 30
0.0
 10
2.9897200000000002
 20
1.5970900000000001
 30
0.0
 10
2.9897200000000002
 20
1.5970900000000001
 30
0.0
 10
2.9897200000000002
 20
1.5970900000000001
 30
0.0
 10
2.9897200000000002
 20
2.1050900000000001
 30
0.0
 10
2.9897200000000002
 20
2.1050900000000001
 30
0.0
 10
2.9897200000000002
 20
2.1050900000000001
 30
0.0
 10
2.9897200000000002
 20
2.1050900000000001
 30
0.0
 10
3.7085400000000002
 20
2.21177
 30
0.0
 10
3.7085400000000002
 20
2.21177
 30
0.0
  0
SPLINE
  5
42
100
AcDbEntity
  8
Ebene 1
 62
     7
100
AcDbSpline
210
0.0
220
0.0
230
1.0
 70
     1
 71
     3
 72
    32
 73
    28
 74
     0
 42
0.0000000001
 43
0.0000000001
 40
0.0
 40
0.0
 40
0.0
 40
0.0
 40
0.1428571428571429
 40
0.1428571428571429
 40
0.1428571428571429
 40
0.1428571428571429
 40
0.2857142857142857
 40
0.2857142857142857
 40
0.2857142857142857
 40
0.2857142857142857
 40
0.4285714285714286
 40
0.4285714285714286
 40
0.4285714285714286
 40
0.4285714285714286
 40
0.5714285714285714
 40
0.5714285714285714
 40
0.5714285714285714
 40
0.5714285714285714
 40
0.7142857142857142
 40
0.7142857142857142
 40
0.7142857142857142
 40
0.7142857142857142
 40
0.857142857142857
 40
0.857142857142857
 40
0.857142857142857
 40
0.857142857142857
 40
1.0
 40
1.0
 40
1.0
 40
1.0
 10
-3.9114500000000003
 20
2.09239
 30
0.0
 10
-3.7285700000000004
 20
2.0949300000000002
 30
0.0
 10
-3.7666700000000004
 20
1.8206100000000001
 30
0.0
 10
-3.6904700000000004
 20
1.8866500000000002
 30
0.0
 10
-3.6904700000000004
 20
1.8866500000000002
 30
0.0
 10
-3.7641300000000002
 20
2.0974700000000004
 30
0.0
 10
-3.3628100000000001
 20
2.0212700000000003
 30
0.0
 10
-3.2104100000000004
 20
2.0695300000000003
 30
0.0
 10
-3.2104100000000004
 20
2.0695300000000003
 30
0.0
 10
-3.1367500000000001
 20
1.8714100000000002
 30
0.0
 10
-3.2637500000000004
 20
1.6656700000000002
 30
0.0
 10
-3.3475700000000002
 20
1.4929500000000002
 30
0.0
 10
-3.3475700000000002
 20
1.4929500000000002
 30
0.0
 10
-3.5533100000000002
 20
1.8460100000000002
 30
0.0
 10
-3.9851100000000002
 20
1.2414900000000002
 30
0.0
 10
-3.7107900000000003
 20
0.9925700000000001
 30
0.0
 10
-3.7107900000000003
 20
0.9925700000000001
 30
0.0
 10
-3.8403300000000002
 20
0.9036700000000001
 30
0.0
 10
-3.7438100000000003
 20
0.61919
 30
0.0
 10
-3.7742900000000001
 20
0.48711
 30
0.0
 10
-3.7742900000000001
 20
0.48711
 30
0.0
 10
-3.8225500000000001
 20
0.4845700000000001
 30
0.0
 10
-3.8682700000000003
 20
0.4845700000000001
 30
0.0
 10
-3.9063700000000003
 20
0.50997
 30
0.0
 10
-3.9063700000000003
 20
0.50997
 30
0.0
 10
-3.9292300000000004
 20
1.0814700000000002
 30
0.0
 10
-3.9927300000000003
 20
1.5412100000000002
 30
0.0
 10
-3.9114500000000003
 20
2.09239
 30
0.0
  0
SPLINE
  5
43
100
AcDbEntity
  8
Ebene 1
100
AcDbSpline
210
0.0
220
0.0
230
1.0
 70
     1
 71
     3
 72
    60
 73
    56
 74
     0
 42
0.0000000001
 43
0.0000000001
 40
0.0
 40
0.0
 40
0.0
 40
0.0
 40
0.0714285714285714
 40
0.0714285714285714
 40
0.0714285714285714
 40
0.0714285714285714
 40
0.1428571428571429
 40
0.1428571428571429
 40
0.1428571428571429
 40
0.1428571428571429
 40
0.2142857142857143
 40
0.2142857142857143
 40
0.2142857142857143
 40
0.2142857142857143
 40
0.2857142857142857
 40
0.2857142857142857
 40
0.2857142857142857
 40
0.2857142857142857
 40
0.3571428571428571
 40
0.3571428571428571
 40
0.3571428571428571
 40
0.3571428571428571
 40
0.4285714285714285
 40
0.4285714285714285
 40
0.4285714285714285
 40
0.4285714285714285
 40
0.4999999999999999
 40
0.4999999999999999
 40
0.4999999999999999
 40
0.4999999999999999
 40
0.5714285714285713
 40
0.5714285714285713
 40
0.5714285714285713
 40
0.5714285714285713
 40
0.6428571428571427
 40
0.6428571428571427
 40
0.6428571428571427
 40
0.6428571428571427
 40
0.7142857142857141
 40
0.7142857142857141
 40
0.7142857142857141
 40
0.7142857142857141
 40
0.7857142857142855
 40
0.7857142857142855
 40
0.7857142857142855
 40
0.7857142857142855
 40
0.8571428571428569
 40
0.8571428571428569
 40
0.8571428571428569
 40
0.8571428571428569
 40
0.9285714285714283
 40
0.9285714285714283
 40
0.9285714285714283
 40
0.9285714285714283
 40
1.0
 40
1.0
 40
1.0
 40
1.0
 10
-2.3772900000000003
 20
1.9526900000000003
 30
0.0
 10
-2.3772900000000003
 20
1.9526900000000003
 30
0.0
 10
-2.05471
 20
1.9501500000000001
 30
0.0
 10
-2.05471
 20
1.9501500000000001
 30
0.0
 10
-2.05471
 20
1.9501500000000001
 30
0.0
 10
-1.54671
 20
1.5488300000000002
 30
0.0
 10
-0.92949
 20
0.8376300000000001
 30
0.0
 10
-0.20813
 20
1.2237100000000001
 30
0.0
 10
-0.20813
 20
1.2237100000000001
 30
0.0
 10
-0.23099
 20
1.0586100000000001
 30
0.0
 10
-0.09383
 20
0.8681100000000001
 30
0.0
 10
-0.19035
 20
0.7334900000000001
 30
0.0
 10
-0.19035
 20
0.7334900000000001
 30
0.0
 10
-0.18527
 20
1.1170300000000002
 30
0.0
 10
-0.7466100000000001
 20
1.10433
 30
0.0
 10
-0.7948700000000001
 20
0.8122300000000001
 30
0.0
 10
-0.7948700000000001
 20
0.8122300000000001
 30
0.0
 10
-0.7923300000000001
 20
0.61411
 30
0.0
 10
-0.54849
 20
0.2737500000000001
 30
0.0
 10
-0.80249
 20
0.26867
 30
0.0
 10
-0.80249
 20
0.26867
 30
0.0
 10
-0.8583700000000001
 20
0.4617100000000001
 30
0.0
 10
-0.8913900000000001
 20
0.70047
 30
0.0
 10
-1.0691900000000001
 20
0.83001
 30
0.0
 10
-1.0691900000000001
 20
0.83001
 30
0.0
 10
-1.5187700000000002
 20
0.68269
 30
0.0
 10
-1.7905500000000001
 20
0.24327
 30
0.0
 10
-2.1664700000000003
 20
0.04515
 30
0.0
 10
-2.1664700000000003
 20
0.04515
 30
0.0
 10
-2.1664700000000003
 20
0.04515
 30
0.0
 10
-1.7930900000000001
 20
0.49981
 30
0.0
 10
-1.7930900000000001
 20
0.49981
 30
0.0
 10
-1.7930900000000001
 20
0.49981
 30
0.0
 10
-2.22235
 20
0.43885
 30
0.0
 10
-2.5703300000000002
 20
0.8808100000000001
 30
0.0
 10
-2.6744700000000003
 20
1.2084700000000002
 30
0.0
 10
-2.6744700000000003
 20
1.2084700000000002
 30
0.0
 10
-2.7379700000000002
 20
1.19577
 30
0.0
 10
-2.7608300000000003
 20
1.0484500000000001
 30
0.0
 10
-2.8268700000000004
 20
1.10941
 30
0.0
 10
-2.8268700000000004
 20
1.10941
 30
0.0
 10
-2.7100300000000002
 20
1.3126100000000001
 30
0.0
 10
-2.5119100000000003
 20
1.4700900000000001
 30
0.0
 10
-2.3290300000000004
 20
1.6301100000000002
 30
0.0
 10
-2.3290300000000004
 20
1.6301100000000002
 30
0.0
 10
-2.2629900000000003
 20
1.6859900000000001
 30
0.0
 10
-2.1918700000000002
 20
1.73933
 30
0.0
 10
-2.1004300000000002
 20
1.7469500000000002
 30
0.0
 10
-2.1004300000000002
 20
1.7469500000000002
 30
0.0
 10
-2.0470900000000003
 20
2.04413
 30
0.0
 10
-3.0376900000000004
 20
1.4599300000000002
 30
0.0
 10
-2.5830300000000004
 20
1.8333100000000002
 30
0.0
 10
-2.5830300000000004
 20
1.8333100000000002
 30
0.0
 10
-2.5830300000000004
 20
1.8333100000000002
 30
0.0
 10
-2.3772900000000003
 20
1.9526900000000003
 30
0.0
 10
-2.3772900000000003
 20
1.9526900000000003
 30
0.0
  0
SPLINE
  5
44
100
AcDbEntity
  8
Ebene 1
100
AcDbSpline
210
0.0
220
0.0
230
1.0
 70
     1
 71
     3
 72
    20
 73
    16
 74
     0
 42
0.0000000001
 43
0.0000000001
 40
0.0
 40
0.0
 40
0.0
 40
0.0
 40
0.25
 40
0.25
 40
0.25
 40
0.25
 40
0.5
 40
0.5
 40
0.5
 40
0.5
 40
0.75
 40
0.75
 40
0.75
 40
0.75
 40
1.0
 40
1.0
 40
1.0
 40
1.0
 10
-0.10145
 20
1.9018900000000001
 30
0.0
 10
-0.06843
 20
1.8968100000000001
 30
0.0
 10
-0.02271
 20
1.9145900000000002
 30
0.0
 10
-0.00239
 20
1.8815700000000002
 30
0.0
 10
-0.00239
 20
1.8815700000000002
 30
0.0
 10
-0.02017
 20
1.6732900000000002
 30
0.0
 10
-0.01001
 20
1.2186300000000001
 30
0.0
 10
-0.33767
 20
1.2846700000000002
 30
0.0
 10
-0.33767
 20
1.2846700000000002
 30
0.0
 10
-0.33767
 20
1.2846700000000002
 30
0.0
 10
-0.31989
 20
1.36341
 30
0.0
 10
-0.31989
 20
1.36341
 30
0.0
 10
-0.31989
 20
1.36341
 30
0.0
 10
-0.11161
 20
1.4624700000000002
 30
0.0
 10
-0.10907
 20
1.7088500000000002
 30
0.0
 10
-0.10145
 20
1.9018900000000001
 30
0.0
  0
SPLINE
  5
45
100
AcDbEntity
  8
Ebene 1
 62
     7
100
AcDbSpline
210
0.0
220
0.0
230
1.0
 70
     1
 71
     3
 72
    12
 73
     8
 74
     0
 42
0.0000000001
 43
0.0000000001
 40
0.0
 40
0.0
 40
0.0
 40
0.0
 40
0.5
 40
0.5
 40
0.5
 40
0.5
 40
1.0
 40
1.0
 40
1.0
 40
1.0
 10
3.5536000000000003
 20
1.48787
 30
0.0
 10
3.5891600000000001
 20
1.6504300000000001
 30
0.0
 10
3.4647000000000001
 20
1.8129900000000001
 30
0.0
 10
3.3123000000000005
 20
1.8155300000000001
 30
0.0
 10
3.3123000000000005
 20
1.8155300000000001
 30
0.0
 10
3.4774000000000003
 20
1.9374500000000001
 30
0.0
 10
3.6628200000000004
 20
1.5869300000000002
 30
0.0
 10
3.5536000000000003
 20
1.48787
 30
0.0
  0
SPLINE
  5
46
100
AcDbEntity
  8
Ebene 1
100
AcDbSpline
210
0.0
220
0.0
230
1.0
 70
     1
 71
     3
 72
    48
 73
    44
 74
     0
 42
0.0000000001
 43
0.0000000001
 40
0.0
 40
0.0
 40
0.0
 40
0.0
 40
0.0909090909090909
 40
0.0909090909090909
 40
0.0909090909090909
 40
0.0909090909090909
 40
0.1818181818181818
 40
0.1818181818181818
 40
0.1818181818181818
 40
0.1818181818181818
 40
0.2727272727272727
 40
0.2727272727272727
 40
0.2727272727272727
 40
0.2727272727272727
 40
0.3636363636363637
 40
0.3636363636363637
 40
0.3636363636363637
 40
0.3636363636363637
 40
0.4545454545454546
 40
0.4545454545454546
 40
0.4545454545454546
 40
0.4545454545454546
 40
0.5454545454545455
 40
0.5454545454545455
 40
0.5454545454545455
 40
0.5454545454545455
 40
0.6363636363636365
 40
0.6363636363636365
 40
0.6363636363636365
 40
0.6363636363636365
 40
0.7272727272727274
 40
0.7272727272727274
 40
0.7272727272727274
 40
0.7272727272727274
 40
0.8181818181818183
 40
0.8181818181818183
 40
0.8181818181818183
 40
0.8181818181818183
 40
0.9090909090909093
 40
0.9090909090909093
 40
0.9090909090909093
 40
0.9090909090909093
 40
1.0
 40
1.0
 40
1.0
 40
1.0
 10
1.8975200000000001
 20
1.7647300000000001
 30
0.0
 10
2.00928
 20
1.7164700000000002
 30
0.0
 10
2.1820000000000004
 20
1.7952100000000002
 30
0.0
 10
2.2582
 20
1.6758300000000002
 30
0.0
 10
2.2582
 20
1.6758300000000002
 30
0.0
 10
2.2353400000000003
 20
1.5945500000000001
 30
0.0
 10
2.0296000000000003
 20
1.7469500000000002
 30
0.0
 10
2.0575400000000004
 20
1.6478900000000001
 30
0.0
 10
2.0575400000000004
 20
1.6478900000000001
 30
0.0
 10
2.2988400000000002
 20
1.4345300000000001
 30
0.0
 10
2.2683600000000004
 20
1.2059300000000002
 30
0.0
 10
2.4995000000000003
 20
0.9824100000000001
 30
0.0
 10
2.4995000000000003
 20
0.9824100000000001
 30
0.0
 10
2.4995000000000003
 20
0.9824100000000001
 30
0.0
 10
2.3979000000000004
 20
0.9874900000000001
 30
0.0
 10
2.3979000000000004
 20
0.9874900000000001
 30
0.0
 10
2.3979000000000004
 20
0.9874900000000001
 30
0.0
 10
2.2429600000000001
 20
0.72587
 30
0.0
 10
1.8797400000000002
 20
0.6953900000000001
 30
0.0
 10
1.65622
 20
0.5048900000000001
 30
0.0
 10
1.65622
 20
0.5048900000000001
 30
0.0
 10
1.7197200000000001
 20
0.42615
 30
0.0
 10
1.9203800000000002
 20
0.46679
 30
0.0
 10
1.9280000000000002
 20
0.3372500000000001
 30
0.0
 10
1.9280000000000002
 20
0.3372500000000001
 30
0.0
 10
1.5774800000000002
 20
0.43885
 30
0.0
 10
1.1837800000000001
 20
0.56077
 30
0.0
 10
0.8612000000000001
 20
0.74619
 30
0.0
 10
0.8612000000000001
 20
0.74619
 30
0.0
 10
0.8612000000000001
 20
0.74619
 30
0.0
 10
0.5056000000000001
 20
0.28391
 30
0.0
 10
0.5056000000000001
 20
0.28391
 30
0.0
 10
0.5056000000000001
 20
0.28391
 30
0.0
 10
0.531
 20
0.4845700000000001
 30
0.0
 10
0.6122800000000001
 20
0.7182500000000001
 30
0.0
 10
0.55132
 20
0.93669
 30
0.0
 10
0.55132
 20
0.93669
 30
0.0
 10
0.39384
 20
0.99765
 30
0.0
 10
0.1246
 20
0.9849500000000001
 30
0.0
 10
0.0738
 20
1.1729100000000001
 30
0.0
 10
0.0738
 20
1.1729100000000001
 30
0.0
 10
0.7392800000000001
 20
0.8325500000000001
 30
0.0
 10
1.31332
 20
1.57423
 30
0.0
 10
1.8975200000000001
 20
1.7647300000000001
 30
0.0
  0
SPLINE
  5
47
100
AcDbEntity
  8
Ebene 1
 62
     7
100
AcDbSpline
210
0.0
220
0.0
230
1.0
 70
     1
 71
     3
 72
    36
 73
    32
 74
     0
 42
0.0000000001
 43
0.0000000001
 40
0.0
 40
0.0
 40
0.0
 40
0.0
 40
0.125
 40
0.125
 40
0.125
 40
0.125
 40
0.25
 40
0.25
 40
0.25
 40
0.25
 40
0.375
 40
0.375
 40
0.375
 40
0.375
 40
0.5
 40
0.5
 40
0.5
 40
0.5
 40
0.625
 40
0.625
 40
0.625
 40
0.625
 40
0.75
 40
0.75
 40
0.75
 40
0.75
 40
0.875
 40
0.875
 40
0.875
 40
0.875
 40
1.0
 40
1.0
 40
1.0
 40
1.0
 10
3.3453200000000001
 20
1.7291700000000001
 30
0.0
 10
3.3935800000000005
 20
1.7367900000000001
 30
0.0
 10
3.4240600000000003
 20
1.6936100000000001
 30
0.0
 10
3.4621600000000003
 20
1.6732900000000002
 30
0.0
 10
3.4621600000000003
 20
1.6732900000000002
 30
0.0
 10
3.4951800000000004
 20
1.5970900000000001
 30
0.0
 10
3.4850200000000005
 20
1.5132700000000001
 30
0.0
 10
3.4672400000000003
 20
1.4370700000000001
 30
0.0
 10
3.4672400000000003
 20
1.4370700000000001
 30
0.0
 10
3.4672400000000003
 20
1.4370700000000001
 30
0.0
 10
2.71286
 20
0.4413900000000001
 30
0.0
 10
2.71286
 20
0.4413900000000001
 30
0.0
 10
2.71286
 20
0.4413900000000001
 30
0.0
 10
2.71286
 20
0.4413900000000001
 30
0.0
 10
2.6620600000000003
 20
0.5861700000000001
 30
0.0
 10
2.6620600000000003
 20
0.5861700000000001
 30
0.0
 10
2.6620600000000003
 20
0.5861700000000001
 30
0.0
 10
2.7001600000000003
 20
0.8401700000000001
 30
0.0
 10
3.0887800000000003
 20
0.99765
 30
0.0
 10
2.9897200000000002
 20
1.2414900000000002
 30
0.0
 10
2.9897200000000002
 20
1.2414900000000002
 30
0.0
 10
3.1116400000000004
 20
1.3659500000000002
 30
0.0
 10
3.30722
 20
1.4751700000000001
 30
0.0
 10
3.3427800000000003
 20
1.6580500000000002
 30
0.0
 10
3.3427800000000003
 20
1.6580500000000002
 30
0.0
 10
3.2234000000000003
 20
1.7164700000000002
 30
0.0
 10
3.0379800000000001
 20
1.4091300000000002
 30
0.0
 10
3.0049600000000001
 20
1.5183500000000001
 30
0.0
 10
3.0049600000000001
 20
1.5183500000000001
 30
0.0
 10
3.1014800000000005
 20
1.5970900000000001
 30
0.0
 10
3.2335600000000002
 20
1.6758300000000002
 30
0.0
 10
3.3453200000000001
 20
1.7291700000000001
 30
0.0
  0
SPLINE
  5
48
100
AcDbEntity
  8
Ebene 1
 62
     7
100
AcDbSpline
210
0.0
220
0.0
230
1.0
 70
     1
 71
     3
 72
    40
 73
    36
 74
     0
 42
0.0000000001
 43
0.0000000001
 40
0.0
 40
0.0
 40
0.0
 40
0.0
 40
0.1111111111111111
 40
0.1111111111111111
 40
0.1111111111111111
 40
0.1111111111111111
 40
0.2222222222222222
 40
0.2222222222222222
 40
0.2222222222222222
 40
0.2222222222222222
 40
0.3333333333333333
 40
0.3333333333333333
 40
0.3333333333333333
 40
0.3333333333333333
 40
0.4444444444444444
 40
0.4444444444444444
 40
0.4444444444444444
 40
0.4444444444444444
 40
0.5555555555555556
 40
0.5555555555555556
 40
0.5555555555555556
 40
0.5555555555555556
 40
0.6666666666666667
 40
0.6666666666666667
 40
0.6666666666666667
 40
0.6666666666666667
 40
0.7777777777777779
 40
0.7777777777777779
 40
0.7777777777777779
 40
0.7777777777777779
 40
0.8888888888888891
 40
0.8888888888888891
 40
0.8888888888888891
 40
0.8888888888888891
 40
1.0
 40
1.0
 40
1.0
 40
1.0
 10
-3.5329900000000003
 20
1.48787
 30
0.0
 10
-3.5329900000000003
 20
1.48787
 30
0.0
 10
-3.2434300000000005
 20
1.3964300000000001
 30
0.0
 10
-3.2434300000000005
 20
1.3964300000000001
 30
0.0
 10
-3.2434300000000005
 20
1.3964300000000001
 30
0.0
 10
-3.2662900000000001
 20
1.2567300000000001
 30
0.0
 10
-3.2053300000000005
 20
1.15005
 30
0.0
 10
-3.1062700000000003
 20
1.0789300000000002
 30
0.0
 10
-3.1062700000000003
 20
1.0789300000000002
 30
0.0
 10
-3.1697700000000002
 20
1.0840100000000001
 30
0.0
 10
-3.2358100000000003
 20
1.06623
 30
0.0
 10
-3.2231100000000001
 20
0.9874900000000001
 30
0.0
 10
-3.2231100000000001
 20
0.9874900000000001
 30
0.0
 10
-3.0961100000000004
 20
0.80715
 30
0.0
 10
-2.9259300000000001
 20
0.6344300000000001
 30
0.0
 10
-2.7608300000000003
 20
0.4845700000000001
 30
0.0
 10
-2.7608300000000003
 20
0.4845700000000001
 30
0.0
 10
-2.7506700000000004
 20
0.43885
 30
0.0
 10
-2.7506700000000004
 20
0.3804300000000001
 30
0.0
 10
-2.7938500000000004
 20
0.35503
 30
0.0
 10
-2.7938500000000004
 20
0.35503
 30
0.0
 10
-3.0351500000000002
 20
0.6674500000000001
 30
0.0
 10
-3.4517100000000003
 20
0.8579500000000001
 30
0.0
 10
-3.5964900000000002
 20
1.2084700000000002
 30
0.0
 10
-3.5964900000000002
 20
1.2084700000000002
 30
0.0
 10
-3.5152100000000002
 20
1.2262500000000001
 30
0.0
 10
-3.4974300000000005
 20
1.1170300000000002
 30
0.0
 10
-3.4110700000000005
 20
1.0967100000000001
 30
0.0
 10
-3.4110700000000005
 20
1.0967100000000001
 30
0.0
 10
-3.3729700000000005
 20
1.0357500000000002
 30
0.0
 10
-3.2459700000000002
 20
0.9163700000000001
 30
0.0
 10
-3.2916900000000004
 20
1.0052700000000001
 30
0.0
 10
-3.2916900000000004
 20
1.0052700000000001
 30
0.0
 10
-3.3272500000000003
 20
1.1652900000000002
 30
0.0
 10
-3.6549100000000001
 20
1.3278500000000002
 30
0.0
 10
-3.5329900000000003
 20
1.48787
 30
0.0
  0
SPLINE
  5
49
100
AcDbEntity
  8
Ebene 1
 62
     7
100
AcDbSpline
210
0.0
220
0.0
230
1.0
 70
     1
 71
     3
 72
    16
 73
    12
 74
     0
 42
0.0000000001
 43
0.0000000001
 40
0.0
 40
0.0
 40
0.0
 40
0.0
 40
0.3333333333333333
 40
0.3333333333333333
 40
0.3333333333333333
 40
0.3333333333333333
 40
0.6666666666666666
 40
0.6666666666666666
 40
0.6666666666666666
 40
0.6666666666666666
 40
1.0
 40
1.0
 40
1.0
 40
1.0
 10
-3.6879300000000002
 20
1.3837300000000001
 30
0.0
 10
-3.6777700000000002
 20
1.5081900000000001
 30
0.0
 10
-3.5990300000000004
 20
1.4700900000000001
 30
0.0
 10
-3.6549100000000001
 20
1.14751
 30
0.0
 10
-3.6549100000000001
 20
1.14751
 30
0.0
 10
-3.6549100000000001
 20
1.14751
 30
0.0
 10
-3.5558500000000004
 20
0.95701
 30
0.0
 10
-3.5558500000000004
 20
0.95701
 30
0.0
 10
-3.5558500000000004
 20
0.95701
 30
0.0
 10
-3.7107900000000003
 20
1.0027300000000001
 30
0.0
 10
-3.7666700000000004
 20
1.2541900000000001
 30
0.0
 10
-3.6879300000000002
 20
1.3837300000000001
 30
0.0
  0
SPLINE
  5
4A
100
AcDbEntity
  8
Ebene 1
 62
     7
100
AcDbSpline
210
0.0
220
0.0
230
1.0
 70
     1
 71
     3
 72
    20
 73
    16
 74
     0
 42
0.0000000001
 43
0.0000000001
 40
0.0
 40
0.0
 40
0.0
 40
0.0
 40
0.25
 40
0.25
 40
0.25
 40
0.25
 40
0.5
 40
0.5
 40
0.5
 40
0.5
 40
0.75
 40
0.75
 40
0.75
 40
0.75
 40
1.0
 40
1.0
 40
1.0
 40
1.0
 10
-3.6701500000000005
 20
0.9189100000000001
 30
0.0
 10
-3.5914100000000002
 20
0.8579500000000001
 30
0.0
 10
-3.5406100000000005
 20
0.8655700000000001
 30
0.0
 10
-3.4339300000000001
 20
0.8808100000000001
 30
0.0
 10
-3.4339300000000001
 20
0.8808100000000001
 30
0.0
 10
-3.3755100000000002
 20
0.7817500000000001
 30
0.0
 10
-3.2180300000000002
 20
0.7334900000000001
 30
0.0
 10
-3.2104100000000004
 20
0.6115700000000001
 30
0.0
 10
-3.2104100000000004
 20
0.6115700000000001
 30
0.0
 10
-3.3170900000000003
 20
0.4947300000000001
 30
0.0
 10
-3.5152100000000002
 20
0.49219
 30
0.0
 10
-3.6498300000000001
 20
0.50997
 30
0.0
 10
-3.6498300000000001
 20
0.50997
 30
0.0
 10
-3.6422100000000004
 20
0.6953900000000001
 30
0.0
 10
-3.6269700000000005
 20
0.7817500000000001
 30
0.0
 10
-3.6701500000000005
 20
0.9189100000000001
 30
0.0
  0
SPLINE
  5
4B
100
AcDbEntity
  8
Ebene 1
 62
     7
100
AcDbSpline
210
0.0
220
0.0
230
1.0
 70
     1
 71
     3
 72
    36
 73
    32
 74
     0
 42
0.0000000001
 43
0.0000000001
 40
0.0
 40
0.0
 40
0.0
 40
0.0
 40
0.125
 40
0.125
 40
0.125
 40
0.125
 40
0.25
 40
0.25
 40
0.25
 40
0.25
 40
0.375
 40
0.375
 40
0.375
 40
0.375
 40
0.5
 40
0.5
 40
0.5
 40
0.5
 40
0.625
 40
0.625
 40
0.625
 40
0.625
 40
0.75
 40
0.75
 40
0.75
 40
0.75
 40
0.875
 40
0.875
 40
0.875
 40
0.875
 40
1.0
 40
1.0
 40
1.0
 40
1.0
 10
3.8634800000000005
 20
0.6242700000000001
 30
0.0
 10
3.8279200000000002
 20
-0.05898
 30
0.0
 10
3.7161600000000004
 20
-0.7854200000000001
 30
0.0
 10
3.3758000000000004
 20
-1.3670800000000001
 30
0.0
 10
3.3758000000000004
 20
-1.3670800000000001
 30
0.0
 10
3.2615000000000003
 20
-1.3823200000000002
 30
0.0
 10
3.1218000000000004
 20
-1.4483600000000001
 30
0.0
 10
3.0049600000000001
 20
-1.3670800000000001
 30
0.0
 10
3.0049600000000001
 20
-1.3670800000000001
 30
0.0
 10
2.9262200000000003
 20
-1.1029200000000001
 30
0.0
 10
3.1853000000000002
 20
-0.8413000000000001
 30
0.0
 10
3.2640400000000001
 20
-0.6000000000000001
 30
0.0
 10
3.2640400000000001
 20
-0.6000000000000001
 30
0.0
 10
3.4139000000000004
 20
-0.63302
 30
0.0
 10
3.5536000000000003
 20
-0.43236
 30
0.0
 10
3.5180400000000005
 20
-0.23424
 30
0.0
 10
3.5180400000000005
 20
-0.23424
 30
0.0
 10
3.4621600000000003
 20
-0.14534
 30
0.0
 10
3.4621600000000003
 20
-0.00818
 30
0.0
 10
3.3427800000000003
 20
0.03499
 30
0.0
 10
3.3427800000000003
 20
0.03499
 30
0.0
 10
3.0430600000000001
 20
0.12135
 30
0.0
 10
2.9414600000000002
 20
-0.2317
 30
0.0
 10
2.6950800000000004
 20
-0.29774
 30
0.0
 10
2.6950800000000004
 20
-0.29774
 30
0.0
 10
2.5884
 20
-0.08692
 30
0.0
 10
2.7230200000000004
 20
0.16961
 30
0.0
 10
2.8500200000000002
 20
0.36265
 30
0.0
 10
2.8500200000000002
 20
0.36265
 30
0.0
 10
3.1903800000000002
 20
0.43377
 30
0.0
 10
3.5866200000000004
 20
0.43885
 30
0.0
 10
3.8634800000000005
 20
0.6242700000000001
 30
0.0
  0
SPLINE
  5
4C
100
AcDbEntity
  8
Ebene 1
100
AcDbSpline
210
0.0
220
0.0
230
1.0
 70
     1
 71
     3
 72
    56
 73
    52
 74
     0
 42
0.0000000001
 43
0.0000000001
 40
0.0
 40
0.0
 40
0.0
 40
0.0
 40
0.0769230769230769
 40
0.0769230769230769
 40
0.0769230769230769
 40
0.0769230769230769
 40
0.1538461538461539
 40
0.1538461538461539
 40
0.1538461538461539
 40
0.1538461538461539
 40
0.2307692307692308
 40
0.2307692307692308
 40
0.2307692307692308
 40
0.2307692307692308
 40
0.3076923076923077
 40
0.3076923076923077
 40
0.3076923076923077
 40
0.3076923076923077
 40
0.3846153846153846
 40
0.3846153846153846
 40
0.3846153846153846
 40
0.3846153846153846
 40
0.4615384615384616
 40
0.4615384615384616
 40
0.4615384615384616
 40
0.4615384615384616
 40
0.5384615384615386
 40
0.5384615384615386
 40
0.5384615384615386
 40
0.5384615384615386
 40
0.6153846153846154
 40
0.6153846153846154
 40
0.6153846153846154
 40
0.6153846153846154
 40
0.6923076923076923
 40
0.6923076923076923
 40
0.6923076923076923
 40
0.6923076923076923
 40
0.7692307692307692
 40
0.7692307692307692
 40
0.7692307692307692
 40
0.7692307692307692
 40
0.846153846153846
 40
0.846153846153846
 40
0.846153846153846
 40
0.846153846153846
 40
0.9230769230769229
 40
0.9230769230769229
 40
0.9230769230769229
 40
0.9230769230769229
 40
1.0
 40
1.0
 40
1.0
 40
1.0
 10
-0.20559
 20
0.4515500000000001
 30
0.0
 10
-0.08113
 20
0.51505
 30
0.0
 10
-0.10653
 20
0.24581
 30
0.0
 10
-0.11415
 20
-0.0412
 30
0.0
 10
-0.11415
 20
-0.0412
 30
0.0
 10
0.0103
 20
0.07309
 30
0.0
 10
0.23382
 20
0.17723
 30
0.0
 10
0.3455800000000001
 20
-0.01072
 30
0.0
 10
0.3455800000000001
 20
-0.01072
 30
0.0
 10
0.3455800000000001
 20
-0.01072
 30
0.0
 10
0.4624200000000001
 20
0.15691
 30
0.0
 10
0.4624200000000001
 20
0.15691
 30
0.0
 10
0.4624200000000001
 20
0.15691
 30
0.0
 10
0.33288
 20
-0.26472
 30
0.0
 10
0.6681600000000001
 20
-0.6838200000000001
 30
0.0
 10
0.5665600000000001
 20
-1.12578
 30
0.0
 10
0.5665600000000001
 20
-1.12578
 30
0.0
 10
0.39384
 20
-1.3188200000000001
 30
0.0
 10
0.17794
 20
-1.1562600000000001
 30
0.0
 10
0.00268
 20
-1.0622800000000001
 30
0.0
 10
0.00268
 20
-1.0622800000000001
 30
0.0
 10
-0.14209
 20
-0.9784600000000001
 30
0.0
 10
-0.02017
 20
-1.1994400000000001
 30
0.0
 10
-0.08367
 20
-1.25278
 30
0.0
 10
-0.08367
 20
-1.25278
 30
0.0
 10
-0.16495
 20
-1.2172200000000002
 30
0.0
 10
-0.07605
 20
-1.03688
 30
0.0
 10
-0.18781
 20
-1.0445
 30
0.0
 10
-0.18781
 20
-1.0445
 30
0.0
 10
-0.3656100000000001
 20
-1.0978400000000001
 30
0.0
 10
-0.58913
 20
-1.3061200000000002
 30
0.0
 10
-0.78471
 20
-1.21214
 30
0.0
 10
-0.78471
 20
-1.21214
 30
0.0
 10
-0.8786900000000001
 20
-0.7295400000000001
 30
0.0
 10
-0.44435
 20
-0.31298
 30
0.0
 10
-0.68057
 20
0.13913
 30
0.0
 10
-0.68057
 20
0.13913
 30
0.0
 10
-0.57389
 20
0.14167
 30
0.0
 10
-0.63231
 20
-0.02342
 30
0.0
 10
-0.54849
 20
-0.06152
 30
0.0
 10
-0.54849
 20
-0.06152
 30
0.0
 10
-0.51293
 20
-0.00564
 30
0.0
 10
-0.49769
 20
0.08325
 30
0.0
 10
-0.4291100000000001
 20
0.10611
 30
0.0
 10
-0.4291100000000001
 20
0.10611
 30
0.0
 10
-0.33005
 20
0.12643
 30
0.0
 10
-0.26909
 20
0.00705
 30
0.0
 10
-0.19035
 20
0.00959
 30
0.0
 10
-0.19035
 20
0.00959
 30
0.0
 10
-0.21829
 20
0.15691
 30
0.0
 10
-0.20305
 20
0.29915
 30
0.0
 10
-0.20559
 20
0.4515500000000001
 30
0.0
  0
SPLINE
  5
4D
100
AcDbEntity
  8
Ebene 1
 62
     7
100
AcDbSpline
210
0.0
220
0.0
230
1.0
 70
     1
 71
     3
 72
    28
 73
    24
 74
     0
 42
0.0000000001
 43
0.0000000001
 40
0.0
 40
0.0
 40
0.0
 40
0.0
 40
0.1666666666666667
 40
0.1666666666666667
 40
0.1666666666666667
 40
0.1666666666666667
 40
0.3333333333333333
 40
0.3333333333333333
 40
0.3333333333333333
 40
0.3333333333333333
 40
0.5
 40
0.5
 40
0.5
 40
0.5
 40
0.6666666666666666
 40
0.6666666666666666
 40
0.6666666666666666
 40
0.6666666666666666
 40
0.8333333333333333
 40
0.8333333333333333
 40
0.8333333333333333
 40
0.8333333333333333
 40
1.0
 40
1.0
 40
1.0
 40
1.0
 10
-3.5202900000000001
 20
-0.61778
 30
0.0
 10
-3.4567900000000003
 20
-0.8667
 30
0.0
 10
-3.2891500000000002
 20
-1.0622800000000001
 30
0.0
 10
-3.2916900000000004
 20
-1.3391400000000002
 30
0.0
 10
-3.2916900000000004
 20
-1.3391400000000002
 30
0.0
 10
-3.2637500000000004
 20
-1.46106
 30
0.0
 10
-3.3424900000000002
 20
-1.5118600000000002
 30
0.0
 10
-3.4466300000000003
 20
-1.5271000000000001
 30
0.0
 10
-3.4466300000000003
 20
-1.5271000000000001
 30
0.0
 10
-3.7488900000000003
 20
-0.9378200000000001
 30
0.0
 10
-3.8936700000000002
 20
-0.27742
 30
0.0
 10
-3.9063700000000003
 20
0.41599
 30
0.0
 10
-3.9063700000000003
 20
0.41599
 30
0.0
 10
-3.7692100000000002
 20
0.46679
 30
0.0
 10
-3.7107900000000003
 20
0.34995
 30
0.0
 10
-3.7234900000000004
 20
0.22803
 30
0.0
 10
-3.7234900000000004
 20
0.22803
 30
0.0
 10
-3.7082500000000005
 20
-0.02342
 30
0.0
 10
-3.7209500000000002
 20
-0.30536
 30
0.0
 10
-3.6625300000000003
 20
-0.5441200000000001
 30
0.0
 10
-3.6625300000000003
 20
-0.5441200000000001
 30
0.0
 10
-3.5075900000000004
 20
-1.1740400000000002
 30
0.0
 10
-3.6168100000000001
 20
-0.5415800000000001
 30
0.0
 10
-3.5202900000000001
 20
-0.61778
 30
0.0
  0
SPLINE
  5
4E
100
AcDbEntity
  8
Ebene 1
 62
     7
100
AcDbSpline
210
0.0
220
0.0
230
1.0
 70
     1
 71
     3
 72
    20
 73
    16
 74
     0
 42
0.0000000001
 43
0.0000000001
 40
0.0
 40
0.0
 40
0.0
 40
0.0
 40
0.25
 40
0.25
 40
0.25
 40
0.25
 40
0.5
 40
0.5
 40
0.5
 40
0.5
 40
0.75
 40
0.75
 40
0.75
 40
0.75
 40
1.0
 40
1.0
 40
1.0
 40
1.0
 10
-3.6371300000000004
 20
0.4007500000000001
 30
0.0
 10
-3.3399500000000004
 20
0.42615
 30
0.0
 10
-3.0351500000000002
 20
0.41599
 30
0.0
 10
-2.8446500000000001
 20
0.18993
 30
0.0
 10
-2.8446500000000001
 20
0.18993
 30
0.0
 10
-2.9183100000000004
 20
0.01721
 30
0.0
 10
-2.8852900000000004
 20
-0.20122
 30
0.0
 10
-3.0173700000000001
 20
-0.3333
 30
0.0
 10
-3.0173700000000001
 20
-0.3333
 30
0.0
 10
-3.1291300000000004
 20
-0.15296
 30
0.0
 10
-3.3602700000000003
 20
0.20517
 30
0.0
 10
-3.5787100000000005
 20
-0.05644
 30
0.0
 10
-3.5787100000000005
 20
-0.05644
 30
0.0
 10
-3.5787100000000005
 20
-0.05644
 30
0.0
 10
-3.6371300000000004
 20
0.4007500000000001
 30
0.0
 10
-3.6371300000000004
 20
0.4007500000000001
 30
0.0
  0
SPLINE
  5
4F
100
AcDbEntity
  8
Ebene 1
 62
     7
100
AcDbSpline
210
0.0
220
0.0
230
1.0
 70
     1
 71
     3
 72
    16
 73
    12
 74
     0
 42
0.0000000001
 43
0.0000000001
 40
0.0
 40
0.0
 40
0.0
 40
0.0
 40
0.3333333333333333
 40
0.3333333333333333
 40
0.3333333333333333
 40
0.3333333333333333
 40
0.6666666666666666
 40
0.6666666666666666
 40
0.6666666666666666
 40
0.6666666666666666
 40
1.0
 40
1.0
 40
1.0
 40
1.0
 10
-3.5329900000000003
 20
-0.5111
 30
0.0
 10
-3.7514300000000005
 20
-0.39172
 30
0.0
 10
-3.5507700000000004
 20
0.07055
 30
0.0
 10
-3.3120100000000003
 20
-0.04882
 30
0.0
 10
-3.3120100000000003
 20
-0.04882
 30
0.0
 10
-3.3120100000000003
 20
-0.04882
 30
0.0
 10
-3.3602700000000003
 20
-0.0793
 30
0.0
 10
-3.3602700000000003
 20
-0.0793
 30
0.0
 10
-3.3602700000000003
 20
-0.0793
 30
0.0
 10
-3.5380700000000003
 20
-0.06152
 30
0.0
 10
-3.6066500000000001
 20
-0.36124
 30
0.0
 10
-3.5329900000000003
 20
-0.5111
 30
0.0
  0
SPLINE
  5
50
100
AcDbEntity
  8
Ebene 1
 62
     7
100
AcDbSpline
210
0.0
220
0.0
230
1.0
 70
     1
 71
     3
 72
    16
 73
    12
 74
     0
 42
0.0000000001
 43
0.0000000001
 40
0.0
 40
0.0
 40
0.0
 40
0.0
 40
0.3333333333333333
 40
0.3333333333333333
 40
0.3333333333333333
 40
0.3333333333333333
 40
0.6666666666666666
 40
0.6666666666666666
 40
0.6666666666666666
 40
0.6666666666666666
 40
1.0
 40
1.0
 40
1.0
 40
1.0
 10
3.2411800000000004
 20
-0.01072
 30
0.0
 10
3.4494600000000002
 20
-0.00818
 30
0.0
 10
3.5434400000000004
 20
-0.4145800000000001
 30
0.0
 10
3.3504000000000005
 20
-0.47046
 30
0.0
 10
3.3504000000000005
 20
-0.47046
 30
0.0
 10
3.3910400000000003
 20
-0.3333
 30
0.0
 10
3.4189800000000004
 20
-0.1047
 30
0.0
 10
3.2462600000000004
 20
-0.0412
 30
0.0
 10
3.2462600000000004
 20
-0.0412
 30
0.0
 10
3.2462600000000004
 20
-0.0412
 30
0.0
 10
3.2411800000000004
 20
-0.01072
 30
0.0
 10
3.2411800000000004
 20
-0.01072
 30
0.0
  0
SPLINE
  5
51
100
AcDbEntity
  8
Ebene 1
 62
     7
100
AcDbSpline
210
0.0
220
0.0
230
1.0
 70
     1
 71
     3
 72
    88
 73
    84
 74
     0
 42
0.0000000001
 43
0.0000000001
 40
0.0
 40
0.0
 40
0.0
 40
0.0
 40
0.0476190476190476
 40
0.0476190476190476
 40
0.0476190476190476
 40
0.0476190476190476
 40
0.0952380952380952
 40
0.0952380952380952
 40
0.0952380952380952
 40
0.0952380952380952
 40
0.1428571428571429
 40
0.1428571428571429
 40
0.1428571428571429
 40
0.1428571428571429
 40
0.1904761904761905
 40
0.1904761904761905
 40
0.1904761904761905
 40
0.1904761904761905
 40
0.2380952380952381
 40
0.2380952380952381
 40
0.2380952380952381
 40
0.2380952380952381
 40
0.2857142857142857
 40
0.2857142857142857
 40
0.2857142857142857
 40
0.2857142857142857
 40
0.3333333333333333
 40
0.3333333333333333
 40
0.3333333333333333
 40
0.3333333333333333
 40
0.3809523809523809
 40
0.3809523809523809
 40
0.3809523809523809
 40
0.3809523809523809
 40
0.4285714285714286
 40
0.4285714285714286
 40
0.4285714285714286
 40
0.4285714285714286
 40
0.4761904761904762
 40
0.4761904761904762
 40
0.4761904761904762
 40
0.4761904761904762
 40
0.5238095238095237
 40
0.5238095238095237
 40
0.5238095238095237
 40
0.5238095238095237
 40
0.5714285714285714
 40
0.5714285714285714
 40
0.5714285714285714
 40
0.5714285714285714
 40
0.6190476190476191
 40
0.6190476190476191
 40
0.6190476190476191
 40
0.6190476190476191
 40
0.6666666666666667
 40
0.6666666666666667
 40
0.6666666666666667
 40
0.6666666666666667
 40
0.7142857142857144
 40
0.7142857142857144
 40
0.7142857142857144
 40
0.7142857142857144
 40
0.7619047619047621
 40
0.7619047619047621
 40
0.7619047619047621
 40
0.7619047619047621
 40
0.8095238095238098
 40
0.8095238095238098
 40
0.8095238095238098
 40
0.8095238095238098
 40
0.8571428571428574
 40
0.8571428571428574
 40
0.8571428571428574
 40
0.8571428571428574
 40
0.9047619047619051
 40
0.9047619047619051
 40
0.9047619047619051
 40
0.9047619047619051
 40
0.9523809523809528
 40
0.9523809523809528
 40
0.9523809523809528
 40
0.9523809523809528
 40
1.0
 40
1.0
 40
1.0
 40
1.0
 10
-2.3645900000000002
 20
-1.2248400000000002
 30
0.0
 10
-2.31887
 20
-1.12832
 30
0.0
 10
-2.2858500000000004
 20
-1.12578
 30
0.0
 10
-2.3214100000000002
 20
-0.9683000000000001
 30
0.0
 10
-2.3214100000000002
 20
-0.9683000000000001
 30
0.0
 10
-2.3214100000000002
 20
-0.9683000000000001
 30
0.0
 10
-2.4585700000000004
 20
-0.5644400000000001
 30
0.0
 10
-2.4585700000000004
 20
-0.5644400000000001
 30
0.0
 10
-2.4585700000000004
 20
-0.5644400000000001
 30
0.0
 10
-2.3391900000000003
 20
-0.56698
 30
0.0
 10
-2.2248900000000003
 20
-0.5873
 30
0.0
 10
-2.1055100000000002
 20
-0.5644400000000001
 30
0.0
 10
-2.1055100000000002
 20
-0.5644400000000001
 30
0.0
 10
-2.1486900000000002
 20
-0.92766
 30
0.0
 10
-2.0775700000000001
 20
-1.24516
 30
0.0
 10
-1.8438900000000003
 20
-1.4940800000000001
 30
0.0
 10
-1.8438900000000003
 20
-1.4940800000000001
 30
0.0
 10
-1.8591300000000002
 20
-1.6769600000000002
 30
0.0
 10
-2.2172700000000001
 20
-1.7099800000000001
 30
0.0
 10
-2.06995
 20
-1.9030200000000002
 30
0.0
 10
-2.06995
 20
-1.9030200000000002
 30
0.0
 10
-2.22743
 20
-1.8471400000000002
 30
0.0
 10
-2.3645900000000002
 20
-1.7328400000000002
 30
0.0
 10
-2.4839700000000002
 20
-1.6160000000000001
 30
0.0
 10
-2.4839700000000002
 20
-1.6160000000000001
 30
0.0
 10
-2.4839700000000002
 20
-1.6160000000000001
 30
0.0
 10
-2.6719300000000001
 20
-1.45852
 30
0.0
 10
-2.6719300000000001
 20
-1.45852
 30
0.0
 10
-2.6719300000000001
 20
-1.45852
 30
0.0
 10
-2.8319500000000004
 20
-1.2604000000000002
 30
0.0
 10
-2.7811500000000002
 20
-1.54488
 30
0.0
 10
-2.6668500000000002
 20
-1.6083800000000001
 30
0.0
 10
-2.6668500000000002
 20
-1.6083800000000001
 30
0.0
 10
-2.6668500000000002
 20
-1.6083800000000001
 30
0.0
 10
-2.2502900000000001
 20
-1.9893800000000001
 30
0.0
 10
-2.2502900000000001
 20
-1.9893800000000001
 30
0.0
 10
-2.2502900000000001
 20
-1.9893800000000001
 30
0.0
 10
-2.18425
 20
-2.0655800000000002
 30
0.0
 10
-1.9962900000000001
 20
-2.05796
 30
0.0
 10
-1.9988300000000001
 20
-2.18242
 30
0.0
 10
-1.9988300000000001
 20
-2.18242
 30
0.0
 10
-2.7024100000000004
 20
-1.8776200000000001
 30
0.0
 10
-3.2358100000000003
 20
-1.16388
 30
0.0
 10
-3.4593300000000005
 20
-0.44506
 30
0.0
 10
-3.4593300000000005
 20
-0.44506
 30
0.0
 10
-3.4593300000000005
 20
-0.44506
 30
0.0
 10
-3.1367500000000001
 20
-1.0622800000000001
 30
0.0
 10
-3.1367500000000001
 20
-1.0622800000000001
 30
0.0
 10
-3.1367500000000001
 20
-1.0622800000000001
 30
0.0
 10
-3.0529300000000004
 20
-1.1156200000000001
 30
0.0
 10
-3.0097500000000004
 20
-1.2756400000000001
 30
0.0
 10
-2.8979900000000001
 20
-1.2654800000000002
 30
0.0
 10
-2.8979900000000001
 20
-1.2654800000000002
 30
0.0
 10
-2.8979900000000001
 20
-1.2654800000000002
 30
0.0
 10
-3.4237700000000002
 20
-0.1682
 30
0.0
 10
-3.4237700000000002
 20
-0.1682
 30
0.0
 10
-3.4237700000000002
 20
-0.1682
 30
0.0
 10
-3.3297900000000005
 20
-0.1047
 30
0.0
 10
-3.2459700000000002
 20
-0.19614
 30
0.0
 10
-3.1672300000000004
 20
-0.24694
 30
0.0
 10
-3.1672300000000004
 20
-0.24694
 30
0.0
 10
-3.0961100000000004
 20
-0.3307600000000001
 30
0.0
 10
-3.0478500000000004
 20
-0.41204
 30
0.0
 10
-2.9919700000000002
 20
-0.50602
 30
0.0
 10
-2.9919700000000002
 20
-0.50602
 30
0.0
 10
-2.9919700000000002
 20
-0.50602
 30
0.0
 10
-2.7227300000000003
 20
-0.90734
 30
0.0
 10
-2.7227300000000003
 20
-0.90734
 30
0.0
 10
-2.7227300000000003
 20
-0.90734
 30
0.0
 10
-2.6643100000000004
 20
-0.9683000000000001
 30
0.0
 10
-2.5779500000000004
 20
-1.0673600000000001
 30
0.0
 10
-2.4839700000000002
 20
-1.07498
 30
0.0
 10
-2.4839700000000002
 20
-1.07498
 30
0.0
 10
-2.5957300000000001
 20
-0.9632200000000001
 30
0.0
 10
-2.7303500000000001
 20
-0.45014
 30
0.0
 10
-2.5830300000000004
 20
-0.5111
 30
0.0
 10
-2.5830300000000004
 20
-0.5111
 30
0.0
 10
-2.5830300000000004
 20
-0.5111
 30
0.0
 10
-2.5500100000000003
 20
-0.71684
 30
0.0
 10
-2.5500100000000003
 20
-0.71684
 30
0.0
 10
-2.5500100000000003
 20
-0.71684
 30
0.0
 10
-2.52461
 20
-0.8311400000000001
 30
0.0
 10
-2.4077700000000002
 20
-1.3391400000000002
 30
0.0
 10
-2.3645900000000002
 20
-1.2248400000000002
 30
0.0
  0
SPLINE
  5
52
100
AcDbEntity
  8
Ebene 1
 62
     7
100
AcDbSpline
210
0.0
220
0.0
230
1.0
 70
     1
 71
     3
 72
    64
 73
    60
 74
     0
 42
0.0000000001
 43
0.0000000001
 40
0.0
 40
0.0
 40
0.0
 40
0.0
 40
0.0666666666666667
 40
0.0666666666666667
 40
0.0666666666666667
 40
0.0666666666666667
 40
0.1333333333333333
 40
0.1333333333333333
 40
0.1333333333333333
 40
0.1333333333333333
 40
0.2
 40
0.2
 40
0.2
 40
0.2
 40
0.2666666666666667
 40
0.2666666666666667
 40
0.2666666666666667
 40
0.2666666666666667
 40
0.3333333333333333
 40
0.3333333333333333
 40
0.3333333333333333
 40
0.3333333333333333
 40
0.4
 40
0.4
 40
0.4
 40
0.4
 40
0.4666666666666666
 40
0.4666666666666666
 40
0.4666666666666666
 40
0.4666666666666666
 40
0.5333333333333333
 40
0.5333333333333333
 40
0.5333333333333333
 40
0.5333333333333333
 40
0.6
 40
0.6
 40
0.6
 40
0.6
 40
0.6666666666666666
 40
0.6666666666666666
 40
0.6666666666666666
 40
0.6666666666666666
 40
0.7333333333333333
 40
0.7333333333333333
 40
0.7333333333333333
 40
0.7333333333333333
 40
0.7999999999999999
 40
0.7999999999999999
 40
0.7999999999999999
 40
0.7999999999999999
 40
0.8666666666666666
 40
0.8666666666666666
 40
0.8666666666666666
 40
0.8666666666666666
 40
0.9333333333333332
 40
0.9333333333333332
 40
0.9333333333333332
 40
0.9333333333333332
 40
1.0
 40
1.0
 40
1.0
 40
1.0
 10
3.1040200000000002
 20
-0.18344
 30
0.0
 10
3.1040200000000002
 20
-0.18344
 30
0.0
 10
2.42076
 20
-1.2477
 30
0.0
 10
2.42076
 20
-1.2477
 30
0.0
 10
2.42076
 20
-1.2477
 30
0.0
 10
2.42076
 20
-1.2477
 30
0.0
 10
2.59348
 20
-1.0826
 30
0.0
 10
2.59348
 20
-1.0826
 30
0.0
 10
2.59348
 20
-1.0826
 30
0.0
 10
2.75604
 20
-0.9149600000000001
 30
0.0
 10
2.8830400000000003
 20
-0.7498600000000001
 30
0.0
 10
3.0049600000000001
 20
-0.5492
 30
0.0
 10
3.0049600000000001
 20
-0.5492
 30
0.0
 10
3.1141800000000002
 20
-0.44506
 30
0.0
 10
3.1548200000000004
 20
-0.2571
 30
0.0
 10
3.2945200000000003
 20
-0.18344
 30
0.0
 10
3.2945200000000003
 20
-0.18344
 30
0.0
 10
3.1497400000000004
 20
-1.0470400000000002
 30
0.0
 10
2.4385400000000002
 20
-1.7658600000000002
 30
0.0
 10
1.7984600000000002
 20
-2.3856200000000003
 30
0.0
 10
1.7984600000000002
 20
-2.3856200000000003
 30
0.0
 10
1.6460600000000001
 20
-2.0986000000000002
 30
0.0
 10
2.0270600000000001
 20
-2.09606
 30
0.0
 10
1.9483200000000001
 20
-1.8039600000000002
 30
0.0
 10
1.9483200000000001
 20
-1.8039600000000002
 30
0.0
 10
1.8568800000000001
 20
-1.7074400000000001
 30
0.0
 10
1.7121000000000002
 20
-1.7557
 30
0.0
 10
1.6892400000000001
 20
-1.5804400000000001
 30
0.0
 10
1.6892400000000001
 20
-1.5804400000000001
 30
0.0
 10
1.8010000000000002
 20
-1.3188200000000001
 30
0.0
 10
1.9915000000000003
 20
-0.9352800000000001
 30
0.0
 10
1.9838800000000001
 20
-0.5796800000000001
 30
0.0
 10
1.9838800000000001
 20
-0.5796800000000001
 30
0.0
 10
1.9838800000000001
 20
-0.5796800000000001
 30
0.0
 10
2.0575400000000004
 20
-0.65842
 30
0.0
 10
2.0575400000000004
 20
-0.65842
 30
0.0
 10
2.0575400000000004
 20
-0.65842
 30
0.0
 10
2.0575400000000004
 20
-0.78288
 30
0.0
 10
2.03722
 20
-0.9860800000000001
 30
0.0
 10
1.9661000000000002
 20
-1.0978400000000001
 30
0.0
 10
1.9661000000000002
 20
-1.0978400000000001
 30
0.0
 10
1.9661000000000002
 20
-1.0978400000000001
 30
0.0
 10
1.8162400000000001
 20
-1.50424
 30
0.0
 10
1.8162400000000001
 20
-1.50424
 30
0.0
 10
1.8162400000000001
 20
-1.50424
 30
0.0
 10
2.2709000000000001
 20
-1.3239000000000001
 30
0.0
 10
1.9762600000000001
 20
-0.4984000000000001
 30
0.0
 10
2.4791800000000004
 20
-0.4095
 30
0.0
 10
2.4791800000000004
 20
-0.4095
 30
0.0
 10
2.4791800000000004
 20
-0.4095
 30
0.0
 10
2.4487000000000001
 20
-0.6660400000000001
 30
0.0
 10
2.4487000000000001
 20
-0.6660400000000001
 30
0.0
 10
2.4487000000000001
 20
-0.6660400000000001
 30
0.0
 10
2.4487000000000001
 20
-0.6660400000000001
 30
0.0
 10
2.2810600000000001
 20
-1.2299200000000001
 30
0.0
 10
2.2810600000000001
 20
-1.2299200000000001
 30
0.0
 10
2.2810600000000001
 20
-1.2299200000000001
 30
0.0
 10
2.6265000000000001
 20
-0.9987800000000001
 30
0.0
 10
2.7458800000000001
 20
-0.4679200000000001
 30
0.0
 10
3.1040200000000002
 20
-0.18344
 30
0.0
  0
SPLINE
  5
53
100
AcDbEntity
  8
Ebene 1
 62
     7
100
AcDbSpline
210
0.0
220
0.0
230
1.0
 70
     1
 71
     3
 72
    12
 73
     8
 74
     0
 42
0.0000000001
 43
0.0000000001
 40
0.0
 40
0.0
 40
0.0
 40
0.0
 40
0.5
 40
0.5
 40
0.5
 40
0.5
 40
1.0
 40
1.0
 40
1.0
 40
1.0
 10
2.4309200000000004
 20
-0.23424
 30
0.0
 10
2.50204
 20
-0.3739400000000001
 30
0.0
 10
2.2683600000000004
 20
-0.45014
 30
0.0
 10
2.16168
 20
-0.45268
 30
0.0
 10
2.16168
 20
-0.45268
 30
0.0
 10
2.17692
 20
-0.34092
 30
0.0
 10
2.41568
 20
-0.3536200000000001
 30
0.0
 10
2.4309200000000004
 20
-0.23424
 30
0.0
  0
SPLINE
  5
54
100
AcDbEntity
  8
Ebene 1
 62
     7
100
AcDbSpline
210
0.0
220
0.0
230
1.0
 70
     1
 71
     3
 72
    12
 73
     8
 74
     0
 42
0.0000000001
 43
0.0000000001
 40
0.0
 40
0.0
 40
0.0
 40
0.0
 40
0.5
 40
0.5
 40
0.5
 40
0.5
 40
1.0
 40
1.0
 40
1.0
 40
1.0
 10
1.5165200000000001
 20
-0.33838
 30
0.0
 10
1.69686
 20
-0.29266
 30
0.0
 10
1.7121000000000002
 20
-0.52888
 30
0.0
 10
1.56986
 20
-0.5796800000000001
 30
0.0
 10
1.56986
 20
-0.5796800000000001
 30
0.0
 10
1.4962000000000002
 20
-0.5492
 30
0.0
 10
1.5241400000000001
 20
-0.4145800000000001
 30
0.0
 10
1.5165200000000001
 20
-0.33838
 30
0.0
  0
SPLINE
  5
55
100
AcDbEntity
  8
Ebene 1
 62
     7
100
AcDbSpline
210
0.0
220
0.0
230
1.0
 70
     1
 71
     3
 72
    24
 73
    20
 74
     0
 42
0.0000000001
 43
0.0000000001
 40
0.0
 40
0.0
 40
0.0
 40
0.0
 40
0.2
 40
0.2
 40
0.2
 40
0.2
 40
0.4
 40
0.4
 40
0.4
 40
0.4
 40
0.6000000000000001
 40
0.6000000000000001
 40
0.6000000000000001
 40
0.6000000000000001
 40
0.8
 40
0.8
 40
0.8
 40
0.8
 40
1.0
 40
1.0
 40
1.0
 40
1.0
 10
1.18632
 20
-0.473
 30
0.0
 10
1.0771000000000002
 20
-0.74224
 30
0.0
 10
1.2168000000000001
 20
-0.9302
 30
0.0
 10
1.2930000000000001
 20
-1.1816600000000002
 30
0.0
 10
1.2930000000000001
 20
-1.1816600000000002
 30
0.0
 10
1.3336400000000002
 20
-1.1816600000000002
 30
0.0
 10
1.2904600000000002
 20
-1.0572000000000001
 30
0.0
 10
1.3285600000000002
 20
-1.0978400000000001
 30
0.0
 10
1.3285600000000002
 20
-1.0978400000000001
 30
0.0
 10
1.3641200000000002
 20
-1.20452
 30
0.0
 10
1.2980800000000001
 20
-1.2654800000000002
 30
0.0
 10
1.2117200000000001
 20
-1.2832600000000001
 30
0.0
 10
1.2117200000000001
 20
-1.2832600000000001
 30
0.0
 10
1.1406000000000001
 20
-1.0216400000000001
 30
0.0
 10
1.09996
 20
-0.7473200000000001
 30
0.0
 10
1.1253600000000001
 20
-0.46284
 30
0.0
 10
1.1253600000000001
 20
-0.46284
 30
0.0
 10
1.1583800000000002
 20
-0.42982
 30
0.0
 10
1.1380600000000001
 20
-0.47554
 30
0.0
 10
1.18632
 20
-0.473
 30
0.0
  0
SPLINE
  5
56
100
AcDbEntity
  8
Ebene 1
 62
     7
100
AcDbSpline
210
0.0
220
0.0
230
1.0
 70
     1
 71
     3
 72
    16
 73
    12
 74
     0
 42
0.0000000001
 43
0.0000000001
 40
0.0
 40
0.0
 40
0.0
 40
0.0
 40
0.3333333333333333
 40
0.3333333333333333
 40
0.3333333333333333
 40
0.3333333333333333
 40
0.6666666666666666
 40
0.6666666666666666
 40
0.6666666666666666
 40
0.6666666666666666
 40
1.0
 40
1.0
 40
1.0
 40
1.0
 10
-2.0674100000000002
 20
-0.4247400000000001
 30
0.0
 10
-2.0420100000000003
 20
-0.4247400000000001
 30
0.0
 10
-2.0470900000000003
 20
-0.4577600000000001
 30
0.0
 10
-2.05471
 20
-0.47046
 30
0.0
 10
-2.05471
 20
-0.47046
 30
0.0
 10
-2.1639300000000001
 20
-0.5212600000000001
 30
0.0
 10
-2.3823700000000003
 20
-0.5441200000000001
 30
0.0
 10
-2.4585700000000004
 20
-0.44506
 30
0.0
 10
-2.4585700000000004
 20
-0.44506
 30
0.0
 10
-2.3290300000000004
 20
-0.4857
 30
0.0
 10
-2.1791700000000001
 20
-0.5111
 30
0.0
 10
-2.0674100000000002
 20
-0.4247400000000001
 30
0.0
  0
SPLINE
  5
57
100
AcDbEntity
  8
Ebene 1
 62
     7
100
AcDbSpline
210
0.0
220
0.0
230
1.0
 70
     1
 71
     3
 72
    12
 73
     8
 74
     0
 42
0.0000000001
 43
0.0000000001
 40
0.0
 40
0.0
 40
0.0
 40
0.0
 40
0.5
 40
0.5
 40
0.5
 40
0.5
 40
1.0
 40
1.0
 40
1.0
 40
1.0
 10
1.9838800000000001
 20
-0.44252
 30
0.0
 10
2.05246
 20
-0.4374400000000001
 30
0.0
 10
1.9915000000000003
 20
-0.52888
 30
0.0
 10
1.9534000000000002
 20
-0.5212600000000001
 30
0.0
 10
1.9534000000000002
 20
-0.5212600000000001
 30
0.0
 10
1.9000600000000001
 20
-0.4907800000000001
 30
0.0
 10
1.9635600000000002
 20
-0.46284
 30
0.0
 10
1.9838800000000001
 20
-0.44252
 30
0.0
  0
SPLINE
  5
58
100
AcDbEntity
  8
Ebene 1
 62
     7
100
AcDbSpline
210
0.0
220
0.0
230
1.0
 70
     1
 71
     3
 72
    16
 73
    12
 74
     0
 42
0.0000000001
 43
0.0000000001
 40
0.0
 40
0.0
 40
0.0
 40
0.0
 40
0.3333333333333333
 40
0.3333333333333333
 40
0.3333333333333333
 40
0.3333333333333333
 40
0.6666666666666666
 40
0.6666666666666666
 40
0.6666666666666666
 40
0.6666666666666666
 40
1.0
 40
1.0
 40
1.0
 40
1.0
 10
-1.29017
 20
-0.4577600000000001
 30
0.0
 10
-1.2393700000000001
 20
-0.5492
 30
0.0
 10
-1.20381
 20
-0.6711200000000001
 30
0.0
 10
-1.2419100000000001
 20
-0.78288
 30
0.0
 10
-1.2419100000000001
 20
-0.78288
 30
0.0
 10
-1.2419100000000001
 20
-0.78288
 30
0.0
 10
-1.3028700000000002
 20
-0.7879600000000001
 30
0.0
 10
-1.3028700000000002
 20
-0.7879600000000001
 30
0.0
 10
-1.3028700000000002
 20
-0.7879600000000001
 30
0.0
 10
-1.3028700000000002
 20
-0.7879600000000001
 30
0.0
 10
-1.29017
 20
-0.4577600000000001
 30
0.0
 10
-1.29017
 20
-0.4577600000000001
 30
0.0
  0
SPLINE
  5
59
100
AcDbEntity
  8
Ebene 1
 62
     7
100
AcDbSpline
210
0.0
220
0.0
230
1.0
 70
     1
 71
     3
 72
    12
 73
     8
 74
     0
 42
0.0000000001
 43
0.0000000001
 40
0.0
 40
0.0
 40
0.0
 40
0.0
 40
0.5
 40
0.5
 40
0.5
 40
0.5
 40
1.0
 40
1.0
 40
1.0
 40
1.0
 10
1.3438000000000001
 20
-0.4577600000000001
 30
0.0
 10
1.3869800000000001
 20
-0.48316
 30
0.0
 10
1.44032
 20
-0.5492
 30
0.0
 10
1.4631800000000001
 20
-0.59238
 30
0.0
 10
1.4631800000000001
 20
-0.59238
 30
0.0
 10
1.39714
 20
-0.6000000000000001
 30
0.0
 10
1.2955400000000001
 20
-0.52888
 30
0.0
 10
1.3438000000000001
 20
-0.4577600000000001
 30
0.0
  0
SPLINE
  5
5A
100
AcDbEntity
  8
Ebene 1
 62
     7
100
AcDbSpline
210
0.0
220
0.0
230
1.0
 70
     1
 71
     3
 72
    16
 73
    12
 74
     0
 42
0.0000000001
 43
0.0000000001
 40
0.0
 40
0.0
 40
0.0
 40
0.0
 40
0.3333333333333333
 40
0.3333333333333333
 40
0.3333333333333333
 40
0.3333333333333333
 40
0.6666666666666666
 40
0.6666666666666666
 40
0.6666666666666666
 40
0.6666666666666666
 40
1.0
 40
1.0
 40
1.0
 40
1.0
 10
1.7248000000000001
 20
-0.4577600000000001
 30
0.0
 10
1.8391000000000002
 20
-0.6482600000000001
 30
0.0
 10
1.3869800000000001
 20
-0.8387600000000001
 30
0.0
 10
1.2980800000000001
 20
-0.63556
 30
0.0
 10
1.2980800000000001
 20
-0.63556
 30
0.0
 10
1.2980800000000001
 20
-0.63556
 30
0.0
 10
1.3260200000000002
 20
-0.61778
 30
0.0
 10
1.3260200000000002
 20
-0.61778
 30
0.0
 10
1.3260200000000002
 20
-0.61778
 30
0.0
 10
1.4530200000000002
 20
-0.7270000000000001
 30
0.0
 10
1.7197200000000001
 20
-0.61778
 30
0.0
 10
1.7248000000000001
 20
-0.4577600000000001
 30
0.0
  0
SPLINE
  5
5B
100
AcDbEntity
  8
Ebene 1
 62
     7
100
AcDbSpline
210
0.0
220
0.0
230
1.0
 70
     1
 71
     3
 72
    12
 73
     8
 74
     0
 42
0.0000000001
 43
0.0000000001
 40
0.0
 40
0.0
 40
0.0
 40
0.0
 40
0.5
 40
0.5
 40
0.5
 40
0.5
 40
1.0
 40
1.0
 40
1.0
 40
1.0
 10
-1.29017
 20
-0.9251200000000001
 30
0.0
 10
-1.3054100000000002
 20
-0.9962400000000001
 30
0.0
 10
-1.2774700000000001
 20
-1.11816
 30
0.0
 10
-1.3536700000000002
 20
-1.1435600000000001
 30
0.0
 10
-1.3536700000000002
 20
-1.1435600000000001
 30
0.0
 10
-1.4146300000000001
 20
-0.9149600000000001
 30
0.0
 10
-1.3638300000000001
 20
-0.8362200000000001
 30
0.0
 10
-1.29017
 20
-0.9251200000000001
 30
0.0
  0
SPLINE
  5
5C
100
AcDbEntity
  8
Ebene 1
 62
     7
100
AcDbSpline
210
0.0
220
0.0
230
1.0
 70
     1
 71
     3
 72
    16
 73
    12
 74
     0
 42
0.0000000001
 43
0.0000000001
 40
0.0
 40
0.0
 40
0.0
 40
0.0
 40
0.3333333333333333
 40
0.3333333333333333
 40
0.3333333333333333
 40
0.3333333333333333
 40
0.6666666666666666
 40
0.6666666666666666
 40
0.6666666666666666
 40
0.6666666666666666
 40
1.0
 40
1.0
 40
1.0
 40
1.0
 10
1.3107800000000001
 20
-1.2858000000000001
 30
0.0
 10
1.3107800000000001
 20
-1.2858000000000001
 30
0.0
 10
1.3768200000000002
 20
-1.3061200000000002
 30
0.0
 10
1.3768200000000002
 20
-1.3061200000000002
 30
0.0
 10
1.3768200000000002
 20
-1.3061200000000002
 30
0.0
 10
1.3666600000000002
 20
-1.4102600000000001
 30
0.0
 10
1.4454
 20
-1.5525000000000002
 30
0.0
 10
1.36158
 20
-1.63124
 30
0.0
 10
1.36158
 20
-1.63124
 30
0.0
 10
1.2244200000000001
 20
-1.6083800000000001
 30
0.0
 10
1.2549000000000001
 20
-1.3594600000000001
 30
0.0
 10
1.3107800000000001
 20
-1.2858000000000001
 30
0.0
  0
SPLINE
  5
5D
100
AcDbEntity
  8
Ebene 1
 62
     7
100
AcDbSpline
210
0.0
220
0.0
230
1.0
 70
     1
 71
     3
 72
    60
 73
    56
 74
     0
 42
0.0000000001
 43
0.0000000001
 40
0.0
 40
0.0
 40
0.0
 40
0.0
 40
0.0714285714285714
 40
0.0714285714285714
 40
0.0714285714285714
 40
0.0714285714285714
 40
0.1428571428571429
 40
0.1428571428571429
 40
0.1428571428571429
 40
0.1428571428571429
 40
0.2142857142857143
 40
0.2142857142857143
 40
0.2142857142857143
 40
0.2142857142857143
 40
0.2857142857142857
 40
0.2857142857142857
 40
0.2857142857142857
 40
0.2857142857142857
 40
0.3571428571428571
 40
0.3571428571428571
 40
0.3571428571428571
 40
0.3571428571428571
 40
0.4285714285714285
 40
0.4285714285714285
 40
0.4285714285714285
 40
0.4285714285714285
 40
0.4999999999999999
 40
0.4999999999999999
 40
0.4999999999999999
 40
0.4999999999999999
 40
0.5714285714285713
 40
0.5714285714285713
 40
0.5714285714285713
 40
0.5714285714285713
 40
0.6428571428571427
 40
0.6428571428571427
 40
0.6428571428571427
 40
0.6428571428571427
 40
0.7142857142857141
 40
0.7142857142857141
 40
0.7142857142857141
 40
0.7142857142857141
 40
0.7857142857142855
 40
0.7857142857142855
 40
0.7857142857142855
 40
0.7857142857142855
 40
0.8571428571428569
 40
0.8571428571428569
 40
0.8571428571428569
 40
0.8571428571428569
 40
0.9285714285714283
 40
0.9285714285714283
 40
0.9285714285714283
 40
0.9285714285714283
 40
1.0
 40
1.0
 40
1.0
 40
1.0
 10
-0.8761500000000001
 20
-3.8740600000000005
 30
0.0
 10
-0.76185
 20
-3.8969200000000002
 30
0.0
 10
-0.71613
 20
-4.09504
 30
0.0
 10
-0.6043700000000001
 20
-4.0417000000000005
 30
0.0
 10
-0.6043700000000001
 20
-4.0417000000000005
 30
0.0
 10
-0.8990100000000001
 20
-3.7292800000000002
 30
0.0
 10
-1.3028700000000002
 20
-3.4956000000000005
 30
0.0
 10
-1.5619500000000002
 20
-3.1273000000000004
 30
0.0
 10
-1.5619500000000002
 20
-3.1273000000000004
 30
0.0
 10
-1.5619500000000002
 20
-3.1273000000000004
 30
0.0
 10
-1.6203700000000001
 20
-2.7691600000000003
 30
0.0
 10
-1.6203700000000001
 20
-2.7691600000000003
 30
0.0
 10
-1.6203700000000001
 20
-2.7691600000000003
 30
0.0
 10
-1.3155700000000001
 20
-2.52278
 30
0.0
 10
-1.6203700000000001
 20
-1.9741400000000002
 30
0.0
 10
-1.4070100000000001
 20
-1.6871200000000002
 30
0.0
 10
-1.4070100000000001
 20
-1.6871200000000002
 30
0.0
 10
-1.0945900000000002
 20
-1.5677400000000001
 30
0.0
 10
-0.7085100000000001
 20
-1.3010400000000002
 30
0.0
 10
-0.32497
 20
-1.45852
 30
0.0
 10
-0.32497
 20
-1.45852
 30
0.0
 10
-0.16241
 20
-1.3950200000000001
 30
0.0
 10
-0.03287
 20
-1.3366
 30
0.0
 10
0.10428
 20
-1.4763000000000002
 30
0.0
 10
0.10428
 20
-1.4763000000000002
 30
0.0
 10
0.5259200000000001
 20
-1.2350000000000001
 30
0.0
 10
1.0059800000000001
 20
-1.6160000000000001
 30
0.0
 10
1.3260200000000002
 20
-1.7049000000000001
 30
0.0
 10
1.3260200000000002
 20
-1.7049000000000001
 30
0.0
 10
1.4200000000000002
 20
-2.0173200000000002
 30
0.0
 10
1.1837800000000001
 20
-2.4999200000000004
 30
0.0
 10
1.4809600000000001
 20
-2.7031200000000002
 30
0.0
 10
1.4809600000000001
 20
-2.7031200000000002
 30
0.0
 10
1.4377800000000001
 20
-2.8479000000000001
 30
0.0
 10
1.4301600000000001
 20
-3.0638000000000001
 30
0.0
 10
1.4479400000000002
 20
-3.1679400000000002
 30
0.0
 10
1.4479400000000002
 20
-3.1679400000000002
 30
0.0
 10
1.2218800000000001
 20
-3.4829000000000003
 30
0.0
 10
0.8866000000000001
 20
-3.7165800000000004
 30
0.0
 10
0.57418
 20
-3.9451800000000001
 30
0.0
 10
0.57418
 20
-3.9451800000000001
 30
0.0
 10
0.51576
 20
-3.9883600000000001
 30
0.0
 10
0.57418
 20
-4.0823400000000003
 30
0.0
 10
0.6249800000000001
 20
-4.0137600000000004
 30
0.0
 10
0.6249800000000001
 20
-4.0137600000000004
 30
0.0
 10
0.7265800000000001
 20
-3.8562800000000004
 30
0.0
 10
0.8205600000000001
 20
-3.8715200000000003
 30
0.0
 10
0.6732400000000001
 20
-4.0289999999999999
 30
0.0
 10
0.6732400000000001
 20
-4.0289999999999999
 30
0.0
 10
0.6300600000000001
 20
-4.0670999999999999
 30
0.0
 10
0.5945
 20
-4.13314
 30
0.0
 10
0.5183000000000001
 20
-4.1153599999999999
 30
0.0
 10
0.5183000000000001
 20
-4.1153599999999999
 30
0.0
 10
0.0611
 20
-3.7673800000000002
 30
0.0
 10
-0.59167
 20
-4.4531800000000006
 30
0.0
 10
-0.8761500000000001
 20
-3.8740600000000005
 30
0.0
  0
SPLINE
  5
5E
100
AcDbEntity
  8
Ebene 1
 62
     7
100
AcDbSpline
210
0.0
220
0.0
230
1.0
 70
     1
 71
     3
 72
    12
 73
     8
 74
     0
 42
0.0000000001
 43
0.0000000001
 40
0.0
 40
0.0
 40
0.0
 40
0.0
 40
0.5
 40
0.5
 40
0.5
 40
0.5
 40
1.0
 40
1.0
 40
1.0
 40
1.0
 10
-1.3079500000000002
 20
-1.3899400000000002
 30
0.0
 10
-1.4095500000000001
 20
-1.37978
 30
0.0
 10
-1.3155700000000001
 20
-1.5550400000000002
 30
0.0
 10
-1.33843
 20
-1.5398000000000001
 30
0.0
 10
-1.33843
 20
-1.5398000000000001
 30
0.0
 10
-1.2800100000000001
 20
-1.54234
 30
0.0
 10
-1.2444500000000001
 20
-1.4966200000000001
 30
0.0
 10
-1.3079500000000002
 20
-1.3899400000000002
 30
0.0
  0
SPLINE
  5
5F
100
AcDbEntity
  8
Ebene 1
 62
     7
100
AcDbSpline
210
0.0
220
0.0
230
1.0
 70
     1
 71
     3
 72
    12
 73
     8
 74
     0
 42
0.0000000001
 43
0.0000000001
 40
0.0
 40
0.0
 40
0.0
 40
0.0
 40
0.5
 40
0.5
 40
0.5
 40
0.5
 40
1.0
 40
1.0
 40
1.0
 40
1.0
 10
3.2411800000000004
 20
-1.45852
 30
0.0
 10
3.30722
 20
-1.4407400000000001
 30
0.0
 10
3.2869000000000002
 20
-1.4966200000000001
 30
0.0
 10
3.2564200000000003
 20
-1.5220200000000002
 30
0.0
 10
3.2564200000000003
 20
-1.5220200000000002
 30
0.0
 10
3.2208600000000001
 20
-1.5220200000000002
 30
0.0
 10
3.2234000000000003
 20
-1.4788400000000002
 30
0.0
 10
3.2411800000000004
 20
-1.45852
 30
0.0
  0
SPLINE
  5
60
100
AcDbEntity
  8
Ebene 1
 62
     7
100
AcDbSpline
210
0.0
220
0.0
230
1.0
 70
     1
 71
     3
 72
     8
 73
     4
 74
     0
 42
0.0000000001
 43
0.0000000001
 40
0.0
 40
0.0
 40
0.0
 40
0.0
 40
1.0
 40
1.0
 40
1.0
 40
1.0
 10
3.1218000000000004
 20
-1.4763000000000002
 30
0.0
 10
3.2107000000000001
 20
-1.4559800000000001
 30
0.0
 10
3.1472000000000002
 20
-1.5550400000000002
 30
0.0
 10
3.1218000000000004
 20
-1.4763000000000002
 30
0.0
  0
SPLINE
  5
61
100
AcDbEntity
  8
Ebene 1
 62
     7
100
AcDbSpline
210
0.0
220
0.0
230
1.0
 70
     1
 71
     3
 72
    12
 73
     8
 74
     0
 42
0.0000000001
 43
0.0000000001
 40
0.0
 40
0.0
 40
0.0
 40
0.0
 40
0.5
 40
0.5
 40
0.5
 40
0.5
 40
1.0
 40
1.0
 40
1.0
 40
1.0
 10
-1.7753100000000002
 20
-1.5271000000000001
 30
0.0
 10
-1.7753100000000002
 20
-1.5271000000000001
 30
0.0
 10
-1.8591300000000002
 20
-1.7176000000000002
 30
0.0
 10
-1.8591300000000002
 20
-1.7176000000000002
 30
0.0
 10
-1.8591300000000002
 20
-1.7176000000000002
 30
0.0
 10
-1.9175500000000001
 20
-1.6185400000000001
 30
0.0
 10
-1.7702300000000002
 20
-1.5093200000000002
 30
0.0
 10
-1.7753100000000002
 20
-1.5271000000000001
 30
0.0
  0
SPLINE
  5
62
100
AcDbEntity
  8
Ebene 1
 62
     7
100
AcDbSpline
210
0.0
220
0.0
230
1.0
 70
     1
 71
     3
 72
    24
 73
    20
 74
     0
 42
0.0000000001
 43
0.0000000001
 40
0.0
 40
0.0
 40
0.0
 40
0.0
 40
0.2
 40
0.2
 40
0.2
 40
0.2
 40
0.4
 40
0.4
 40
0.4
 40
0.4
 40
0.6000000000000001
 40
0.6000000000000001
 40
0.6000000000000001
 40
0.6000000000000001
 40
0.8
 40
0.8
 40
0.8
 40
0.8
 40
1.0
 40
1.0
 40
1.0
 40
1.0
 10
-1.6533900000000001
 20
-1.5804400000000001
 30
0.0
 10
-1.5797300000000001
 20
-1.5779000000000001
 30
0.0
 10
-1.50607
 20
-1.5677400000000001
 30
0.0
 10
-1.4501900000000001
 20
-1.6160000000000001
 30
0.0
 10
-1.4501900000000001
 20
-1.6160000000000001
 30
0.0
 10
-1.6381500000000002
 20
-1.8776200000000001
 30
0.0
 10
-1.4806700000000002
 20
-2.2662400000000003
 30
0.0
 10
-1.58735
 20
-2.5583400000000003
 30
0.0
 10
-1.58735
 20
-2.5583400000000003
 30
0.0
 10
-1.58735
 20
-2.5583400000000003
 30
0.0
 10
-1.7524500000000001
 20
-2.5405600000000002
 30
0.0
 10
-1.7524500000000001
 20
-2.5405600000000002
 30
0.0
 10
-1.7524500000000001
 20
-2.5405600000000002
 30
0.0
 10
-1.8794500000000001
 20
-2.2814800000000002
 30
0.0
 10
-1.79817
 20
-1.9563600000000001
 30
0.0
 10
-1.7524500000000001
 20
-1.6515600000000001
 30
0.0
 10
-1.7524500000000001
 20
-1.6515600000000001
 30
0.0
 10
-1.7524500000000001
 20
-1.6515600000000001
 30
0.0
 10
-1.6533900000000001
 20
-1.5804400000000001
 30
0.0
 10
-1.6533900000000001
 20
-1.5804400000000001
 30
0.0
  0
SPLINE
  5
63
100
AcDbEntity
  8
Ebene 1
100
AcDbSpline
210
0.0
220
0.0
230
1.0
 70
     1
 71
     3
 72
    28
 73
    24
 74
     0
 42
0.0000000001
 43
0.0000000001
 40
0.0
 40
0.0
 40
0.0
 40
0.0
 40
0.1666666666666667
 40
0.1666666666666667
 40
0.1666666666666667
 40
0.1666666666666667
 40
0.3333333333333333
 40
0.3333333333333333
 40
0.3333333333333333
 40
0.3333333333333333
 40
0.5
 40
0.5
 40
0.5
 40
0.5
 40
0.6666666666666666
 40
0.6666666666666666
 40
0.6666666666666666
 40
0.6666666666666666
 40
0.8333333333333333
 40
0.8333333333333333
 40
0.8333333333333333
 40
0.8333333333333333
 40
1.0
 40
1.0
 40
1.0
 40
1.0
 10
-0.06589
 20
-1.5804400000000001
 30
0.0
 10
-0.06589
 20
-1.5804400000000001
 30
0.0
 10
0.08396
 20
-1.6871200000000002
 30
0.0
 10
0.08396
 20
-1.6871200000000002
 30
0.0
 10
0.08396
 20
-1.6871200000000002
 30
0.0
 10
0.10682
 20
-2.4186400000000003
 30
0.0
 10
0.15508
 20
-3.0815800000000002
 30
0.0
 10
0.08396
 20
-3.7978600000000005
 30
0.0
 10
0.08396
 20
-3.7978600000000005
 30
0.0
 10
0.04332
 20
-3.8562800000000004
 30
0.0
 10
-0.00747
 20
-3.8740600000000005
 30
0.0
 10
-0.06589
 20
-3.8918400000000002
 30
0.0
 10
-0.06589
 20
-3.8918400000000002
 30
0.0
 10
-0.11415
 20
-3.8740600000000005
 30
0.0
 10
-0.14717
 20
-3.8359600000000005
 30
0.0
 10
-0.18273
 20
-3.7978600000000005
 30
0.0
 10
-0.18273
 20
-3.7978600000000005
 30
0.0
 10
-0.29449
 20
-3.1298400000000002
 30
0.0
 10
-0.25639
 20
-2.4110200000000002
 30
0.0
 10
-0.23353
 20
-1.7049000000000001
 30
0.0
 10
-0.23353
 20
-1.7049000000000001
 30
0.0
 10
-0.20305
 20
-1.6464800000000002
 30
0.0
 10
-0.12939
 20
-1.6058400000000002
 30
0.0
 10
-0.06589
 20
-1.5804400000000001
 30
0.0
  0
SPLINE
  5
64
100
AcDbEntity
  8
Ebene 1
 62
     7
100
AcDbSpline
210
0.0
220
0.0
230
1.0
 70
     1
 71
     3
 72
    12
 73
     8
 74
     0
 42
0.0000000001
 43
0.0000000001
 40
0.0
 40
0.0
 40
0.0
 40
0.0
 40
0.5
 40
0.5
 40
0.5
 40
0.5
 40
1.0
 40
1.0
 40
1.0
 40
1.0
 10
-3.3958300000000001
 20
-1.6160000000000001
 30
0.0
 10
-3.3450300000000004
 20
-1.6160000000000001
 30
0.0
 10
-3.2891500000000002
 20
-1.6769600000000002
 30
0.0
 10
-3.3120100000000003
 20
-1.7303000000000002
 30
0.0
 10
-3.3120100000000003
 20
-1.7303000000000002
 30
0.0
 10
-3.3120100000000003
 20
-1.7303000000000002
 30
0.0
 10
-3.3958300000000001
 20
-1.6160000000000001
 30
0.0
 10
-3.3958300000000001
 20
-1.6160000000000001
 30
0.0
  0
SPLINE
  5
65
100
AcDbEntity
  8
Ebene 1
100
AcDbSpline
210
0.0
220
0.0
230
1.0
 70
     1
 71
     3
 72
    32
 73
    28
 74
     0
 42
0.0000000001
 43
0.0000000001
 40
0.0
 40
0.0
 40
0.0
 40
0.0
 40
0.1428571428571429
 40
0.1428571428571429
 40
0.1428571428571429
 40
0.1428571428571429
 40
0.2857142857142857
 40
0.2857142857142857
 40
0.2857142857142857
 40
0.2857142857142857
 40
0.4285714285714286
 40
0.4285714285714286
 40
0.4285714285714286
 40
0.4285714285714286
 40
0.5714285714285714
 40
0.5714285714285714
 40
0.5714285714285714
 40
0.5714285714285714
 40
0.7142857142857142
 40
0.7142857142857142
 40
0.7142857142857142
 40
0.7142857142857142
 40
0.857142857142857
 40
0.857142857142857
 40
0.857142857142857
 40
0.857142857142857
 40
1.0
 40
1.0
 40
1.0
 40
1.0
 10
-0.7897900000000001
 20
-1.6160000000000001
 30
0.0
 10
-0.7897900000000001
 20
-1.6160000000000001
 30
0.0
 10
-0.55357
 20
-1.6337800000000002
 30
0.0
 10
-0.55357
 20
-1.6337800000000002
 30
0.0
 10
-0.55357
 20
-1.6337800000000002
 30
0.0
 10
-0.55357
 20
-1.6337800000000002
 30
0.0
 10
-0.41387
 20
-1.7557
 30
0.0
 10
-0.41387
 20
-1.7557
 30
0.0
 10
-0.41387
 20
-1.7557
 30
0.0
 10
-0.28433
 20
-2.3399000000000001
 30
0.0
 10
-0.32497
 20
-3.0028400000000004
 30
0.0
 10
-0.34529
 20
-3.6099000000000001
 30
0.0
 10
-0.34529
 20
-3.6099000000000001
 30
0.0
 10
-0.3960900000000001
 20
-3.6657800000000003
 30
0.0
 10
-0.43165
 20
-3.7623000000000002
 30
0.0
 10
-0.53325
 20
-3.7699200000000004
 30
0.0
 10
-0.53325
 20
-3.7699200000000004
 30
0.0
 10
-0.9599700000000001
 20
-3.7445200000000005
 30
0.0
 10
-1.2571500000000002
 20
-3.3533600000000003
 30
0.0
 10
-1.4476500000000001
 20
-3.0104600000000001
 30
0.0
 10
-1.4476500000000001
 20
-3.0104600000000001
 30
0.0
 10
-1.3409700000000002
 20
-2.6675600000000004
 30
0.0
 10
-1.3689100000000001
 20
-2.2637
 30
0.0
 10
-1.3536700000000002
 20
-1.8954000000000002
 30
0.0
 10
-1.3536700000000002
 20
-1.8954000000000002
 30
0.0
 10
-1.2165100000000002
 20
-1.7607800000000002
 30
0.0
 10
-0.9904500000000001
 20
-1.6820400000000002
 30
0.0
 10
-0.7897900000000001
 20
-1.6160000000000001
 30
0.0
  0
SPLINE
  5
66
100
AcDbEntity
  8
Ebene 1
100
AcDbSpline
210
0.0
220
0.0
230
1.0
 70
     1
 71
     3
 72
    28
 73
    24
 74
     0
 42
0.0000000001
 43
0.0000000001
 40
0.0
 40
0.0
 40
0.0
 40
0.0
 40
0.1666666666666667
 40
0.1666666666666667
 40
0.1666666666666667
 40
0.1666666666666667
 40
0.3333333333333333
 40
0.3333333333333333
 40
0.3333333333333333
 40
0.3333333333333333
 40
0.5
 40
0.5
 40
0.5
 40
0.5
 40
0.6666666666666666
 40
0.6666666666666666
 40
0.6666666666666666
 40
0.6666666666666666
 40
0.8333333333333333
 40
0.8333333333333333
 40
0.8333333333333333
 40
0.8333333333333333
 40
1.0
 40
1.0
 40
1.0
 40
1.0
 10
0.4827400000000001
 20
-1.6160000000000001
 30
0.0
 10
0.6910200000000001
 20
-1.6769600000000002
 30
0.0
 10
0.9170800000000001
 20
-1.7303000000000002
 30
0.0
 10
1.09996
 20
-1.8242800000000001
 30
0.0
 10
1.09996
 20
-1.8242800000000001
 30
0.0
 10
1.2523600000000001
 20
-2.1773400000000001
 30
0.0
 10
1.1202800000000002
 20
-2.6980400000000002
 30
0.0
 10
1.2599800000000001
 20
-3.0968200000000001
 30
0.0
 10
1.2599800000000001
 20
-3.0968200000000001
 30
0.0
 10
1.0771000000000002
 20
-3.4194000000000004
 30
0.0
 10
0.7748400000000001
 20
-3.6861000000000002
 30
0.0
 10
0.4319400000000001
 20
-3.7877000000000005
 30
0.0
 10
0.4319400000000001
 20
-3.7877000000000005
 30
0.0
 10
0.404
 20
-3.7115000000000005
 30
0.0
 10
0.28462
 20
-3.7445200000000005
 30
0.0
 10
0.24652
 20
-3.6607000000000003
 30
0.0
 10
0.24652
 20
-3.6607000000000003
 30
0.0
 10
0.15254
 20
-3.0765000000000002
 30
0.0
 10
0.10174
 20
-2.35006
 30
0.0
 10
0.22874
 20
-1.7557
 30
0.0
 10
0.22874
 20
-1.7557
 30
0.0
 10
0.22874
 20
-1.7557
 30
0.0
 10
0.4827400000000001
 20
-1.6160000000000001
 30
0.0
 10
0.4827400000000001
 20
-1.6160000000000001
 30
0.0
  0
SPLINE
  5
67
100
AcDbEntity
  8
Ebene 1
 62
     7
100
AcDbSpline
210
0.0
220
0.0
230
1.0
 70
     1
 71
     3
 72
    12
 73
     8
 74
     0
 42
0.0000000001
 43
0.0000000001
 40
0.0
 40
0.0
 40
0.0
 40
0.0
 40
0.5
 40
0.5
 40
0.5
 40
0.5
 40
1.0
 40
1.0
 40
1.0
 40
1.0
 10
-3.2561300000000002
 20
-1.63124
 30
0.0
 10
-3.1875500000000003
 20
-1.6109200000000001
 30
0.0
 10
-3.1240500000000004
 20
-1.6591800000000001
 30
0.0
 10
-3.15707
 20
-1.7303000000000002
 30
0.0
 10
-3.15707
 20
-1.7303000000000002
 30
0.0
 10
-3.2104100000000004
 20
-1.7582400000000002
 30
0.0
 10
-3.2815300000000001
 20
-1.67188
 30
0.0
 10
-3.2561300000000002
 20
-1.63124
 30
0.0
  0
SPLINE
  5
68
100
AcDbEntity
  8
Ebene 1
 62
     7
100
AcDbSpline
210
0.0
220
0.0
230
1.0
 70
     1
 71
     3
 72
    12
 73
     8
 74
     0
 42
0.0000000001
 43
0.0000000001
 40
0.0
 40
0.0
 40
0.0
 40
0.0
 40
0.5
 40
0.5
 40
0.5
 40
0.5
 40
1.0
 40
1.0
 40
1.0
 40
1.0
 10
-3.1011900000000003
 20
-1.63124
 30
0.0
 10
-3.0605500000000001
 20
-1.63124
 30
0.0
 10
-3.0478500000000004
 20
-1.6998200000000001
 30
0.0
 10
-3.0351500000000002
 20
-1.7303000000000002
 30
0.0
 10
-3.0351500000000002
 20
-1.7303000000000002
 30
0.0
 10
-3.0935700000000002
 20
-1.7557
 30
0.0
 10
-3.1062700000000003
 20
-1.67188
 30
0.0
 10
-3.1011900000000003
 20
-1.63124
 30
0.0
  0
SPLINE
  5
69
100
AcDbEntity
  8
Ebene 1
 62
     7
100
AcDbSpline
210
0.0
220
0.0
230
1.0
 70
     1
 71
     3
 72
    12
 73
     8
 74
     0
 42
0.0000000001
 43
0.0000000001
 40
0.0
 40
0.0
 40
0.0
 40
0.0
 40
0.5
 40
0.5
 40
0.5
 40
0.5
 40
1.0
 40
1.0
 40
1.0
 40
1.0
 10
-1.9988300000000001
 20
-1.7353800000000001
 30
0.0
 10
-1.8845300000000003
 20
-1.7455400000000001
 30
0.0
 10
-1.8337300000000001
 20
-1.8649200000000001
 30
0.0
 10
-1.8642100000000001
 20
-1.9893800000000001
 30
0.0
 10
-1.8642100000000001
 20
-1.9893800000000001
 30
0.0
 10
-1.9454900000000002
 20
-1.9512800000000001
 30
0.0
 10
-2.1182100000000004
 20
-1.8293600000000001
 30
0.0
 10
-1.9988300000000001
 20
-1.7353800000000001
 30
0.0
  0
SPLINE
  5
6A
100
AcDbEntity
  8
Ebene 1
 62
     7
100
AcDbSpline
210
0.0
220
0.0
230
1.0
 70
     1
 71
     3
 72
    28
 73
    24
 74
     0
 42
0.0000000001
 43
0.0000000001
 40
0.0
 40
0.0
 40
0.0
 40
0.0
 40
0.1666666666666667
 40
0.1666666666666667
 40
0.1666666666666667
 40
0.1666666666666667
 40
0.3333333333333333
 40
0.3333333333333333
 40
0.3333333333333333
 40
0.3333333333333333
 40
0.5
 40
0.5
 40
0.5
 40
0.5
 40
0.6666666666666666
 40
0.6666666666666666
 40
0.6666666666666666
 40
0.6666666666666666
 40
0.8333333333333333
 40
0.8333333333333333
 40
0.8333333333333333
 40
0.8333333333333333
 40
1.0
 40
1.0
 40
1.0
 40
1.0
 10
1.5165200000000001
 20
-1.7353800000000001
 30
0.0
 10
1.5165200000000001
 20
-1.7353800000000001
 30
0.0
 10
1.5825600000000002
 20
-1.7379200000000001
 30
0.0
 10
1.5825600000000002
 20
-1.7379200000000001
 30
0.0
 10
1.5825600000000002
 20
-1.7379200000000001
 30
0.0
 10
1.6003400000000001
 20
-1.9893800000000001
 30
0.0
 10
1.6181200000000002
 20
-2.2433800000000002
 30
0.0
 10
1.6003400000000001
 20
-2.4897600000000004
 30
0.0
 10
1.6003400000000001
 20
-2.4897600000000004
 30
0.0
 10
1.5647800000000001
 20
-2.5202400000000003
 30
0.0
 10
1.5114400000000001
 20
-2.5202400000000003
 30
0.0
 10
1.4657200000000001
 20
-2.52786
 30
0.0
 10
1.4657200000000001
 20
-2.52786
 30
0.0
 10
1.4657200000000001
 20
-2.52786
 30
0.0
 10
1.40222
 20
-2.4897600000000004
 30
0.0
 10
1.40222
 20
-2.4897600000000004
 30
0.0
 10
1.40222
 20
-2.4897600000000004
 30
0.0
 10
1.40222
 20
-2.4897600000000004
 30
0.0
 10
1.39714
 20
-1.8725400000000001
 30
0.0
 10
1.39714
 20
-1.8725400000000001
 30
0.0
 10
1.39714
 20
-1.8725400000000001
 30
0.0
 10
1.4504800000000002
 20
-1.83952
 30
0.0
 10
1.48858
 20
-1.7861800000000001
 30
0.0
 10
1.5165200000000001
 20
-1.7353800000000001
 30
0.0
  0
SPLINE
  5
6B
100
AcDbEntity
  8
Ebene 1
 62
     7
100
AcDbSpline
210
0.0
220
0.0
230
1.0
 70
     1
 71
     3
 72
    12
 73
     8
 74
     0
 42
0.0000000001
 43
0.0000000001
 40
0.0
 40
0.0
 40
0.0
 40
0.0
 40
0.5
 40
0.5
 40
0.5
 40
0.5
 40
1.0
 40
1.0
 40
1.0
 40
1.0
 10
-0.8075700000000001
 20
-1.8039600000000002
 30
0.0
 10
-0.8075700000000001
 20
-1.8039600000000002
 30
0.0
 10
-0.6043700000000001
 20
-1.8344400000000001
 30
0.0
 10
-0.6043700000000001
 20
-1.8344400000000001
 30
0.0
 10
-0.6043700000000001
 20
-1.8344400000000001
 30
0.0
 10
-0.6653300000000001
 20
-1.8268200000000001
 30
0.0
 10
-0.7923300000000001
 20
-1.8750800000000001
 30
0.0
 10
-0.8075700000000001
 20
-1.8039600000000002
 30
0.0
  0
SPLINE
  5
6C
100
AcDbEntity
  8
Ebene 1
 62
     7
100
AcDbSpline
210
0.0
220
0.0
230
1.0
 70
     1
 71
     3
 72
    12
 73
     8
 74
     0
 42
0.0000000001
 43
0.0000000001
 40
0.0
 40
0.0
 40
0.0
 40
0.0
 40
0.5
 40
0.5
 40
0.5
 40
0.5
 40
1.0
 40
1.0
 40
1.0
 40
1.0
 10
1.7425800000000002
 20
-1.8039600000000002
 30
0.0
 10
1.9635600000000002
 20
-1.7404600000000001
 30
0.0
 10
1.9153000000000002
 20
-2.0478000000000001
 30
0.0
 10
1.7603600000000001
 20
-2.0808200000000001
 30
0.0
 10
1.7603600000000001
 20
-2.0808200000000001
 30
0.0
 10
1.6308200000000002
 20
-2.0427200000000001
 30
0.0
 10
1.6181200000000002
 20
-1.8547600000000002
 30
0.0
 10
1.7425800000000002
 20
-1.8039600000000002
 30
0.0
  0
SPLINE
  5
6D
100
AcDbEntity
  8
Ebene 1
 62
     7
100
AcDbSpline
210
0.0
220
0.0
230
1.0
 70
     1
 71
     3
 72
    24
 73
    20
 74
     0
 42
0.0000000001
 43
0.0000000001
 40
0.0
 40
0.0
 40
0.0
 40
0.0
 40
0.2
 40
0.2
 40
0.2
 40
0.2
 40
0.4
 40
0.4
 40
0.4
 40
0.4
 40
0.6000000000000001
 40
0.6000000000000001
 40
0.6000000000000001
 40
0.6000000000000001
 40
0.8
 40
0.8
 40
0.8
 40
0.8
 40
1.0
 40
1.0
 40
1.0
 40
1.0
 10
0.5183000000000001
 20
-1.83952
 30
0.0
 10
0.5183000000000001
 20
-1.83952
 30
0.0
 10
0.65546
 20
-1.8547600000000002
 30
0.0
 10
0.65546
 20
-1.8547600000000002
 30
0.0
 10
0.65546
 20
-1.8547600000000002
 30
0.0
 10
0.6910200000000001
 20
-1.8598400000000002
 30
0.0
 10
0.7367400000000001
 20
-1.8827000000000003
 30
0.0
 10
0.7596000000000001
 20
-1.9081000000000001
 30
0.0
 10
0.7596000000000001
 20
-1.9081000000000001
 30
0.0
 10
0.7596000000000001
 20
-1.9081000000000001
 30
0.0
 10
0.35066
 20
-1.9716000000000002
 30
0.0
 10
0.35066
 20
-1.9716000000000002
 30
0.0
 10
0.35066
 20
-1.9716000000000002
 30
0.0
 10
0.35066
 20
-1.9716000000000002
 30
0.0
 10
0.3684400000000001
 20
-1.8954000000000002
 30
0.0
 10
0.3684400000000001
 20
-1.8954000000000002
 30
0.0
 10
0.3684400000000001
 20
-1.8954000000000002
 30
0.0
 10
0.3684400000000001
 20
-1.8954000000000002
 30
0.0
 10
0.5183000000000001
 20
-1.83952
 30
0.0
 10
0.5183000000000001
 20
-1.83952
 30
0.0
  0
SPLINE
  5
6E
100
AcDbEntity
  8
Ebene 1
 62
     7
100
AcDbSpline
210
0.0
220
0.0
230
1.0
 70
     1
 71
     3
 72
    20
 73
    16
 74
     0
 42
0.0000000001
 43
0.0000000001
 40
0.0
 40
0.0
 40
0.0
 40
0.0
 40
0.25
 40
0.25
 40
0.25
 40
0.25
 40
0.5
 40
0.5
 40
0.5
 40
0.5
 40
0.75
 40
0.75
 40
0.75
 40
0.75
 40
1.0
 40
1.0
 40
1.0
 40
1.0
 10
-1.0133100000000002
 20
-1.8725400000000001
 30
0.0
 10
-1.0133100000000002
 20
-1.8725400000000001
 30
0.0
 10
-0.63993
 20
-1.9030200000000002
 30
0.0
 10
-0.63993
 20
-1.9030200000000002
 30
0.0
 10
-0.63993
 20
-1.9030200000000002
 30
0.0
 10
-0.59675
 20
-1.8776200000000001
 30
0.0
 10
-0.53325
 20
-1.9284200000000002
 30
0.0
 10
-0.55357
 20
-1.9893800000000001
 30
0.0
 10
-0.55357
 20
-1.9893800000000001
 30
0.0
 10
-0.55357
 20
-1.9893800000000001
 30
0.0
 10
-1.1149100000000001
 20
-1.9538200000000001
 30
0.0
 10
-1.1149100000000001
 20
-1.9538200000000001
 30
0.0
 10
-1.1149100000000001
 20
-1.9538200000000001
 30
0.0
 10
-1.1149100000000001
 20
-1.9538200000000001
 30
0.0
 10
-1.0133100000000002
 20
-1.8725400000000001
 30
0.0
 10
-1.0133100000000002
 20
-1.8725400000000001
 30
0.0
  0
SPLINE
  5
6F
100
AcDbEntity
  8
Ebene 1
 62
     7
100
AcDbSpline
210
0.0
220
0.0
230
1.0
 70
     1
 71
     3
 72
    12
 73
     8
 74
     0
 42
0.0000000001
 43
0.0000000001
 40
0.0
 40
0.0
 40
0.0
 40
0.0
 40
0.5
 40
0.5
 40
0.5
 40
0.5
 40
1.0
 40
1.0
 40
1.0
 40
1.0
 10
-0.13447
 20
-1.9411200000000002
 30
0.0
 10
-0.08621
 20
-1.9284200000000002
 30
0.0
 10
-0.04557
 20
-1.9563600000000001
 30
0.0
 10
-0.06843
 20
-2.0071600000000003
 30
0.0
 10
-0.06843
 20
-2.0071600000000003
 30
0.0
 10
-0.14463
 20
-2.0351000000000004
 30
0.0
 10
-0.16749
 20
-2.0122400000000003
 30
0.0
 10
-0.13447
 20
-1.9411200000000002
 30
0.0
  0
SPLINE
  5
70
100
AcDbEntity
  8
Ebene 1
 62
     7
100
AcDbSpline
210
0.0
220
0.0
230
1.0
 70
     1
 71
     3
 72
    20
 73
    16
 74
     0
 42
0.0000000001
 43
0.0000000001
 40
0.0
 40
0.0
 40
0.0
 40
0.0
 40
0.25
 40
0.25
 40
0.25
 40
0.25
 40
0.5
 40
0.5
 40
0.5
 40
0.5
 40
0.75
 40
0.75
 40
0.75
 40
0.75
 40
1.0
 40
1.0
 40
1.0
 40
1.0
 10
0.7926200000000001
 20
-1.9766800000000002
 30
0.0
 10
0.8459600000000001
 20
-1.9893800000000001
 30
0.0
 10
0.89168
 20
-2.0325600000000001
 30
0.0
 10
0.91454
 20
-2.0808200000000001
 30
0.0
 10
0.91454
 20
-2.0808200000000001
 30
0.0
 10
0.7062600000000001
 20
-2.1341600000000001
 30
0.0
 10
0.44718
 20
-2.1773400000000001
 30
0.0
 10
0.22874
 20
-2.1621000000000001
 30
0.0
 10
0.22874
 20
-2.1621000000000001
 30
0.0
 10
0.16778
 20
-2.0020800000000003
 30
0.0
 10
0.3557400000000001
 20
-2.0401800000000003
 30
0.0
 10
0.44718
 20
-2.0097
 30
0.0
 10
0.44718
 20
-2.0097
 30
0.0
 10
0.5640200000000001
 20
-2.0097
 30
0.0
 10
0.6935600000000001
 20
-2.0046200000000001
 30
0.0
 10
0.7926200000000001
 20
-1.9766800000000002
 30
0.0
  0
SPLINE
  5
71
100
AcDbEntity
  8
Ebene 1
 62
     7
100
AcDbSpline
210
0.0
220
0.0
230
1.0
 70
     1
 71
     3
 72
    20
 73
    16
 74
     0
 42
0.0000000001
 43
0.0000000001
 40
0.0
 40
0.0
 40
0.0
 40
0.0
 40
0.25
 40
0.25
 40
0.25
 40
0.25
 40
0.5
 40
0.5
 40
0.5
 40
0.5
 40
0.75
 40
0.75
 40
0.75
 40
0.75
 40
1.0
 40
1.0
 40
1.0
 40
1.0
 10
-1.17079
 20
-2.0097
 30
0.0
 10
-1.17079
 20
-2.0097
 30
0.0
 10
-0.53579
 20
-2.0655800000000002
 30
0.0
 10
-0.53579
 20
-2.0655800000000002
 30
0.0
 10
-0.53579
 20
-2.0655800000000002
 30
0.0
 10
-0.53579
 20
-2.0655800000000002
 30
0.0
 10
-0.5180100000000001
 20
-2.1621000000000001
 30
0.0
 10
-0.5180100000000001
 20
-2.1621000000000001
 30
0.0
 10
-0.5180100000000001
 20
-2.1621000000000001
 30
0.0
 10
-0.5180100000000001
 20
-2.1621000000000001
 30
0.0
 10
-1.2342900000000001
 20
-2.1087600000000002
 30
0.0
 10
-1.2342900000000001
 20
-2.1087600000000002
 30
0.0
 10
-1.2342900000000001
 20
-2.1087600000000002
 30
0.0
 10
-1.2342900000000001
 20
-2.1087600000000002
 30
0.0
 10
-1.17079
 20
-2.0097
 30
0.0
 10
-1.17079
 20
-2.0097
 30
0.0
  0
SPLINE
  5
72
100
AcDbEntity
  8
Ebene 1
 62
     7
100
AcDbSpline
210
0.0
220
0.0
230
1.0
 70
     1
 71
     3
 72
    16
 73
    12
 74
     0
 42
0.0000000001
 43
0.0000000001
 40
0.0
 40
0.0
 40
0.0
 40
0.0
 40
0.3333333333333333
 40
0.3333333333333333
 40
0.3333333333333333
 40
0.3333333333333333
 40
0.6666666666666666
 40
0.6666666666666666
 40
0.6666666666666666
 40
0.6666666666666666
 40
1.0
 40
1.0
 40
1.0
 40
1.0
 10
-1.9302500000000002
 20
-2.06304
 30
0.0
 10
-1.9302500000000002
 20
-2.06304
 30
0.0
 10
-1.8819900000000001
 20
-2.0655800000000002
 30
0.0
 10
-1.8819900000000001
 20
-2.0655800000000002
 30
0.0
 10
-1.8819900000000001
 20
-2.0655800000000002
 30
0.0
 10
-1.8819900000000001
 20
-2.0655800000000002
 30
0.0
 10
-1.8642100000000001
 20
-2.3678400000000002
 30
0.0
 10
-1.8642100000000001
 20
-2.3678400000000002
 30
0.0
 10
-1.8642100000000001
 20
-2.3678400000000002
 30
0.0
 10
-2.02169
 20
-2.3754600000000003
 30
0.0
 10
-1.9531100000000001
 20
-2.1544800000000004
 30
0.0
 10
-1.9302500000000002
 20
-2.06304
 30
0.0
  0
SPLINE
  5
73
100
AcDbEntity
  8
Ebene 1
 62
     7
100
AcDbSpline
210
0.0
220
0.0
230
1.0
 70
     1
 71
     3
 72
    12
 73
     8
 74
     0
 42
0.0000000001
 43
0.0000000001
 40
0.0
 40
0.0
 40
0.0
 40
0.0
 40
0.5
 40
0.5
 40
0.5
 40
0.5
 40
1.0
 40
1.0
 40
1.0
 40
1.0
 10
-0.20559
 20
-2.0808200000000001
 30
0.0
 10
-0.14971
 20
-2.0884400000000003
 30
0.0
 10
-0.01509
 20
-2.0427200000000001
 30
0.0
 10
-0.05319
 20
-2.14432
 30
0.0
 10
-0.05319
 20
-2.14432
 30
0.0
 10
-0.11415
 20
-2.1849600000000002
 30
0.0
 10
-0.24115
 20
-2.1798800000000003
 30
0.0
 10
-0.20559
 20
-2.0808200000000001
 30
0.0
  0
SPLINE
  5
74
100
AcDbEntity
  8
Ebene 1
 62
     7
100
AcDbSpline
210
0.0
220
0.0
230
1.0
 70
     1
 71
     3
 72
    16
 73
    12
 74
     0
 42
0.0000000001
 43
0.0000000001
 40
0.0
 40
0.0
 40
0.0
 40
0.0
 40
0.3333333333333333
 40
0.3333333333333333
 40
0.3333333333333333
 40
0.3333333333333333
 40
0.6666666666666666
 40
0.6666666666666666
 40
0.6666666666666666
 40
0.6666666666666666
 40
1.0
 40
1.0
 40
1.0
 40
1.0
 10
1.65622
 20
-2.1138400000000002
 30
0.0
 10
1.7654400000000001
 20
-2.1671800000000001
 30
0.0
 10
1.7248000000000001
 20
-2.3526000000000002
 30
0.0
 10
1.7197200000000001
 20
-2.4542000000000002
 30
0.0
 10
1.7197200000000001
 20
-2.4542000000000002
 30
0.0
 10
1.7197200000000001
 20
-2.4542000000000002
 30
0.0
 10
1.6892400000000001
 20
-2.4592800000000001
 30
0.0
 10
1.6892400000000001
 20
-2.4592800000000001
 30
0.0
 10
1.6892400000000001
 20
-2.4592800000000001
 30
0.0
 10
1.6613000000000002
 20
-2.36022
 30
0.0
 10
1.6638400000000002
 20
-2.2281400000000002
 30
0.0
 10
1.65622
 20
-2.1138400000000002
 30
0.0
  0
SPLINE
  5
75
100
AcDbEntity
  8
Ebene 1
 62
     7
100
AcDbSpline
210
0.0
220
0.0
230
1.0
 70
     1
 71
     3
 72
    20
 73
    16
 74
     0
 42
0.0000000001
 43
0.0000000001
 40
0.0
 40
0.0
 40
0.0
 40
0.0
 40
0.25
 40
0.25
 40
0.25
 40
0.25
 40
0.5
 40
0.5
 40
0.5
 40
0.5
 40
0.75
 40
0.75
 40
0.75
 40
0.75
 40
1.0
 40
1.0
 40
1.0
 40
1.0
 10
0.8967600000000001
 20
-2.1494
 30
0.0
 10
0.9704200000000001
 20
-2.1570200000000002
 30
0.0
 10
1.0009000000000001
 20
-2.1976600000000004
 30
0.0
 10
1.0313800000000002
 20
-2.2459200000000004
 30
0.0
 10
1.0313800000000002
 20
-2.2459200000000004
 30
0.0
 10
0.785
 20
-2.3297400000000001
 30
0.0
 10
0.5005200000000001
 20
-2.36022
 30
0.0
 10
0.22874
 20
-2.3856200000000003
 30
0.0
 10
0.22874
 20
-2.3856200000000003
 30
0.0
 10
0.18556
 20
-2.2713200000000002
 30
0.0
 10
0.26684
 20
-2.2103600000000001
 30
0.0
 10
0.37606
 20
-2.2281400000000002
 30
0.0
 10
0.37606
 20
-2.2281400000000002
 30
0.0
 10
0.37606
 20
-2.2281400000000002
 30
0.0
 10
0.8967600000000001
 20
-2.1494
 30
0.0
 10
0.8967600000000001
 20
-2.1494
 30
0.0
  0
SPLINE
  5
76
100
AcDbEntity
  8
Ebene 1
 62
     7
100
AcDbSpline
210
0.0
220
0.0
230
1.0
 70
     1
 71
     3
 72
    20
 73
    16
 74
     0
 42
0.0000000001
 43
0.0000000001
 40
0.0
 40
0.0
 40
0.0
 40
0.0
 40
0.25
 40
0.25
 40
0.25
 40
0.25
 40
0.5
 40
0.5
 40
0.5
 40
0.5
 40
0.75
 40
0.75
 40
0.75
 40
0.75
 40
1.0
 40
1.0
 40
1.0
 40
1.0
 10
-1.2215900000000002
 20
-2.1671800000000001
 30
0.0
 10
-1.2215900000000002
 20
-2.1671800000000001
 30
0.0
 10
-0.5180100000000001
 20
-2.2383000000000002
 30
0.0
 10
-0.5180100000000001
 20
-2.2383000000000002
 30
0.0
 10
-0.5180100000000001
 20
-2.2383000000000002
 30
0.0
 10
-0.5180100000000001
 20
-2.2383000000000002
 30
0.0
 10
-0.5180100000000001
 20
-2.3348200000000001
 30
0.0
 10
-0.5180100000000001
 20
-2.3348200000000001
 30
0.0
 10
-0.5180100000000001
 20
-2.3348200000000001
 30
0.0
 10
-0.5180100000000001
 20
-2.3348200000000001
 30
0.0
 10
-1.2165100000000002
 20
-2.2814800000000002
 30
0.0
 10
-1.2165100000000002
 20
-2.2814800000000002
 30
0.0
 10
-1.2165100000000002
 20
-2.2814800000000002
 30
0.0
 10
-1.2165100000000002
 20
-2.2814800000000002
 30
0.0
 10
-1.2215900000000002
 20
-2.1671800000000001
 30
0.0
 10
-1.2215900000000002
 20
-2.1671800000000001
 30
0.0
  0
SPLINE
  5
77
100
AcDbEntity
  8
Ebene 1
 62
     7
100
AcDbSpline
210
0.0
220
0.0
230
1.0
 70
     1
 71
     3
 72
    12
 73
     8
 74
     0
 42
0.0000000001
 43
0.0000000001
 40
0.0
 40
0.0
 40
0.0
 40
0.0
 40
0.5
 40
0.5
 40
0.5
 40
0.5
 40
1.0
 40
1.0
 40
1.0
 40
1.0
 10
-0.20559
 20
-2.2179800000000003
 30
0.0
 10
-0.14463
 20
-2.2281400000000002
 30
0.0
 10
-0.00239
 20
-2.1748000000000003
 30
0.0
 10
-0.03541
 20
-2.2814800000000002
 30
0.0
 10
-0.03541
 20
-2.2814800000000002
 30
0.0
 10
-0.09383
 20
-2.2840200000000004
 30
0.0
 10
-0.22337
 20
-2.31704
 30
0.0
 10
-0.20559
 20
-2.2179800000000003
 30
0.0
  0
SPLINE
  5
78
100
AcDbEntity
  8
Ebene 1
 62
     7
100
AcDbSpline
210
0.0
220
0.0
230
1.0
 70
     1
 71
     3
 72
    20
 73
    16
 74
     0
 42
0.0000000001
 43
0.0000000001
 40
0.0
 40
0.0
 40
0.0
 40
0.0
 40
0.25
 40
0.25
 40
0.25
 40
0.25
 40
0.5
 40
0.5
 40
0.5
 40
0.5
 40
0.75
 40
0.75
 40
0.75
 40
0.75
 40
1.0
 40
1.0
 40
1.0
 40
1.0
 10
-1.20381
 20
-2.3399000000000001
 30
0.0
 10
-1.20381
 20
-2.3399000000000001
 30
0.0
 10
-0.5180100000000001
 20
-2.4110200000000002
 30
0.0
 10
-0.5180100000000001
 20
-2.4110200000000002
 30
0.0
 10
-0.5180100000000001
 20
-2.4110200000000002
 30
0.0
 10
-0.5180100000000001
 20
-2.4110200000000002
 30
0.0
 10
-0.5180100000000001
 20
-2.52278
 30
0.0
 10
-0.5180100000000001
 20
-2.52278
 30
0.0
 10
-0.5180100000000001
 20
-2.52278
 30
0.0
 10
-0.5180100000000001
 20
-2.52278
 30
0.0
 10
-1.1987300000000001
 20
-2.43642
 30
0.0
 10
-1.1987300000000001
 20
-2.43642
 30
0.0
 10
-1.1987300000000001
 20
-2.43642
 30
0.0
 10
-1.2165100000000002
 20
-2.4059400000000002
 30
0.0
 10
-1.2342900000000001
 20
-2.3703800000000004
 30
0.0
 10
-1.20381
 20
-2.3399000000000001
 30
0.0
  0
SPLINE
  5
79
100
AcDbEntity
  8
Ebene 1
 62
     7
100
AcDbSpline
210
0.0
220
0.0
230
1.0
 70
     1
 71
     3
 72
    16
 73
    12
 74
     0
 42
0.0000000001
 43
0.0000000001
 40
0.0
 40
0.0
 40
0.0
 40
0.0
 40
0.3333333333333333
 40
0.3333333333333333
 40
0.3333333333333333
 40
0.3333333333333333
 40
0.6666666666666666
 40
0.6666666666666666
 40
0.6666666666666666
 40
0.6666666666666666
 40
1.0
 40
1.0
 40
1.0
 40
1.0
 10
-0.06589
 20
-2.3399000000000001
 30
0.0
 10
-0.01001
 20
-2.3297400000000001
 30
0.0
 10
-0.03287
 20
-2.4059400000000002
 30
0.0
 10
-0.03541
 20
-2.43642
 30
0.0
 10
-0.03541
 20
-2.43642
 30
0.0
 10
-0.03541
 20
-2.43642
 30
0.0
 10
-0.18273
 20
-2.43642
 30
0.0
 10
-0.18273
 20
-2.43642
 30
0.0
 10
-0.18273
 20
-2.43642
 30
0.0
 10
-0.23099
 20
-2.3297400000000001
 30
0.0
 10
-0.10907
 20
-2.3729200000000001
 30
0.0
 10
-0.06589
 20
-2.3399000000000001
 30
0.0
  0
SPLINE
  5
7A
100
AcDbEntity
  8
Ebene 1
 62
     7
100
AcDbSpline
210
0.0
220
0.0
230
1.0
 70
     1
 71
     3
 72
    24
 73
    20
 74
     0
 42
0.0000000001
 43
0.0000000001
 40
0.0
 40
0.0
 40
0.0
 40
0.0
 40
0.2
 40
0.2
 40
0.2
 40
0.2
 40
0.4
 40
0.4
 40
0.4
 40
0.4
 40
0.6000000000000001
 40
0.6000000000000001
 40
0.6000000000000001
 40
0.6000000000000001
 40
0.8
 40
0.8
 40
0.8
 40
0.8
 40
1.0
 40
1.0
 40
1.0
 40
1.0
 10
0.93232
 20
-2.3399000000000001
 30
0.0
 10
0.9704200000000001
 20
-2.3449800000000001
 30
0.0
 10
1.02122
 20
-2.3221200000000004
 30
0.0
 10
1.0491600000000001
 20
-2.36022
 30
0.0
 10
1.0491600000000001
 20
-2.36022
 30
0.0
 10
1.0491600000000001
 20
-2.36022
 30
0.0
 10
1.0491600000000001
 20
-2.4542000000000002
 30
0.0
 10
1.0491600000000001
 20
-2.4542000000000002
 30
0.0
 10
1.0491600000000001
 20
-2.4542000000000002
 30
0.0
 10
1.0491600000000001
 20
-2.4542000000000002
 30
0.0
 10
0.22874
 20
-2.5913600000000003
 30
0.0
 10
0.22874
 20
-2.5913600000000003
 30
0.0
 10
0.22874
 20
-2.5913600000000003
 30
0.0
 10
0.1627
 20
-2.3957800000000002
 30
0.0
 10
0.40654
 20
-2.4542000000000002
 30
0.0
 10
0.5183000000000001
 20
-2.4059400000000002
 30
0.0
 10
0.5183000000000001
 20
-2.4059400000000002
 30
0.0
 10
0.66054
 20
-2.4008600000000002
 30
0.0
 10
0.80532
 20
-2.3678400000000002
 30
0.0
 10
0.93232
 20
-2.3399000000000001
 30
0.0
  0
SPLINE
  5
7B
100
AcDbEntity
  8
Ebene 1
 62
     7
100
AcDbSpline
210
0.0
220
0.0
230
1.0
 70
     1
 71
     3
 72
    32
 73
    28
 74
     0
 42
0.0000000001
 43
0.0000000001
 40
0.0
 40
0.0
 40
0.0
 40
0.0
 40
0.1428571428571429
 40
0.1428571428571429
 40
0.1428571428571429
 40
0.1428571428571429
 40
0.2857142857142857
 40
0.2857142857142857
 40
0.2857142857142857
 40
0.2857142857142857
 40
0.4285714285714286
 40
0.4285714285714286
 40
0.4285714285714286
 40
0.4285714285714286
 40
0.5714285714285714
 40
0.5714285714285714
 40
0.5714285714285714
 40
0.5714285714285714
 40
0.7142857142857142
 40
0.7142857142857142
 40
0.7142857142857142
 40
0.7142857142857142
 40
0.857142857142857
 40
0.857142857142857
 40
0.857142857142857
 40
0.857142857142857
 40
1.0
 40
1.0
 40
1.0
 40
1.0
 10
2.0880200000000002
 20
-2.35514
 30
0.0
 10
2.0880200000000002
 20
-2.35514
 30
0.0
 10
2.1515200000000001
 20
-2.36022
 30
0.0
 10
2.1515200000000001
 20
-2.36022
 30
0.0
 10
2.1515200000000001
 20
-2.36022
 30
0.0
 10
2.1870800000000004
 20
-2.8072600000000003
 30
0.0
 10
2.2429600000000001
 20
-3.2517600000000004
 30
0.0
 10
2.2201
 20
-3.7140400000000002
 30
0.0
 10
2.2201
 20
-3.7140400000000002
 30
0.0
 10
1.9102200000000003
 20
-3.8156400000000001
 30
0.0
 10
1.5876400000000002
 20
-3.9121600000000005
 30
0.0
 10
1.2472800000000002
 20
-3.9020000000000001
 30
0.0
 10
1.2472800000000002
 20
-3.9020000000000001
 30
0.0
 10
1.3488800000000001
 20
-3.6454600000000004
 30
0.0
 10
1.3666600000000002
 20
-3.3152600000000003
 30
0.0
 10
1.6003400000000001
 20
-3.1425400000000003
 30
0.0
 10
1.6003400000000001
 20
-3.1425400000000003
 30
0.0
 10
1.6003400000000001
 20
-3.1425400000000003
 30
0.0
 10
1.6613000000000002
 20
-2.7742400000000003
 30
0.0
 10
1.6613000000000002
 20
-2.7742400000000003
 30
0.0
 10
1.6613000000000002
 20
-2.7742400000000003
 30
0.0
 10
2.04738
 20
-2.7209000000000003
 30
0.0
 10
1.7781400000000001
 20
-3.2847800000000005
 30
0.0
 10
1.8441800000000002
 20
-3.4600400000000002
 30
0.0
 10
1.8441800000000002
 20
-3.4600400000000002
 30
0.0
 10
2.1693000000000002
 20
-3.1781000000000001
 30
0.0
 10
1.7781400000000001
 20
-2.6370800000000001
 30
0.0
 10
2.0880200000000002
 20
-2.35514
 30
0.0
  0
SPLINE
  5
7C
100
AcDbEntity
  8
Ebene 1
 62
     7
100
AcDbSpline
210
0.0
220
0.0
230
1.0
 70
     1
 71
     3
 72
    20
 73
    16
 74
     0
 42
0.0000000001
 43
0.0000000001
 40
0.0
 40
0.0
 40
0.0
 40
0.0
 40
0.25
 40
0.25
 40
0.25
 40
0.25
 40
0.5
 40
0.5
 40
0.5
 40
0.5
 40
0.75
 40
0.75
 40
0.75
 40
0.75
 40
1.0
 40
1.0
 40
1.0
 40
1.0
 10
-1.20381
 20
-2.4948400000000004
 30
0.0
 10
-1.20381
 20
-2.4948400000000004
 30
0.0
 10
-0.5180100000000001
 20
-2.6015200000000003
 30
0.0
 10
-0.5180100000000001
 20
-2.6015200000000003
 30
0.0
 10
-0.5180100000000001
 20
-2.6015200000000003
 30
0.0
 10
-0.5180100000000001
 20
-2.6015200000000003
 30
0.0
 10
-0.5180100000000001
 20
-2.7310600000000003
 30
0.0
 10
-0.5180100000000001
 20
-2.7310600000000003
 30
0.0
 10
-0.5180100000000001
 20
-2.7310600000000003
 30
0.0
 10
-0.5180100000000001
 20
-2.7310600000000003
 30
0.0
 10
-1.1809500000000002
 20
-2.5735800000000002
 30
0.0
 10
-1.1809500000000002
 20
-2.5735800000000002
 30
0.0
 10
-1.1809500000000002
 20
-2.5735800000000002
 30
0.0
 10
-1.21397
 20
-2.5583400000000003
 30
0.0
 10
-1.20381
 20
-2.52278
 30
0.0
 10
-1.20381
 20
-2.4948400000000004
 30
0.0
  0
SPLINE
  5
7D
100
AcDbEntity
  8
Ebene 1
 62
     7
100
AcDbSpline
210
0.0
220
0.0
230
1.0
 70
     1
 71
     3
 72
    12
 73
     8
 74
     0
 42
0.0000000001
 43
0.0000000001
 40
0.0
 40
0.0
 40
0.0
 40
0.0
 40
0.5
 40
0.5
 40
0.5
 40
0.5
 40
1.0
 40
1.0
 40
1.0
 40
1.0
 10
-0.18781
 20
-2.5100800000000003
 30
0.0
 10
-0.10907
 20
-2.4973800000000002
 30
0.0
 10
0.02046
 20
-2.5075400000000001
 30
0.0
 10
-0.03541
 20
-2.60914
 30
0.0
 10
-0.03541
 20
-2.60914
 30
0.0
 10
-0.11923
 20
-2.6269200000000001
 30
0.0
 10
-0.22591
 20
-2.6269200000000001
 30
0.0
 10
-0.18781
 20
-2.5100800000000003
 30
0.0
  0
SPLINE
  5
7E
100
AcDbEntity
  8
Ebene 1
 62
     7
100
AcDbSpline
210
0.0
220
0.0
230
1.0
 70
     1
 71
     3
 72
    24
 73
    20
 74
     0
 42
0.0000000001
 43
0.0000000001
 40
0.0
 40
0.0
 40
0.0
 40
0.0
 40
0.2
 40
0.2
 40
0.2
 40
0.2
 40
0.4
 40
0.4
 40
0.4
 40
0.4
 40
0.6000000000000001
 40
0.6000000000000001
 40
0.6000000000000001
 40
0.6000000000000001
 40
0.8
 40
0.8
 40
0.8
 40
0.8
 40
1.0
 40
1.0
 40
1.0
 40
1.0
 10
0.9831200000000001
 20
-2.52786
 30
0.0
 10
1.05932
 20
-2.5050000000000003
 30
0.0
 10
1.0898000000000001
 20
-2.56088
 30
0.0
 10
1.0644
 20
-2.6269200000000001
 30
0.0
 10
1.0644
 20
-2.6269200000000001
 30
0.0
 10
1.0644
 20
-2.6269200000000001
 30
0.0
 10
0.24652
 20
-2.7640800000000003
 30
0.0
 10
0.24652
 20
-2.7640800000000003
 30
0.0
 10
0.24652
 20
-2.7640800000000003
 30
0.0
 10
0.24652
 20
-2.7640800000000003
 30
0.0
 10
0.22874
 20
-2.6701000000000001
 30
0.0
 10
0.22874
 20
-2.6701000000000001
 30
0.0
 10
0.22874
 20
-2.6701000000000001
 30
0.0
 10
0.22874
 20
-2.6701000000000001
 30
0.0
 10
0.4827400000000001
 20
-2.6142200000000004
 30
0.0
 10
0.4827400000000001
 20
-2.6142200000000004
 30
0.0
 10
0.4827400000000001
 20
-2.6142200000000004
 30
0.0
 10
0.4827400000000001
 20
-2.6142200000000004
 30
0.0
 10
0.9831200000000001
 20
-2.52786
 30
0.0
 10
0.9831200000000001
 20
-2.52786
 30
0.0
  0
SPLINE
  5
7F
100
AcDbEntity
  8
Ebene 1
 62
     7
100
AcDbSpline
210
0.0
220
0.0
230
1.0
 70
     1
 71
     3
 72
    12
 73
     8
 74
     0
 42
0.0000000001
 43
0.0000000001
 40
0.0
 40
0.0
 40
0.0
 40
0.0
 40
0.5
 40
0.5
 40
0.5
 40
0.5
 40
1.0
 40
1.0
 40
1.0
 40
1.0
 10
1.5343000000000002
 20
-2.5634200000000003
 30
0.0
 10
1.7197200000000001
 20
-2.5583400000000003
 30
0.0
 10
1.4377800000000001
 20
-2.6878800000000003
 30
0.0
 10
1.4657200000000001
 20
-2.5964400000000003
 30
0.0
 10
1.4657200000000001
 20
-2.5964400000000003
 30
0.0
 10
1.4657200000000001
 20
-2.5964400000000003
 30
0.0
 10
1.5343000000000002
 20
-2.5634200000000003
 30
0.0
 10
1.5343000000000002
 20
-2.5634200000000003
 30
0.0
  0
SPLINE
  5
80
100
AcDbEntity
  8
Ebene 1
 62
     7
100
AcDbSpline
210
0.0
220
0.0
230
1.0
 70
     1
 71
     3
 72
    12
 73
     8
 74
     0
 42
0.0000000001
 43
0.0000000001
 40
0.0
 40
0.0
 40
0.0
 40
0.0
 40
0.5
 40
0.5
 40
0.5
 40
0.5
 40
1.0
 40
1.0
 40
1.0
 40
1.0
 10
-1.75753
 20
-2.6142200000000004
 30
0.0
 10
-1.75753
 20
-2.6142200000000004
 30
0.0
 10
-1.5670300000000001
 20
-2.6320000000000001
 30
0.0
 10
-1.5670300000000001
 20
-2.6320000000000001
 30
0.0
 10
-1.5670300000000001
 20
-2.6320000000000001
 30
0.0
 10
-1.6025900000000002
 20
-2.6929600000000002
 30
0.0
 10
-1.7524500000000001
 20
-2.7158200000000003
 30
0.0
 10
-1.75753
 20
-2.6142200000000004
 30
0.0
  0
SPLINE
  5
81
100
AcDbEntity
  8
Ebene 1
 62
     7
100
AcDbSpline
210
0.0
220
0.0
230
1.0
 70
     1
 71
     3
 72
    20
 73
    16
 74
     0
 42
0.0000000001
 43
0.0000000001
 40
0.0
 40
0.0
 40
0.0
 40
0.0
 40
0.25
 40
0.25
 40
0.25
 40
0.25
 40
0.5
 40
0.5
 40
0.5
 40
0.5
 40
0.75
 40
0.75
 40
0.75
 40
0.75
 40
1.0
 40
1.0
 40
1.0
 40
1.0
 10
-1.2215900000000002
 20
-2.6320000000000001
 30
0.0
 10
-1.2215900000000002
 20
-2.6320000000000001
 30
0.0
 10
-0.5180100000000001
 20
-2.8072600000000003
 30
0.0
 10
-0.5180100000000001
 20
-2.8072600000000003
 30
0.0
 10
-0.5180100000000001
 20
-2.8072600000000003
 30
0.0
 10
-0.5180100000000001
 20
-2.8072600000000003
 30
0.0
 10
-0.5180100000000001
 20
-2.9368000000000003
 30
0.0
 10
-0.5180100000000001
 20
-2.9368000000000003
 30
0.0
 10
-0.5180100000000001
 20
-2.9368000000000003
 30
0.0
 10
-0.7542300000000001
 20
-2.8936200000000003
 30
0.0
 10
-0.99553
 20
-2.8275800000000002
 30
0.0
 10
-1.2165100000000002
 20
-2.7310600000000003
 30
0.0
 10
-1.2165100000000002
 20
-2.7310600000000003
 30
0.0
 10
-1.2165100000000002
 20
-2.7310600000000003
 30
0.0
 10
-1.2215900000000002
 20
-2.6320000000000001
 30
0.0
 10
-1.2215900000000002
 20
-2.6320000000000001
 30
0.0
  0
SPLINE
  5
82
100
AcDbEntity
  8
Ebene 1
 62
     7
100
AcDbSpline
210
0.0
220
0.0
230
1.0
 70
     1
 71
     3
 72
    20
 73
    16
 74
     0
 42
0.0000000001
 43
0.0000000001
 40
0.0
 40
0.0
 40
0.0
 40
0.0
 40
0.25
 40
0.25
 40
0.25
 40
0.25
 40
0.5
 40
0.5
 40
0.5
 40
0.5
 40
0.75
 40
0.75
 40
0.75
 40
0.75
 40
1.0
 40
1.0
 40
1.0
 40
1.0
 10
-0.18781
 20
-2.6828000000000003
 30
0.0
 10
-0.18781
 20
-2.6828000000000003
 30
0.0
 10
-0.00239
 20
-2.6853400000000001
 30
0.0
 10
-0.00239
 20
-2.6853400000000001
 30
0.0
 10
-0.00239
 20
-2.6853400000000001
 30
0.0
 10
-0.00239
 20
-2.6853400000000001
 30
0.0
 10
-0.00239
 20
-2.8326600000000002
 30
0.0
 10
-0.00239
 20
-2.8326600000000002
 30
0.0
 10
-0.00239
 20
-2.8326600000000002
 30
0.0
 10
-0.00239
 20
-2.8326600000000002
 30
0.0
 10
-0.18273
 20
-2.8504400000000003
 30
0.0
 10
-0.18273
 20
-2.8504400000000003
 30
0.0
 10
-0.18273
 20
-2.8504400000000003
 30
0.0
 10
-0.18273
 20
-2.8504400000000003
 30
0.0
 10
-0.18781
 20
-2.6828000000000003
 30
0.0
 10
-0.18781
 20
-2.6828000000000003
 30
0.0
  0
SPLINE
  5
83
100
AcDbEntity
  8
Ebene 1
 62
     7
100
AcDbSpline
210
0.0
220
0.0
230
1.0
 70
     1
 71
     3
 72
    24
 73
    20
 74
     0
 42
0.0000000001
 43
0.0000000001
 40
0.0
 40
0.0
 40
0.0
 40
0.0
 40
0.2
 40
0.2
 40
0.2
 40
0.2
 40
0.4
 40
0.4
 40
0.4
 40
0.4
 40
0.6000000000000001
 40
0.6000000000000001
 40
0.6000000000000001
 40
0.6000000000000001
 40
0.8
 40
0.8
 40
0.8
 40
0.8
 40
1.0
 40
1.0
 40
1.0
 40
1.0
 10
0.9653400000000001
 20
-2.7005800000000004
 30
0.0
 10
0.9653400000000001
 20
-2.7005800000000004
 30
0.0
 10
1.0644
 20
-2.7031200000000002
 30
0.0
 10
1.0644
 20
-2.7031200000000002
 30
0.0
 10
1.0644
 20
-2.7031200000000002
 30
0.0
 10
1.0644
 20
-2.7031200000000002
 30
0.0
 10
1.0644
 20
-2.7996400000000001
 30
0.0
 10
1.0644
 20
-2.7996400000000001
 30
0.0
 10
1.0644
 20
-2.7996400000000001
 30
0.0
 10
1.0644
 20
-2.7996400000000001
 30
0.0
 10
0.2643
 20
-2.9723600000000001
 30
0.0
 10
0.2643
 20
-2.9723600000000001
 30
0.0
 10
0.2643
 20
-2.9723600000000001
 30
0.0
 10
0.16016
 20
-2.81488
 30
0.0
 10
0.39384
 20
-2.8047200000000001
 30
0.0
 10
0.5005200000000001
 20
-2.7869400000000004
 30
0.0
 10
0.5005200000000001
 20
-2.7869400000000004
 30
0.0
 10
0.5005200000000001
 20
-2.7869400000000004
 30
0.0
 10
0.9653400000000001
 20
-2.7005800000000004
 30
0.0
 10
0.9653400000000001
 20
-2.7005800000000004
 30
0.0
  0
SPLINE
  5
84
100
AcDbEntity
  8
Ebene 1
 62
     7
100
AcDbSpline
210
0.0
220
0.0
230
1.0
 70
     1
 71
     3
 72
    20
 73
    16
 74
     0
 42
0.0000000001
 43
0.0000000001
 40
0.0
 40
0.0
 40
0.0
 40
0.0
 40
0.25
 40
0.25
 40
0.25
 40
0.25
 40
0.5
 40
0.5
 40
0.5
 40
0.5
 40
0.75
 40
0.75
 40
0.75
 40
0.75
 40
1.0
 40
1.0
 40
1.0
 40
1.0
 10
-1.2571500000000002
 20
-2.8047200000000001
 30
0.0
 10
-0.99553
 20
-2.8707600000000002
 30
0.0
 10
-0.7339100000000001
 20
-2.9418800000000003
 30
0.0
 10
-0.48499
 20
-3.03078
 30
0.0
 10
-0.48499
 20
-3.03078
 30
0.0
 10
-0.48499
 20
-3.03078
 30
0.0
 10
-0.48499
 20
-3.1425400000000003
 30
0.0
 10
-0.48499
 20
-3.1425400000000003
 30
0.0
 10
-0.48499
 20
-3.1425400000000003
 30
0.0
 10
-0.48499
 20
-3.1425400000000003
 30
0.0
 10
-1.2698500000000001
 20
-2.8860000000000001
 30
0.0
 10
-1.2698500000000001
 20
-2.8860000000000001
 30
0.0
 10
-1.2698500000000001
 20
-2.8860000000000001
 30
0.0
 10
-1.2825500000000001
 20
-2.85806
 30
0.0
 10
-1.2723900000000001
 20
-2.8275800000000002
 30
0.0
 10
-1.2571500000000002
 20
-2.8047200000000001
 30
0.0
  0
SPLINE
  5
85
100
AcDbEntity
  8
Ebene 1
 62
     7
100
AcDbSpline
210
0.0
220
0.0
230
1.0
 70
     1
 71
     3
 72
    20
 73
    16
 74
     0
 42
0.0000000001
 43
0.0000000001
 40
0.0
 40
0.0
 40
0.0
 40
0.0
 40
0.25
 40
0.25
 40
0.25
 40
0.25
 40
0.5
 40
0.5
 40
0.5
 40
0.5
 40
0.75
 40
0.75
 40
0.75
 40
0.75
 40
1.0
 40
1.0
 40
1.0
 40
1.0
 10
-0.08367
 20
-2.8910800000000001
 30
0.0
 10
-0.08367
 20
-2.8910800000000001
 30
0.0
 10
0.01284
 20
-2.8936200000000003
 30
0.0
 10
0.01284
 20
-2.8936200000000003
 30
0.0
 10
0.01284
 20
-2.8936200000000003
 30
0.0
 10
0.06618
 20
-3.0206200000000001
 30
0.0
 10
-0.06335
 20
-3.0739600000000005
 30
0.0
 10
-0.16495
 20
-3.0409400000000004
 30
0.0
 10
-0.16495
 20
-3.0409400000000004
 30
0.0
 10
-0.20305
 20
-3.0104600000000001
 30
0.0
 10
-0.18527
 20
-2.9520400000000002
 30
0.0
 10
-0.18273
 20
-2.9114000000000004
 30
0.0
 10
-0.18273
 20
-2.9114000000000004
 30
0.0
 10
-0.18273
 20
-2.9114000000000004
 30
0.0
 10
-0.08367
 20
-2.8910800000000001
 30
0.0
 10
-0.08367
 20
-2.8910800000000001
 30
0.0
  0
SPLINE
  5
86
100
AcDbEntity
  8
Ebene 1
 62
     7
100
AcDbSpline
210
0.0
220
0.0
230
1.0
 70
     1
 71
     3
 72
    28
 73
    24
 74
     0
 42
0.0000000001
 43
0.0000000001
 40
0.0
 40
0.0
 40
0.0
 40
0.0
 40
0.1666666666666667
 40
0.1666666666666667
 40
0.1666666666666667
 40
0.1666666666666667
 40
0.3333333333333333
 40
0.3333333333333333
 40
0.3333333333333333
 40
0.3333333333333333
 40
0.5
 40
0.5
 40
0.5
 40
0.5
 40
0.6666666666666666
 40
0.6666666666666666
 40
0.6666666666666666
 40
0.6666666666666666
 40
0.8333333333333333
 40
0.8333333333333333
 40
0.8333333333333333
 40
0.8333333333333333
 40
1.0
 40
1.0
 40
1.0
 40
1.0
 10
0.9831200000000001
 20
-2.8910800000000001
 30
0.0
 10
0.9831200000000001
 20
-2.8910800000000001
 30
0.0
 10
1.0491600000000001
 20
-2.8936200000000003
 30
0.0
 10
1.0491600000000001
 20
-2.8936200000000003
 30
0.0
 10
1.0491600000000001
 20
-2.8936200000000003
 30
0.0
 10
1.0491600000000001
 20
-2.8936200000000003
 30
0.0
 10
1.0491600000000001
 20
-2.9876
 30
0.0
 10
1.0491600000000001
 20
-2.9876
 30
0.0
 10
1.0491600000000001
 20
-2.9876
 30
0.0
 10
1.0491600000000001
 20
-2.9876
 30
0.0
 10
0.31002
 20
-3.1831800000000001
 30
0.0
 10
0.31002
 20
-3.1831800000000001
 30
0.0
 10
0.31002
 20
-3.1831800000000001
 30
0.0
 10
0.28716
 20
-3.1857200000000003
 30
0.0
 10
0.2617600000000001
 20
-3.1857200000000003
 30
0.0
 10
0.24652
 20
-3.1603200000000005
 30
0.0
 10
0.24652
 20
-3.1603200000000005
 30
0.0
 10
0.24652
 20
-3.1603200000000005
 30
0.0
 10
0.24652
 20
-3.0485600000000002
 30
0.0
 10
0.24652
 20
-3.0485600000000002
 30
0.0
 10
0.24652
 20
-3.0485600000000002
 30
0.0
 10
0.24652
 20
-3.0485600000000002
 30
0.0
 10
0.9831200000000001
 20
-2.8910800000000001
 30
0.0
 10
0.9831200000000001
 20
-2.8910800000000001
 30
0.0
  0
SPLINE
  5
87
100
AcDbEntity
  8
Ebene 1
 62
     7
100
AcDbSpline
210
0.0
220
0.0
230
1.0
 70
     1
 71
     3
 72
    20
 73
    16
 74
     0
 42
0.0000000001
 43
0.0000000001
 40
0.0
 40
0.0
 40
0.0
 40
0.0
 40
0.25
 40
0.25
 40
0.25
 40
0.25
 40
0.5
 40
0.5
 40
0.5
 40
0.5
 40
0.75
 40
0.75
 40
0.75
 40
0.75
 40
1.0
 40
1.0
 40
1.0
 40
1.0
 10
-1.2571500000000002
 20
-2.9596600000000004
 30
0.0
 10
-0.9904500000000001
 20
-3.0358600000000004
 30
0.0
 10
-0.7262900000000001
 20
-3.1095200000000003
 30
0.0
 10
-0.46721
 20
-3.2212800000000001
 30
0.0
 10
-0.46721
 20
-3.2212800000000001
 30
0.0
 10
-0.46721
 20
-3.2212800000000001
 30
0.0
 10
-0.4494300000000001
 20
-3.3330400000000004
 30
0.0
 10
-0.4494300000000001
 20
-3.3330400000000004
 30
0.0
 10
-0.4494300000000001
 20
-3.3330400000000004
 30
0.0
 10
-0.7110500000000001
 20
-3.2746200000000001
 30
0.0
 10
-0.97267
 20
-3.1857200000000003
 30
0.0
 10
-1.2165100000000002
 20
-3.0739600000000005
 30
0.0
 10
-1.2165100000000002
 20
-3.0739600000000005
 30
0.0
 10
-1.2165100000000002
 20
-3.0739600000000005
 30
0.0
 10
-1.2571500000000002
 20
-2.9596600000000004
 30
0.0
 10
-1.2571500000000002
 20
-2.9596600000000004
 30
0.0
  0
SPLINE
  5
88
100
AcDbEntity
  8
Ebene 1
 62
     7
100
AcDbSpline
210
0.0
220
0.0
230
1.0
 70
     1
 71
     3
 72
    16
 73
    12
 74
     0
 42
0.0000000001
 43
0.0000000001
 40
0.0
 40
0.0
 40
0.0
 40
0.0
 40
0.3333333333333333
 40
0.3333333333333333
 40
0.3333333333333333
 40
0.3333333333333333
 40
0.6666666666666666
 40
0.6666666666666666
 40
0.6666666666666666
 40
0.6666666666666666
 40
1.0
 40
1.0
 40
1.0
 40
1.0
 10
0.27446
 20
-3.4244800000000004
 30
0.0
 10
0.22366
 20
-3.3863800000000004
 30
0.0
 10
0.23382
 20
-3.2924000000000002
 30
0.0
 10
0.2643
 20
-3.2390600000000003
 30
0.0
 10
0.2643
 20
-3.2390600000000003
 30
0.0
 10
0.2643
 20
-3.2390600000000003
 30
0.0
 10
1.0136000000000001
 20
-3.0841200000000004
 30
0.0
 10
1.0136000000000001
 20
-3.0841200000000004
 30
0.0
 10
1.0136000000000001
 20
-3.0841200000000004
 30
0.0
 10
0.9247000000000001
 20
-3.3762200000000004
 30
0.0
 10
0.47512
 20
-3.2390600000000003
 30
0.0
 10
0.27446
 20
-3.4244800000000004
 30
0.0
  0
SPLINE
  5
89
100
AcDbEntity
  8
Ebene 1
 62
     7
100
AcDbSpline
210
0.0
220
0.0
230
1.0
 70
     1
 71
     3
 72
    16
 73
    12
 74
     0
 42
0.0000000001
 43
0.0000000001
 40
0.0
 40
0.0
 40
0.0
 40
0.0
 40
0.3333333333333333
 40
0.3333333333333333
 40
0.3333333333333333
 40
0.3333333333333333
 40
0.6666666666666666
 40
0.6666666666666666
 40
0.6666666666666666
 40
0.6666666666666666
 40
1.0
 40
1.0
 40
1.0
 40
1.0
 10
-0.18781
 20
-3.0968200000000001
 30
0.0
 10
-0.09129
 20
-3.0942800000000004
 30
0.0
 10
0.05094
 20
-3.0688800000000001
 30
0.0
 10
-0.00239
 20
-3.2136600000000004
 30
0.0
 10
-0.00239
 20
-3.2136600000000004
 30
0.0
 10
-0.00239
 20
-3.2136600000000004
 30
0.0
 10
-0.18273
 20
-3.2314400000000001
 30
0.0
 10
-0.18273
 20
-3.2314400000000001
 30
0.0
 10
-0.18273
 20
-3.2314400000000001
 30
0.0
 10
-0.18273
 20
-3.2314400000000001
 30
0.0
 10
-0.18781
 20
-3.0968200000000001
 30
0.0
 10
-0.18781
 20
-3.0968200000000001
 30
0.0
  0
SPLINE
  5
8A
100
AcDbEntity
  8
Ebene 1
 62
     7
100
AcDbSpline
210
0.0
220
0.0
230
1.0
 70
     1
 71
     3
 72
    20
 73
    16
 74
     0
 42
0.0000000001
 43
0.0000000001
 40
0.0
 40
0.0
 40
0.0
 40
0.0
 40
0.25
 40
0.25
 40
0.25
 40
0.25
 40
0.5
 40
0.5
 40
0.5
 40
0.5
 40
0.75
 40
0.75
 40
0.75
 40
0.75
 40
1.0
 40
1.0
 40
1.0
 40
1.0
 10
-1.1022100000000001
 20
-3.2009600000000002
 30
0.0
 10
-1.1022100000000001
 20
-3.2009600000000002
 30
0.0
 10
-0.48499
 20
-3.3940000000000001
 30
0.0
 10
-0.48499
 20
-3.3940000000000001
 30
0.0
 10
-0.48499
 20
-3.3940000000000001
 30
0.0
 10
-0.48499
 20
-3.3940000000000001
 30
0.0
 10
-0.4799100000000001
 20
-3.4422600000000001
 30
0.0
 10
-0.4799100000000001
 20
-3.4422600000000001
 30
0.0
 10
-0.4799100000000001
 20
-3.4422600000000001
 30
0.0
 10
-0.4799100000000001
 20
-3.4422600000000001
 30
0.0
 10
-0.5180100000000001
 20
-3.4879800000000003
 30
0.0
 10
-0.5180100000000001
 20
-3.4879800000000003
 30
0.0
 10
-0.5180100000000001
 20
-3.4879800000000003
 30
0.0
 10
-0.7059700000000001
 20
-3.3940000000000001
 30
0.0
 10
-1.0310900000000001
 20
-3.4448000000000003
 30
0.0
 10
-1.1022100000000001
 20
-3.2009600000000002
 30
0.0
  0
SPLINE
  5
8B
100
AcDbEntity
  8
Ebene 1
 62
     7
100
AcDbSpline
210
0.0
220
0.0
230
1.0
 70
     1
 71
     3
 72
    20
 73
    16
 74
     0
 42
0.0000000001
 43
0.0000000001
 40
0.0
 40
0.0
 40
0.0
 40
0.0
 40
0.25
 40
0.25
 40
0.25
 40
0.25
 40
0.5
 40
0.5
 40
0.5
 40
0.5
 40
0.75
 40
0.75
 40
0.75
 40
0.75
 40
1.0
 40
1.0
 40
1.0
 40
1.0
 10
-0.05065
 20
-3.2695400000000001
 30
0.0
 10
0.05094
 20
-3.2873200000000002
 30
0.0
 10
-0.07097
 20
-3.3584400000000003
 30
0.0
 10
-0.00239
 20
-3.4016200000000003
 30
0.0
 10
-0.00239
 20
-3.4016200000000003
 30
0.0
 10
-0.00239
 20
-3.4016200000000003
 30
0.0
 10
-0.18273
 20
-3.4371800000000001
 30
0.0
 10
-0.18273
 20
-3.4371800000000001
 30
0.0
 10
-0.18273
 20
-3.4371800000000001
 30
0.0
 10
-0.18273
 20
-3.4371800000000001
 30
0.0
 10
-0.18273
 20
-3.2898600000000005
 30
0.0
 10
-0.18273
 20
-3.2898600000000005
 30
0.0
 10
-0.18273
 20
-3.2898600000000005
 30
0.0
 10
-0.14971
 20
-3.2924000000000002
 30
0.0
 10
-0.07605
 20
-3.2974800000000002
 30
0.0
 10
-0.05065
 20
-3.2695400000000001
 30
0.0
  0
SPLINE
  5
8C
100
AcDbEntity
  8
Ebene 1
 62
     7
100
AcDbSpline
210
0.0
220
0.0
230
1.0
 70
     1
 71
     3
 72
    20
 73
    16
 74
     0
 42
0.0000000001
 43
0.0000000001
 40
0.0
 40
0.0
 40
0.0
 40
0.0
 40
0.25
 40
0.25
 40
0.25
 40
0.25
 40
0.5
 40
0.5
 40
0.5
 40
0.5
 40
0.75
 40
0.75
 40
0.75
 40
0.75
 40
1.0
 40
1.0
 40
1.0
 40
1.0
 10
0.2897
 20
-3.4956000000000005
 30
0.0
 10
0.2897
 20
-3.4956000000000005
 30
0.0
 10
0.3455800000000001
 20
-3.4524200000000005
 30
0.0
 10
0.3455800000000001
 20
-3.4524200000000005
 30
0.0
 10
0.3455800000000001
 20
-3.4524200000000005
 30
0.0
 10
0.5386200000000001
 20
-3.3813000000000004
 30
0.0
 10
0.7062600000000001
 20
-3.3330400000000004
 30
0.0
 10
0.9094600000000001
 20
-3.3076400000000001
 30
0.0
 10
0.9094600000000001
 20
-3.3076400000000001
 30
0.0
 10
0.8205600000000001
 20
-3.5235400000000001
 30
0.0
 10
0.4802
 20
-3.4727400000000004
 30
0.0
 10
0.29732
 20
-3.5743400000000003
 30
0.0
 10
0.29732
 20
-3.5743400000000003
 30
0.0
 10
0.28208
 20
-3.5260800000000003
 30
0.0
 10
0.28462
 20
-3.5514800000000002
 30
0.0
 10
0.2897
 20
-3.4956000000000005
 30
0.0
  0
SPLINE
  5
8D
100
AcDbEntity
  8
Ebene 1
 62
     7
100
AcDbSpline
210
0.0
220
0.0
230
1.0
 70
     1
 71
     3
 72
    12
 73
     8
 74
     0
 42
0.0000000001
 43
0.0000000001
 40
0.0
 40
0.0
 40
0.0
 40
0.0
 40
0.5
 40
0.5
 40
0.5
 40
0.5
 40
1.0
 40
1.0
 40
1.0
 40
1.0
 10
-0.7897900000000001
 20
-3.4778200000000004
 30
0.0
 10
-0.7897900000000001
 20
-3.4778200000000004
 30
0.0
 10
-0.53579
 20
-3.5489400000000004
 30
0.0
 10
-0.53579
 20
-3.5489400000000004
 30
0.0
 10
-0.53579
 20
-3.5489400000000004
 30
0.0
 10
-0.5815100000000001
 20
-3.6810200000000002
 30
0.0
 10
-0.7288300000000001
 20
-3.5210000000000004
 30
0.0
 10
-0.7897900000000001
 20
-3.4778200000000004
 30
0.0
  0
SPLINE
  5
8E
100
AcDbEntity
  8
Ebene 1
 62
     7
100
AcDbSpline
210
0.0
220
0.0
230
1.0
 70
     1
 71
     3
 72
    20
 73
    16
 74
     0
 42
0.0000000001
 43
0.0000000001
 40
0.0
 40
0.0
 40
0.0
 40
0.0
 40
0.25
 40
0.25
 40
0.25
 40
0.25
 40
0.5
 40
0.5
 40
0.5
 40
0.5
 40
0.75
 40
0.75
 40
0.75
 40
0.75
 40
1.0
 40
1.0
 40
1.0
 40
1.0
 10
-0.06589
 20
-3.4778200000000004
 30
0.0
 10
-0.01763
 20
-3.4702000000000002
 30
0.0
 10
0.01538
 20
-3.4803600000000001
 30
0.0
 10
-0.03287
 20
-3.5108400000000004
 30
0.0
 10
-0.03287
 20
-3.5108400000000004
 30
0.0
 10
-0.02017
 20
-3.5667200000000001
 30
0.0
 10
-0.03287
 20
-3.6632400000000005
 30
0.0
 10
-0.11415
 20
-3.6251400000000005
 30
0.0
 10
-0.11415
 20
-3.6251400000000005
 30
0.0
 10
-0.11415
 20
-3.6251400000000005
 30
0.0
 10
-0.16495
 20
-3.5133800000000002
 30
0.0
 10
-0.16495
 20
-3.5133800000000002
 30
0.0
 10
-0.16495
 20
-3.5133800000000002
 30
0.0
 10
-0.13193
 20
-3.5057600000000004
 30
0.0
 10
-0.08621
 20
-3.5032200000000002
 30
0.0
 10
-0.06589
 20
-3.4778200000000004
 30
0.0
  0
SPLINE
  5
8F
100
AcDbEntity
  8
Ebene 1
 62
     7
100
AcDbSpline
210
0.0
220
0.0
230
1.0
 70
     1
 71
     3
 72
    24
 73
    20
 74
     0
 42
0.0000000001
 43
0.0000000001
 40
0.0
 40
0.0
 40
0.0
 40
0.0
 40
0.2
 40
0.2
 40
0.2
 40
0.2
 40
0.4
 40
0.4
 40
0.4
 40
0.4
 40
0.6000000000000001
 40
0.6000000000000001
 40
0.6000000000000001
 40
0.6000000000000001
 40
0.8
 40
0.8
 40
0.8
 40
0.8
 40
1.0
 40
1.0
 40
1.0
 40
1.0
 10
0.6199
 20
-3.5286200000000001
 30
0.0
 10
0.6199
 20
-3.5286200000000001
 30
0.0
 10
0.6859400000000001
 20
-3.5413200000000002
 30
0.0
 10
0.6859400000000001
 20
-3.5413200000000002
 30
0.0
 10
0.6859400000000001
 20
-3.5413200000000002
 30
0.0
 10
0.59196
 20
-3.5591000000000004
 30
0.0
 10
0.48782
 20
-3.7038800000000003
 30
0.0
 10
0.39638
 20
-3.6149800000000001
 30
0.0
 10
0.39638
 20
-3.6149800000000001
 30
0.0
 10
0.39638
 20
-3.6149800000000001
 30
0.0
 10
0.41416
 20
-3.5972000000000004
 30
0.0
 10
0.41416
 20
-3.5972000000000004
 30
0.0
 10
0.41416
 20
-3.5972000000000004
 30
0.0
 10
0.44718
 20
-3.6048200000000001
 30
0.0
 10
0.47766
 20
-3.5845000000000002
 30
0.0
 10
0.5056000000000001
 20
-3.5667200000000001
 30
0.0
 10
0.5056000000000001
 20
-3.5667200000000001
 30
0.0
 10
0.5056000000000001
 20
-3.5667200000000001
 30
0.0
 10
0.6199
 20
-3.5286200000000001
 30
0.0
 10
0.6199
 20
-3.5286200000000001
 30
0.0
  0
SPLINE
  5
90
100
AcDbEntity
  8
Ebene 1
 62
     7
100
AcDbSpline
210
0.0
220
0.0
230
1.0
 70
     1
 71
     3
 72
    24
 73
    20
 74
     0
 42
0.0000000001
 43
0.0000000001
 40
0.0
 40
0.0
 40
0.0
 40
0.0
 40
0.2
 40
0.2
 40
0.2
 40
0.2
 40
0.4
 40
0.4
 40
0.4
 40
0.4
 40
0.6000000000000001
 40
0.6000000000000001
 40
0.6000000000000001
 40
0.6000000000000001
 40
0.8
 40
0.8
 40
0.8
 40
0.8
 40
1.0
 40
1.0
 40
1.0
 40
1.0
 10
-1.54925
 20
-3.6327600000000002
 30
0.0
 10
-1.4552700000000001
 20
-3.6175200000000003
 30
0.0
 10
-1.38161
 20
-3.6581600000000001
 30
0.0
 10
-1.29271
 20
-3.6708600000000002
 30
0.0
 10
-1.29271
 20
-3.6708600000000002
 30
0.0
 10
-0.5789700000000001
 20
-4.1661600000000005
 30
0.0
 10
-0.3757700000000001
 20
-5.0221400000000003
 30
0.0
 10
-0.48499
 20
-5.8882800000000008
 30
0.0
 10
-0.48499
 20
-5.8882800000000008
 30
0.0
 10
-0.8405900000000001
 20
-5.8933600000000004
 30
0.0
 10
-1.21143
 20
-5.9187600000000007
 30
0.0
 10
-1.4933700000000001
 20
-5.7155600000000009
 30
0.0
 10
-1.4933700000000001
 20
-5.7155600000000009
 30
0.0
 10
-1.6381500000000002
 20
-5.4895000000000005
 30
0.0
 10
-1.50099
 20
-5.1491400000000001
 30
0.0
 10
-1.6660900000000001
 20
-4.9561000000000002
 30
0.0
 10
-1.6660900000000001
 20
-4.9561000000000002
 30
0.0
 10
-1.4451100000000001
 20
-4.56494
 30
0.0
 10
-1.6813300000000002
 20
-4.0670999999999999
 30
0.0
 10
-1.54925
 20
-3.6327600000000002
 30
0.0
  0
SPLINE
  5
91
100
AcDbEntity
  8
Ebene 1
 62
     7
100
AcDbSpline
210
0.0
220
0.0
230
1.0
 70
     1
 71
     3
 72
    12
 73
     8
 74
     0
 42
0.0000000001
 43
0.0000000001
 40
0.0
 40
0.0
 40
0.0
 40
0.0
 40
0.5
 40
0.5
 40
0.5
 40
0.5
 40
1.0
 40
1.0
 40
1.0
 40
1.0
 10
2.1388200000000004
 20
-3.8029400000000004
 30
0.0
 10
2.20486
 20
-3.7877000000000005
 30
0.0
 10
2.2023200000000003
 20
-3.9248600000000002
 30
0.0
 10
2.1388200000000004
 20
-3.9426400000000004
 30
0.0
 10
2.1388200000000004
 20
-3.9426400000000004
 30
0.0
 10
2.0270600000000001
 20
-3.9502600000000001
 30
0.0
 10
2.0423
 20
-3.8029400000000004
 30
0.0
 10
2.1388200000000004
 20
-3.8029400000000004
 30
0.0
  0
SPLINE
  5
92
100
AcDbEntity
  8
Ebene 1
 62
     7
100
AcDbSpline
210
0.0
220
0.0
230
1.0
 70
     1
 71
     3
 72
    32
 73
    28
 74
     0
 42
0.0000000001
 43
0.0000000001
 40
0.0
 40
0.0
 40
0.0
 40
0.0
 40
0.1428571428571429
 40
0.1428571428571429
 40
0.1428571428571429
 40
0.1428571428571429
 40
0.2857142857142857
 40
0.2857142857142857
 40
0.2857142857142857
 40
0.2857142857142857
 40
0.4285714285714286
 40
0.4285714285714286
 40
0.4285714285714286
 40
0.4285714285714286
 40
0.5714285714285714
 40
0.5714285714285714
 40
0.5714285714285714
 40
0.5714285714285714
 40
0.7142857142857142
 40
0.7142857142857142
 40
0.7142857142857142
 40
0.7142857142857142
 40
0.857142857142857
 40
0.857142857142857
 40
0.857142857142857
 40
0.857142857142857
 40
1.0
 40
1.0
 40
1.0
 40
1.0
 10
-1.8438900000000003
 20
-3.8562800000000004
 30
0.0
 10
-1.7041900000000001
 20
-4.1179000000000006
 30
0.0
 10
-1.6203700000000001
 20
-4.5446200000000001
 30
0.0
 10
-1.75753
 20
-4.8392600000000003
 30
0.0
 10
-1.75753
 20
-4.8392600000000003
 30
0.0
 10
-1.7524500000000001
 20
-4.8951400000000005
 30
0.0
 10
-1.7753100000000002
 20
-4.9688000000000008
 30
0.0
 10
-1.7219700000000002
 20
-4.9942000000000002
 30
0.0
 10
-1.7219700000000002
 20
-4.9942000000000002
 30
0.0
 10
-1.7422900000000001
 20
-5.0170600000000007
 30
0.0
 10
-1.7905500000000001
 20
-5.0323000000000002
 30
0.0
 10
-1.7753100000000002
 20
-5.0805600000000002
 30
0.0
 10
-1.7753100000000002
 20
-5.0805600000000002
 30
0.0
 10
-1.75499
 20
-5.1313600000000008
 30
0.0
 10
-1.7041900000000001
 20
-5.1618400000000007
 30
0.0
 10
-1.6559300000000001
 20
-5.1872400000000001
 30
0.0
 10
-1.6559300000000001
 20
-5.1872400000000001
 30
0.0
 10
-1.6559300000000001
 20
-5.1872400000000001
 30
0.0
 10
-1.6533900000000001
 20
-5.2888400000000004
 30
0.0
 10
-1.6533900000000001
 20
-5.2888400000000004
 30
0.0
 10
-1.6533900000000001
 20
-5.2888400000000004
 30
0.0
 10
-1.7219700000000002
 20
-5.3523400000000008
 30
0.0
 10
-1.6660900000000001
 20
-5.5225200000000001
 30
0.0
 10
-1.7854700000000001
 20
-5.5606200000000001
 30
0.0
 10
-1.7854700000000001
 20
-5.5606200000000001
 30
0.0
 10
-1.7880100000000001
 20
-4.9992800000000006
 30
0.0
 10
-1.9073900000000001
 20
-4.4125400000000008
 30
0.0
 10
-1.8438900000000003
 20
-3.8562800000000004
 30
0.0
  0
SPLINE
  5
93
100
AcDbEntity
  8
Ebene 1
 62
     7
100
AcDbSpline
210
0.0
220
0.0
230
1.0
 70
     1
 71
     3
 72
    16
 73
    12
 74
     0
 42
0.0000000001
 43
0.0000000001
 40
0.0
 40
0.0
 40
0.0
 40
0.0
 40
0.3333333333333333
 40
0.3333333333333333
 40
0.3333333333333333
 40
0.3333333333333333
 40
0.6666666666666666
 40
0.6666666666666666
 40
0.6666666666666666
 40
0.6666666666666666
 40
1.0
 40
1.0
 40
1.0
 40
1.0
 10
1.9483200000000001
 20
-3.8562800000000004
 30
0.0
 10
1.9483200000000001
 20
-3.8562800000000004
 30
0.0
 10
1.9965800000000002
 20
-3.8588200000000001
 30
0.0
 10
1.9965800000000002
 20
-3.8588200000000001
 30
0.0
 10
1.9965800000000002
 20
-3.8588200000000001
 30
0.0
 10
2.04738
 20
-3.9528000000000003
 30
0.0
 10
1.9788000000000001
 20
-4.0061400000000003
 30
0.0
 10
1.8848200000000002
 20
-3.9705800000000004
 30
0.0
 10
1.8848200000000002
 20
-3.9705800000000004
 30
0.0
 10
1.7857600000000002
 20
-3.9045400000000003
 30
0.0
 10
1.8848200000000002
 20
-3.8740600000000005
 30
0.0
 10
1.9483200000000001
 20
-3.8562800000000004
 30
0.0
  0
SPLINE
  5
94
100
AcDbEntity
  8
Ebene 1
 62
     7
100
AcDbSpline
210
0.0
220
0.0
230
1.0
 70
     1
 71
     3
 72
    20
 73
    16
 74
     0
 42
0.0000000001
 43
0.0000000001
 40
0.0
 40
0.0
 40
0.0
 40
0.0
 40
0.25
 40
0.25
 40
0.25
 40
0.25
 40
0.5
 40
0.5
 40
0.5
 40
0.5
 40
0.75
 40
0.75
 40
0.75
 40
0.75
 40
1.0
 40
1.0
 40
1.0
 40
1.0
 10
1.7425800000000002
 20
-3.9070800000000001
 30
0.0
 10
1.7984600000000002
 20
-3.8918400000000002
 30
0.0
 10
1.8213200000000001
 20
-3.9655000000000005
 30
0.0
 10
1.8086200000000001
 20
-4.0061400000000003
 30
0.0
 10
1.8086200000000001
 20
-4.0061400000000003
 30
0.0
 10
1.7324200000000001
 20
-4.0112200000000007
 30
0.0
 10
1.6003400000000001
 20
-4.0670999999999999
 30
0.0
 10
1.6079600000000001
 20
-3.9451800000000001
 30
0.0
 10
1.6079600000000001
 20
-3.9451800000000001
 30
0.0
 10
1.6079600000000001
 20
-3.9451800000000001
 30
0.0
 10
1.6384400000000001
 20
-3.9426400000000004
 30
0.0
 10
1.6384400000000001
 20
-3.9426400000000004
 30
0.0
 10
1.6384400000000001
 20
-3.9426400000000004
 30
0.0
 10
1.6384400000000001
 20
-3.9426400000000004
 30
0.0
 10
1.7425800000000002
 20
-3.9070800000000001
 30
0.0
 10
1.7425800000000002
 20
-3.9070800000000001
 30
0.0
  0
SPLINE
  5
95
100
AcDbEntity
  8
Ebene 1
 62
     7
100
AcDbSpline
210
0.0
220
0.0
230
1.0
 70
     1
 71
     3
 72
    16
 73
    12
 74
     0
 42
0.0000000001
 43
0.0000000001
 40
0.0
 40
0.0
 40
0.0
 40
0.0
 40
0.3333333333333333
 40
0.3333333333333333
 40
0.3333333333333333
 40
0.3333333333333333
 40
0.6666666666666666
 40
0.6666666666666666
 40
0.6666666666666666
 40
0.6666666666666666
 40
1.0
 40
1.0
 40
1.0
 40
1.0
 10
1.4835
 20
-3.9426400000000004
 30
0.0
 10
1.5444600000000002
 20
-3.9197800000000003
 30
0.0
 10
1.5800200000000002
 20
-4.00868
 30
0.0
 10
1.5317600000000002
 20
-4.0417000000000005
 30
0.0
 10
1.5317600000000002
 20
-4.0417000000000005
 30
0.0
 10
1.4758800000000001
 20
-4.0620200000000004
 30
0.0
 10
1.3260200000000002
 20
-4.04678
 30
0.0
 10
1.40222
 20
-3.9629600000000003
 30
0.0
 10
1.40222
 20
-3.9629600000000003
 30
0.0
 10
1.40222
 20
-3.9629600000000003
 30
0.0
 10
1.4835
 20
-3.9426400000000004
 30
0.0
 10
1.4835
 20
-3.9426400000000004
 30
0.0
  0
SPLINE
  5
96
100
AcDbEntity
  8
Ebene 1
 62
     7
100
AcDbSpline
210
0.0
220
0.0
230
1.0
 70
     1
 71
     3
 72
    12
 73
     8
 74
     0
 42
0.0000000001
 43
0.0000000001
 40
0.0
 40
0.0
 40
0.0
 40
0.0
 40
0.5
 40
0.5
 40
0.5
 40
0.5
 40
1.0
 40
1.0
 40
1.0
 40
1.0
 10
1.1710800000000001
 20
-3.9756600000000004
 30
0.0
 10
1.23712
 20
-3.9756600000000004
 30
0.0
 10
1.3488800000000001
 20
-3.9553400000000005
 30
0.0
 10
1.3082400000000001
 20
-4.0594800000000006
 30
0.0
 10
1.3082400000000001
 20
-4.0594800000000006
 30
0.0
 10
1.23204
 20
-4.1229800000000001
 30
0.0
 10
1.0517000000000001
 20
-4.0239200000000004
 30
0.0
 10
1.1710800000000001
 20
-3.9756600000000004
 30
0.0
  0
SPLINE
  5
97
100
AcDbEntity
  8
Ebene 1
 62
     7
100
AcDbSpline
210
0.0
220
0.0
230
1.0
 70
     1
 71
     3
 72
    12
 73
     8
 74
     0
 42
0.0000000001
 43
0.0000000001
 40
0.0
 40
0.0
 40
0.0
 40
0.0
 40
0.5
 40
0.5
 40
0.5
 40
0.5
 40
1.0
 40
1.0
 40
1.0
 40
1.0
 10
-1.7041900000000001
 20
-5.9594000000000005
 30
0.0
 10
-1.6533900000000001
 20
-5.9594000000000005
 30
0.0
 10
-1.5543300000000002
 20
-5.9670200000000007
 30
0.0
 10
-1.58735
 20
-6.0432200000000007
 30
0.0
 10
-1.58735
 20
-6.0432200000000007
 30
0.0
 10
-1.6483100000000002
 20
-6.0660800000000004
 30
0.0
 10
-1.7321300000000002
 20
-6.0381400000000003
 30
0.0
 10
-1.7041900000000001
 20
-5.9594000000000005
 30
0.0
  0
SPLINE
  5
98
100
AcDbEntity
  8
Ebene 1
 62
     7
100
AcDbSpline
210
0.0
220
0.0
230
1.0
 70
     1
 71
     3
 72
    12
 73
     8
 74
     0
 42
0.0000000001
 43
0.0000000001
 40
0.0
 40
0.0
 40
0.0
 40
0.0
 40
0.5
 40
0.5
 40
0.5
 40
0.5
 40
1.0
 40
1.0
 40
1.0
 40
1.0
 10
-1.5136900000000002
 20
-5.9771800000000006
 30
0.0
 10
-1.4781300000000002
 20
-6.0025800000000009
 30
0.0
 10
-1.3866900000000002
 20
-5.9848000000000008
 30
0.0
 10
-1.4146300000000001
 20
-6.0584600000000002
 30
0.0
 10
-1.4146300000000001
 20
-6.0584600000000002
 30
0.0
 10
-1.4755900000000002
 20
-6.0838600000000005
 30
0.0
 10
-1.5365500000000001
 20
-6.0432200000000007
 30
0.0
 10
-1.5136900000000002
 20
-5.9771800000000006
 30
0.0
  0
SPLINE
  5
99
100
AcDbEntity
  8
Ebene 1
 62
     7
100
AcDbSpline
210
0.0
220
0.0
230
1.0
 70
     1
 71
     3
 72
    12
 73
     8
 74
     0
 42
0.0000000001
 43
0.0000000001
 40
0.0
 40
0.0
 40
0.0
 40
0.0
 40
0.5
 40
0.5
 40
0.5
 40
0.5
 40
1.0
 40
1.0
 40
1.0
 40
1.0
 10
-0.6704100000000001
 20
-5.9771800000000006
 30
0.0
 10
-0.6094500000000001
 20
-6.0381400000000003
 30
0.0
 10
-0.6856500000000001
 20
-6.1397400000000006
 30
0.0
 10
-0.7694700000000001
 20
-6.0940200000000004
 30
0.0
 10
-0.7694700000000001
 20
-6.0940200000000004
 30
0.0
 10
-0.8355100000000001
 20
-6.0229000000000008
 30
0.0
 10
-0.7110500000000001
 20
-5.9898800000000003
 30
0.0
 10
-0.6704100000000001
 20
-5.9771800000000006
 30
0.0
  0
SPLINE
  5
9A
100
AcDbEntity
  8
Ebene 1
 62
     7
100
AcDbSpline
210
0.0
220
0.0
230
1.0
 70
     1
 71
     3
 72
    12
 73
     8
 74
     0
 42
0.0000000001
 43
0.0000000001
 40
0.0
 40
0.0
 40
0.0
 40
0.0
 40
0.5
 40
0.5
 40
0.5
 40
0.5
 40
1.0
 40
1.0
 40
1.0
 40
1.0
 10
-0.53325
 20
-5.9771800000000006
 30
0.0
 10
-0.49515
 20
-6.0051200000000007
 30
0.0
 10
-0.53325
 20
-6.1168800000000001
 30
0.0
 10
-0.59675
 20
-6.0762400000000003
 30
0.0
 10
-0.59675
 20
-6.0762400000000003
 30
0.0
 10
-0.6297700000000001
 20
-6.0051200000000007
 30
0.0
 10
-0.56881
 20
-5.9975000000000005
 30
0.0
 10
-0.53325
 20
-5.9771800000000006
 30
0.0
  0
SPLINE
  5
9B
100
AcDbEntity
  8
Ebene 1
 62
     7
100
AcDbSpline
210
0.0
220
0.0
230
1.0
 70
     1
 71
     3
 72
    12
 73
     8
 74
     0
 42
0.0000000001
 43
0.0000000001
 40
0.0
 40
0.0
 40
0.0
 40
0.0
 40
0.5
 40
0.5
 40
0.5
 40
0.5
 40
1.0
 40
1.0
 40
1.0
 40
1.0
 10
-1.2571500000000002
 20
-6.0127400000000009
 30
0.0
 10
-1.2165100000000002
 20
-6.0000400000000003
 30
0.0
 10
-1.2165100000000002
 20
-6.0508400000000009
 30
0.0
 10
-1.2266700000000001
 20
-6.0762400000000003
 30
0.0
 10
-1.2266700000000001
 20
-6.0762400000000003
 30
0.0
 10
-1.2673100000000002
 20
-6.0914800000000007
 30
0.0
 10
-1.2850900000000001
 20
-6.0356000000000005
 30
0.0
 10
-1.2571500000000002
 20
-6.0127400000000009
 30
0.0
  0
SPLINE
  5
9C
100
AcDbEntity
  8
Ebene 1
 62
     7
100
AcDbSpline
210
0.0
220
0.0
230
1.0
 70
     1
 71
     3
 72
    12
 73
     8
 74
     0
 42
0.0000000001
 43
0.0000000001
 40
0.0
 40
0.0
 40
0.0
 40
0.0
 40
0.5
 40
0.5
 40
0.5
 40
0.5
 40
1.0
 40
1.0
 40
1.0
 40
1.0
 10
-1.17079
 20
-6.0127400000000009
 30
0.0
 10
-1.1098300000000001
 20
-6.0457600000000005
 30
0.0
 10
-0.99553
 20
-5.9695600000000004
 30
0.0
 10
-1.03617
 20
-6.0940200000000004
 30
0.0
 10
-1.03617
 20
-6.0940200000000004
 30
0.0
 10
-1.08951
 20
-6.0838600000000005
 30
0.0
 10
-1.1987300000000001
 20
-6.1016400000000006
 30
0.0
 10
-1.17079
 20
-6.0127400000000009
 30
0.0
  0
SPLINE
  5
9D
100
AcDbEntity
  8
Ebene 1
 62
     7
100
AcDbSpline
210
0.0
220
0.0
230
1.0
 70
     1
 71
     3
 72
    12
 73
     8
 74
     0
 42
0.0000000001
 43
0.0000000001
 40
0.0
 40
0.0
 40
0.0
 40
0.0
 40
0.5
 40
0.5
 40
0.5
 40
0.5
 40
1.0
 40
1.0
 40
1.0
 40
1.0
 10
-0.9625100000000001
 20
-6.0127400000000009
 30
0.0
 10
-0.8964700000000001
 20
-6.0102000000000002
 30
0.0
 10
-0.7872500000000001
 20
-5.9924200000000001
 30
0.0
 10
-0.82789
 20
-6.0940200000000004
 30
0.0
 10
-0.82789
 20
-6.0940200000000004
 30
0.0
 10
-0.9015500000000001
 20
-6.1067200000000001
 30
0.0
 10
-1.0260100000000001
 20
-6.1143400000000003
 30
0.0
 10
-0.9625100000000001
 20
-6.0127400000000009
 30
0.0
  0
ENDSEC
  0
SECTION
  2
OBJECTS
  0
DICTIONARY
  5
19
100
AcDbDictionary
280
     0
281
     1
  3
ACAD_GROUP
350
1A
  3
ACAD_MLINESTYLE
350
1B
  3
ACAD_LAYOUT
350
1E
  3
ACAD_PLOTSETTINGS
350
22
  3
ACAD_PLOTSTYLENAME
350
1F
  3
ACAD_WIPEOUT_VARS
350
23
  0
DICTIONARY
  5
1A
102
{ACAD_REACTORS
330
19
102
}
100
AcDbDictionary
280
     0
281
     1
  0
DICTIONARY
  5
1B
102
{ACAD_REACTORS
330
19
102
}
100
AcDbDictionary
280
     0
281
     1
  3
Standard
350
1C
  0
MLINESTYLE
  5
1C
102
{ACAD_REACTORS
330
1B
102
}
100
AcDbMlineStyle
  2
Standard
 70
     0
  3

 62
     0
 51
90.0
 52
90.0
 71
     2
 49
0.5
 62
   256
  6
BYLAYER
 49
-0.5
 62
   256
  6
BYLAYER
  0
ACDBDICTIONARYWDFLT
  5
1F
102
{ACAD_REACTORS
330
19
102
}
100
AcDbDictionary
281
     1
  3
Normal
350
1D
100
AcDbDictionaryWithDefault
340
1D
  0
ACDBPLACEHOLDER
  5
1D
102
{ACAD_REACTORS
330
1F
102
}
  0
LAYOUT
  5
20
102
{ACAD_REACTORS
330
1E
102
}
100
AcDbPlotSettings
  1

  2

  4

  6

 40
0.0
 41
0.0
 42
0.0
 43
0.0
 44
0.0
 45
0.0
 46
0.0
 47
0.0
 48
0.0
 49
0.0
140
0.0
141
0.0
142
1.0
143
1.0
 70
  1024
 72
     0
 73
     0
 74
     0
  7

 75
     0
147
1.0
148
0.0
149
0.0
100
AcDbLayout
  1
Model
 70
     0
 71
     0
 10
0.0
 20
0.0
 11
0.0
 21
0.0
 12
0.0
 22
0.0
 32
0.0
 14
0.0
 24
0.0
 34
0.0
 15
0.0
 25
0.0
 35
0.0
146
0.0
 13
0.0
 23
0.0
 33
0.0
 16
0.0
 26
0.0
 36
0.0
 17
0.0
 27
0.0
 37
0.0
 76
     0
330
A
331
0
345
0
346
0
  0
LAYOUT
  5
21
102
{ACAD_REACTORS
330
1E
102
}
100
AcDbPlotSettings
  1

  2

  4

  6

 40
0.0
 41
0.0
 42
0.0
 43
0.0
 44
0.0
 45
0.0
 46
0.0
 47
0.0
 48
0.0
 49
0.0
140
0.0
141
0.0
142
1.0
143
1.0
 70
     0
 72
     0
 73
     0
 74
     0
  7

 75
     0
147
1.0
148
0.0
149
0.0
100
AcDbLayout
  1
Layout1
 70
     0
 71
     0
 10
0.0
 20
0.0
 11
0.0
 21
0.0
 12
0.0
 22
0.0
 32
0.0
 14
0.0
 24
0.0
 34
0.0
 15
0.0
 25
0.0
 35
0.0
146
0.0
 13
0.0
 23
0.0
 33
0.0
 16
0.0
 26
0.0
 36
0.0
 17
0.0
 27
0.0
 37
0.0
 76
     0
330
B
331
0
345
0
346
0
  0
DICTIONARY
  5
1E
102
{ACAD_REACTORS
330
19
102
}
100
AcDbDictionary
280
     0
281
     1
  3
Layout1
350
21
  3
Model
350
20
  0
DICTIONARY
  5
22
102
{ACAD_REACTORS
330
19
102
}
100
AcDbDictionary
280
     0
281
     1
  0
WIPEOUTVARIABLES
  5
23
100
AcDbWipeoutVariables
 70
     1
  0
ENDSEC
  0
EOF
