  0
SECTION
  2
HEADER
  9
$ACADVER
  1
AC1015
  9
$ACADMAINTVER
 70
     6
  9
$DWGCODEPAGE
  3
DOS850
  9
$INSBASE
 10
0.0
 20
0.0
 30
0.0
  9
$EXTMIN
 10
-4.72838
 20
-5.84002
 30
1.000000E+20
  9
$EXTMAX
 10
4.73285
 20
5.83468
 30
-1.000000E+20
  9
$LIMMIN
 10
0.0
 20
0.0
  9
$LIMMAX
 10
0.0
 20
0.0
  9
$ORTHOMODE
 70
     0
  9
$REGENMODE
 70
     1
  9
$FILLMODE
 70
     1
  9
$QTEXTMODE
 70
     0
  9
$MIRRTEXT
 70
     1
  9
$LTSCALE
 40
1.0
  9
$ATTMODE
 70
     1
  9
$TEXTSIZE
 40
0.2
  9
$TRACEWID
 40
0.05
  9
$TEXTSTYLE
  7
Standard
  9
$CLAYER
  8
0
  9
$CELTYPE
  6
Continuous
  9
$CECOLOR
 62
   256
  9
$CELTSCALE
 40
1.0
  9
$DISPSILH
 70
     0
  9
$DIMSCALE
 40
1.0
  9
$DIMASZ
 40
0.18
  9
$DIMEXO
 40
0.0625
  9
$DIMDLI
 40
0.38
  9
$DIMRND
 40
0.0
  9
$DIMDLE
 40
0.0
  9
$DIMEXE
 40
0.18
  9
$DIMTP
 40
0.0
  9
$DIMTM
 40
0.0
  9
$DIMTXT
 40
0.18
  9
$DIMCEN
 40
0.09
  9
$DIMTSZ
 40
0.0
  9
$DIMTOL
 70
     0
  9
$DIMLIM
 70
     0
  9
$DIMTIH
 70
     1
  9
$DIMTOH
 70
     1
  9
$DIMSE1
 70
     0
  9
$DIMSE2
 70
     0
  9
$DIMTAD
 70
     0
  9
$DIMZIN
 70
     0
  9
$DIMBLK
  1

  9
$DIMASO
 70
     1
  9
$DIMSHO
 70
     1
  9
$DIMPOST
  1

  9
$DIMAPOST
  1

  9
$DIMALT
 70
     0
  9
$DIMALTD
 70
     2
  9
$DIMALTF
 40
25.4
  9
$DIMLFAC
 40
1.0
  9
$DIMTOFL
 70
     0
  9
$DIMTVP
 40
0.0
  9
$DIMTIX
 70
     0
  9
$DIMSOXD
 70
     0
  9
$DIMSAH
 70
     0
  9
$DIMBLK1
  1

  9
$DIMBLK2
  1

  9
$DIMSTYLE
  2
Standard
  9
$DIMCLRD
 70
     0
  9
$DIMCLRE
 70
     0
  9
$DIMCLRT
 70
     0
  9
$DIMTFAC
 40
1.0
  9
$DIMGAP
 40
0.09
  9
$DIMJUST
 70
     0
  9
$DIMSD1
 70
     0
  9
$DIMSD2
 70
     0
  9
$DIMTOLJ
 70
     1
  9
$DIMTZIN
 70
     0
  9
$DIMALTZ
 70
     0
  9
$DIMALTTZ
 70
     0
  9
$DIMUPT
 70
     0
  9
$DIMDEC
 70
     4
  9
$DIMTDEC
 70
     4
  9
$DIMALTU
 70
     2
  9
$DIMALTTD
 70
     2
  9
$DIMTXSTY
  7
Standard
  9
$DIMAUNIT
 70
     0
  9
$DIMADEC
 70
     0
  9
$DIMALTRND
 40
0.0
  9
$DIMAZIN
 70
     0
  9
$DIMDSEP
 70
     0
  9
$DIMATFIT
 70
     3
  9
$DIMFRAC
 70
     0
  9
$DIMLDRBLK
  1

  9
$DIMLUNIT
 70
     2
  9
$DIMLWD
 70
     0
  9
$DIMLWE
 70
     0
  9
$DIMTMOVE
 70
     0
  9
$LUNITS
 70
     2
  9
$LUPREC
 70
     4
  9
$SKETCHINC
 40
0.1
  9
$FILLETRAD
 40
0.0
  9
$AUNITS
 70
     0
  9
$AUPREC
 70
     0
  9
$MENU
  1
acad
  9
$ELEVATION
 40
0.0
  9
$PELEVATION
 40
0.0
  9
$THICKNESS
 40
0.0
  9
$LIMCHECK
 70
     0
  9
$CHAMFERA
 40
0.0
  9
$CHAMFERB
 40
0.0
  9
$CHAMFERC
 40
0.0
  9
$CHAMFERD
 40
0.0
  9
$SKPOLY
 70
     0
  9
$TDCREATE
 40
0.000000000
  9
$TDUCREATE
 40
0.000000000
  9
$TDUPDATE
 40
0.000000000
  9
$TDUUPDATE
 40
0.000000000
  9
$TDINDWG
 40
0.0000000000
  9
$TDUSRTIMER
 40
0.0000000000
  9
$USRTIMER
 70
     1
  9
$ANGBASE
 50
0.0
  9
$ANGDIR
 70
     0
  9
$PDMODE
 70
     0
  9
$PDSIZE
 40
0.0
  9
$PLINEWID
 40
0.0
  9
$SPLFRAME
 70
     0
  9
$SPLINETYPE
 70
     6
  9
$SPLINESEGS
 70
     8
  9
$HANDSEED
  5
6C
  9
$SURFTAB1
 70
     6
  9
$SURFTAB2
 70
     6
  9
$SURFTYPE
 70
     6
  9
$SURFU
 70
     6
  9
$SURFV
 70
     6
  9
$UCSBASE
  2

  9
$UCSNAME
  2

  9
$UCSORG
 10
0.0
 20
0.0
 30
0.0
  9
$UCSXDIR
 10
1.0
 20
0.0
 30
0.0
  9
$UCSYDIR
 10
0.0
 20
1.0
 30
0.0
  9
$UCSORTHOREF
  2

  9
$UCSORTHOVIEW
 70
     0
  9
$UCSORGTOP
 10
0.0
 20
0.0
 30
0.0
  9
$UCSORGBOTTOM
 10
0.0
 20
0.0
 30
0.0
  9
$UCSORGLEFT
 10
0.0
 20
0.0
 30
0.0
  9
$UCSORGRIGHT
 10
0.0
 20
0.0
 30
0.0
  9
$UCSORGFRONT
 10
0.0
 20
0.0
 30
0.0
  9
$UCSORGBACK
 10
0.0
 20
0.0
 30
0.0
  9
$PUCSBASE
  2

  9
$PUCSNAME
  2

  9
$PUCSORG
 10
0.0
 20
0.0
 30
0.0
  9
$PUCSXDIR
 10
1.0
 20
0.0
 30
0.0
  9
$PUCSYDIR
 10
0.0
 20
1.0
 30
0.0
  9
$PUCSORTHOREF
  2

  9
$PUCSORTHOVIEW
 70
     0
  9
$PUCSORGTOP
 10
0.0
 20
0.0
 30
0.0
  9
$PUCSORGBOTTOM
 10
0.0
 20
0.0
 30
0.0
  9
$PUCSORGLEFT
 10
0.0
 20
0.0
 30
0.0
  9
$PUCSORGRIGHT
 10
0.0
 20
0.0
 30
0.0
  9
$PUCSORGFRONT
 10
0.0
 20
0.0
 30
0.0
  9
$PUCSORGBACK
 10
0.0
 20
0.0
 30
0.0
  9
$USERI1
 70
     0
  9
$USERI2
 70
     0
  9
$USERI3
 70
     0
  9
$USERI4
 70
     0
  9
$USERI5
 70
     0
  9
$USERR1
 40
0.0
  9
$USERR2
 40
0.0
  9
$USERR3
 40
0.0
  9
$USERR4
 40
0.0
  9
$USERR5
 40
0.0
  9
$WORLDVIEW
 70
     1
  9
$SHADEDGE
 70
     3
  9
$SHADEDIF
 70
    70
  9
$TILEMODE
 70
     1
  9
$MAXACTVP
 70
    16
  9
$PINSBASE
 10
0.0
 20
0.0
 30
0.0
  9
$PLIMCHECK
 70
     0
  9
$PEXTMIN
 10
1.000000E+20
 20
1.000000E+20
 30
1.000000E+20
  9
$PEXTMAX
 10
-1.000000E+20
 20
-1.000000E+20
 30
-1.000000E+20
  9
$PLIMMIN
 10
0.0
 20
0.0
  9
$PLIMMAX
 10
12.0
 20
9.0
  9
$UNITMODE
 70
     0
  9
$VISRETAIN
 70
     0
  9
$PLINEGEN
 70
     1
  9
$PSLTSCALE
 70
     0
  9
$TREEDEPTH
 70
  3020
  9
$CMLSTYLE
  2
Standard
  9
$CMLJUST
 70
     0
  9
$CMLSCALE
 40
1.0
  9
$PROXYGRAPHICS
 70
     0
  9
$MEASUREMENT
 70
     0
  9
$CELWEIGHT
370
     0
  9
$ENDCAPS
280
     0
  9
$JOINSTYLE
280
     0
  9
$LWDISPLAY
290
     0
  9
$INSUNITS
 70
     5
  9
$HYPERLINKBASE
  1

  9
$XEDIT
290
     1
  9
$CEPSNTYPE
380
     0
  9
$PSTYLEMODE
290
     1
  9
$FINGERPRINTGUID
  2

  9
$VERSIONGUID
  2

  9
$EXTNAMES
290
     1
  9
$PSVPSCALE
 40
0.0
  0
ENDSEC
  0
SECTION
  2
CLASSES
  0
CLASS
  1
LWPOLYLINE
  2
AcDbPolyline
  3
AutoCAD 2000
 90
    32768
280
     0
281
     1
  0
CLASS
  1
IMAGE
  2
AcDbRasterImage
  3
ISM
 90
    32895
280
     0
281
     1
  0
CLASS
  1
OLE2FRAME
  2
AcDbOle2Frame
  3
AutoCAD 2000
 90
    32768
280
     0
281
     1
  0
CLASS
  1
HATCH
  2
AcDbHatch
  3
AutoCAD 2000
 90
    32768
280
     0
281
     1
  0
CLASS
  1
DICTIONARYVAR
  2
AcDbDictionaryVar
  3
AutoCAD 2000
 90
    32768
280
     0
281
     0
  0
CLASS
  1
RASTERVARIABLES
  2
AcDbRasterVariables
  3
ISM
 90
    32768
280
     0
281
     0
  0
CLASS
  1
IMAGEDEF
  2
AcDbRasterImageDef
  3
ISM
 90
    32768
280
     0
281
     0
  0
CLASS
  1
IMAGEDEF_REACTOR
  2
AcDbRasterImageDefReactor
  3
ISM
 90
    32769
280
     0
281
     0
  0
CLASS
  1
IDBUFFER
  2
AcDbIdBuffer
  3
AutoCAD 2000
 90
    32768
280
     0
281
     0
  0
CLASS
  1
SPATIAL_FILTER
  2
AcDbSpatialFilter
  3
AutoCAD 2000
 90
    32768
280
     0
281
     0
  0
CLASS
  1
XRECORD
  2
AcDbXrecord
  3
AutoCAD 2000
 90
    32768
280
     0
281
     0
  0
CLASS
  1
SORTENTSTABLE
  2
AcDbSortentsTable
  3
AutoCAD 2000
 90
    32768
280
     0
281
     0
  0
CLASS
  1
LAYER_INDEX
  2
AcDbLayerIndex
  3
AutoCAD 2000
 90
    32768
280
     0
281
     0
  0
CLASS
  1
SPATIAL_INDEX
  2
AcDbSpatialIndex
  3
AutoCAD 2000
 90
    32768
280
     0
281
     0
  0
CLASS
  1
OBJECT_PTR
  2
CAseDLPNTableRecord
  3
"ASE-LPNTableRecord"
 90
    32769
280
     0
281
     0
  0
CLASS
  1
LAYOUT
  2
AcDbLayout
  3
AutoCAD 2000
 90
        0
280
     0
281
     0
  0
CLASS
  1
PLOTSETTINGS
  2
AcDbPlotSettings
  3
AutoCAD 2000
 90
    32768
280
     0
281
     0
  0
CLASS
  1
ACDBDICTIONARYWDFLT
  2
AcDbDictionaryWithDefault
  3
AutoCAD 2000
 90
        0
280
     0
281
     0
  0
CLASS
  1
ACDBPLACEHOLDER
  2
AcDbPlaceHolder
  3
AutoCAD 2000
 90
        0
280
     0
281
     0
  0
CLASS
  1
VBA_PROJECT
  2
AcDbVbaProject
  3
acadvba
 90
    32768
280
     0
281
     0
  0
CLASS
  1
WIPEOUT
  2
AcDbWipeout
  3
WipeOut|AutoCAD Express Tool|expresstools@autodesk.com
 90
    32895
280
     0
281
     1
  0
CLASS
  1
WIPEOUTVARIABLES
  2
AcDbWipeoutVariables
  3
WipeOut|AutoCAD Express Tool|expresstools@autodesk.com
 90
        0
280
     0
281
     0
  0
CLASS
  1
RTEXT
  2
RText
  3
RText|AutoCAD Express Tool|expresstools@autodesk.com
 90
    32768
280
     0
281
     1
  0
CLASS
  1
ARCALIGNEDTEXT
  2
AcDbArcAlignedText
  3
ATEXT|AutoCAD Express Tool|expresstools@autodesk.com
 90
    32768
280
     0
281
     1
  0
ENDSEC
  0
SECTION
  2
TABLES
  0
TABLE
  2
VPORT
  5
7
100
AcDbSymbolTable
 70
     1
  0
VPORT
  5
15
100
AcDbSymbolTableRecord
100
AcDbViewportTableRecord
  2
*ACTIVE
 70
     0
 10
0.0
 20
0.0
 11
1.0
 21
1.0
 12
6.591288
 22
4.579184
 13
0.0
 23
0.0
 14
1.0
 24
1.0
 15
0.0
 25
0.0
 16
0.0
 26
0.0
 36
1.0
 17
0.0
 27
0.0
 37
0.0
 40
9.158369
 41
0.688564
 42
50.0
 43
0.0
 44
0.0
 50
0.0
 51
0.0
 71
     0
 72
   100
 73
     1
 74
     1
 75
     0
 76
     0
 77
     0
 78
     0
281
     0
 65
     0
110
0.0
120
0.0
130
0.0
111
1.0
121
0.0
131
0.0
112
0.0
122
1.0
132
0.0
345
0
346
0
 79
     0
146
0.0
  0
ENDTAB
  0
TABLE
  2
LTYPE
  5
4
100
AcDbSymbolTable
 70
     3
  0
LTYPE
  5
11
100
AcDbSymbolTableRecord
100
AcDbLinetypeTableRecord
  2
ByBlock
 70
    64
  3

 72
    65
 73
     0
 40
0.0
  0
LTYPE
  5
12
100
AcDbSymbolTableRecord
100
AcDbLinetypeTableRecord
  2
ByLayer
 70
    64
  3

 72
    65
 73
     0
 40
0.0
  0
LTYPE
  5
13
100
AcDbSymbolTableRecord
100
AcDbLinetypeTableRecord
  2
Continuous
 70
    64
  3
Solid line
 72
    65
 73
     0
 40
0.0
  0
ENDTAB
  0
TABLE
  2
LAYER
  5
2
100
AcDbSymbolTable
 70
     2
  0
LAYER
  5
14
100
AcDbSymbolTableRecord
100
AcDbLayerTableRecord
  2
0
 70
     0
 62
     7
  6
Continuous
290
     1
370
    -3
390
1D
  0
LAYER
  5
24
100
AcDbSymbolTableRecord
100
AcDbLayerTableRecord
  2
Ebene 1
 70
     0
 62
     7
  6
Continuous
290
     1
370
    -3
390
1F
  0
ENDTAB
  0
TABLE
  2
STYLE
  5
3
100
AcDbSymbolTable
 70
     1
  0
STYLE
  5
17
100
AcDbSymbolTableRecord
100
AcDbTextStyleTableRecord
  2
Standard
 70
     0
 40
0.0
 41
1.0
 50
0.0
 71
     0
 42
0.0
  3
txt
  4

  0
ENDTAB
  0
TABLE
  2
VIEW
  5
5
100
AcDbSymbolTable
 70
     0
  0
ENDTAB
  0
TABLE
  2
UCS
  5
6
100
AcDbSymbolTable
 70
     0
  0
ENDTAB
  0
TABLE
  2
APPID
  5
8
100
AcDbSymbolTable
 70
     1
  0
APPID
  5
16
100
AcDbSymbolTableRecord
100
AcDbRegAppTableRecord
  2
ACAD
 70
     0
  0
ENDTAB
  0
TABLE
  2
DIMSTYLE
  5
9
100
AcDbSymbolTable
 70
     1
100
AcDbDimStyleTable
 71
     0
  0
DIMSTYLE
105
18
100
AcDbSymbolTableRecord
100
AcDbDimStyleTableRecord
  2
Standard
 70
     0
  3

  4

 40
1.0
 41
0.18
 42
0.0625
 43
0.38
 44
0.18
 45
0.0
 46
0.0
 47
0.0
 48
0.0
 71
     0
 72
     0
 73
     1
 74
     1
 75
     0
 76
     0
 77
     0
 78
     0
 79
     0
140
0.18
141
0.09
142
0.0
143
25.4
144
1.0
145
0.0
146
1.0
147
0.09
148
0.0
170
     0
171
     2
172
     0
173
     0
174
     0
175
     0
176
     0
177
     0
178
     0
179
     0
271
     4
272
     4
273
     2
274
     2
275
     0
276
     0
277
     2
278
    46
279
     0
280
     0
281
     0
282
     0
283
     1
284
     0
285
     0
286
     0
288
     0
340
17
341
0
342
0
343
0
344
0
371
    -2
372
    -2
  0
ENDTAB
  0
TABLE
  2
BLOCK_RECORD
  5
1
100
AcDbSymbolTable
 70
     0
  0
BLOCK_RECORD
  5
A
100
AcDbSymbolTableRecord
100
AcDbBlockTableRecord
  2
*MODEL_SPACE
340
20
  0
BLOCK_RECORD
  5
B
100
AcDbSymbolTableRecord
100
AcDbBlockTableRecord
  2
*PAPER_SPACE
340
21
  0
ENDTAB
  0
ENDSEC
  0
SECTION
  2
BLOCKS
  0
BLOCK
  5
D
100
AcDbEntity
  8
0
100
AcDbBlockBegin
  2
*MODEL_SPACE
 70
     0
 10
0.0
 20
0.0
 30
0.0
  3
*MODEL_SPACE
  1

  0
ENDBLK
  5
E
100
AcDbEntity
  8
0
100
AcDbBlockEnd
  0
BLOCK
  5
F
100
AcDbEntity
 67
     1
  8
0
100
AcDbBlockBegin
  2
*PAPER_SPACE
 70
     0
 10
0.0
 20
0.0
 30
0.0
  3
*PAPER_SPACE
  1

  0
ENDBLK
  5
10
100
AcDbEntity
 67
     1
  8
0
100
AcDbBlockEnd
  0
ENDSEC
  0
SECTION
  2
ENTITIES
  0
SPLINE
  5
25
100
AcDbEntity
  8
Ebene 1
100
AcDbSpline
210
0.0
220
0.0
230
1.0
 70
     1
 71
     3
 72
   152
 73
   148
 74
     0
 42
0.0000000001
 43
0.0000000001
 40
0.0
 40
0.0
 40
0.0
 40
0.0
 40
0.027027027027027
 40
0.027027027027027
 40
0.027027027027027
 40
0.027027027027027
 40
0.0540540540540541
 40
0.0540540540540541
 40
0.0540540540540541
 40
0.0540540540540541
 40
0.0810810810810811
 40
0.0810810810810811
 40
0.0810810810810811
 40
0.0810810810810811
 40
0.1081081081081081
 40
0.1081081081081081
 40
0.1081081081081081
 40
0.1081081081081081
 40
0.1351351351351351
 40
0.1351351351351351
 40
0.1351351351351351
 40
0.1351351351351351
 40
0.1621621621621622
 40
0.1621621621621622
 40
0.1621621621621622
 40
0.1621621621621622
 40
0.1891891891891892
 40
0.1891891891891892
 40
0.1891891891891892
 40
0.1891891891891892
 40
0.2162162162162162
 40
0.2162162162162162
 40
0.2162162162162162
 40
0.2162162162162162
 40
0.2432432432432433
 40
0.2432432432432433
 40
0.2432432432432433
 40
0.2432432432432433
 40
0.2702702702702703
 40
0.2702702702702703
 40
0.2702702702702703
 40
0.2702702702702703
 40
0.2972972972972973
 40
0.2972972972972973
 40
0.2972972972972973
 40
0.2972972972972973
 40
0.3243243243243243
 40
0.3243243243243243
 40
0.3243243243243243
 40
0.3243243243243243
 40
0.3513513513513514
 40
0.3513513513513514
 40
0.3513513513513514
 40
0.3513513513513514
 40
0.3783783783783784
 40
0.3783783783783784
 40
0.3783783783783784
 40
0.3783783783783784
 40
0.4054054054054054
 40
0.4054054054054054
 40
0.4054054054054054
 40
0.4054054054054054
 40
0.4324324324324325
 40
0.4324324324324325
 40
0.4324324324324325
 40
0.4324324324324325
 40
0.4594594594594595
 40
0.4594594594594595
 40
0.4594594594594595
 40
0.4594594594594595
 40
0.4864864864864865
 40
0.4864864864864865
 40
0.4864864864864865
 40
0.4864864864864865
 40
0.5135135135135136
 40
0.5135135135135136
 40
0.5135135135135136
 40
0.5135135135135136
 40
0.5405405405405406
 40
0.5405405405405406
 40
0.5405405405405406
 40
0.5405405405405406
 40
0.5675675675675675
 40
0.5675675675675675
 40
0.5675675675675675
 40
0.5675675675675675
 40
0.5945945945945945
 40
0.5945945945945945
 40
0.5945945945945945
 40
0.5945945945945945
 40
0.6216216216216215
 40
0.6216216216216215
 40
0.6216216216216215
 40
0.6216216216216215
 40
0.6486486486486485
 40
0.6486486486486485
 40
0.6486486486486485
 40
0.6486486486486485
 40
0.6756756756756754
 40
0.6756756756756754
 40
0.6756756756756754
 40
0.6756756756756754
 40
0.7027027027027024
 40
0.7027027027027024
 40
0.7027027027027024
 40
0.7027027027027024
 40
0.7297297297297294
 40
0.7297297297297294
 40
0.7297297297297294
 40
0.7297297297297294
 40
0.7567567567567564
 40
0.7567567567567564
 40
0.7567567567567564
 40
0.7567567567567564
 40
0.7837837837837833
 40
0.7837837837837833
 40
0.7837837837837833
 40
0.7837837837837833
 40
0.8108108108108103
 40
0.8108108108108103
 40
0.8108108108108103
 40
0.8108108108108103
 40
0.8378378378378373
 40
0.8378378378378373
 40
0.8378378378378373
 40
0.8378378378378373
 40
0.8648648648648643
 40
0.8648648648648643
 40
0.8648648648648643
 40
0.8648648648648643
 40
0.8918918918918912
 40
0.8918918918918912
 40
0.8918918918918912
 40
0.8918918918918912
 40
0.9189189189189182
 40
0.9189189189189182
 40
0.9189189189189182
 40
0.9189189189189182
 40
0.9459459459459452
 40
0.9459459459459452
 40
0.9459459459459452
 40
0.9459459459459452
 40
0.9729729729729721
 40
0.9729729729729721
 40
0.9729729729729721
 40
0.9729729729729721
 40
1.0
 40
1.0
 40
1.0
 40
1.0
 10
-0.57389
 20
5.8261900000000004
 30
0.0
 10
-0.45705
 20
5.8642900000000004
 30
0.0
 10
-0.37323
 20
5.7652300000000007
 30
0.0
 10
-0.31481
 20
5.7068100000000008
 30
0.0
 10
-0.31481
 20
5.7068100000000008
 30
0.0
 10
1.6206600000000002
 20
6.3265700000000002
 30
0.0
 10
3.13958
 20
4.3682300000000005
 30
0.0
 10
3.3173800000000004
 20
2.6892900000000002
 30
0.0
 10
3.3173800000000004
 20
2.6892900000000002
 30
0.0
 10
3.9777800000000005
 20
2.9280500000000003
 30
0.0
 10
3.7796600000000002
 20
2.0898500000000002
 30
0.0
 10
3.8177600000000003
 20
1.6504300000000001
 30
0.0
 10
3.8177600000000003
 20
1.6504300000000001
 30
0.0
 10
4.0184200000000008
 20
1.4700900000000001
 30
0.0
 10
4.2775000000000007
 20
1.3888100000000001
 30
0.0
 10
4.5772200000000005
 20
1.2897500000000002
 30
0.0
 10
4.5772200000000005
 20
1.2897500000000002
 30
0.0
 10
4.6889800000000008
 20
0.7588900000000001
 30
0.0
 10
4.6585000000000001
 20
0.17977
 30
0.0
 10
4.6153200000000005
 20
-0.36632
 30
0.0
 10
4.6153200000000005
 20
-0.36632
 30
0.0
 10
4.7855000000000008
 20
-0.4171200000000001
 30
0.0
 10
4.7296200000000006
 20
-0.9657600000000001
 30
0.0
 10
4.6991400000000008
 20
-1.1994400000000001
 30
0.0
 10
4.6991400000000008
 20
-1.1994400000000001
 30
0.0
 10
4.6737400000000004
 20
-1.3924800000000002
 30
0.0
 10
4.6458000000000004
 20
-1.5118600000000002
 30
0.0
 10
4.5162599999999999
 20
-1.5245600000000001
 30
0.0
 10
4.5162599999999999
 20
-1.5245600000000001
 30
0.0
 10
4.7372400000000008
 20
-2.3627600000000002
 30
0.0
 10
4.0971600000000006
 20
-3.1628600000000002
 30
0.0
 10
3.2589600000000001
 20
-3.0815800000000002
 30
0.0
 10
3.2589600000000001
 20
-3.0815800000000002
 30
0.0
 10
3.2589600000000001
 20
-3.0815800000000002
 30
0.0
 10
2.7789000000000001
 20
-3.5819600000000005
 30
0.0
 10
2.7789000000000001
 20
-3.5819600000000005
 30
0.0
 10
2.7789000000000001
 20
-3.5819600000000005
 30
0.0
 10
2.4334600000000002
 20
-4.2982400000000007
 30
0.0
 10
2.2810600000000001
 20
-4.8519600000000001
 30
0.0
 10
1.6816200000000001
 20
-5.2685200000000005
 30
0.0
 10
1.6816200000000001
 20
-5.2685200000000005
 30
0.0
 10
1.3107800000000001
 20
-5.5250600000000007
 30
0.0
 10
0.6046600000000001
 20
-5.7638200000000008
 30
0.0
 10
0.06618
 20
-5.8400200000000009
 30
0.0
 10
0.06618
 20
-5.8400200000000009
 30
0.0
 10
-0.40879
 20
-5.5809400000000009
 30
0.0
 10
-0.5383300000000001
 20
-4.90022
 30
0.0
 10
-0.34783
 20
-4.3820600000000001
 30
0.0
 10
-0.34783
 20
-4.3820600000000001
 30
0.0
 10
0.3024
 20
-4.0620200000000004
 30
0.0
 10
1.3438000000000001
 20
-4.1814
 30
0.0
 10
1.8797400000000002
 20
-3.7826200000000001
 30
0.0
 10
1.8797400000000002
 20
-3.7826200000000001
 30
0.0
 10
2.1388200000000004
 20
-3.4422600000000001
 30
0.0
 10
2.4995000000000003
 20
-3.0815800000000002
 30
0.0
 10
2.6188800000000003
 20
-2.6624800000000004
 30
0.0
 10
2.6188800000000003
 20
-2.6624800000000004
 30
0.0
 10
2.1591400000000003
 20
-2.5024600000000001
 30
0.0
 10
2.4385400000000002
 20
-1.8649200000000001
 30
0.0
 10
2.33948
 20
-1.4636
 30
0.0
 10
2.33948
 20
-1.4636
 30
0.0
 10
2.1388200000000004
 20
-1.6439400000000002
 30
0.0
 10
1.9000600000000001
 20
-1.5829800000000001
 30
0.0
 10
1.6587600000000002
 20
-1.5245600000000001
 30
0.0
 10
1.6587600000000002
 20
-1.5245600000000001
 30
0.0
 10
1.4377800000000001
 20
-1.50424
 30
0.0
 10
1.1736200000000001
 20
-1.4636
 30
0.0
 10
1.1609200000000002
 20
-1.7430000000000001
 30
0.0
 10
1.1609200000000002
 20
-1.7430000000000001
 30
0.0
 10
1.1609200000000002
 20
-1.7430000000000001
 30
0.0
 10
1.09996
 20
-2.02494
 30
0.0
 10
1.09996
 20
-2.02494
 30
0.0
 10
1.09996
 20
-2.02494
 30
0.0
 10
1.09996
 20
-2.02494
 30
0.0
 10
1.31586
 20
-2.7844000000000002
 30
0.0
 10
1.31586
 20
-2.7844000000000002
 30
0.0
 10
1.31586
 20
-2.7844000000000002
 30
0.0
 10
0.67832
 20
-3.1019000000000001
 30
0.0
 10
-0.47483
 20
-3.8029400000000004
 30
0.0
 10
-0.9980700000000001
 20
-2.9622000000000002
 30
0.0
 10
-0.9980700000000001
 20
-2.9622000000000002
 30
0.0
 10
-1.2800100000000001
 20
-3.0028400000000004
 30
0.0
 10
-1.3231900000000001
 20
-2.7844000000000002
 30
0.0
 10
-1.5670300000000001
 20
-2.7844000000000002
 30
0.0
 10
-1.5670300000000001
 20
-2.7844000000000002
 30
0.0
 10
-1.58735
 20
-2.4821400000000002
 30
0.0
 10
-1.4070100000000001
 20
-2.2637
 30
0.0
 10
-1.4146300000000001
 20
-1.9843000000000002
 30
0.0
 10
-1.4146300000000001
 20
-1.9843000000000002
 30
0.0
 10
-1.41971
 20
-1.7633200000000002
 30
0.0
 10
-1.4730500000000002
 20
-1.5829800000000001
 30
0.0
 10
-1.5771900000000001
 20
-1.4051800000000001
 30
0.0
 10
-1.5771900000000001
 20
-1.4051800000000001
 30
0.0
 10
-2.1715500000000003
 20
-1.5829800000000001
 30
0.0
 10
-2.6668500000000002
 20
-1.3848600000000002
 30
0.0
 10
-3.0961100000000004
 20
-0.9454400000000001
 30
0.0
 10
-3.0961100000000004
 20
-0.9454400000000001
 30
0.0
 10
-3.1215100000000002
 20
-1.4051800000000001
 30
0.0
 10
-3.0478500000000004
 20
-2.1240000000000001
 30
0.0
 10
-2.9259300000000001
 20
-2.6421600000000001
 30
0.0
 10
-2.9259300000000001
 20
-2.6421600000000001
 30
0.0
 10
-2.3493500000000003
 20
-2.7844000000000002
 30
0.0
 10
-1.75753
 20
-3.2416000000000005
 30
0.0
 10
-1.0996700000000001
 20
-3.3432000000000004
 30
0.0
 10
-1.0996700000000001
 20
-3.3432000000000004
 30
0.0
 10
-1.0996700000000001
 20
-3.3432000000000004
 30
0.0
 10
-1.1758700000000002
 20
-3.6429200000000002
 30
0.0
 10
-1.1758700000000002
 20
-3.6429200000000002
 30
0.0
 10
-1.1758700000000002
 20
-3.6429200000000002
 30
0.0
 10
-1.37907
 20
-4.0823400000000003
 30
0.0
 10
-1.6381500000000002
 20
-4.5624000000000002
 30
0.0
 10
-2.09789
 20
-4.7808400000000004
 30
0.0
 10
-2.09789
 20
-4.7808400000000004
 30
0.0
 10
-2.5347700000000004
 20
-4.40238
 30
0.0
 10
-3.0859500000000004
 20
-4.0620200000000004
 30
0.0
 10
-3.6066500000000001
 20
-3.7826200000000001
 30
0.0
 10
-3.6066500000000001
 20
-3.7826200000000001
 30
0.0
 10
-3.9571700000000005
 20
-2.9037800000000002
 30
0.0
 10
-3.9190700000000005
 20
-1.8446000000000002
 30
0.0
 10
-4.0511500000000007
 20
-0.86416
 30
0.0
 10
-4.0511500000000007
 20
-0.86416
 30
0.0
 10
-4.2467300000000003
 20
-0.9022600000000001
 30
0.0
 10
-4.3305500000000006
 20
-0.61778
 30
0.0
 10
-4.4245300000000007
 20
-0.3968
 30
0.0
 10
-4.4245300000000007
 20
-0.3968
 30
0.0
 10
-4.7902900000000006
 20
0.4744100000000001
 30
0.0
 10
-4.91221
 20
1.7850500000000002
 30
0.0
 10
-4.2949900000000003
 20
2.3895700000000004
 30
0.0
 10
-4.2949900000000003
 20
2.3895700000000004
 30
0.0
 10
-4.3305500000000006
 20
2.7096100000000001
 30
0.0
 10
-4.2162500000000005
 20
2.9483700000000002
 30
0.0
 10
-3.9724100000000004
 20
3.1287100000000003
 30
0.0
 10
-3.9724100000000004
 20
3.1287100000000003
 30
0.0
 10
-3.9673300000000005
 20
3.7484700000000002
 30
0.0
 10
-4.3280099999999999
 20
4.5866700000000007
 30
0.0
 10
-3.8911300000000004
 20
5.0667300000000006
 30
0.0
 10
-3.8911300000000004
 20
5.0667300000000006
 30
0.0
 10
-3.5456900000000005
 20
4.50793
 30
0.0
 10
-4.1248100000000001
 20
3.3268300000000002
 30
0.0
 10
-3.3958300000000001
 20
3.0677500000000002
 30
0.0
 10
-3.3958300000000001
 20
3.0677500000000002
 30
0.0
 10
-3.3018500000000004
 20
4.1269300000000007
 30
0.0
 10
-2.4077700000000002
 20
4.8076500000000006
 30
0.0
 10
-1.7676900000000002
 20
5.5061500000000008
 30
0.0
 10
-1.7676900000000002
 20
5.5061500000000008
 30
0.0
 10
-1.4578100000000001
 20
5.3461300000000005
 30
0.0
 10
-0.8761500000000001
 20
5.6458500000000003
 30
0.0
 10
-0.57389
 20
5.8261900000000004
 30
0.0
  0
SPLINE
  5
26
100
AcDbEntity
  8
Ebene 1
 62
     7
100
AcDbSpline
210
0.0
220
0.0
230
1.0
 70
     1
 71
     3
 72
    88
 73
    84
 74
     0
 42
0.0000000001
 43
0.0000000001
 40
0.0
 40
0.0
 40
0.0
 40
0.0
 40
0.0476190476190476
 40
0.0476190476190476
 40
0.0476190476190476
 40
0.0476190476190476
 40
0.0952380952380952
 40
0.0952380952380952
 40
0.0952380952380952
 40
0.0952380952380952
 40
0.1428571428571429
 40
0.1428571428571429
 40
0.1428571428571429
 40
0.1428571428571429
 40
0.1904761904761905
 40
0.1904761904761905
 40
0.1904761904761905
 40
0.1904761904761905
 40
0.2380952380952381
 40
0.2380952380952381
 40
0.2380952380952381
 40
0.2380952380952381
 40
0.2857142857142857
 40
0.2857142857142857
 40
0.2857142857142857
 40
0.2857142857142857
 40
0.3333333333333333
 40
0.3333333333333333
 40
0.3333333333333333
 40
0.3333333333333333
 40
0.3809523809523809
 40
0.3809523809523809
 40
0.3809523809523809
 40
0.3809523809523809
 40
0.4285714285714286
 40
0.4285714285714286
 40
0.4285714285714286
 40
0.4285714285714286
 40
0.4761904761904762
 40
0.4761904761904762
 40
0.4761904761904762
 40
0.4761904761904762
 40
0.5238095238095237
 40
0.5238095238095237
 40
0.5238095238095237
 40
0.5238095238095237
 40
0.5714285714285714
 40
0.5714285714285714
 40
0.5714285714285714
 40
0.5714285714285714
 40
0.6190476190476191
 40
0.6190476190476191
 40
0.6190476190476191
 40
0.6190476190476191
 40
0.6666666666666667
 40
0.6666666666666667
 40
0.6666666666666667
 40
0.6666666666666667
 40
0.7142857142857144
 40
0.7142857142857144
 40
0.7142857142857144
 40
0.7142857142857144
 40
0.7619047619047621
 40
0.7619047619047621
 40
0.7619047619047621
 40
0.7619047619047621
 40
0.8095238095238098
 40
0.8095238095238098
 40
0.8095238095238098
 40
0.8095238095238098
 40
0.8571428571428574
 40
0.8571428571428574
 40
0.8571428571428574
 40
0.8571428571428574
 40
0.9047619047619051
 40
0.9047619047619051
 40
0.9047619047619051
 40
0.9047619047619051
 40
0.9523809523809528
 40
0.9523809523809528
 40
0.9523809523809528
 40
0.9523809523809528
 40
1.0
 40
1.0
 40
1.0
 40
1.0
 10
-0.53579
 20
5.7449100000000008
 30
0.0
 10
-0.49769
 20
5.7449100000000008
 30
0.0
 10
-0.44435
 20
5.7449100000000008
 30
0.0
 10
-0.43419
 20
5.7068100000000008
 30
0.0
 10
-0.43419
 20
5.7068100000000008
 30
0.0
 10
-0.57389
 20
4.9067100000000003
 30
0.0
 10
-0.63993
 20
4.04819
 30
0.0
 10
-0.61453
 20
3.2074500000000001
 30
0.0
 10
-0.61453
 20
3.2074500000000001
 30
0.0
 10
-0.01255
 20
2.7883500000000003
 30
0.0
 10
-0.26655
 20
1.8510900000000001
 30
0.0
 10
0.25668
 20
1.4700900000000001
 30
0.0
 10
0.25668
 20
1.4700900000000001
 30
0.0
 10
0.63768
 20
1.2897500000000002
 30
0.0
 10
1.2066400000000002
 20
1.6707500000000002
 30
0.0
 10
1.4809600000000001
 20
1.3888100000000001
 30
0.0
 10
1.4809600000000001
 20
1.3888100000000001
 30
0.0
 10
1.6384400000000001
 20
1.3888100000000001
 30
0.0
 10
1.5800200000000002
 20
1.52851
 30
0.0
 10
1.6994000000000002
 20
1.5894700000000002
 30
0.0
 10
1.6994000000000002
 20
1.5894700000000002
 30
0.0
 10
1.8391000000000002
 20
1.4497700000000002
 30
0.0
 10
1.9991200000000002
 20
1.4497700000000002
 30
0.0
 10
2.1210400000000003
 20
1.6301100000000002
 30
0.0
 10
2.1210400000000003
 20
1.6301100000000002
 30
0.0
 10
2.1997800000000001
 20
1.6097900000000001
 30
0.0
 10
2.1388200000000004
 20
1.4497700000000002
 30
0.0
 10
2.2607400000000002
 20
1.4700900000000001
 30
0.0
 10
2.2607400000000002
 20
1.4700900000000001
 30
0.0
 10
2.4182200000000003
 20
1.6504300000000001
 30
0.0
 10
2.6392000000000002
 20
1.6885300000000001
 30
0.0
 10
2.8398600000000003
 20
1.5488300000000002
 30
0.0
 10
2.8398600000000003
 20
1.5488300000000002
 30
0.0
 10
2.8195400000000004
 20
1.7901300000000002
 30
0.0
 10
3.1776800000000001
 20
1.8688700000000003
 30
0.0
 10
3.3783400000000001
 20
1.8510900000000001
 30
0.0
 10
3.3783400000000001
 20
1.8510900000000001
 30
0.0
 10
3.4570800000000004
 20
1.6097900000000001
 30
0.0
 10
3.0379800000000001
 20
1.7088500000000002
 30
0.0
 10
2.9795600000000002
 20
1.52851
 30
0.0
 10
2.9795600000000002
 20
1.52851
 30
0.0
 10
2.9998800000000001
 20
1.3303900000000002
 30
0.0
 10
2.8398600000000003
 20
0.89097
 30
0.0
 10
3.1776800000000001
 20
0.9519300000000001
 30
0.0
 10
3.1776800000000001
 20
0.9519300000000001
 30
0.0
 10
3.0202000000000004
 20
0.7512700000000001
 30
0.0
 10
2.9186000000000001
 20
0.9519300000000001
 30
0.0
 10
2.8601800000000002
 20
1.0103500000000001
 30
0.0
 10
2.8601800000000002
 20
1.0103500000000001
 30
0.0
 10
2.9186000000000001
 20
0.6293500000000001
 30
0.0
 10
2.79922
 20
0.15183
 30
0.0
 10
2.3598000000000003
 20
0.31185
 30
0.0
 10
2.3598000000000003
 20
0.31185
 30
0.0
 10
2.2607400000000002
 20
-0.04628
 30
0.0
 10
1.6003400000000001
 20
0.13151
 30
0.0
 10
1.2599800000000001
 20
0.03245
 30
0.0
 10
1.2599800000000001
 20
0.03245
 30
0.0
 10
0.51068
 20
0.7715900000000001
 30
0.0
 10
-0.4392700000000001
 20
0.80969
 30
0.0
 10
-1.3257300000000001
 20
0.06293
 30
0.0
 10
-1.3257300000000001
 20
0.06293
 30
0.0
 10
-1.3257300000000001
 20
0.06293
 30
0.0
 10
-1.6940300000000001
 20
-0.0666
 30
0.0
 10
-1.6940300000000001
 20
-0.0666
 30
0.0
 10
-1.6940300000000001
 20
-0.0666
 30
0.0
 10
-2.1055100000000002
 20
0.03245
 30
0.0
 10
-2.51953
 20
0.21279
 30
0.0
 10
-2.8268700000000004
 20
0.47187
 30
0.0
 10
-2.8268700000000004
 20
0.47187
 30
0.0
 10
-2.9183100000000004
 20
0.85033
 30
0.0
 10
-3.1367500000000001
 20
1.6885300000000001
 30
0.0
 10
-2.5931900000000003
 20
1.6504300000000001
 30
0.0
 10
-2.5931900000000003
 20
1.6504300000000001
 30
0.0
 10
-2.69733
 20
2.24987
 30
0.0
 10
-2.4255500000000003
 20
2.7299300000000004
 30
0.0
 10
-1.9734300000000002
 20
3.0296500000000002
 30
0.0
 10
-1.9734300000000002
 20
3.0296500000000002
 30
0.0
 10
-2.1817100000000003
 20
3.7891100000000004
 30
0.0
 10
-1.9962900000000001
 20
4.6679500000000003
 30
0.0
 10
-1.7880100000000001
 20
5.3664500000000004
 30
0.0
 10
-1.7880100000000001
 20
5.3664500000000004
 30
0.0
 10
-1.4933700000000001
 20
5.3258100000000006
 30
0.0
 10
-0.84821
 20
5.5467900000000006
 30
0.0
 10
-0.53579
 20
5.7449100000000008
 30
0.0
  0
SPLINE
  5
27
100
AcDbEntity
  8
Ebene 1
 62
     7
100
AcDbSpline
210
0.0
220
0.0
230
1.0
 70
     1
 71
     3
 72
    76
 73
    72
 74
     0
 42
0.0000000001
 43
0.0000000001
 40
0.0
 40
0.0
 40
0.0
 40
0.0
 40
0.0555555555555556
 40
0.0555555555555556
 40
0.0555555555555556
 40
0.0555555555555556
 40
0.1111111111111111
 40
0.1111111111111111
 40
0.1111111111111111
 40
0.1111111111111111
 40
0.1666666666666667
 40
0.1666666666666667
 40
0.1666666666666667
 40
0.1666666666666667
 40
0.2222222222222222
 40
0.2222222222222222
 40
0.2222222222222222
 40
0.2222222222222222
 40
0.2777777777777778
 40
0.2777777777777778
 40
0.2777777777777778
 40
0.2777777777777778
 40
0.3333333333333334
 40
0.3333333333333334
 40
0.3333333333333334
 40
0.3333333333333334
 40
0.388888888888889
 40
0.388888888888889
 40
0.388888888888889
 40
0.388888888888889
 40
0.4444444444444445
 40
0.4444444444444445
 40
0.4444444444444445
 40
0.4444444444444445
 40
0.5000000000000001
 40
0.5000000000000001
 40
0.5000000000000001
 40
0.5000000000000001
 40
0.5555555555555557
 40
0.5555555555555557
 40
0.5555555555555557
 40
0.5555555555555557
 40
0.6111111111111113
 40
0.6111111111111113
 40
0.6111111111111113
 40
0.6111111111111113
 40
0.6666666666666669
 40
0.6666666666666669
 40
0.6666666666666669
 40
0.6666666666666669
 40
0.7222222222222224
 40
0.7222222222222224
 40
0.7222222222222224
 40
0.7222222222222224
 40
0.777777777777778
 40
0.777777777777778
 40
0.777777777777778
 40
0.777777777777778
 40
0.8333333333333336
 40
0.8333333333333336
 40
0.8333333333333336
 40
0.8333333333333336
 40
0.8888888888888892
 40
0.8888888888888892
 40
0.8888888888888892
 40
0.8888888888888892
 40
0.9444444444444448
 40
0.9444444444444448
 40
0.9444444444444448
 40
0.9444444444444448
 40
1.0
 40
1.0
 40
1.0
 40
1.0
 10
0.4421000000000001
 20
5.7245900000000001
 30
0.0
 10
2.2785200000000003
 20
5.6661700000000002
 30
0.0
 10
3.3377000000000003
 20
3.7078300000000004
 30
0.0
 10
3.1573600000000002
 20
2.04921
 30
0.0
 10
3.1573600000000002
 20
2.04921
 30
0.0
 10
3.1573600000000002
 20
2.04921
 30
0.0
 10
2.9795600000000002
 20
1.9704700000000002
 30
0.0
 10
2.9795600000000002
 20
1.9704700000000002
 30
0.0
 10
2.9795600000000002
 20
1.9704700000000002
 30
0.0
 10
2.4995000000000003
 20
2.1101700000000001
 30
0.0
 10
2.7789000000000001
 20
2.7680300000000004
 30
0.0
 10
2.8195400000000004
 20
2.9102700000000001
 30
0.0
 10
2.8195400000000004
 20
2.9102700000000001
 30
0.0
 10
2.8195400000000004
 20
2.9102700000000001
 30
0.0
 10
2.6188800000000003
 20
2.6486500000000004
 30
0.0
 10
2.6188800000000003
 20
2.6486500000000004
 30
0.0
 10
2.6188800000000003
 20
2.6486500000000004
 30
0.0
 10
2.5376000000000003
 20
2.3489300000000002
 30
0.0
 10
2.7382600000000004
 20
2.1101700000000001
 30
0.0
 10
2.7789000000000001
 20
1.8510900000000001
 30
0.0
 10
2.7789000000000001
 20
1.8510900000000001
 30
0.0
 10
2.4182200000000003
 20
1.6301100000000002
 30
0.0
 10
2.1794600000000002
 20
2.13049
 30
0.0
 10
2.0397600000000002
 20
1.7088500000000002
 30
0.0
 10
2.0397600000000002
 20
1.7088500000000002
 30
0.0
 10
1.8797400000000002
 20
2.0695300000000003
 30
0.0
 10
1.78068
 20
1.7494900000000002
 30
0.0
 10
1.6587600000000002
 20
1.6504300000000001
 30
0.0
 10
1.6587600000000002
 20
1.6504300000000001
 30
0.0
 10
1.6003400000000001
 20
1.7291700000000001
 30
0.0
 10
1.6003400000000001
 20
1.8510900000000001
 30
0.0
 10
1.4606400000000002
 20
1.8510900000000001
 30
0.0
 10
1.4606400000000002
 20
1.8510900000000001
 30
0.0
 10
1.4174600000000002
 20
1.4497700000000002
 30
0.0
 10
0.8561200000000001
 20
1.52851
 30
0.0
 10
0.5487800000000001
 20
1.5894700000000002
 30
0.0
 10
0.5487800000000001
 20
1.5894700000000002
 30
0.0
 10
0.7342000000000001
 20
2.0288900000000001
 30
0.0
 10
1.3692000000000002
 20
2.1101700000000001
 30
0.0
 10
1.4555600000000002
 20
2.6486500000000004
 30
0.0
 10
1.4555600000000002
 20
2.6486500000000004
 30
0.0
 10
1.40222
 20
2.6689700000000003
 30
0.0
 10
1.3869800000000001
 20
2.6080100000000002
 30
0.0
 10
1.36158
 20
2.5876900000000003
 30
0.0
 10
1.36158
 20
2.5876900000000003
 30
0.0
 10
1.36158
 20
2.5876900000000003
 30
0.0
 10
1.1406000000000001
 20
2.2295500000000001
 30
0.0
 10
1.1406000000000001
 20
2.2295500000000001
 30
0.0
 10
1.1406000000000001
 20
2.2295500000000001
 30
0.0
 10
1.1406000000000001
 20
2.2295500000000001
 30
0.0
 10
0.24906
 20
1.6301100000000002
 30
0.0
 10
0.24906
 20
1.6301100000000002
 30
0.0
 10
0.24906
 20
1.6301100000000002
 30
0.0
 10
0.06872
 20
2.1889100000000004
 30
0.0
 10
-0.08875
 20
2.8289900000000001
 30
0.0
 10
-0.53579
 20
3.2480900000000004
 30
0.0
 10
-0.53579
 20
3.2480900000000004
 30
0.0
 10
-0.61453
 20
3.7281500000000003
 30
0.0
 10
-0.51039
 20
4.2666300000000001
 30
0.0
 10
-0.4494300000000001
 20
4.7466900000000001
 30
0.0
 10
-0.4494300000000001
 20
4.7466900000000001
 30
0.0
 10
-0.11923
 20
4.8660700000000006
 30
0.0
 10
0.24906
 20
4.7873300000000008
 30
0.0
 10
0.57672
 20
4.7263700000000002
 30
0.0
 10
0.57672
 20
4.7263700000000002
 30
0.0
 10
0.33288
 20
4.9854500000000002
 30
0.0
 10
-0.09891
 20
4.9067100000000003
 30
0.0
 10
-0.4291100000000001
 20
4.9651300000000003
 30
0.0
 10
-0.4291100000000001
 20
4.9651300000000003
 30
0.0
 10
-0.4595900000000001
 20
5.5061500000000008
 30
0.0
 10
-0.02525
 20
5.7245900000000001
 30
0.0
 10
0.4421000000000001
 20
5.7245900000000001
 30
0.0
  0
SPLINE
  5
28
100
AcDbEntity
  8
Ebene 1
100
AcDbSpline
210
0.0
220
0.0
230
1.0
 70
     1
 71
     3
 72
    24
 73
    20
 74
     0
 42
0.0000000001
 43
0.0000000001
 40
0.0
 40
0.0
 40
0.0
 40
0.0
 40
0.2
 40
0.2
 40
0.2
 40
0.2
 40
0.4
 40
0.4
 40
0.4
 40
0.4
 40
0.6000000000000001
 40
0.6000000000000001
 40
0.6000000000000001
 40
0.6000000000000001
 40
0.8
 40
0.8
 40
0.8
 40
0.8
 40
1.0
 40
1.0
 40
1.0
 40
1.0
 10
-0.99553
 20
5.4274100000000001
 30
0.0
 10
-0.99553
 20
5.4274100000000001
 30
0.0
 10
-0.75931
 20
5.4274100000000001
 30
0.0
 10
-0.75931
 20
5.4274100000000001
 30
0.0
 10
-0.75931
 20
5.4274100000000001
 30
0.0
 10
-0.75931
 20
5.4274100000000001
 30
0.0
 10
-0.8202700000000001
 20
4.9270300000000002
 30
0.0
 10
-0.8202700000000001
 20
4.9270300000000002
 30
0.0
 10
-0.8202700000000001
 20
4.9270300000000002
 30
0.0
 10
-1.0971300000000002
 20
5.0464100000000007
 30
0.0
 10
-1.4247900000000002
 20
4.8457500000000007
 30
0.0
 10
-1.7092700000000001
 20
4.8076500000000006
 30
0.0
 10
-1.7092700000000001
 20
4.8076500000000006
 30
0.0
 10
-1.7092700000000001
 20
4.8076500000000006
 30
0.0
 10
-1.6889500000000002
 20
5.1657900000000003
 30
0.0
 10
-1.6889500000000002
 20
5.1657900000000003
 30
0.0
 10
-1.6889500000000002
 20
5.1657900000000003
 30
0.0
 10
-1.4679700000000002
 20
5.2851700000000008
 30
0.0
 10
-1.2215900000000002
 20
5.3461300000000005
 30
0.0
 10
-0.99553
 20
5.4274100000000001
 30
0.0
  0
SPLINE
  5
29
100
AcDbEntity
  8
Ebene 1
 62
     7
100
AcDbSpline
210
0.0
220
0.0
230
1.0
 70
     1
 71
     3
 72
    16
 73
    12
 74
     0
 42
0.0000000001
 43
0.0000000001
 40
0.0
 40
0.0
 40
0.0
 40
0.0
 40
0.3333333333333333
 40
0.3333333333333333
 40
0.3333333333333333
 40
0.3333333333333333
 40
0.6666666666666666
 40
0.6666666666666666
 40
0.6666666666666666
 40
0.6666666666666666
 40
1.0
 40
1.0
 40
1.0
 40
1.0
 10
-1.0564900000000002
 20
5.3054900000000007
 30
0.0
 10
-0.90917
 20
5.3664500000000004
 30
0.0
 10
-0.8786900000000001
 20
5.1657900000000003
 30
0.0
 10
-0.9879100000000001
 20
5.1251500000000005
 30
0.0
 10
-0.9879100000000001
 20
5.1251500000000005
 30
0.0
 10
-0.91171
 20
5.2851700000000008
 30
0.0
 10
-1.2317500000000001
 20
5.22675
 30
0.0
 10
-1.1149100000000001
 20
5.2851700000000008
 30
0.0
 10
-1.1149100000000001
 20
5.2851700000000008
 30
0.0
 10
-1.0971300000000002
 20
5.2851700000000008
 30
0.0
 10
-1.0564900000000002
 20
5.2673900000000007
 30
0.0
 10
-1.0564900000000002
 20
5.3054900000000007
 30
0.0
  0
SPLINE
  5
2A
100
AcDbEntity
  8
Ebene 1
 62
     7
100
AcDbSpline
210
0.0
220
0.0
230
1.0
 70
     1
 71
     3
 72
    12
 73
     8
 74
     0
 42
0.0000000001
 43
0.0000000001
 40
0.0
 40
0.0
 40
0.0
 40
0.0
 40
0.5
 40
0.5
 40
0.5
 40
0.5
 40
1.0
 40
1.0
 40
1.0
 40
1.0
 10
-3.8911300000000004
 20
4.9270300000000002
 30
0.0
 10
-3.8504900000000002
 20
4.8660700000000006
 30
0.0
 10
-3.8479500000000004
 20
3.5478100000000001
 30
0.0
 10
-3.8454100000000002
 20
3.4487500000000004
 30
0.0
 10
-3.8454100000000002
 20
3.4487500000000004
 30
0.0
 10
-3.9825700000000004
 20
3.4690700000000003
 30
0.0
 10
-3.9419300000000002
 20
4.8457500000000007
 30
0.0
 10
-3.8911300000000004
 20
4.9270300000000002
 30
0.0
  0
SPLINE
  5
2B
100
AcDbEntity
  8
Ebene 1
 62
     7
100
AcDbSpline
210
0.0
220
0.0
230
1.0
 70
     1
 71
     3
 72
    36
 73
    32
 74
     0
 42
0.0000000001
 43
0.0000000001
 40
0.0
 40
0.0
 40
0.0
 40
0.0
 40
0.125
 40
0.125
 40
0.125
 40
0.125
 40
0.25
 40
0.25
 40
0.25
 40
0.25
 40
0.375
 40
0.375
 40
0.375
 40
0.375
 40
0.5
 40
0.5
 40
0.5
 40
0.5
 40
0.625
 40
0.625
 40
0.625
 40
0.625
 40
0.75
 40
0.75
 40
0.75
 40
0.75
 40
0.875
 40
0.875
 40
0.875
 40
0.875
 40
1.0
 40
1.0
 40
1.0
 40
1.0
 10
-2.2121900000000001
 20
4.7466900000000001
 30
0.0
 10
-2.2121900000000001
 20
4.7466900000000001
 30
0.0
 10
-2.1334500000000003
 20
4.7263700000000002
 30
0.0
 10
-2.1334500000000003
 20
4.7263700000000002
 30
0.0
 10
-2.1334500000000003
 20
4.7263700000000002
 30
0.0
 10
-2.1334500000000003
 20
4.7263700000000002
 30
0.0
 10
-2.2528300000000003
 20
2.9890100000000004
 30
0.0
 10
-2.2528300000000003
 20
2.9890100000000004
 30
0.0
 10
-2.2528300000000003
 20
2.9890100000000004
 30
0.0
 10
-2.57287
 20
2.6486500000000004
 30
0.0
 10
-2.7024100000000004
 20
2.1482700000000001
 30
0.0
 10
-2.8344900000000002
 20
1.7494900000000002
 30
0.0
 10
-2.8344900000000002
 20
1.7494900000000002
 30
0.0
 10
-2.8903700000000003
 20
2.4886300000000001
 30
0.0
 10
-2.90307
 20
3.2887300000000002
 30
0.0
 10
-2.3976100000000002
 20
3.8678500000000002
 30
0.0
 10
-2.3976100000000002
 20
3.8678500000000002
 30
0.0
 10
-2.3798300000000001
 20
3.9465900000000005
 30
0.0
 10
-2.31887
 20
4.0278700000000001
 30
0.0
 10
-2.35697
 20
4.08629
 30
0.0
 10
-2.35697
 20
4.08629
 30
0.0
 10
-2.6770100000000001
 20
3.8094300000000003
 30
0.0
 10
-2.9056100000000002
 20
3.3877900000000003
 30
0.0
 10
-3.0656300000000001
 20
3.0296500000000002
 30
0.0
 10
-3.0656300000000001
 20
3.0296500000000002
 30
0.0
 10
-3.1011900000000003
 20
3.0677500000000002
 30
0.0
 10
-3.1418300000000001
 20
3.0677500000000002
 30
0.0
 10
-3.1519900000000001
 20
3.1287100000000003
 30
0.0
 10
-3.1519900000000001
 20
3.1287100000000003
 30
0.0
 10
-3.1088100000000001
 20
3.7891100000000004
 30
0.0
 10
-2.8090900000000003
 20
4.4469700000000003
 30
0.0
 10
-2.2121900000000001
 20
4.7466900000000001
 30
0.0
  0
SPLINE
  5
2C
100
AcDbEntity
  8
Ebene 1
100
AcDbSpline
210
0.0
220
0.0
230
1.0
 70
     1
 71
     3
 72
    24
 73
    20
 74
     0
 42
0.0000000001
 43
0.0000000001
 40
0.0
 40
0.0
 40
0.0
 40
0.0
 40
0.2
 40
0.2
 40
0.2
 40
0.2
 40
0.4
 40
0.4
 40
0.4
 40
0.4
 40
0.6000000000000001
 40
0.6000000000000001
 40
0.6000000000000001
 40
0.6000000000000001
 40
0.8
 40
0.8
 40
0.8
 40
0.8
 40
1.0
 40
1.0
 40
1.0
 40
1.0
 10
-1.1758700000000002
 20
4.6882700000000002
 30
0.0
 10
-1.1758700000000002
 20
4.6882700000000002
 30
0.0
 10
-0.8990100000000001
 20
4.6882700000000002
 30
0.0
 10
-0.8990100000000001
 20
4.6882700000000002
 30
0.0
 10
-0.8990100000000001
 20
4.6882700000000002
 30
0.0
 10
-0.8990100000000001
 20
4.6882700000000002
 30
0.0
 10
-0.9599700000000001
 20
4.08629
 30
0.0
 10
-0.9599700000000001
 20
4.08629
 30
0.0
 10
-0.9599700000000001
 20
4.08629
 30
0.0
 10
-1.24699
 20
4.1269300000000007
 30
0.0
 10
-1.5670300000000001
 20
4.0075500000000002
 30
0.0
 10
-1.8489700000000002
 20
3.9288100000000004
 30
0.0
 10
-1.8489700000000002
 20
3.9288100000000004
 30
0.0
 10
-1.8794500000000001
 20
4.1675700000000004
 30
0.0
 10
-1.8464300000000002
 20
4.3860100000000006
 30
0.0
 10
-1.7295900000000002
 20
4.5663500000000008
 30
0.0
 10
-1.7295900000000002
 20
4.5663500000000008
 30
0.0
 10
-1.54671
 20
4.5282500000000008
 30
0.0
 10
-1.3562100000000001
 20
4.6882700000000002
 30
0.0
 10
-1.1758700000000002
 20
4.6882700000000002
 30
0.0
  0
SPLINE
  5
2D
100
AcDbEntity
  8
Ebene 1
 62
     7
100
AcDbSpline
210
0.0
220
0.0
230
1.0
 70
     1
 71
     3
 72
    16
 73
    12
 74
     0
 42
0.0000000001
 43
0.0000000001
 40
0.0
 40
0.0
 40
0.0
 40
0.0
 40
0.3333333333333333
 40
0.3333333333333333
 40
0.3333333333333333
 40
0.3333333333333333
 40
0.6666666666666666
 40
0.6666666666666666
 40
0.6666666666666666
 40
0.6666666666666666
 40
1.0
 40
1.0
 40
1.0
 40
1.0
 10
-1.2342900000000001
 20
4.5282500000000008
 30
0.0
 10
-1.1809500000000002
 20
4.5282500000000008
 30
0.0
 10
-1.12761
 20
4.5282500000000008
 30
0.0
 10
-1.07935
 20
4.50793
 30
0.0
 10
-1.07935
 20
4.50793
 30
0.0
 10
-1.07935
 20
4.50793
 30
0.0
 10
-1.0996700000000001
 20
4.3072699999999999
 30
0.0
 10
-1.0996700000000001
 20
4.3072699999999999
 30
0.0
 10
-1.0996700000000001
 20
4.3072699999999999
 30
0.0
 10
-1.17079
 20
4.3682300000000005
 30
0.0
 10
-1.2012700000000001
 20
4.4469700000000003
 30
0.0
 10
-1.2342900000000001
 20
4.5282500000000008
 30
0.0
  0
SPLINE
  5
2E
100
AcDbEntity
  8
Ebene 1
100
AcDbSpline
210
0.0
220
0.0
230
1.0
 70
     1
 71
     3
 72
    24
 73
    20
 74
     0
 42
0.0000000001
 43
0.0000000001
 40
0.0
 40
0.0
 40
0.0
 40
0.0
 40
0.2
 40
0.2
 40
0.2
 40
0.2
 40
0.4
 40
0.4
 40
0.4
 40
0.4
 40
0.6000000000000001
 40
0.6000000000000001
 40
0.6000000000000001
 40
0.6000000000000001
 40
0.8
 40
0.8
 40
0.8
 40
0.8
 40
1.0
 40
1.0
 40
1.0
 40
1.0
 10
-0.99553
 20
3.9465900000000005
 30
0.0
 10
-0.99553
 20
3.9465900000000005
 30
0.0
 10
-0.9193300000000001
 20
3.9084900000000005
 30
0.0
 10
-0.9193300000000001
 20
3.9084900000000005
 30
0.0
 10
-0.9193300000000001
 20
3.9084900000000005
 30
0.0
 10
-0.9625100000000001
 20
3.6671900000000002
 30
0.0
 10
-0.8101100000000001
 20
3.4081100000000002
 30
0.0
 10
-0.8405900000000001
 20
3.1871300000000002
 30
0.0
 10
-0.8405900000000001
 20
3.1871300000000002
 30
0.0
 10
-1.1936500000000001
 20
3.3268300000000002
 30
0.0
 10
-1.54925
 20
3.2988900000000001
 30
0.0
 10
-1.8870700000000002
 20
3.1591900000000002
 30
0.0
 10
-1.8870700000000002
 20
3.1591900000000002
 30
0.0
 10
-1.9353300000000002
 20
3.3776300000000004
 30
0.0
 10
-1.9200900000000001
 20
3.5681300000000005
 30
0.0
 10
-1.8692900000000001
 20
3.7687900000000005
 30
0.0
 10
-1.8692900000000001
 20
3.7687900000000005
 30
0.0
 10
-1.6076700000000002
 20
3.9084900000000005
 30
0.0
 10
-1.2825500000000001
 20
3.9084900000000005
 30
0.0
 10
-0.99553
 20
3.9465900000000005
 30
0.0
  0
SPLINE
  5
2F
100
AcDbEntity
  8
Ebene 1
 62
     7
100
AcDbSpline
210
0.0
220
0.0
230
1.0
 70
     1
 71
     3
 72
    16
 73
    12
 74
     0
 42
0.0000000001
 43
0.0000000001
 40
0.0
 40
0.0
 40
0.0
 40
0.0
 40
0.3333333333333333
 40
0.3333333333333333
 40
0.3333333333333333
 40
0.3333333333333333
 40
0.6666666666666666
 40
0.6666666666666666
 40
0.6666666666666666
 40
0.6666666666666666
 40
1.0
 40
1.0
 40
1.0
 40
1.0
 10
-1.2749300000000001
 20
3.7078300000000004
 30
0.0
 10
-1.16571
 20
3.6875100000000005
 30
0.0
 10
-1.08189
 20
3.5274900000000002
 30
0.0
 10
-1.07935
 20
3.4284300000000001
 30
0.0
 10
-1.07935
 20
3.4284300000000001
 30
0.0
 10
-1.12761
 20
3.4690700000000003
 30
0.0
 10
-1.16571
 20
3.5071700000000003
 30
0.0
 10
-1.1784100000000002
 20
3.5884500000000004
 30
0.0
 10
-1.1784100000000002
 20
3.5884500000000004
 30
0.0
 10
-1.2266700000000001
 20
3.5884500000000004
 30
0.0
 10
-1.3054100000000002
 20
3.6671900000000002
 30
0.0
 10
-1.2749300000000001
 20
3.7078300000000004
 30
0.0
  0
SPLINE
  5
30
100
AcDbEntity
  8
Ebene 1
 62
     7
100
AcDbSpline
210
0.0
220
0.0
230
1.0
 70
     1
 71
     3
 72
    56
 73
    52
 74
     0
 42
0.0000000001
 43
0.0000000001
 40
0.0
 40
0.0
 40
0.0
 40
0.0
 40
0.0769230769230769
 40
0.0769230769230769
 40
0.0769230769230769
 40
0.0769230769230769
 40
0.1538461538461539
 40
0.1538461538461539
 40
0.1538461538461539
 40
0.1538461538461539
 40
0.2307692307692308
 40
0.2307692307692308
 40
0.2307692307692308
 40
0.2307692307692308
 40
0.3076923076923077
 40
0.3076923076923077
 40
0.3076923076923077
 40
0.3076923076923077
 40
0.3846153846153846
 40
0.3846153846153846
 40
0.3846153846153846
 40
0.3846153846153846
 40
0.4615384615384616
 40
0.4615384615384616
 40
0.4615384615384616
 40
0.4615384615384616
 40
0.5384615384615386
 40
0.5384615384615386
 40
0.5384615384615386
 40
0.5384615384615386
 40
0.6153846153846154
 40
0.6153846153846154
 40
0.6153846153846154
 40
0.6153846153846154
 40
0.6923076923076923
 40
0.6923076923076923
 40
0.6923076923076923
 40
0.6923076923076923
 40
0.7692307692307692
 40
0.7692307692307692
 40
0.7692307692307692
 40
0.7692307692307692
 40
0.846153846153846
 40
0.846153846153846
 40
0.846153846153846
 40
0.846153846153846
 40
0.9230769230769229
 40
0.9230769230769229
 40
0.9230769230769229
 40
0.9230769230769229
 40
1.0
 40
1.0
 40
1.0
 40
1.0
 10
-3.5533100000000002
 20
3.0474300000000003
 30
0.0
 10
-3.5533100000000002
 20
3.0474300000000003
 30
0.0
 10
-3.4313900000000004
 20
2.9890100000000004
 30
0.0
 10
-3.4313900000000004
 20
2.9890100000000004
 30
0.0
 10
-3.4313900000000004
 20
2.9890100000000004
 30
0.0
 10
-3.4542500000000005
 20
2.9483700000000002
 30
0.0
 10
-3.5075900000000004
 20
2.9280500000000003
 30
0.0
 10
-3.5456900000000005
 20
2.9102700000000001
 30
0.0
 10
-3.5456900000000005
 20
2.9102700000000001
 30
0.0
 10
-3.5787100000000005
 20
2.4479900000000003
 30
0.0
 10
-3.4517100000000003
 20
2.01111
 30
0.0
 10
-3.4771100000000001
 20
1.52851
 30
0.0
 10
-3.4771100000000001
 20
1.52851
 30
0.0
 10
-3.6498300000000001
 20
1.5894700000000002
 30
0.0
 10
-3.9190700000000005
 20
1.56915
 30
0.0
 10
-4.1044900000000002
 20
1.4294500000000001
 30
0.0
 10
-4.1044900000000002
 20
1.4294500000000001
 30
0.0
 10
-4.1044900000000002
 20
1.4294500000000001
 30
0.0
 10
-4.1705300000000003
 20
2.0898500000000002
 30
0.0
 10
-4.1705300000000003
 20
2.0898500000000002
 30
0.0
 10
-4.1705300000000003
 20
2.0898500000000002
 30
0.0
 10
-4.1705300000000003
 20
2.0898500000000002
 30
0.0
 10
-4.19339
 20
2.4581500000000003
 30
0.0
 10
-4.19339
 20
2.4581500000000003
 30
0.0
 10
-4.19339
 20
2.4581500000000003
 30
0.0
 10
-4.19339
 20
2.4581500000000003
 30
0.0
 10
-4.1248100000000001
 20
2.5699100000000001
 30
0.0
 10
-4.1248100000000001
 20
2.5699100000000001
 30
0.0
 10
-4.1248100000000001
 20
2.5699100000000001
 30
0.0
 10
-4.1248100000000001
 20
2.5699100000000001
 30
0.0
 10
-4.0917900000000005
 20
2.0593700000000004
 30
0.0
 10
-4.0917900000000005
 20
2.0593700000000004
 30
0.0
 10
-4.0917900000000005
 20
2.0593700000000004
 30
0.0
 10
-4.0917900000000005
 20
1.9196700000000002
 30
0.0
 10
-4.1044900000000002
 20
1.7901300000000002
 30
0.0
 10
-4.0257500000000004
 20
1.6707500000000002
 30
0.0
 10
-4.0257500000000004
 20
1.6707500000000002
 30
0.0
 10
-4.0257500000000004
 20
1.6707500000000002
 30
0.0
 10
-3.9546300000000003
 20
1.6885300000000001
 30
0.0
 10
-3.9546300000000003
 20
1.6885300000000001
 30
0.0
 10
-3.9546300000000003
 20
1.6885300000000001
 30
0.0
 10
-3.9393900000000004
 20
2.13049
 30
0.0
 10
-4.0917900000000005
 20
2.5876900000000003
 30
0.0
 10
-3.8657300000000001
 20
2.9686900000000001
 30
0.0
 10
-3.8657300000000001
 20
2.9686900000000001
 30
0.0
 10
-3.8657300000000001
 20
2.9686900000000001
 30
0.0
 10
-3.5914100000000002
 20
2.9890100000000004
 30
0.0
 10
-3.5914100000000002
 20
2.9890100000000004
 30
0.0
 10
-3.5914100000000002
 20
2.9890100000000004
 30
0.0
 10
-3.5914100000000002
 20
2.9890100000000004
 30
0.0
 10
-3.5533100000000002
 20
3.0474300000000003
 30
0.0
 10
-3.5533100000000002
 20
3.0474300000000003
 30
0.0
  0
SPLINE
  5
31
100
AcDbEntity
  8
Ebene 1
100
AcDbSpline
210
0.0
220
0.0
230
1.0
 70
     1
 71
     3
 72
    20
 73
    16
 74
     0
 42
0.0000000001
 43
0.0000000001
 40
0.0
 40
0.0
 40
0.0
 40
0.0
 40
0.25
 40
0.25
 40
0.25
 40
0.25
 40
0.5
 40
0.5
 40
0.5
 40
0.5
 40
0.75
 40
0.75
 40
0.75
 40
0.75
 40
1.0
 40
1.0
 40
1.0
 40
1.0
 10
-1.3536700000000002
 20
3.0093300000000003
 30
0.0
 10
-0.5789700000000001
 20
3.0093300000000003
 30
0.0
 10
-0.21829
 20
2.2295500000000001
 30
0.0
 10
-0.29957
 20
1.52851
 30
0.0
 10
-0.29957
 20
1.52851
 30
0.0
 10
-0.29957
 20
1.52851
 30
0.0
 10
-0.47483
 20
1.4497700000000002
 30
0.0
 10
-0.47483
 20
1.4497700000000002
 30
0.0
 10
-0.47483
 20
1.4497700000000002
 30
0.0
 10
-1.1072900000000001
 20
1.5081900000000001
 30
0.0
 10
-1.7702300000000002
 20
1.4700900000000001
 30
0.0
 10
-2.4077700000000002
 20
1.6301100000000002
 30
0.0
 10
-2.4077700000000002
 20
1.6301100000000002
 30
0.0
 10
-2.5322300000000002
 20
2.3082900000000004
 30
0.0
 10
-2.0445500000000001
 20
2.9686900000000001
 30
0.0
 10
-1.3536700000000002
 20
3.0093300000000003
 30
0.0
  0
SPLINE
  5
32
100
AcDbEntity
  8
Ebene 1
 62
     7
100
AcDbSpline
210
0.0
220
0.0
230
1.0
 70
     1
 71
     3
 72
    44
 73
    40
 74
     0
 42
0.0000000001
 43
0.0000000001
 40
0.0
 40
0.0
 40
0.0
 40
0.0
 40
0.1
 40
0.1
 40
0.1
 40
0.1
 40
0.2
 40
0.2
 40
0.2
 40
0.2
 40
0.3
 40
0.3
 40
0.3
 40
0.3
 40
0.4
 40
0.4
 40
0.4
 40
0.4
 40
0.5
 40
0.5
 40
0.5
 40
0.5
 40
0.6
 40
0.6
 40
0.6
 40
0.6
 40
0.7
 40
0.7
 40
0.7
 40
0.7
 40
0.7999999999999999
 40
0.7999999999999999
 40
0.7999999999999999
 40
0.7999999999999999
 40
0.8999999999999999
 40
0.8999999999999999
 40
0.8999999999999999
 40
0.8999999999999999
 40
1.0
 40
1.0
 40
1.0
 40
1.0
 10
-3.3120100000000003
 20
2.7883500000000003
 30
0.0
 10
-3.2104100000000004
 20
2.7680300000000004
 30
0.0
 10
-3.1062700000000003
 20
2.8086700000000002
 30
0.0
 10
-3.0148300000000003
 20
2.7096100000000001
 30
0.0
 10
-3.0148300000000003
 20
2.7096100000000001
 30
0.0
 10
-2.9081500000000005
 20
2.3895700000000004
 30
0.0
 10
-3.0072100000000002
 20
2.04921
 30
0.0
 10
-2.9970500000000002
 20
1.7088500000000002
 30
0.0
 10
-2.9970500000000002
 20
1.7088500000000002
 30
0.0
 10
-2.9970500000000002
 20
1.7088500000000002
 30
0.0
 10
-3.1469100000000001
 20
1.6707500000000002
 30
0.0
 10
-3.1469100000000001
 20
1.6707500000000002
 30
0.0
 10
-3.1469100000000001
 20
1.6707500000000002
 30
0.0
 10
-3.1519900000000001
 20
1.5894700000000002
 30
0.0
 10
-3.1596100000000003
 20
1.52851
 30
0.0
 10
-3.2129500000000002
 20
1.49041
 30
0.0
 10
-3.2129500000000002
 20
1.49041
 30
0.0
 10
-3.2358100000000003
 20
1.3888100000000001
 30
0.0
 10
-3.1443700000000003
 20
1.3710300000000002
 30
0.0
 10
-3.0910300000000004
 20
1.3507100000000001
 30
0.0
 10
-3.0910300000000004
 20
1.3507100000000001
 30
0.0
 10
-3.1240500000000004
 20
1.1322700000000001
 30
0.0
 10
-3.1062700000000003
 20
1.0103500000000001
 30
0.0
 10
-3.1723100000000004
 20
0.85033
 30
0.0
 10
-3.1723100000000004
 20
0.85033
 30
0.0
 10
-2.9995900000000004
 20
0.6699900000000001
 30
0.0
 10
-3.0961100000000004
 20
0.35249
 30
0.0
 10
-3.0122900000000001
 20
0.11119
 30
0.0
 10
-3.0122900000000001
 20
0.11119
 30
0.0
 10
-3.0122900000000001
 20
0.11119
 30
0.0
 10
-3.1926300000000003
 20
-0.10724
 30
0.0
 10
-3.1926300000000003
 20
-0.10724
 30
0.0
 10
-3.1926300000000003
 20
-0.10724
 30
0.0
 10
-3.1850100000000001
 20
0.05277
 30
0.0
 10
-3.2612100000000002
 20
0.15183
 30
0.0
 10
-3.3526500000000001
 20
0.27121
 30
0.0
 10
-3.3526500000000001
 20
0.27121
 30
0.0
 10
-3.3653500000000003
 20
1.0916300000000001
 30
0.0
 10
-3.4872700000000001
 20
1.9907900000000001
 30
0.0
 10
-3.3120100000000003
 20
2.7883500000000003
 30
0.0
  0
SPLINE
  5
33
100
AcDbEntity
  8
Ebene 1
 62
     7
100
AcDbSpline
210
0.0
220
0.0
230
1.0
 70
     1
 71
     3
 72
    16
 73
    12
 74
     0
 42
0.0000000001
 43
0.0000000001
 40
0.0
 40
0.0
 40
0.0
 40
0.0
 40
0.3333333333333333
 40
0.3333333333333333
 40
0.3333333333333333
 40
0.3333333333333333
 40
0.6666666666666666
 40
0.6666666666666666
 40
0.6666666666666666
 40
0.6666666666666666
 40
1.0
 40
1.0
 40
1.0
 40
1.0
 10
3.3986600000000005
 20
2.5876900000000003
 30
0.0
 10
3.5180400000000005
 20
2.5699100000000001
 30
0.0
 10
3.4189800000000004
 20
2.3895700000000004
 30
0.0
 10
3.4774000000000003
 20
2.3082900000000004
 30
0.0
 10
3.4774000000000003
 20
2.3082900000000004
 30
0.0
 10
3.4774000000000003
 20
2.3082900000000004
 30
0.0
 10
3.4367600000000005
 20
2.2879700000000001
 30
0.0
 10
3.4367600000000005
 20
2.2879700000000001
 30
0.0
 10
3.4367600000000005
 20
2.2879700000000001
 30
0.0
 10
3.3377000000000003
 20
2.3286100000000003
 30
0.0
 10
3.3986600000000005
 20
2.4886300000000001
 30
0.0
 10
3.3986600000000005
 20
2.5876900000000003
 30
0.0
  0
SPLINE
  5
34
100
AcDbEntity
  8
Ebene 1
 62
     7
100
AcDbSpline
210
0.0
220
0.0
230
1.0
 70
     1
 71
     3
 72
    12
 73
     8
 74
     0
 42
0.0000000001
 43
0.0000000001
 40
0.0
 40
0.0
 40
0.0
 40
0.0
 40
0.5
 40
0.5
 40
0.5
 40
0.5
 40
1.0
 40
1.0
 40
1.0
 40
1.0
 10
3.5790000000000002
 20
2.5495900000000002
 30
0.0
 10
3.6780600000000003
 20
2.5699100000000001
 30
0.0
 10
3.6374200000000001
 20
2.3692500000000001
 30
0.0
 10
3.6171000000000002
 20
2.3286100000000003
 30
0.0
 10
3.6171000000000002
 20
2.3286100000000003
 30
0.0
 10
3.5586800000000003
 20
2.3895700000000004
 30
0.0
 10
3.5790000000000002
 20
2.4683100000000002
 30
0.0
 10
3.5790000000000002
 20
2.5495900000000002
 30
0.0
  0
SPLINE
  5
35
100
AcDbEntity
  8
Ebene 1
 62
     7
100
AcDbSpline
210
0.0
220
0.0
230
1.0
 70
     1
 71
     3
 72
    12
 73
     8
 74
     0
 42
0.0000000001
 43
0.0000000001
 40
0.0
 40
0.0
 40
0.0
 40
0.0
 40
0.5
 40
0.5
 40
0.5
 40
0.5
 40
1.0
 40
1.0
 40
1.0
 40
1.0
 10
-1.8946900000000002
 20
2.3895700000000004
 30
0.0
 10
-1.7448300000000001
 20
2.3895700000000004
 30
0.0
 10
-1.6889500000000002
 20
2.2295500000000001
 30
0.0
 10
-1.8337300000000001
 20
2.16859
 30
0.0
 10
-1.8337300000000001
 20
2.16859
 30
0.0
 10
-1.9607300000000001
 20
2.16859
 30
0.0
 10
-1.9912100000000001
 20
2.3286100000000003
 30
0.0
 10
-1.8946900000000002
 20
2.3895700000000004
 30
0.0
  0
SPLINE
  5
36
100
AcDbEntity
  8
Ebene 1
 62
     7
100
AcDbSpline
210
0.0
220
0.0
230
1.0
 70
     1
 71
     3
 72
    28
 73
    24
 74
     0
 42
0.0000000001
 43
0.0000000001
 40
0.0
 40
0.0
 40
0.0
 40
0.0
 40
0.1666666666666667
 40
0.1666666666666667
 40
0.1666666666666667
 40
0.1666666666666667
 40
0.3333333333333333
 40
0.3333333333333333
 40
0.3333333333333333
 40
0.3333333333333333
 40
0.5
 40
0.5
 40
0.5
 40
0.5
 40
0.6666666666666666
 40
0.6666666666666666
 40
0.6666666666666666
 40
0.6666666666666666
 40
0.8333333333333333
 40
0.8333333333333333
 40
0.8333333333333333
 40
0.8333333333333333
 40
1.0
 40
1.0
 40
1.0
 40
1.0
 10
3.6171000000000002
 20
2.2092300000000002
 30
0.0
 10
3.6374200000000001
 20
2.2092300000000002
 30
0.0
 10
3.6577400000000004
 20
2.2092300000000002
 30
0.0
 10
3.6577400000000004
 20
2.1889100000000004
 30
0.0
 10
3.6577400000000004
 20
2.1889100000000004
 30
0.0
 10
3.6780600000000003
 20
1.7494900000000002
 30
0.0
 10
3.6577400000000004
 20
1.3507100000000001
 30
0.0
 10
3.6577400000000004
 20
0.89097
 30
0.0
 10
3.6577400000000004
 20
0.89097
 30
0.0
 10
3.5586800000000003
 20
0.87065
 30
0.0
 10
3.4367600000000005
 20
0.87065
 30
0.0
 10
3.3173800000000004
 20
0.87065
 30
0.0
 10
3.3173800000000004
 20
0.87065
 30
0.0
 10
3.3986600000000005
 20
1.07131
 30
0.0
 10
3.3783400000000001
 20
1.3100700000000001
 30
0.0
 10
3.3783400000000001
 20
1.5488300000000002
 30
0.0
 10
3.3783400000000001
 20
1.5488300000000002
 30
0.0
 10
3.5790000000000002
 20
1.6707500000000002
 30
0.0
 10
3.4367600000000005
 20
1.9501500000000001
 30
0.0
 10
3.3986600000000005
 20
2.13049
 30
0.0
 10
3.3986600000000005
 20
2.13049
 30
0.0
 10
3.3986600000000005
 20
2.13049
 30
0.0
 10
3.6171000000000002
 20
2.2092300000000002
 30
0.0
 10
3.6171000000000002
 20
2.2092300000000002
 30
0.0
  0
SPLINE
  5
37
100
AcDbEntity
  8
Ebene 1
 62
     7
100
AcDbSpline
210
0.0
220
0.0
230
1.0
 70
     1
 71
     3
 72
    12
 73
     8
 74
     0
 42
0.0000000001
 43
0.0000000001
 40
0.0
 40
0.0
 40
0.0
 40
0.0
 40
0.5
 40
0.5
 40
0.5
 40
0.5
 40
1.0
 40
1.0
 40
1.0
 40
1.0
 10
-1.3130300000000001
 20
2.13049
 30
0.0
 10
-1.2419100000000001
 20
2.16859
 30
0.0
 10
-1.2012700000000001
 20
2.0695300000000003
 30
0.0
 10
-1.2571500000000002
 20
2.0288900000000001
 30
0.0
 10
-1.2571500000000002
 20
2.0288900000000001
 30
0.0
 10
-1.3155700000000001
 20
2.01111
 30
0.0
 10
-1.3511300000000002
 20
2.0898500000000002
 30
0.0
 10
-1.3130300000000001
 20
2.13049
 30
0.0
  0
SPLINE
  5
38
100
AcDbEntity
  8
Ebene 1
 62
     7
100
AcDbSpline
210
0.0
220
0.0
230
1.0
 70
     1
 71
     3
 72
    12
 73
     8
 74
     0
 42
0.0000000001
 43
0.0000000001
 40
0.0
 40
0.0
 40
0.0
 40
0.0
 40
0.5
 40
0.5
 40
0.5
 40
0.5
 40
1.0
 40
1.0
 40
1.0
 40
1.0
 10
1.8797400000000002
 20
1.7698100000000001
 30
0.0
 10
1.9000600000000001
 20
1.7088500000000002
 30
0.0
 10
1.9610200000000002
 20
1.6504300000000001
 30
0.0
 10
1.9407000000000001
 20
1.56915
 30
0.0
 10
1.9407000000000001
 20
1.56915
 30
0.0
 10
1.8187800000000001
 20
1.5488300000000002
 30
0.0
 10
1.8391000000000002
 20
1.7088500000000002
 30
0.0
 10
1.8797400000000002
 20
1.7698100000000001
 30
0.0
  0
SPLINE
  5
39
100
AcDbEntity
  8
Ebene 1
 62
     7
100
AcDbSpline
210
0.0
220
0.0
230
1.0
 70
     1
 71
     3
 72
    12
 73
     8
 74
     0
 42
0.0000000001
 43
0.0000000001
 40
0.0
 40
0.0
 40
0.0
 40
0.0
 40
0.5
 40
0.5
 40
0.5
 40
0.5
 40
1.0
 40
1.0
 40
1.0
 40
1.0
 10
2.1997800000000001
 20
1.7698100000000001
 30
0.0
 10
2.2607400000000002
 20
1.7494900000000002
 30
0.0
 10
2.2988400000000002
 20
1.6885300000000001
 30
0.0
 10
2.2785200000000003
 20
1.6097900000000001
 30
0.0
 10
2.2785200000000003
 20
1.6097900000000001
 30
0.0
 10
2.1997800000000001
 20
1.5894700000000002
 30
0.0
 10
2.1997800000000001
 20
1.7088500000000002
 30
0.0
 10
2.1997800000000001
 20
1.7698100000000001
 30
0.0
  0
SPLINE
  5
3A
100
AcDbEntity
  8
Ebene 1
 62
     7
100
AcDbSpline
210
0.0
220
0.0
230
1.0
 70
     1
 71
     3
 72
    12
 73
     8
 74
     0
 42
0.0000000001
 43
0.0000000001
 40
0.0
 40
0.0
 40
0.0
 40
0.0
 40
0.5
 40
0.5
 40
0.5
 40
0.5
 40
1.0
 40
1.0
 40
1.0
 40
1.0
 10
1.4606400000000002
 20
1.7088500000000002
 30
0.0
 10
1.5495400000000001
 20
1.6885300000000001
 30
0.0
 10
1.5597000000000001
 20
1.56915
 30
0.0
 10
1.5190600000000001
 20
1.5081900000000001
 30
0.0
 10
1.5190600000000001
 20
1.5081900000000001
 30
0.0
 10
1.5190600000000001
 20
1.5081900000000001
 30
0.0
 10
1.4606400000000002
 20
1.7088500000000002
 30
0.0
 10
1.4606400000000002
 20
1.7088500000000002
 30
0.0
  0
SPLINE
  5
3B
100
AcDbEntity
  8
Ebene 1
 62
     7
100
AcDbSpline
210
0.0
220
0.0
230
1.0
 70
     1
 71
     3
 72
    12
 73
     8
 74
     0
 42
0.0000000001
 43
0.0000000001
 40
0.0
 40
0.0
 40
0.0
 40
0.0
 40
0.5
 40
0.5
 40
0.5
 40
0.5
 40
1.0
 40
1.0
 40
1.0
 40
1.0
 10
-4.5312100000000006
 20
1.6504300000000001
 30
0.0
 10
-4.3915100000000002
 20
1.2516500000000002
 30
0.0
 10
-4.4524699999999999
 20
0.6903100000000001
 30
0.0
 10
-4.4727900000000007
 20
0.25089
 30
0.0
 10
-4.4727900000000007
 20
0.25089
 30
0.0
 10
-4.5794700000000006
 20
0.6903100000000001
 30
0.0
 10
-4.6175700000000006
 20
1.2110100000000001
 30
0.0
 10
-4.5312100000000006
 20
1.6504300000000001
 30
0.0
  0
SPLINE
  5
3C
100
AcDbEntity
  8
Ebene 1
 62
     7
100
AcDbSpline
210
0.0
220
0.0
230
1.0
 70
     1
 71
     3
 72
    16
 73
    12
 74
     0
 42
0.0000000001
 43
0.0000000001
 40
0.0
 40
0.0
 40
0.0
 40
0.0
 40
0.3333333333333333
 40
0.3333333333333333
 40
0.3333333333333333
 40
0.3333333333333333
 40
0.6666666666666666
 40
0.6666666666666666
 40
0.6666666666666666
 40
0.6666666666666666
 40
1.0
 40
1.0
 40
1.0
 40
1.0
 10
-4.3305500000000006
 20
1.5894700000000002
 30
0.0
 10
-4.3305500000000006
 20
1.5894700000000002
 30
0.0
 10
-4.2949900000000003
 20
1.5894700000000002
 30
0.0
 10
-4.2949900000000003
 20
1.5894700000000002
 30
0.0
 10
-4.2949900000000003
 20
1.5894700000000002
 30
0.0
 10
-4.3203900000000006
 20
1.4700900000000001
 30
0.0
 10
-4.19339
 20
1.3100700000000001
 30
0.0
 10
-4.3102300000000007
 20
1.23133
 30
0.0
 10
-4.3102300000000007
 20
1.23133
 30
0.0
 10
-4.3102300000000007
 20
1.23133
 30
0.0
 10
-4.3305500000000006
 20
1.5894700000000002
 30
0.0
 10
-4.3305500000000006
 20
1.5894700000000002
 30
0.0
  0
SPLINE
  5
3D
100
AcDbEntity
  8
Ebene 1
 62
     7
100
AcDbSpline
210
0.0
220
0.0
230
1.0
 70
     1
 71
     3
 72
    12
 73
     8
 74
     0
 42
0.0000000001
 43
0.0000000001
 40
0.0
 40
0.0
 40
0.0
 40
0.0
 40
0.5
 40
0.5
 40
0.5
 40
0.5
 40
1.0
 40
1.0
 40
1.0
 40
1.0
 10
3.2386400000000002
 20
1.5488300000000002
 30
0.0
 10
3.2589600000000001
 20
1.4294500000000001
 30
0.0
 10
3.2970600000000001
 20
1.2110100000000001
 30
0.0
 10
3.2183200000000003
 20
1.0916300000000001
 30
0.0
 10
3.2183200000000003
 20
1.0916300000000001
 30
0.0
 10
3.2183200000000003
 20
1.2516500000000002
 30
0.0
 10
3.1980000000000004
 20
1.4091300000000002
 30
0.0
 10
3.2386400000000002
 20
1.5488300000000002
 30
0.0
  0
SPLINE
  5
3E
100
AcDbEntity
  8
Ebene 1
 62
     7
100
AcDbSpline
210
0.0
220
0.0
230
1.0
 70
     1
 71
     3
 72
    48
 73
    44
 74
     0
 42
0.0000000001
 43
0.0000000001
 40
0.0
 40
0.0
 40
0.0
 40
0.0
 40
0.0909090909090909
 40
0.0909090909090909
 40
0.0909090909090909
 40
0.0909090909090909
 40
0.1818181818181818
 40
0.1818181818181818
 40
0.1818181818181818
 40
0.1818181818181818
 40
0.2727272727272727
 40
0.2727272727272727
 40
0.2727272727272727
 40
0.2727272727272727
 40
0.3636363636363637
 40
0.3636363636363637
 40
0.3636363636363637
 40
0.3636363636363637
 40
0.4545454545454546
 40
0.4545454545454546
 40
0.4545454545454546
 40
0.4545454545454546
 40
0.5454545454545455
 40
0.5454545454545455
 40
0.5454545454545455
 40
0.5454545454545455
 40
0.6363636363636365
 40
0.6363636363636365
 40
0.6363636363636365
 40
0.6363636363636365
 40
0.7272727272727274
 40
0.7272727272727274
 40
0.7272727272727274
 40
0.7272727272727274
 40
0.8181818181818183
 40
0.8181818181818183
 40
0.8181818181818183
 40
0.8181818181818183
 40
0.9090909090909093
 40
0.9090909090909093
 40
0.9090909090909093
 40
0.9090909090909093
 40
1.0
 40
1.0
 40
1.0
 40
1.0
 10
-3.8123900000000002
 20
1.5081900000000001
 30
0.0
 10
-3.8123900000000002
 20
1.5081900000000001
 30
0.0
 10
-3.6168100000000001
 20
1.4700900000000001
 30
0.0
 10
-3.6168100000000001
 20
1.4700900000000001
 30
0.0
 10
-3.6168100000000001
 20
1.4700900000000001
 30
0.0
 10
-3.4872700000000001
 20
0.9316100000000001
 30
0.0
 10
-3.6828500000000002
 20
0.23311
 30
0.0
 10
-3.3374100000000002
 20
-0.18598
 30
0.0
 10
-3.3374100000000002
 20
-0.18598
 30
0.0
 10
-3.3374100000000002
 20
-0.18598
 30
0.0
 10
-3.5279100000000003
 20
-0.18598
 30
0.0
 10
-3.5279100000000003
 20
-0.18598
 30
0.0
 10
-3.5279100000000003
 20
-0.18598
 30
0.0
 10
-3.6701500000000005
 20
-0.32568
 30
0.0
 10
-3.8631900000000003
 20
-0.4857
 30
0.0
 10
-4.0460700000000003
 20
-0.346
 30
0.0
 10
-4.0460700000000003
 20
-0.346
 30
0.0
 10
-4.2010100000000001
 20
0.01213
 30
0.0
 10
-4.0435300000000005
 20
0.48965
 30
0.0
 10
-4.1756100000000007
 20
0.83001
 30
0.0
 10
-4.1756100000000007
 20
0.83001
 30
0.0
 10
-4.1756100000000007
 20
0.83001
 30
0.0
 10
-4.2111700000000001
 20
0.09087
 30
0.0
 10
-4.2111700000000001
 20
0.09087
 30
0.0
 10
-4.2111700000000001
 20
0.09087
 30
0.0
 10
-4.2340300000000006
 20
-0.18598
 30
0.0
 10
-4.2010100000000001
 20
-0.46538
 30
0.0
 10
-4.01051
 20
-0.6635000000000001
 30
0.0
 10
-4.01051
 20
-0.6635000000000001
 30
0.0
 10
-4.01051
 20
-0.6635000000000001
 30
0.0
 10
-4.0562300000000002
 20
-0.7244600000000001
 30
0.0
 10
-4.0562300000000002
 20
-0.7244600000000001
 30
0.0
 10
-4.0562300000000002
 20
-0.7244600000000001
 30
0.0
 10
-4.1298900000000005
 20
-0.7447800000000001
 30
0.0
 10
-4.1679900000000005
 20
-0.6635000000000001
 30
0.0
 10
-4.2060900000000006
 20
-0.6254000000000001
 30
0.0
 10
-4.2060900000000006
 20
-0.6254000000000001
 30
0.0
 10
-4.3356300000000001
 20
-0.04628
 30
0.0
 10
-4.2797499999999999
 20
0.5709300000000001
 30
0.0
 10
-4.34579
 20
1.07131
 30
0.0
 10
-4.34579
 20
1.07131
 30
0.0
 10
-4.2111700000000001
 20
1.2516500000000002
 30
0.0
 10
-4.0003500000000001
 20
1.4091300000000002
 30
0.0
 10
-3.8123900000000002
 20
1.5081900000000001
 30
0.0
  0
SPLINE
  5
3F
100
AcDbEntity
  8
Ebene 1
 62
     7
100
AcDbSpline
210
0.0
220
0.0
230
1.0
 70
     1
 71
     3
 72
    12
 73
     8
 74
     0
 42
0.0000000001
 43
0.0000000001
 40
0.0
 40
0.0
 40
0.0
 40
0.0
 40
0.5
 40
0.5
 40
0.5
 40
0.5
 40
1.0
 40
1.0
 40
1.0
 40
1.0
 10
-3.1519900000000001
 20
1.49041
 30
0.0
 10
-3.1011900000000003
 20
1.4497700000000002
 30
0.0
 10
-3.0478500000000004
 20
1.4497700000000002
 30
0.0
 10
-2.9970500000000002
 20
1.49041
 30
0.0
 10
-2.9970500000000002
 20
1.49041
 30
0.0
 10
-2.9437100000000003
 20
1.3710300000000002
 30
0.0
 10
-3.1596100000000003
 20
1.4091300000000002
 30
0.0
 10
-3.1519900000000001
 20
1.49041
 30
0.0
  0
SPLINE
  5
40
100
AcDbEntity
  8
Ebene 1
 62
     7
100
AcDbSpline
210
0.0
220
0.0
230
1.0
 70
     1
 71
     3
 72
    16
 73
    12
 74
     0
 42
0.0000000001
 43
0.0000000001
 40
0.0
 40
0.0
 40
0.0
 40
0.0
 40
0.3333333333333333
 40
0.3333333333333333
 40
0.3333333333333333
 40
0.3333333333333333
 40
0.6666666666666666
 40
0.6666666666666666
 40
0.6666666666666666
 40
0.6666666666666666
 40
1.0
 40
1.0
 40
1.0
 40
1.0
 10
3.8177600000000003
 20
1.4700900000000001
 30
0.0
 10
3.9777800000000005
 20
1.4497700000000002
 30
0.0
 10
3.8380800000000002
 20
1.23133
 30
0.0
 10
3.8990400000000003
 20
1.1322700000000001
 30
0.0
 10
3.8990400000000003
 20
1.1322700000000001
 30
0.0
 10
3.8990400000000003
 20
1.1322700000000001
 30
0.0
 10
3.8177600000000003
 20
1.11195
 30
0.0
 10
3.8177600000000003
 20
1.11195
 30
0.0
 10
3.8177600000000003
 20
1.11195
 30
0.0
 10
3.7796600000000002
 20
1.2110100000000001
 30
0.0
 10
3.7796600000000002
 20
1.3710300000000002
 30
0.0
 10
3.8177600000000003
 20
1.4700900000000001
 30
0.0
  0
SPLINE
  5
41
100
AcDbEntity
  8
Ebene 1
100
AcDbSpline
210
0.0
220
0.0
230
1.0
 70
     1
 71
     3
 72
    52
 73
    48
 74
     0
 42
0.0000000001
 43
0.0000000001
 40
0.0
 40
0.0
 40
0.0
 40
0.0
 40
0.0833333333333333
 40
0.0833333333333333
 40
0.0833333333333333
 40
0.0833333333333333
 40
0.1666666666666667
 40
0.1666666666666667
 40
0.1666666666666667
 40
0.1666666666666667
 40
0.25
 40
0.25
 40
0.25
 40
0.25
 40
0.3333333333333333
 40
0.3333333333333333
 40
0.3333333333333333
 40
0.3333333333333333
 40
0.4166666666666666
 40
0.4166666666666666
 40
0.4166666666666666
 40
0.4166666666666666
 40
0.4999999999999999
 40
0.4999999999999999
 40
0.4999999999999999
 40
0.4999999999999999
 40
0.5833333333333333
 40
0.5833333333333333
 40
0.5833333333333333
 40
0.5833333333333333
 40
0.6666666666666666
 40
0.6666666666666666
 40
0.6666666666666666
 40
0.6666666666666666
 40
0.75
 40
0.75
 40
0.75
 40
0.75
 40
0.8333333333333334
 40
0.8333333333333334
 40
0.8333333333333334
 40
0.8333333333333334
 40
0.9166666666666667
 40
0.9166666666666667
 40
0.9166666666666667
 40
0.9166666666666667
 40
1.0
 40
1.0
 40
1.0
 40
1.0
 10
2.5198200000000002
 20
1.4091300000000002
 30
0.0
 10
2.79922
 20
1.2694300000000001
 30
0.0
 10
2.5376000000000003
 20
0.9697100000000001
 30
0.0
 10
2.4995000000000003
 20
0.7106300000000001
 30
0.0
 10
2.4995000000000003
 20
0.7106300000000001
 30
0.0
 10
2.0600800000000001
 20
0.4109100000000001
 30
0.0
 10
0.6681600000000001
 20
0.21279
 30
0.0
 10
0.9196200000000001
 20
1.03067
 30
0.0
 10
0.9196200000000001
 20
1.03067
 30
0.0
 10
0.78246
 20
1.07131
 30
0.0
 10
0.61736
 20
0.85033
 30
0.0
 10
0.7164200000000001
 20
0.7512700000000001
 30
0.0
 10
0.7164200000000001
 20
0.7512700000000001
 30
0.0
 10
0.8408800000000001
 20
0.6699900000000001
 30
0.0
 10
0.9196200000000001
 20
0.5709300000000001
 30
0.0
 10
0.9755
 20
0.47187
 30
0.0
 10
0.9755
 20
0.47187
 30
0.0
 10
0.43448
 20
0.89097
 30
0.0
 10
-0.6272300000000001
 20
0.9316100000000001
 30
0.0
 10
-1.1479300000000001
 20
0.4515500000000001
 30
0.0
 10
-1.1479300000000001
 20
0.4515500000000001
 30
0.0
 10
-1.1453900000000001
 20
0.6699900000000001
 30
0.0
 10
-0.6856500000000001
 20
0.83001
 30
0.0
 10
-0.9548900000000001
 20
1.03067
 30
0.0
 10
-0.9548900000000001
 20
1.03067
 30
0.0
 10
-0.9548900000000001
 20
1.03067
 30
0.0
 10
-1.0742700000000001
 20
1.0103500000000001
 30
0.0
 10
-1.0742700000000001
 20
1.0103500000000001
 30
0.0
 10
-1.0742700000000001
 20
1.0103500000000001
 30
0.0
 10
-0.9193300000000001
 20
0.03245
 30
0.0
 10
-3.0199100000000003
 20
0.33217
 30
0.0
 10
-2.6185900000000002
 20
1.2110100000000001
 30
0.0
 10
-2.6185900000000002
 20
1.2110100000000001
 30
0.0
 10
-2.5931900000000003
 20
1.2694300000000001
 30
0.0
 10
-2.5576300000000001
 20
1.3507100000000001
 30
0.0
 10
-2.6566900000000002
 20
1.2897500000000002
 30
0.0
 10
-2.6566900000000002
 20
1.2897500000000002
 30
0.0
 10
-2.7836900000000004
 20
1.03067
 30
0.0
 10
-2.8344900000000002
 20
1.0103500000000001
 30
0.0
 10
-2.7481300000000002
 20
1.3303900000000002
 30
0.0
 10
-2.7481300000000002
 20
1.3303900000000002
 30
0.0
 10
-2.7125700000000004
 20
1.3710300000000002
 30
0.0
 10
-2.6744700000000003
 20
1.4091300000000002
 30
0.0
 10
-2.6135100000000002
 20
1.3888100000000001
 30
0.0
 10
-2.6135100000000002
 20
1.3888100000000001
 30
0.0
 10
-0.9371100000000001
 20
0.91129
 30
0.0
 10
0.8154800000000001
 20
0.91129
 30
0.0
 10
2.5198200000000002
 20
1.4091300000000002
 30
0.0
  0
SPLINE
  5
42
100
AcDbEntity
  8
Ebene 1
 62
     7
100
AcDbSpline
210
0.0
220
0.0
230
1.0
 70
     1
 71
     3
 72
    16
 73
    12
 74
     0
 42
0.0000000001
 43
0.0000000001
 40
0.0
 40
0.0
 40
0.0
 40
0.0
 40
0.3333333333333333
 40
0.3333333333333333
 40
0.3333333333333333
 40
0.3333333333333333
 40
0.6666666666666666
 40
0.6666666666666666
 40
0.6666666666666666
 40
0.6666666666666666
 40
1.0
 40
1.0
 40
1.0
 40
1.0
 10
3.9777800000000005
 20
1.3710300000000002
 30
0.0
 10
4.1581200000000003
 20
1.3888100000000001
 30
0.0
 10
4.3562400000000006
 20
1.23133
 30
0.0
 10
4.2978200000000006
 20
1.0509900000000001
 30
0.0
 10
4.2978200000000006
 20
1.0509900000000001
 30
0.0
 10
4.1759000000000004
 20
1.11195
 30
0.0
 10
4.1378000000000004
 20
1.2897500000000002
 30
0.0
 10
3.9777800000000005
 20
1.2897500000000002
 30
0.0
 10
3.9777800000000005
 20
1.2897500000000002
 30
0.0
 10
3.9777800000000005
 20
1.2897500000000002
 30
0.0
 10
3.9777800000000005
 20
1.3710300000000002
 30
0.0
 10
3.9777800000000005
 20
1.3710300000000002
 30
0.0
  0
SPLINE
  5
43
100
AcDbEntity
  8
Ebene 1
 62
     7
100
AcDbSpline
210
0.0
220
0.0
230
1.0
 70
     1
 71
     3
 72
    16
 73
    12
 74
     0
 42
0.0000000001
 43
0.0000000001
 40
0.0
 40
0.0
 40
0.0
 40
0.0
 40
0.3333333333333333
 40
0.3333333333333333
 40
0.3333333333333333
 40
0.3333333333333333
 40
0.6666666666666666
 40
0.6666666666666666
 40
0.6666666666666666
 40
0.6666666666666666
 40
1.0
 40
1.0
 40
1.0
 40
1.0
 10
-2.3315700000000001
 20
1.1322700000000001
 30
0.0
 10
-2.27569
 20
1.1322700000000001
 30
0.0
 10
-2.1918700000000002
 20
1.15005
 30
0.0
 10
-2.1563100000000004
 20
1.0916300000000001
 30
0.0
 10
-2.1563100000000004
 20
1.0916300000000001
 30
0.0
 10
-2.2833100000000002
 20
1.15005
 30
0.0
 10
-2.4230100000000001
 20
0.80969
 30
0.0
 10
-2.4128500000000002
 20
1.0509900000000001
 30
0.0
 10
-2.4128500000000002
 20
1.0509900000000001
 30
0.0
 10
-2.4128500000000002
 20
1.0509900000000001
 30
0.0
 10
-2.3315700000000001
 20
1.1322700000000001
 30
0.0
 10
-2.3315700000000001
 20
1.1322700000000001
 30
0.0
  0
SPLINE
  5
44
100
AcDbEntity
  8
Ebene 1
 62
     7
100
AcDbSpline
210
0.0
220
0.0
230
1.0
 70
     1
 71
     3
 72
    24
 73
    20
 74
     0
 42
0.0000000001
 43
0.0000000001
 40
0.0
 40
0.0
 40
0.0
 40
0.0
 40
0.2
 40
0.2
 40
0.2
 40
0.2
 40
0.4
 40
0.4
 40
0.4
 40
0.4
 40
0.6000000000000001
 40
0.6000000000000001
 40
0.6000000000000001
 40
0.6000000000000001
 40
0.8
 40
0.8
 40
0.8
 40
0.8
 40
1.0
 40
1.0
 40
1.0
 40
1.0
 10
1.4606400000000002
 20
1.03067
 30
0.0
 10
1.4606400000000002
 20
1.03067
 30
0.0
 10
1.6003400000000001
 20
1.03067
 30
0.0
 10
1.6003400000000001
 20
1.03067
 30
0.0
 10
1.6003400000000001
 20
1.03067
 30
0.0
 10
1.6003400000000001
 20
1.03067
 30
0.0
 10
1.6587600000000002
 20
1.0103500000000001
 30
0.0
 10
1.6587600000000002
 20
1.0103500000000001
 30
0.0
 10
1.6587600000000002
 20
1.0103500000000001
 30
0.0
 10
1.4784200000000001
 20
0.9697100000000001
 30
0.0
 10
1.27268
 20
0.9519300000000001
 30
0.0
 10
1.1660000000000001
 20
0.78937
 30
0.0
 10
1.1660000000000001
 20
0.78937
 30
0.0
 10
1.1660000000000001
 20
0.78937
 30
0.0
 10
1.1609200000000002
 20
0.91129
 30
0.0
 10
1.1609200000000002
 20
0.91129
 30
0.0
 10
1.1609200000000002
 20
0.91129
 30
0.0
 10
1.1609200000000002
 20
0.91129
 30
0.0
 10
1.4606400000000002
 20
1.03067
 30
0.0
 10
1.4606400000000002
 20
1.03067
 30
0.0
  0
SPLINE
  5
45
100
AcDbEntity
  8
Ebene 1
 62
     7
100
AcDbSpline
210
0.0
220
0.0
230
1.0
 70
     1
 71
     3
 72
    40
 73
    36
 74
     0
 42
0.0000000001
 43
0.0000000001
 40
0.0
 40
0.0
 40
0.0
 40
0.0
 40
0.1111111111111111
 40
0.1111111111111111
 40
0.1111111111111111
 40
0.1111111111111111
 40
0.2222222222222222
 40
0.2222222222222222
 40
0.2222222222222222
 40
0.2222222222222222
 40
0.3333333333333333
 40
0.3333333333333333
 40
0.3333333333333333
 40
0.3333333333333333
 40
0.4444444444444444
 40
0.4444444444444444
 40
0.4444444444444444
 40
0.4444444444444444
 40
0.5555555555555556
 40
0.5555555555555556
 40
0.5555555555555556
 40
0.5555555555555556
 40
0.6666666666666667
 40
0.6666666666666667
 40
0.6666666666666667
 40
0.6666666666666667
 40
0.7777777777777779
 40
0.7777777777777779
 40
0.7777777777777779
 40
0.7777777777777779
 40
0.8888888888888891
 40
0.8888888888888891
 40
0.8888888888888891
 40
0.8888888888888891
 40
1.0
 40
1.0
 40
1.0
 40
1.0
 10
3.9574600000000002
 20
0.9519300000000001
 30
0.0
 10
3.9777800000000005
 20
0.85033
 30
0.0
 10
4.1174800000000005
 20
0.80969
 30
0.0
 10
4.1962200000000003
 20
0.7512700000000001
 30
0.0
 10
4.1962200000000003
 20
0.7512700000000001
 30
0.0
 10
4.3181400000000005
 20
0.7715900000000001
 30
0.0
 10
4.4375200000000001
 20
0.83001
 30
0.0
 10
4.4984800000000007
 20
0.9519300000000001
 30
0.0
 10
4.4984800000000007
 20
0.9519300000000001
 30
0.0
 10
4.5365800000000007
 20
0.6496700000000001
 30
0.0
 10
4.5365800000000007
 20
0.29153
 30
0.0
 10
4.4984800000000007
 20
-0.00564
 30
0.0
 10
4.4984800000000007
 20
-0.00564
 30
0.0
 10
4.4984800000000007
 20
-0.00564
 30
0.0
 10
4.2165400000000002
 20
-0.02596
 30
0.0
 10
4.2165400000000002
 20
-0.02596
 30
0.0
 10
4.2165400000000002
 20
-0.02596
 30
0.0
 10
4.2165400000000002
 20
-0.02596
 30
0.0
 10
4.0565199999999999
 20
-0.10724
 30
0.0
 10
4.0565199999999999
 20
-0.10724
 30
0.0
 10
4.0565199999999999
 20
-0.10724
 30
0.0
 10
4.0184200000000008
 20
-0.2063
 30
0.0
 10
4.0184200000000008
 20
-0.32568
 30
0.0
 10
4.0387400000000007
 20
-0.4247400000000001
 30
0.0
 10
4.0387400000000007
 20
-0.4247400000000001
 30
0.0
 10
3.7593400000000003
 20
-0.44506
 30
0.0
 10
3.4977200000000002
 20
-0.40696
 30
0.0
 10
3.4189800000000004
 20
-0.12502
 30
0.0
 10
3.4189800000000004
 20
-0.12502
 30
0.0
 10
3.6374200000000001
 20
-0.02596
 30
0.0
 10
3.8787200000000004
 20
0.07055
 30
0.0
 10
4.0387400000000007
 20
0.27121
 30
0.0
 10
4.0387400000000007
 20
0.27121
 30
0.0
 10
3.9193600000000002
 20
0.47187
 30
0.0
 10
3.7593400000000003
 20
0.7106300000000001
 30
0.0
 10
3.9574600000000002
 20
0.9519300000000001
 30
0.0
  0
SPLINE
  5
46
100
AcDbEntity
  8
Ebene 1
 62
     7
100
AcDbSpline
210
0.0
220
0.0
230
1.0
 70
     1
 71
     3
 72
    16
 73
    12
 74
     0
 42
0.0000000001
 43
0.0000000001
 40
0.0
 40
0.0
 40
0.0
 40
0.0
 40
0.3333333333333333
 40
0.3333333333333333
 40
0.3333333333333333
 40
0.3333333333333333
 40
0.6666666666666666
 40
0.6666666666666666
 40
0.6666666666666666
 40
0.6666666666666666
 40
1.0
 40
1.0
 40
1.0
 40
1.0
 10
-3.1113500000000003
 20
0.9316100000000001
 30
0.0
 10
-3.0707100000000001
 20
0.9519300000000001
 30
0.0
 10
-3.0732500000000003
 20
0.91129
 30
0.0
 10
-3.0656300000000001
 20
0.87065
 30
0.0
 10
-3.0656300000000001
 20
0.87065
 30
0.0
 10
-3.0148300000000003
 20
0.9900300000000001
 30
0.0
 10
-2.9640300000000002
 20
0.87065
 30
0.0
 10
-2.9970500000000002
 20
0.78937
 30
0.0
 10
-2.9970500000000002
 20
0.78937
 30
0.0
 10
-3.0910300000000004
 20
0.78937
 30
0.0
 10
-3.0910300000000004
 20
0.87065
 30
0.0
 10
-3.1113500000000003
 20
0.9316100000000001
 30
0.0
  0
SPLINE
  5
47
100
AcDbEntity
  8
Ebene 1
 62
     7
100
AcDbSpline
210
0.0
220
0.0
230
1.0
 70
     1
 71
     3
 72
    12
 73
     8
 74
     0
 42
0.0000000001
 43
0.0000000001
 40
0.0
 40
0.0
 40
0.0
 40
0.0
 40
0.5
 40
0.5
 40
0.5
 40
0.5
 40
1.0
 40
1.0
 40
1.0
 40
1.0
 10
-0.25639
 20
0.91129
 30
0.0
 10
-0.21575
 20
0.91129
 30
0.0
 10
-0.14971
 20
0.91129
 30
0.0
 10
-0.18019
 20
0.85033
 30
0.0
 10
-0.18019
 20
0.85033
 30
0.0
 10
-0.21829
 20
0.83001
 30
0.0
 10
-0.3021100000000001
 20
0.87065
 30
0.0
 10
-0.25639
 20
0.91129
 30
0.0
  0
SPLINE
  5
48
100
AcDbEntity
  8
Ebene 1
 62
     7
100
AcDbSpline
210
0.0
220
0.0
230
1.0
 70
     1
 71
     3
 72
    12
 73
     8
 74
     0
 42
0.0000000001
 43
0.0000000001
 40
0.0
 40
0.0
 40
0.0
 40
0.0
 40
0.5
 40
0.5
 40
0.5
 40
0.5
 40
1.0
 40
1.0
 40
1.0
 40
1.0
 10
-0.03541
 20
0.91129
 30
0.0
 10
0.00268
 20
0.91129
 30
0.0
 10
0.08904
 20
0.9316100000000001
 30
0.0
 10
0.05602
 20
0.85033
 30
0.0
 10
0.05602
 20
0.85033
 30
0.0
 10
0.01284
 20
0.85033
 30
0.0
 10
-0.05573
 20
0.85033
 30
0.0
 10
-0.03541
 20
0.91129
 30
0.0
  0
SPLINE
  5
49
100
AcDbEntity
  8
Ebene 1
 62
     7
100
AcDbSpline
210
0.0
220
0.0
230
1.0
 70
     1
 71
     3
 72
    12
 73
     8
 74
     0
 42
0.0000000001
 43
0.0000000001
 40
0.0
 40
0.0
 40
0.0
 40
0.0
 40
0.5
 40
0.5
 40
0.5
 40
0.5
 40
1.0
 40
1.0
 40
1.0
 40
1.0
 10
0.18302
 20
0.91129
 30
0.0
 10
0.22112
 20
0.91129
 30
0.0
 10
0.31002
 20
0.9316100000000001
 30
0.0
 10
0.277
 20
0.85033
 30
0.0
 10
0.277
 20
0.85033
 30
0.0
 10
0.23128
 20
0.85033
 30
0.0
 10
0.16016
 20
0.85033
 30
0.0
 10
0.18302
 20
0.91129
 30
0.0
  0
SPLINE
  5
4A
100
AcDbEntity
  8
Ebene 1
 62
     7
100
AcDbSpline
210
0.0
220
0.0
230
1.0
 70
     1
 71
     3
 72
    12
 73
     8
 74
     0
 42
0.0000000001
 43
0.0000000001
 40
0.0
 40
0.0
 40
0.0
 40
0.0
 40
0.5
 40
0.5
 40
0.5
 40
0.5
 40
1.0
 40
1.0
 40
1.0
 40
1.0
 10
0.40146
 20
0.91129
 30
0.0
 10
0.4319400000000001
 20
0.91129
 30
0.0
 10
0.5183000000000001
 20
0.9316100000000001
 30
0.0
 10
0.49798
 20
0.87065
 30
0.0
 10
0.49798
 20
0.87065
 30
0.0
 10
0.4624200000000001
 20
0.87065
 30
0.0
 10
0.3887600000000001
 20
0.85033
 30
0.0
 10
0.40146
 20
0.91129
 30
0.0
  0
SPLINE
  5
4B
100
AcDbEntity
  8
Ebene 1
 62
     7
100
AcDbSpline
210
0.0
220
0.0
230
1.0
 70
     1
 71
     3
 72
    12
 73
     8
 74
     0
 42
0.0000000001
 43
0.0000000001
 40
0.0
 40
0.0
 40
0.0
 40
0.0
 40
0.5
 40
0.5
 40
0.5
 40
0.5
 40
1.0
 40
1.0
 40
1.0
 40
1.0
 10
-0.69581
 20
0.89097
 30
0.0
 10
-0.65517
 20
0.89097
 30
0.0
 10
-0.56881
 20
0.91129
 30
0.0
 10
-0.5992900000000001
 20
0.83001
 30
0.0
 10
-0.5992900000000001
 20
0.83001
 30
0.0
 10
-0.5992900000000001
 20
0.83001
 30
0.0
 10
-0.69581
 20
0.89097
 30
0.0
 10
-0.69581
 20
0.89097
 30
0.0
  0
SPLINE
  5
4C
100
AcDbEntity
  8
Ebene 1
 62
     7
100
AcDbSpline
210
0.0
220
0.0
230
1.0
 70
     1
 71
     3
 72
    12
 73
     8
 74
     0
 42
0.0000000001
 43
0.0000000001
 40
0.0
 40
0.0
 40
0.0
 40
0.0
 40
0.5
 40
0.5
 40
0.5
 40
0.5
 40
1.0
 40
1.0
 40
1.0
 40
1.0
 10
-0.47483
 20
0.89097
 30
0.0
 10
-0.44181
 20
0.89097
 30
0.0
 10
-0.3427500000000001
 20
0.91129
 30
0.0
 10
-0.35799
 20
0.85033
 30
0.0
 10
-0.35799
 20
0.85033
 30
0.0
 10
-0.39863
 20
0.85033
 30
0.0
 10
-0.48499
 20
0.83001
 30
0.0
 10
-0.47483
 20
0.89097
 30
0.0
  0
SPLINE
  5
4D
100
AcDbEntity
  8
Ebene 1
 62
     7
100
AcDbSpline
210
0.0
220
0.0
230
1.0
 70
     1
 71
     3
 72
   128
 73
   124
 74
     0
 42
0.0000000001
 43
0.0000000001
 40
0.0
 40
0.0
 40
0.0
 40
0.0
 40
0.032258064516129
 40
0.032258064516129
 40
0.032258064516129
 40
0.032258064516129
 40
0.0645161290322581
 40
0.0645161290322581
 40
0.0645161290322581
 40
0.0645161290322581
 40
0.0967741935483871
 40
0.0967741935483871
 40
0.0967741935483871
 40
0.0967741935483871
 40
0.1290322580645161
 40
0.1290322580645161
 40
0.1290322580645161
 40
0.1290322580645161
 40
0.1612903225806452
 40
0.1612903225806452
 40
0.1612903225806452
 40
0.1612903225806452
 40
0.1935483870967742
 40
0.1935483870967742
 40
0.1935483870967742
 40
0.1935483870967742
 40
0.2258064516129032
 40
0.2258064516129032
 40
0.2258064516129032
 40
0.2258064516129032
 40
0.2580645161290323
 40
0.2580645161290323
 40
0.2580645161290323
 40
0.2580645161290323
 40
0.2903225806451613
 40
0.2903225806451613
 40
0.2903225806451613
 40
0.2903225806451613
 40
0.3225806451612903
 40
0.3225806451612903
 40
0.3225806451612903
 40
0.3225806451612903
 40
0.3548387096774193
 40
0.3548387096774193
 40
0.3548387096774193
 40
0.3548387096774193
 40
0.3870967741935483
 40
0.3870967741935483
 40
0.3870967741935483
 40
0.3870967741935483
 40
0.4193548387096773
 40
0.4193548387096773
 40
0.4193548387096773
 40
0.4193548387096773
 40
0.4516129032258063
 40
0.4516129032258063
 40
0.4516129032258063
 40
0.4516129032258063
 40
0.4838709677419353
 40
0.4838709677419353
 40
0.4838709677419353
 40
0.4838709677419353
 40
0.5161290322580643
 40
0.5161290322580643
 40
0.5161290322580643
 40
0.5161290322580643
 40
0.5483870967741933
 40
0.5483870967741933
 40
0.5483870967741933
 40
0.5483870967741933
 40
0.5806451612903223
 40
0.5806451612903223
 40
0.5806451612903223
 40
0.5806451612903223
 40
0.6129032258064513
 40
0.6129032258064513
 40
0.6129032258064513
 40
0.6129032258064513
 40
0.6451612903225803
 40
0.6451612903225803
 40
0.6451612903225803
 40
0.6451612903225803
 40
0.6774193548387093
 40
0.6774193548387093
 40
0.6774193548387093
 40
0.6774193548387093
 40
0.7096774193548383
 40
0.7096774193548383
 40
0.7096774193548383
 40
0.7096774193548383
 40
0.7419354838709673
 40
0.7419354838709673
 40
0.7419354838709673
 40
0.7419354838709673
 40
0.7741935483870963
 40
0.7741935483870963
 40
0.7741935483870963
 40
0.7741935483870963
 40
0.8064516129032253
 40
0.8064516129032253
 40
0.8064516129032253
 40
0.8064516129032253
 40
0.8387096774193543
 40
0.8387096774193543
 40
0.8387096774193543
 40
0.8387096774193543
 40
0.8709677419354833
 40
0.8709677419354833
 40
0.8709677419354833
 40
0.8709677419354833
 40
0.9032258064516123
 40
0.9032258064516123
 40
0.9032258064516123
 40
0.9032258064516123
 40
0.9354838709677413
 40
0.9354838709677413
 40
0.9354838709677413
 40
0.9354838709677413
 40
0.9677419354838703
 40
0.9677419354838703
 40
0.9677419354838703
 40
0.9677419354838703
 40
1.0
 40
1.0
 40
1.0
 40
1.0
 10
3.1573600000000002
 20
0.7715900000000001
 30
0.0
 10
3.13958
 20
0.35249
 30
0.0
 10
3.0202000000000004
 20
-0.44506
 30
0.0
 10
2.5376000000000003
 20
-0.7651000000000001
 30
0.0
 10
2.5376000000000003
 20
-0.7651000000000001
 30
0.0
 10
2.5579200000000002
 20
-0.9048000000000001
 30
0.0
 10
2.6595200000000001
 20
-0.7854200000000001
 30
0.0
 10
2.7382600000000004
 20
-0.7651000000000001
 30
0.0
 10
2.7382600000000004
 20
-0.7651000000000001
 30
0.0
 10
2.6849200000000004
 20
-1.4051800000000001
 30
0.0
 10
2.1134200000000001
 20
-1.4458200000000001
 30
0.0
 10
1.2269600000000001
 20
-1.4051800000000001
 30
0.0
 10
1.2269600000000001
 20
-1.4051800000000001
 30
0.0
 10
1.14568
 20
-1.3239000000000001
 30
0.0
 10
1.1304400000000001
 20
-1.20452
 30
0.0
 10
1.1660000000000001
 20
-1.1054600000000001
 30
0.0
 10
1.1660000000000001
 20
-1.1054600000000001
 30
0.0
 10
1.5800200000000002
 20
-0.9454400000000001
 30
0.0
 10
2.0600800000000001
 20
-1.2248400000000002
 30
0.0
 10
2.4182200000000003
 20
-0.9454400000000001
 30
0.0
 10
2.4182200000000003
 20
-0.9454400000000001
 30
0.0
 10
2.4385400000000002
 20
-0.9048000000000001
 30
0.0
 10
2.4791800000000004
 20
-0.86416
 30
0.0
 10
2.45886
 20
-0.82606
 30
0.0
 10
2.45886
 20
-0.82606
 30
0.0
 10
1.9813400000000001
 20
-1.08514
 30
0.0
 10
1.23458
 20
-0.82606
 30
0.0
 10
0.8459600000000001
 20
-0.5441200000000001
 30
0.0
 10
0.8459600000000001
 20
-0.5441200000000001
 30
0.0
 10
1.0771000000000002
 20
-0.9251200000000001
 30
0.0
 10
0.72404
 20
-1.3239000000000001
 30
0.0
 10
0.6859400000000001
 20
-1.6845800000000002
 30
0.0
 10
0.6859400000000001
 20
-1.6845800000000002
 30
0.0
 10
0.80532
 20
-1.6033000000000002
 30
0.0
 10
0.8561200000000001
 20
-1.4051800000000001
 30
0.0
 10
0.9196200000000001
 20
-1.2858000000000001
 30
0.0
 10
0.9196200000000001
 20
-1.2858000000000001
 30
0.0
 10
1.2168000000000001
 20
-1.4051800000000001
 30
0.0
 10
0.912
 20
-2.02494
 30
0.0
 10
1.0974200000000001
 20
-2.3221200000000004
 30
0.0
 10
1.0974200000000001
 20
-2.3221200000000004
 30
0.0
 10
0.83072
 20
-2.2840200000000004
 30
0.0
 10
0.7596000000000001
 20
-2.1646400000000003
 30
0.0
 10
0.8358000000000001
 20
-1.8446000000000002
 30
0.0
 10
0.8358000000000001
 20
-1.8446000000000002
 30
0.0
 10
0.7088000000000001
 20
-1.7760200000000002
 30
0.0
 10
0.7748400000000001
 20
-2.01478
 30
0.0
 10
0.74436
 20
-2.0859000000000001
 30
0.0
 10
0.74436
 20
-2.0859000000000001
 30
0.0
 10
0.49798
 20
-2.6574000000000004
 30
0.0
 10
-0.13701
 20
-2.2052800000000001
 30
0.0
 10
-0.6094500000000001
 20
-2.3830800000000001
 30
0.0
 10
-0.6094500000000001
 20
-2.3830800000000001
 30
0.0
 10
-0.6043700000000001
 20
-2.2840200000000004
 30
0.0
 10
-0.56881
 20
-2.14432
 30
0.0
 10
-0.61453
 20
-2.0655800000000002
 30
0.0
 10
-0.61453
 20
-2.0655800000000002
 30
0.0
 10
-0.70089
 20
-2.1849600000000002
 30
0.0
 10
-0.59421
 20
-2.4237200000000003
 30
0.0
 10
-0.8304300000000001
 20
-2.3830800000000001
 30
0.0
 10
-0.8304300000000001
 20
-2.3830800000000001
 30
0.0
 10
-0.6678700000000001
 20
-1.6439400000000002
 30
0.0
 10
-1.3714500000000001
 20
-1.16642
 30
0.0
 10
-1.07935
 20
-0.44506
 30
0.0
 10
-1.07935
 20
-0.44506
 30
0.0
 10
-1.07935
 20
-0.44506
 30
0.0
 10
-1.3181100000000001
 20
-0.6635000000000001
 30
0.0
 10
-1.3181100000000001
 20
-0.6635000000000001
 30
0.0
 10
-1.3181100000000001
 20
-0.6635000000000001
 30
0.0
 10
-1.5797300000000001
 20
-0.82606
 30
0.0
 10
-2.0801100000000003
 20
-0.7447800000000001
 30
0.0
 10
-2.2071100000000001
 20
-1.0064000000000002
 30
0.0
 10
-2.2071100000000001
 20
-1.0064000000000002
 30
0.0
 10
-1.9937500000000001
 20
-0.9657600000000001
 30
0.0
 10
-1.7194300000000002
 20
-0.9048000000000001
 30
0.0
 10
-1.4933700000000001
 20
-0.9657600000000001
 30
0.0
 10
-1.4933700000000001
 20
-0.9657600000000001
 30
0.0
 10
-1.7829300000000001
 20
-1.54488
 30
0.0
 10
-2.7913100000000002
 20
-1.3645400000000001
 30
0.0
 10
-2.9665700000000004
 20
-0.7244600000000001
 30
0.0
 10
-2.9665700000000004
 20
-0.7244600000000001
 30
0.0
 10
-2.8141700000000003
 20
-0.4857
 30
0.0
 10
-2.4966700000000004
 20
-1.0648200000000001
 30
0.0
 10
-2.4128500000000002
 20
-0.7651000000000001
 30
0.0
 10
-2.4128500000000002
 20
-0.7651000000000001
 30
0.0
 10
-2.7074900000000004
 20
-0.5644400000000001
 30
0.0
 10
-2.9741900000000001
 20
-0.2063
 30
0.0
 10
-2.8471900000000003
 20
0.17215
 30
0.0
 10
-2.8471900000000003
 20
0.17215
 30
0.0
 10
-2.30871
 20
-0.15042
 30
0.0
 10
-1.75753
 20
-0.34346
 30
0.0
 10
-1.1987300000000001
 20
0.01975
 30
0.0
 10
-1.1987300000000001
 20
0.01975
 30
0.0
 10
-1.08189
 20
0.09595
 30
0.0
 10
-0.9396500000000001
 20
0.33217
 30
0.0
 10
-0.7796300000000001
 20
0.29153
 30
0.0
 10
-0.7796300000000001
 20
0.29153
 30
0.0
 10
-0.8507500000000001
 20
0.11119
 30
0.0
 10
-1.1174500000000001
 20
-0.12502
 30
0.0
 10
-0.9980700000000001
 20
-0.30536
 30
0.0
 10
-0.9980700000000001
 20
-0.30536
 30
0.0
 10
-0.8761500000000001
 20
0.4515500000000001
 30
0.0
 10
0.4421000000000001
 20
0.80969
 30
0.0
 10
0.5487800000000001
 20
-0.14534
 30
0.0
 10
0.5487800000000001
 20
-0.14534
 30
0.0
 10
0.5487800000000001
 20
-0.14534
 30
0.0
 10
0.68086
 20
-0.28504
 30
0.0
 10
0.68086
 20
-0.28504
 30
0.0
 10
0.68086
 20
-0.28504
 30
0.0
 10
0.72404
 20
-0.08692
 30
0.0
 10
0.5614800000000001
 20
0.15183
 30
0.0
 10
0.6072000000000001
 20
0.35249
 30
0.0
 10
0.6072000000000001
 20
0.35249
 30
0.0
 10
0.93232
 20
0.25343
 30
0.0
 10
1.14822
 20
-0.08184
 30
0.0
 10
1.3438000000000001
 20
-0.06406
 30
0.0
 10
1.3438000000000001
 20
-0.06406
 30
0.0
 10
1.6638400000000002
 20
-0.03358
 30
0.0
 10
2.2429600000000001
 20
0.11119
 30
0.0
 10
2.67984
 20
-0.04628
 30
0.0
 10
2.67984
 20
-0.04628
 30
0.0
 10
2.6595200000000001
 20
0.25089
 30
0.0
 10
2.9998800000000001
 20
0.4515500000000001
 30
0.0
 10
3.1573600000000002
 20
0.7715900000000001
 30
0.0
  0
SPLINE
  5
4E
100
AcDbEntity
  8
Ebene 1
 62
     7
100
AcDbSpline
210
0.0
220
0.0
230
1.0
 70
     1
 71
     3
 72
    12
 73
     8
 74
     0
 42
0.0000000001
 43
0.0000000001
 40
0.0
 40
0.0
 40
0.0
 40
0.0
 40
0.5
 40
0.5
 40
0.5
 40
0.5
 40
1.0
 40
1.0
 40
1.0
 40
1.0
 10
3.2970600000000001
 20
0.7512700000000001
 30
0.0
 10
3.3986600000000005
 20
0.7106300000000001
 30
0.0
 10
3.4570800000000004
 20
0.33217
 30
0.0
 10
3.2386400000000002
 20
0.3905900000000001
 30
0.0
 10
3.2386400000000002
 20
0.3905900000000001
 30
0.0
 10
3.1776800000000001
 20
0.50997
 30
0.0
 10
3.2386400000000002
 20
0.6496700000000001
 30
0.0
 10
3.2970600000000001
 20
0.7512700000000001
 30
0.0
  0
SPLINE
  5
4F
100
AcDbEntity
  8
Ebene 1
 62
     7
100
AcDbSpline
210
0.0
220
0.0
230
1.0
 70
     1
 71
     3
 72
    12
 73
     8
 74
     0
 42
0.0000000001
 43
0.0000000001
 40
0.0
 40
0.0
 40
0.0
 40
0.0
 40
0.5
 40
0.5
 40
0.5
 40
0.5
 40
1.0
 40
1.0
 40
1.0
 40
1.0
 10
3.5790000000000002
 20
0.7309500000000001
 30
0.0
 10
3.6780600000000003
 20
0.6699900000000001
 30
0.0
 10
3.6577400000000004
 20
0.50997
 30
0.0
 10
3.5586800000000003
 20
0.47187
 30
0.0
 10
3.5586800000000003
 20
0.47187
 30
0.0
 10
3.5586800000000003
 20
0.55061
 30
0.0
 10
3.5383600000000004
 20
0.6496700000000001
 30
0.0
 10
3.5790000000000002
 20
0.7309500000000001
 30
0.0
  0
SPLINE
  5
50
100
AcDbEntity
  8
Ebene 1
100
AcDbSpline
210
0.0
220
0.0
230
1.0
 70
     1
 71
     3
 72
    36
 73
    32
 74
     0
 42
0.0000000001
 43
0.0000000001
 40
0.0
 40
0.0
 40
0.0
 40
0.0
 40
0.125
 40
0.125
 40
0.125
 40
0.125
 40
0.25
 40
0.25
 40
0.25
 40
0.25
 40
0.375
 40
0.375
 40
0.375
 40
0.375
 40
0.5
 40
0.5
 40
0.5
 40
0.5
 40
0.625
 40
0.625
 40
0.625
 40
0.625
 40
0.75
 40
0.75
 40
0.75
 40
0.75
 40
0.875
 40
0.875
 40
0.875
 40
0.875
 40
1.0
 40
1.0
 40
1.0
 40
1.0
 10
-0.41387
 20
0.23311
 30
0.0
 10
-0.17511
 20
0.13151
 30
0.0
 10
0.02554
 20
0.27121
 30
0.0
 10
0.25668
 20
0.19247
 30
0.0
 10
0.25668
 20
0.19247
 30
0.0
 10
0.25668
 20
0.19247
 30
0.0
 10
0.4167
 20
-1.4051800000000001
 30
0.0
 10
0.4167
 20
-1.4051800000000001
 30
0.0
 10
0.4167
 20
-1.4051800000000001
 30
0.0
 10
0.21858
 20
-1.6642600000000001
 30
0.0
 10
-0.22845
 20
-1.4229600000000002
 30
0.0
 10
-0.22845
 20
-1.1461000000000001
 30
0.0
 10
-0.22845
 20
-1.1461000000000001
 30
0.0
 10
-0.32751
 20
-1.4636
 30
0.0
 10
-0.17257
 20
-1.7836400000000001
 30
0.0
 10
-0.27925
 20
-2.1036800000000002
 30
0.0
 10
-0.27925
 20
-2.1036800000000002
 30
0.0
 10
-0.27925
 20
-2.1036800000000002
 30
0.0
 10
-0.33767
 20
-1.3848600000000002
 30
0.0
 10
-0.33767
 20
-1.3848600000000002
 30
0.0
 10
-0.33767
 20
-1.3848600000000002
 30
0.0
 10
-0.44181
 20
-1.4636
 30
0.0
 10
-0.5230900000000001
 20
-1.54488
 30
0.0
 10
-0.65517
 20
-1.5626600000000002
 30
0.0
 10
-0.65517
 20
-1.5626600000000002
 30
0.0
 10
-0.7745500000000001
 20
-1.5245600000000001
 30
0.0
 10
-0.7948700000000001
 20
-1.3848600000000002
 30
0.0
 10
-0.8355100000000001
 20
-1.2858000000000001
 30
0.0
 10
-0.8355100000000001
 20
-1.2858000000000001
 30
0.0
 10
-0.7110500000000001
 20
-0.7651000000000001
 30
0.0
 10
-0.68057
 20
-0.22662
 30
0.0
 10
-0.41387
 20
0.23311
 30
0.0
  0
SPLINE
  5
51
100
AcDbEntity
  8
Ebene 1
 62
     7
100
AcDbSpline
210
0.0
220
0.0
230
1.0
 70
     1
 71
     3
 72
    12
 73
     8
 74
     0
 42
0.0000000001
 43
0.0000000001
 40
0.0
 40
0.0
 40
0.0
 40
0.0
 40
0.5
 40
0.5
 40
0.5
 40
0.5
 40
1.0
 40
1.0
 40
1.0
 40
1.0
 10
2.4791800000000004
 20
0.21279
 30
0.0
 10
2.5985600000000004
 20
0.21279
 30
0.0
 10
2.67984
 20
0.11119
 30
0.0
 10
2.5985600000000004
 20
0.01213
 30
0.0
 10
2.5985600000000004
 20
0.01213
 30
0.0
 10
2.5198200000000002
 20
0.03245
 30
0.0
 10
2.4385400000000002
 20
0.15183
 30
0.0
 10
2.4791800000000004
 20
0.21279
 30
0.0
  0
SPLINE
  5
52
100
AcDbEntity
  8
Ebene 1
 62
     7
100
AcDbSpline
210
0.0
220
0.0
230
1.0
 70
     1
 71
     3
 72
    20
 73
    16
 74
     0
 42
0.0000000001
 43
0.0000000001
 40
0.0
 40
0.0
 40
0.0
 40
0.0
 40
0.25
 40
0.25
 40
0.25
 40
0.25
 40
0.5
 40
0.5
 40
0.5
 40
0.5
 40
0.75
 40
0.75
 40
0.75
 40
0.75
 40
1.0
 40
1.0
 40
1.0
 40
1.0
 10
4.2775000000000007
 20
-0.14534
 30
0.0
 10
4.2775000000000007
 20
-0.14534
 30
0.0
 10
4.4781600000000008
 20
-0.14534
 30
0.0
 10
4.4781600000000008
 20
-0.14534
 30
0.0
 10
4.4781600000000008
 20
-0.14534
 30
0.0
 10
4.4781600000000008
 20
-0.14534
 30
0.0
 10
4.45784
 20
-0.40696
 30
0.0
 10
4.45784
 20
-0.40696
 30
0.0
 10
4.45784
 20
-0.40696
 30
0.0
 10
4.3562400000000006
 20
-0.38664
 30
0.0
 10
4.1759000000000004
 20
-0.36632
 30
0.0
 10
4.1759000000000004
 20
-0.50602
 30
0.0
 10
4.1759000000000004
 20
-0.50602
 30
0.0
 10
4.0768400000000007
 20
-0.40696
 30
0.0
 10
4.1581200000000003
 20
-0.18598
 30
0.0
 10
4.2775000000000007
 20
-0.14534
 30
0.0
  0
SPLINE
  5
53
100
AcDbEntity
  8
Ebene 1
 62
     7
100
AcDbSpline
210
0.0
220
0.0
230
1.0
 70
     1
 71
     3
 72
    40
 73
    36
 74
     0
 42
0.0000000001
 43
0.0000000001
 40
0.0
 40
0.0
 40
0.0
 40
0.0
 40
0.1111111111111111
 40
0.1111111111111111
 40
0.1111111111111111
 40
0.1111111111111111
 40
0.2222222222222222
 40
0.2222222222222222
 40
0.2222222222222222
 40
0.2222222222222222
 40
0.3333333333333333
 40
0.3333333333333333
 40
0.3333333333333333
 40
0.3333333333333333
 40
0.4444444444444444
 40
0.4444444444444444
 40
0.4444444444444444
 40
0.4444444444444444
 40
0.5555555555555556
 40
0.5555555555555556
 40
0.5555555555555556
 40
0.5555555555555556
 40
0.6666666666666667
 40
0.6666666666666667
 40
0.6666666666666667
 40
0.6666666666666667
 40
0.7777777777777779
 40
0.7777777777777779
 40
0.7777777777777779
 40
0.7777777777777779
 40
0.8888888888888891
 40
0.8888888888888891
 40
0.8888888888888891
 40
0.8888888888888891
 40
1.0
 40
1.0
 40
1.0
 40
1.0
 10
-3.5914100000000002
 20
-0.32568
 30
0.0
 10
-3.5075900000000004
 20
-0.32568
 30
0.0
 10
-3.4364700000000004
 20
-0.36632
 30
0.0
 10
-3.3755100000000002
 20
-0.40696
 30
0.0
 10
-3.3755100000000002
 20
-0.40696
 30
0.0
 10
-3.2307300000000003
 20
-1.1461000000000001
 30
0.0
 10
-3.1621500000000005
 20
-1.9639800000000001
 30
0.0
 10
-3.1723100000000004
 20
-2.7437600000000004
 30
0.0
 10
-3.1723100000000004
 20
-2.7437600000000004
 30
0.0
 10
-3.1723100000000004
 20
-2.7437600000000004
 30
0.0
 10
-3.6650700000000005
 20
-3.3813000000000004
 30
0.0
 10
-3.6650700000000005
 20
-3.3813000000000004
 30
0.0
 10
-3.6650700000000005
 20
-3.3813000000000004
 30
0.0
 10
-3.8454100000000002
 20
-2.5431000000000004
 30
0.0
 10
-3.8352500000000003
 20
-1.5626600000000002
 30
0.0
 10
-3.8860500000000004
 20
-0.6838200000000001
 30
0.0
 10
-3.8860500000000004
 20
-0.6838200000000001
 30
0.0
 10
-3.8530300000000004
 20
-0.84384
 30
0.0
 10
-3.7920700000000003
 20
-1.0064000000000002
 30
0.0
 10
-3.7920700000000003
 20
-1.1842000000000001
 30
0.0
 10
-3.7920700000000003
 20
-1.1842000000000001
 30
0.0
 10
-3.7590500000000002
 20
-1.3848600000000002
 30
0.0
 10
-3.8047700000000004
 20
-1.6845800000000002
 30
0.0
 10
-3.5533100000000002
 20
-1.7049000000000001
 30
0.0
 10
-3.5533100000000002
 20
-1.7049000000000001
 30
0.0
 10
-3.6930100000000001
 20
-1.9843000000000002
 30
0.0
 10
-3.6803100000000004
 20
-2.4237200000000003
 30
0.0
 10
-3.5558500000000004
 20
-2.7031200000000002
 30
0.0
 10
-3.5558500000000004
 20
-2.7031200000000002
 30
0.0
 10
-3.5177500000000004
 20
-2.3830800000000001
 30
0.0
 10
-3.6371300000000004
 20
-1.9639800000000001
 30
0.0
 10
-3.4110700000000005
 20
-1.7049000000000001
 30
0.0
 10
-3.4110700000000005
 20
-1.7049000000000001
 30
0.0
 10
-3.6904700000000004
 20
-1.3645400000000001
 30
0.0
 10
-3.8149300000000004
 20
-0.7244600000000001
 30
0.0
 10
-3.5914100000000002
 20
-0.32568
 30
0.0
  0
SPLINE
  5
54
100
AcDbEntity
  8
Ebene 1
 62
     7
100
AcDbSpline
210
0.0
220
0.0
230
1.0
 70
     1
 71
     3
 72
    20
 73
    16
 74
     0
 42
0.0000000001
 43
0.0000000001
 40
0.0
 40
0.0
 40
0.0
 40
0.0
 40
0.25
 40
0.25
 40
0.25
 40
0.25
 40
0.5
 40
0.5
 40
0.5
 40
0.5
 40
0.75
 40
0.75
 40
0.75
 40
0.75
 40
1.0
 40
1.0
 40
1.0
 40
1.0
 10
4.3562400000000006
 20
-0.5441200000000001
 30
0.0
 10
4.45784
 20
-0.5441200000000001
 30
0.0
 10
4.5569000000000006
 20
-0.5441200000000001
 30
0.0
 10
4.6585000000000001
 20
-0.5644400000000001
 30
0.0
 10
4.6585000000000001
 20
-0.5644400000000001
 30
0.0
 10
4.6381800000000002
 20
-0.84384
 30
0.0
 10
4.6381800000000002
 20
-1.1461000000000001
 30
0.0
 10
4.5772200000000005
 20
-1.4229600000000002
 30
0.0
 10
4.5772200000000005
 20
-1.4229600000000002
 30
0.0
 10
4.4984800000000007
 20
-1.4229600000000002
 30
0.0
 10
4.3968800000000003
 20
-1.4432800000000001
 30
0.0
 10
4.3359200000000007
 20
-1.4051800000000001
 30
0.0
 10
4.3359200000000007
 20
-1.4051800000000001
 30
0.0
 10
4.3359200000000007
 20
-1.4051800000000001
 30
0.0
 10
4.3562400000000006
 20
-0.5441200000000001
 30
0.0
 10
4.3562400000000006
 20
-0.5441200000000001
 30
0.0
  0
SPLINE
  5
55
100
AcDbEntity
  8
Ebene 1
 62
     7
100
AcDbSpline
210
0.0
220
0.0
230
1.0
 70
     1
 71
     3
 72
    24
 73
    20
 74
     0
 42
0.0000000001
 43
0.0000000001
 40
0.0
 40
0.0
 40
0.0
 40
0.0
 40
0.2
 40
0.2
 40
0.2
 40
0.2
 40
0.4
 40
0.4
 40
0.4
 40
0.4
 40
0.6000000000000001
 40
0.6000000000000001
 40
0.6000000000000001
 40
0.6000000000000001
 40
0.8
 40
0.8
 40
0.8
 40
0.8
 40
1.0
 40
1.0
 40
1.0
 40
1.0
 10
3.5586800000000003
 20
-0.6254000000000001
 30
0.0
 10
3.7796600000000002
 20
-0.6254000000000001
 30
0.0
 10
3.9981000000000004
 20
-0.5847600000000001
 30
0.0
 10
4.1962200000000003
 20
-0.6838200000000001
 30
0.0
 10
4.1962200000000003
 20
-0.6838200000000001
 30
0.0
 10
4.1962200000000003
 20
-0.6838200000000001
 30
0.0
 10
4.1962200000000003
 20
-1.12578
 30
0.0
 10
4.1962200000000003
 20
-1.12578
 30
0.0
 10
4.1962200000000003
 20
-1.12578
 30
0.0
 10
3.7187000000000001
 20
-0.86416
 30
0.0
 10
3.1980000000000004
 20
-1.1054600000000001
 30
0.0
 10
2.7382600000000004
 20
-1.2248400000000002
 30
0.0
 10
2.7382600000000004
 20
-1.2248400000000002
 30
0.0
 10
2.8601800000000002
 20
-1.08514
 30
0.0
 10
2.8601800000000002
 20
-0.88448
 30
0.0
 10
2.9998800000000001
 20
-0.80574
 30
0.0
 10
2.9998800000000001
 20
-0.80574
 30
0.0
 10
2.9998800000000001
 20
-0.80574
 30
0.0
 10
3.5586800000000003
 20
-0.6254000000000001
 30
0.0
 10
3.5586800000000003
 20
-0.6254000000000001
 30
0.0
  0
SPLINE
  5
56
100
AcDbEntity
  8
Ebene 1
 62
     7
100
AcDbSpline
210
0.0
220
0.0
230
1.0
 70
     1
 71
     3
 72
    40
 73
    36
 74
     0
 42
0.0000000001
 43
0.0000000001
 40
0.0
 40
0.0
 40
0.0
 40
0.0
 40
0.1111111111111111
 40
0.1111111111111111
 40
0.1111111111111111
 40
0.1111111111111111
 40
0.2222222222222222
 40
0.2222222222222222
 40
0.2222222222222222
 40
0.2222222222222222
 40
0.3333333333333333
 40
0.3333333333333333
 40
0.3333333333333333
 40
0.3333333333333333
 40
0.4444444444444444
 40
0.4444444444444444
 40
0.4444444444444444
 40
0.4444444444444444
 40
0.5555555555555556
 40
0.5555555555555556
 40
0.5555555555555556
 40
0.5555555555555556
 40
0.6666666666666667
 40
0.6666666666666667
 40
0.6666666666666667
 40
0.6666666666666667
 40
0.7777777777777779
 40
0.7777777777777779
 40
0.7777777777777779
 40
0.7777777777777779
 40
0.8888888888888891
 40
0.8888888888888891
 40
0.8888888888888891
 40
0.8888888888888891
 40
1.0
 40
1.0
 40
1.0
 40
1.0
 10
3.6577400000000004
 20
-1.0648200000000001
 30
0.0
 10
3.7390200000000005
 20
-1.08514
 30
0.0
 10
3.8380800000000002
 20
-1.0241800000000001
 30
0.0
 10
3.8990400000000003
 20
-1.1054600000000001
 30
0.0
 10
3.8990400000000003
 20
-1.1054600000000001
 30
0.0
 10
3.9981000000000004
 20
-1.6236200000000001
 30
0.0
 10
3.9981000000000004
 20
-2.2637
 30
0.0
 10
3.8787200000000004
 20
-2.8047200000000001
 30
0.0
 10
3.8787200000000004
 20
-2.8047200000000001
 30
0.0
 10
3.8787200000000004
 20
-2.8047200000000001
 30
0.0
 10
3.6983800000000002
 20
-2.9622000000000002
 30
0.0
 10
3.6983800000000002
 20
-2.9622000000000002
 30
0.0
 10
3.6983800000000002
 20
-2.9622000000000002
 30
0.0
 10
3.6983800000000002
 20
-2.9622000000000002
 30
0.0
 10
3.4367600000000005
 20
-2.9622000000000002
 30
0.0
 10
3.4367600000000005
 20
-2.9622000000000002
 30
0.0
 10
3.4367600000000005
 20
-2.9622000000000002
 30
0.0
 10
3.4774000000000003
 20
-2.5837400000000001
 30
0.0
 10
2.9186000000000001
 20
-2.14432
 30
0.0
 10
2.5985600000000004
 20
-2.4618200000000003
 30
0.0
 10
2.5985600000000004
 20
-2.4618200000000003
 30
0.0
 10
2.5985600000000004
 20
-2.4618200000000003
 30
0.0
 10
2.5376000000000003
 20
-2.4237200000000003
 30
0.0
 10
2.5376000000000003
 20
-2.4237200000000003
 30
0.0
 10
2.5376000000000003
 20
-2.4237200000000003
 30
0.0
 10
2.5579200000000002
 20
-2.2230600000000003
 30
0.0
 10
2.8601800000000002
 20
-2.2027400000000004
 30
0.0
 10
2.9186000000000001
 20
-2.02494
 30
0.0
 10
2.9186000000000001
 20
-2.02494
 30
0.0
 10
2.8398600000000003
 20
-1.7633200000000002
 30
0.0
 10
2.8805000000000001
 20
-1.5829800000000001
 30
0.0
 10
2.9389200000000004
 20
-1.3239000000000001
 30
0.0
 10
2.9389200000000004
 20
-1.3239000000000001
 30
0.0
 10
3.1192600000000001
 20
-1.12578
 30
0.0
 10
3.4189800000000004
 20
-1.1461000000000001
 30
0.0
 10
3.6577400000000004
 20
-1.0648200000000001
 30
0.0
  0
SPLINE
  5
57
100
AcDbEntity
  8
Ebene 1
 62
     7
100
AcDbSpline
210
0.0
220
0.0
230
1.0
 70
     1
 71
     3
 72
    16
 73
    12
 74
     0
 42
0.0000000001
 43
0.0000000001
 40
0.0
 40
0.0
 40
0.0
 40
0.0
 40
0.3333333333333333
 40
0.3333333333333333
 40
0.3333333333333333
 40
0.3333333333333333
 40
0.6666666666666666
 40
0.6666666666666666
 40
0.6666666666666666
 40
0.6666666666666666
 40
1.0
 40
1.0
 40
1.0
 40
1.0
 10
4.1174800000000005
 20
-1.2654800000000002
 30
0.0
 10
4.2368600000000001
 20
-1.3035800000000002
 30
0.0
 10
4.2165400000000002
 20
-1.54488
 30
0.0
 10
4.4172000000000002
 20
-1.50424
 30
0.0
 10
4.4172000000000002
 20
-1.50424
 30
0.0
 10
4.3359200000000007
 20
-1.9055600000000001
 30
0.0
 10
4.5162599999999999
 20
-2.5431000000000004
 30
0.0
 10
4.0387400000000007
 20
-2.7031200000000002
 30
0.0
 10
4.0387400000000007
 20
-2.7031200000000002
 30
0.0
 10
4.1174800000000005
 20
-2.2433800000000002
 30
0.0
 10
4.0971600000000006
 20
-1.7430000000000001
 30
0.0
 10
4.1174800000000005
 20
-1.2654800000000002
 30
0.0
  0
SPLINE
  5
58
100
AcDbEntity
  8
Ebene 1
 62
     7
100
AcDbSpline
210
0.0
220
0.0
230
1.0
 70
     1
 71
     3
 72
    16
 73
    12
 74
     0
 42
0.0000000001
 43
0.0000000001
 40
0.0
 40
0.0
 40
0.0
 40
0.0
 40
0.3333333333333333
 40
0.3333333333333333
 40
0.3333333333333333
 40
0.3333333333333333
 40
0.6666666666666666
 40
0.6666666666666666
 40
0.6666666666666666
 40
0.6666666666666666
 40
1.0
 40
1.0
 40
1.0
 40
1.0
 10
-1.2749300000000001
 20
-1.4051800000000001
 30
0.0
 10
-1.20889
 20
-1.6439400000000002
 30
0.0
 10
-1.2012700000000001
 20
-1.9436600000000002
 30
0.0
 10
-1.2368300000000001
 20
-2.2027400000000004
 30
0.0
 10
-1.2368300000000001
 20
-2.2027400000000004
 30
0.0
 10
-1.2368300000000001
 20
-2.2027400000000004
 30
0.0
 10
-1.3079500000000002
 20
-2.14432
 30
0.0
 10
-1.3079500000000002
 20
-2.14432
 30
0.0
 10
-1.3079500000000002
 20
-2.14432
 30
0.0
 10
-1.3104900000000002
 20
-1.8852400000000002
 30
0.0
 10
-1.33335
 20
-1.6236200000000001
 30
0.0
 10
-1.2749300000000001
 20
-1.4051800000000001
 30
0.0
  0
SPLINE
  5
59
100
AcDbEntity
  8
Ebene 1
 62
     7
100
AcDbSpline
210
0.0
220
0.0
230
1.0
 70
     1
 71
     3
 72
    16
 73
    12
 74
     0
 42
0.0000000001
 43
0.0000000001
 40
0.0
 40
0.0
 40
0.0
 40
0.0
 40
0.3333333333333333
 40
0.3333333333333333
 40
0.3333333333333333
 40
0.3333333333333333
 40
0.6666666666666666
 40
0.6666666666666666
 40
0.6666666666666666
 40
0.6666666666666666
 40
1.0
 40
1.0
 40
1.0
 40
1.0
 10
-0.9752100000000001
 20
-2.3043400000000003
 30
0.0
 10
-0.9752100000000001
 20
-2.3043400000000003
 30
0.0
 10
-1.08951
 20
-2.2637
 30
0.0
 10
-1.08951
 20
-2.2637
 30
0.0
 10
-1.08951
 20
-2.2637
 30
0.0
 10
-1.08951
 20
-2.2637
 30
0.0
 10
-1.08951
 20
-1.5245600000000001
 30
0.0
 10
-1.08951
 20
-1.5245600000000001
 30
0.0
 10
-1.08951
 20
-1.5245600000000001
 30
0.0
 10
-1.0285500000000001
 20
-1.7633200000000002
 30
0.0
 10
-0.9599700000000001
 20
-2.02494
 30
0.0
 10
-0.9752100000000001
 20
-2.3043400000000003
 30
0.0
  0
SPLINE
  5
5A
100
AcDbEntity
  8
Ebene 1
 62
     7
100
AcDbSpline
210
0.0
220
0.0
230
1.0
 70
     1
 71
     3
 72
    16
 73
    12
 74
     0
 42
0.0000000001
 43
0.0000000001
 40
0.0
 40
0.0
 40
0.0
 40
0.0
 40
0.3333333333333333
 40
0.3333333333333333
 40
0.3333333333333333
 40
0.3333333333333333
 40
0.6666666666666666
 40
0.6666666666666666
 40
0.6666666666666666
 40
0.6666666666666666
 40
1.0
 40
1.0
 40
1.0
 40
1.0
 10
-1.3943100000000002
 20
-2.2840200000000004
 30
0.0
 10
-1.2876300000000001
 20
-2.3830800000000001
 30
0.0
 10
-1.3079500000000002
 20
-2.6624800000000004
 30
0.0
 10
-1.4324100000000002
 20
-2.7234400000000001
 30
0.0
 10
-1.4324100000000002
 20
-2.7234400000000001
 30
0.0
 10
-1.4324100000000002
 20
-2.7234400000000001
 30
0.0
 10
-1.4882900000000001
 20
-2.7031200000000002
 30
0.0
 10
-1.4882900000000001
 20
-2.7031200000000002
 30
0.0
 10
-1.4882900000000001
 20
-2.7031200000000002
 30
0.0
 10
-1.4882900000000001
 20
-2.7031200000000002
 30
0.0
 10
-1.3943100000000002
 20
-2.2840200000000004
 30
0.0
 10
-1.3943100000000002
 20
-2.2840200000000004
 30
0.0
  0
SPLINE
  5
5B
100
AcDbEntity
  8
Ebene 1
 62
     7
100
AcDbSpline
210
0.0
220
0.0
230
1.0
 70
     1
 71
     3
 72
    20
 73
    16
 74
     0
 42
0.0000000001
 43
0.0000000001
 40
0.0
 40
0.0
 40
0.0
 40
0.0
 40
0.25
 40
0.25
 40
0.25
 40
0.25
 40
0.5
 40
0.5
 40
0.5
 40
0.5
 40
0.75
 40
0.75
 40
0.75
 40
0.75
 40
1.0
 40
1.0
 40
1.0
 40
1.0
 10
0.9399400000000001
 20
-2.35514
 30
0.0
 10
1.1355200000000001
 20
-2.4135600000000004
 30
0.0
 10
1.1558400000000002
 20
-2.5837400000000001
 30
0.0
 10
1.23712
 20
-2.7234400000000001
 30
0.0
 10
1.23712
 20
-2.7234400000000001
 30
0.0
 10
1.23712
 20
-2.7234400000000001
 30
0.0
 10
1.0059800000000001
 20
-2.8225000000000002
 30
0.0
 10
1.0059800000000001
 20
-2.8225000000000002
 30
0.0
 10
1.0059800000000001
 20
-2.8225000000000002
 30
0.0
 10
0.8739000000000001
 20
-2.7031200000000002
 30
0.0
 10
0.9247000000000001
 20
-2.5532600000000003
 30
0.0
 10
0.8866000000000001
 20
-2.39324
 30
0.0
 10
0.8866000000000001
 20
-2.39324
 30
0.0
 10
0.8866000000000001
 20
-2.39324
 30
0.0
 10
0.9399400000000001
 20
-2.35514
 30
0.0
 10
0.9399400000000001
 20
-2.35514
 30
0.0
  0
SPLINE
  5
5C
100
AcDbEntity
  8
Ebene 1
 62
     7
100
AcDbSpline
210
0.0
220
0.0
230
1.0
 70
     1
 71
     3
 72
    20
 73
    16
 74
     0
 42
0.0000000001
 43
0.0000000001
 40
0.0
 40
0.0
 40
0.0
 40
0.0
 40
0.25
 40
0.25
 40
0.25
 40
0.25
 40
0.5
 40
0.5
 40
0.5
 40
0.5
 40
0.75
 40
0.75
 40
0.75
 40
0.75
 40
1.0
 40
1.0
 40
1.0
 40
1.0
 10
-1.1555500000000001
 20
-2.3627600000000002
 30
0.0
 10
-0.91171
 20
-2.4034
 30
0.0
 10
-1.00569
 20
-2.7234400000000001
 30
0.0
 10
-0.9980700000000001
 20
-2.9037800000000002
 30
0.0
 10
-0.9980700000000001
 20
-2.9037800000000002
 30
0.0
 10
-1.08189
 20
-2.9037800000000002
 30
0.0
 10
-1.0564900000000002
 20
-2.8428200000000001
 30
0.0
 10
-1.07935
 20
-2.8047200000000001
 30
0.0
 10
-1.07935
 20
-2.8047200000000001
 30
0.0
 10
-1.07935
 20
-2.8047200000000001
 30
0.0
 10
-1.24699
 20
-2.8428200000000001
 30
0.0
 10
-1.24699
 20
-2.8428200000000001
 30
0.0
 10
-1.24699
 20
-2.8428200000000001
 30
0.0
 10
-1.2419100000000001
 20
-2.6828000000000003
 30
0.0
 10
-1.2419100000000001
 20
-2.5024600000000001
 30
0.0
 10
-1.1555500000000001
 20
-2.3627600000000002
 30
0.0
  0
SPLINE
  5
5D
100
AcDbEntity
  8
Ebene 1
 62
     7
100
AcDbSpline
210
0.0
220
0.0
230
1.0
 70
     1
 71
     3
 72
    20
 73
    16
 74
     0
 42
0.0000000001
 43
0.0000000001
 40
0.0
 40
0.0
 40
0.0
 40
0.0
 40
0.25
 40
0.25
 40
0.25
 40
0.25
 40
0.5
 40
0.5
 40
0.5
 40
0.5
 40
0.75
 40
0.75
 40
0.75
 40
0.75
 40
1.0
 40
1.0
 40
1.0
 40
1.0
 10
0.66054
 20
-2.3627600000000002
 30
0.0
 10
0.9424800000000001
 20
-2.4034
 30
0.0
 10
0.7900800000000001
 20
-2.7437600000000004
 30
0.0
 10
0.9374000000000001
 20
-2.9037800000000002
 30
0.0
 10
0.9374000000000001
 20
-2.9037800000000002
 30
0.0
 10
0.9374000000000001
 20
-2.9037800000000002
 30
0.0
 10
0.6681600000000001
 20
-2.9622000000000002
 30
0.0
 10
0.6681600000000001
 20
-2.9622000000000002
 30
0.0
 10
0.6681600000000001
 20
-2.9622000000000002
 30
0.0
 10
0.57418
 20
-2.7844000000000002
 30
0.0
 10
0.6046600000000001
 20
-2.5837400000000001
 30
0.0
 10
0.6072000000000001
 20
-2.3830800000000001
 30
0.0
 10
0.6072000000000001
 20
-2.3830800000000001
 30
0.0
 10
0.6072000000000001
 20
-2.3830800000000001
 30
0.0
 10
0.66054
 20
-2.3627600000000002
 30
0.0
 10
0.66054
 20
-2.3627600000000002
 30
0.0
  0
SPLINE
  5
5E
100
AcDbEntity
  8
Ebene 1
 62
     7
100
AcDbSpline
210
0.0
220
0.0
230
1.0
 70
     1
 71
     3
 72
    20
 73
    16
 74
     0
 42
0.0000000001
 43
0.0000000001
 40
0.0
 40
0.0
 40
0.0
 40
0.0
 40
0.25
 40
0.25
 40
0.25
 40
0.25
 40
0.5
 40
0.5
 40
0.5
 40
0.5
 40
0.75
 40
0.75
 40
0.75
 40
0.75
 40
1.0
 40
1.0
 40
1.0
 40
1.0
 10
-0.5154700000000001
 20
-2.4034
 30
0.0
 10
-0.4291100000000001
 20
-2.4034
 30
0.0
 10
-0.34783
 20
-2.4237200000000003
 30
0.0
 10
-0.27925
 20
-2.4618200000000003
 30
0.0
 10
-0.27925
 20
-2.4618200000000003
 30
0.0
 10
-0.25639
 20
-2.7234400000000001
 30
0.0
 10
-0.27925
 20
-3.0028400000000004
 30
0.0
 10
-0.27925
 20
-3.2822400000000003
 30
0.0
 10
-0.27925
 20
-3.2822400000000003
 30
0.0
 10
-0.4062500000000001
 20
-3.2822400000000003
 30
0.0
 10
-0.55357
 20
-3.3025600000000002
 30
0.0
 10
-0.6500900000000001
 20
-3.2212800000000001
 30
0.0
 10
-0.6500900000000001
 20
-3.2212800000000001
 30
0.0
 10
-0.6627900000000001
 20
-2.9622000000000002
 30
0.0
 10
-0.6272300000000001
 20
-2.6624800000000004
 30
0.0
 10
-0.5154700000000001
 20
-2.4034
 30
0.0
  0
SPLINE
  5
5F
100
AcDbEntity
  8
Ebene 1
 62
     7
100
AcDbSpline
210
0.0
220
0.0
230
1.0
 70
     1
 71
     3
 72
    20
 73
    16
 74
     0
 42
0.0000000001
 43
0.0000000001
 40
0.0
 40
0.0
 40
0.0
 40
0.0
 40
0.25
 40
0.25
 40
0.25
 40
0.25
 40
0.5
 40
0.5
 40
0.5
 40
0.5
 40
0.75
 40
0.75
 40
0.75
 40
0.75
 40
1.0
 40
1.0
 40
1.0
 40
1.0
 10
-0.03541
 20
-2.4237200000000003
 30
0.0
 10
-0.03541
 20
-2.4237200000000003
 30
0.0
 10
0.11698
 20
-2.4237200000000003
 30
0.0
 10
0.11698
 20
-2.4237200000000003
 30
0.0
 10
0.11698
 20
-2.4237200000000003
 30
0.0
 10
0.22874
 20
-2.6828000000000003
 30
0.0
 10
0.23128
 20
-2.9241000000000001
 30
0.0
 10
0.29732
 20
-3.1806400000000004
 30
0.0
 10
0.29732
 20
-3.1806400000000004
 30
0.0
 10
0.15
 20
-3.2212800000000001
 30
0.0
 10
0.03824
 20
-3.2822400000000003
 30
0.0
 10
-0.10907
 20
-3.2822400000000003
 30
0.0
 10
-0.10907
 20
-3.2822400000000003
 30
0.0
 10
-0.26401
 20
-3.0434800000000002
 30
0.0
 10
-0.22083
 20
-2.60406
 30
0.0
 10
-0.03541
 20
-2.4237200000000003
 30
0.0
  0
SPLINE
  5
60
100
AcDbEntity
  8
Ebene 1
 62
     7
100
AcDbSpline
210
0.0
220
0.0
230
1.0
 70
     1
 71
     3
 72
    20
 73
    16
 74
     0
 42
0.0000000001
 43
0.0000000001
 40
0.0
 40
0.0
 40
0.0
 40
0.0
 40
0.25
 40
0.25
 40
0.25
 40
0.25
 40
0.5
 40
0.5
 40
0.5
 40
0.5
 40
0.75
 40
0.75
 40
0.75
 40
0.75
 40
1.0
 40
1.0
 40
1.0
 40
1.0
 10
0.36082
 20
-2.4440400000000002
 30
0.0
 10
0.36082
 20
-2.4440400000000002
 30
0.0
 10
0.5183000000000001
 20
-2.4821400000000002
 30
0.0
 10
0.5183000000000001
 20
-2.4821400000000002
 30
0.0
 10
0.5183000000000001
 20
-2.4821400000000002
 30
0.0
 10
0.47766
 20
-2.7031200000000002
 30
0.0
 10
0.71896
 20
-3.0434800000000002
 30
0.0
 10
0.4421000000000001
 20
-3.1222200000000004
 30
0.0
 10
0.4421000000000001
 20
-3.1222200000000004
 30
0.0
 10
0.4421000000000001
 20
-3.1222200000000004
 30
0.0
 10
0.3684400000000001
 20
-3.0638000000000001
 30
0.0
 10
0.3684400000000001
 20
-3.0638000000000001
 30
0.0
 10
0.3684400000000001
 20
-3.0638000000000001
 30
0.0
 10
0.35828
 20
-2.8428200000000001
 30
0.0
 10
0.16524
 20
-2.60406
 30
0.0
 10
0.36082
 20
-2.4440400000000002
 30
0.0
  0
SPLINE
  5
61
100
AcDbEntity
  8
Ebene 1
 62
     7
100
AcDbSpline
210
0.0
220
0.0
230
1.0
 70
     1
 71
     3
 72
    16
 73
    12
 74
     0
 42
0.0000000001
 43
0.0000000001
 40
0.0
 40
0.0
 40
0.0
 40
0.0
 40
0.3333333333333333
 40
0.3333333333333333
 40
0.3333333333333333
 40
0.3333333333333333
 40
0.6666666666666666
 40
0.6666666666666666
 40
0.6666666666666666
 40
0.6666666666666666
 40
1.0
 40
1.0
 40
1.0
 40
1.0
 10
-0.7745500000000001
 20
-2.5024600000000001
 30
0.0
 10
-0.6069100000000001
 20
-2.6624800000000004
 30
0.0
 10
-0.7466100000000001
 20
-2.94442
 30
0.0
 10
-0.7745500000000001
 20
-3.1222200000000004
 30
0.0
 10
-0.7745500000000001
 20
-3.1222200000000004
 30
0.0
 10
-0.8101100000000001
 20
-3.1222200000000004
 30
0.0
 10
-0.82535
 20
-3.1019000000000001
 30
0.0
 10
-0.84821
 20
-3.0815800000000002
 30
0.0
 10
-0.84821
 20
-3.0815800000000002
 30
0.0
 10
-0.8532900000000001
 20
-2.8834600000000004
 30
0.0
 10
-0.8736100000000001
 20
-2.6421600000000001
 30
0.0
 10
-0.7745500000000001
 20
-2.5024600000000001
 30
0.0
  0
SPLINE
  5
62
100
AcDbEntity
  8
Ebene 1
 62
     7
100
AcDbSpline
210
0.0
220
0.0
230
1.0
 70
     1
 71
     3
 72
    32
 73
    28
 74
     0
 42
0.0000000001
 43
0.0000000001
 40
0.0
 40
0.0
 40
0.0
 40
0.0
 40
0.1428571428571429
 40
0.1428571428571429
 40
0.1428571428571429
 40
0.1428571428571429
 40
0.2857142857142857
 40
0.2857142857142857
 40
0.2857142857142857
 40
0.2857142857142857
 40
0.4285714285714286
 40
0.4285714285714286
 40
0.4285714285714286
 40
0.4285714285714286
 40
0.5714285714285714
 40
0.5714285714285714
 40
0.5714285714285714
 40
0.5714285714285714
 40
0.7142857142857142
 40
0.7142857142857142
 40
0.7142857142857142
 40
0.7142857142857142
 40
0.857142857142857
 40
0.857142857142857
 40
0.857142857142857
 40
0.857142857142857
 40
1.0
 40
1.0
 40
1.0
 40
1.0
 10
3.0379800000000001
 20
-2.60406
 30
0.0
 10
3.1776800000000001
 20
-2.60406
 30
0.0
 10
3.2386400000000002
 20
-2.7437600000000004
 30
0.0
 10
3.3173800000000004
 20
-2.8225000000000002
 30
0.0
 10
3.3173800000000004
 20
-2.8225000000000002
 30
0.0
 10
2.9389200000000004
 20
-3.3025600000000002
 30
0.0
 10
2.5376000000000003
 20
-3.8435800000000002
 30
0.0
 10
2.1210400000000003
 20
-4.2423600000000006
 30
0.0
 10
2.1210400000000003
 20
-4.2423600000000006
 30
0.0
 10
2.1210400000000003
 20
-4.2423600000000006
 30
0.0
 10
2.0397600000000002
 20
-4.1204400000000003
 30
0.0
 10
2.0397600000000002
 20
-4.1204400000000003
 30
0.0
 10
2.0397600000000002
 20
-4.1204400000000003
 30
0.0
 10
2.1591400000000003
 20
-3.6429200000000002
 30
0.0
 10
2.6392000000000002
 20
-3.3609800000000001
 30
0.0
 10
2.8982800000000002
 20
-2.9825200000000001
 30
0.0
 10
2.8982800000000002
 20
-2.9825200000000001
 30
0.0
 10
2.9186000000000001
 20
-2.8834600000000004
 30
0.0
 10
2.8601800000000002
 20
-2.86314
 30
0.0
 10
2.8195400000000004
 20
-2.8047200000000001
 30
0.0
 10
2.8195400000000004
 20
-2.8047200000000001
 30
0.0
 10
2.8195400000000004
 20
-2.8047200000000001
 30
0.0
 10
2.8398600000000003
 20
-2.6828000000000003
 30
0.0
 10
2.8398600000000003
 20
-2.6828000000000003
 30
0.0
 10
2.8398600000000003
 20
-2.6828000000000003
 30
0.0
 10
2.8398600000000003
 20
-2.6828000000000003
 30
0.0
 10
3.0379800000000001
 20
-2.60406
 30
0.0
 10
3.0379800000000001
 20
-2.60406
 30
0.0
  0
SPLINE
  5
63
100
AcDbEntity
  8
Ebene 1
 62
     7
100
AcDbSpline
210
0.0
220
0.0
230
1.0
 70
     1
 71
     3
 72
    24
 73
    20
 74
     0
 42
0.0000000001
 43
0.0000000001
 40
0.0
 40
0.0
 40
0.0
 40
0.0
 40
0.2
 40
0.2
 40
0.2
 40
0.2
 40
0.4
 40
0.4
 40
0.4
 40
0.4
 40
0.6000000000000001
 40
0.6000000000000001
 40
0.6000000000000001
 40
0.6000000000000001
 40
0.8
 40
0.8
 40
0.8
 40
0.8
 40
1.0
 40
1.0
 40
1.0
 40
1.0
 10
-2.8344900000000002
 20
-2.7640800000000003
 30
0.0
 10
-2.7836900000000004
 20
-2.7640800000000003
 30
0.0
 10
-2.7328900000000003
 20
-2.7640800000000003
 30
0.0
 10
-2.69733
 20
-2.8047200000000001
 30
0.0
 10
-2.69733
 20
-2.8047200000000001
 30
0.0
 10
-2.8243300000000002
 20
-3.2035000000000005
 30
0.0
 10
-3.2358100000000003
 20
-3.4422600000000001
 30
0.0
 10
-3.3526500000000001
 20
-3.8435800000000002
 30
0.0
 10
-3.3526500000000001
 20
-3.8435800000000002
 30
0.0
 10
-3.4313900000000004
 20
-3.8232600000000003
 30
0.0
 10
-3.5482300000000002
 20
-3.7419800000000003
 30
0.0
 10
-3.5533100000000002
 20
-3.6429200000000002
 30
0.0
 10
-3.5533100000000002
 20
-3.6429200000000002
 30
0.0
 10
-3.6498300000000001
 20
-3.4016200000000003
 30
0.0
 10
-3.1850100000000001
 20
-3.7038800000000003
 30
0.0
 10
-3.2866100000000005
 20
-3.5235400000000001
 30
0.0
 10
-3.2866100000000005
 20
-3.5235400000000001
 30
0.0
 10
-3.7285700000000004
 20
-3.3025600000000002
 30
0.0
 10
-3.1316700000000002
 20
-2.8428200000000001
 30
0.0
 10
-2.8344900000000002
 20
-2.7640800000000003
 30
0.0
  0
SPLINE
  5
64
100
AcDbEntity
  8
Ebene 1
 62
     7
100
AcDbSpline
210
0.0
220
0.0
230
1.0
 70
     1
 71
     3
 72
    20
 73
    16
 74
     0
 42
0.0000000001
 43
0.0000000001
 40
0.0
 40
0.0
 40
0.0
 40
0.0
 40
0.25
 40
0.25
 40
0.25
 40
0.25
 40
0.5
 40
0.5
 40
0.5
 40
0.5
 40
0.75
 40
0.75
 40
0.75
 40
0.75
 40
1.0
 40
1.0
 40
1.0
 40
1.0
 10
2.1997800000000001
 20
-3.6632400000000005
 30
0.0
 10
2.1997800000000001
 20
-3.6632400000000005
 30
0.0
 10
2.6188800000000003
 20
-2.8834600000000004
 30
0.0
 10
2.6188800000000003
 20
-2.8834600000000004
 30
0.0
 10
2.6188800000000003
 20
-2.8834600000000004
 30
0.0
 10
2.6188800000000003
 20
-2.8834600000000004
 30
0.0
 10
2.7001600000000003
 20
-2.86314
 30
0.0
 10
2.7001600000000003
 20
-2.86314
 30
0.0
 10
2.7001600000000003
 20
-2.86314
 30
0.0
 10
2.7001600000000003
 20
-2.86314
 30
0.0
 10
2.7382600000000004
 20
-2.94442
 30
0.0
 10
2.7382600000000004
 20
-2.94442
 30
0.0
 10
2.7382600000000004
 20
-2.94442
 30
0.0
 10
2.5985600000000004
 20
-3.1831800000000001
 30
0.0
 10
2.4182200000000003
 20
-3.5032200000000002
 30
0.0
 10
2.1997800000000001
 20
-3.6632400000000005
 30
0.0
  0
SPLINE
  5
65
100
AcDbEntity
  8
Ebene 1
 62
     7
100
AcDbSpline
210
0.0
220
0.0
230
1.0
 70
     1
 71
     3
 72
    24
 73
    20
 74
     0
 42
0.0000000001
 43
0.0000000001
 40
0.0
 40
0.0
 40
0.0
 40
0.0
 40
0.2
 40
0.2
 40
0.2
 40
0.2
 40
0.4
 40
0.4
 40
0.4
 40
0.4
 40
0.6000000000000001
 40
0.6000000000000001
 40
0.6000000000000001
 40
0.6000000000000001
 40
0.8
 40
0.8
 40
0.8
 40
0.8
 40
1.0
 40
1.0
 40
1.0
 40
1.0
 10
-2.4534900000000004
 20
-2.94442
 30
0.0
 10
-2.01153
 20
-3.0638000000000001
 30
0.0
 10
-1.6254500000000001
 20
-3.3025600000000002
 30
0.0
 10
-1.1784100000000002
 20
-3.4016200000000003
 30
0.0
 10
-1.1784100000000002
 20
-3.4016200000000003
 30
0.0
 10
-1.2825500000000001
 20
-3.8232600000000003
 30
0.0
 10
-1.5238500000000001
 20
-4.1610800000000001
 30
0.0
 10
-1.9150100000000001
 20
-4.40238
 30
0.0
 10
-1.9150100000000001
 20
-4.40238
 30
0.0
 10
-1.9150100000000001
 20
-4.40238
 30
0.0
 10
-2.56779
 20
-4.1001200000000004
 30
0.0
 10
-2.56779
 20
-4.1001200000000004
 30
0.0
 10
-2.56779
 20
-4.1001200000000004
 30
0.0
 10
-2.5423900000000001
 20
-3.8029400000000004
 30
0.0
 10
-2.7811500000000002
 20
-3.7038800000000003
 30
0.0
 10
-2.9716500000000003
 20
-3.5413200000000002
 30
0.0
 10
-2.9716500000000003
 20
-3.5413200000000002
 30
0.0
 10
-2.9310100000000001
 20
-3.2619200000000004
 30
0.0
 10
-2.6998700000000002
 20
-3.0434800000000002
 30
0.0
 10
-2.4534900000000004
 20
-2.94442
 30
0.0
  0
SPLINE
  5
66
100
AcDbEntity
  8
Ebene 1
100
AcDbSpline
210
0.0
220
0.0
230
1.0
 70
     1
 71
     3
 72
    20
 73
    16
 74
     0
 42
0.0000000001
 43
0.0000000001
 40
0.0
 40
0.0
 40
0.0
 40
0.0
 40
0.25
 40
0.25
 40
0.25
 40
0.25
 40
0.5
 40
0.5
 40
0.5
 40
0.5
 40
0.75
 40
0.75
 40
0.75
 40
0.75
 40
1.0
 40
1.0
 40
1.0
 40
1.0
 10
-2.3925300000000003
 20
-3.0638000000000001
 30
0.0
 10
-2.02169
 20
-3.1628600000000002
 30
0.0
 10
-1.6686300000000001
 20
-3.3228800000000001
 30
0.0
 10
-1.29779
 20
-3.4422600000000001
 30
0.0
 10
-1.29779
 20
-3.4422600000000001
 30
0.0
 10
-1.3155700000000001
 20
-3.7216600000000004
 30
0.0
 10
-1.5721100000000001
 20
-3.9020000000000001
 30
0.0
 10
-1.75499
 20
-4.0823400000000003
 30
0.0
 10
-1.75499
 20
-4.0823400000000003
 30
0.0
 10
-2.14615
 20
-4.0620200000000004
 30
0.0
 10
-2.4255500000000003
 20
-3.6835600000000004
 30
0.0
 10
-2.65415
 20
-3.4016200000000003
 30
0.0
 10
-2.65415
 20
-3.4016200000000003
 30
0.0
 10
-2.6693900000000004
 20
-3.2416000000000005
 30
0.0
 10
-2.5144500000000001
 20
-3.1425400000000003
 30
0.0
 10
-2.3925300000000003
 20
-3.0638000000000001
 30
0.0
  0
SPLINE
  5
67
100
AcDbEntity
  8
Ebene 1
 62
     7
100
AcDbSpline
210
0.0
220
0.0
230
1.0
 70
     1
 71
     3
 72
    16
 73
    12
 74
     0
 42
0.0000000001
 43
0.0000000001
 40
0.0
 40
0.0
 40
0.0
 40
0.0
 40
0.3333333333333333
 40
0.3333333333333333
 40
0.3333333333333333
 40
0.3333333333333333
 40
0.6666666666666666
 40
0.6666666666666666
 40
0.6666666666666666
 40
0.6666666666666666
 40
1.0
 40
1.0
 40
1.0
 40
1.0
 10
-1.92517
 20
-3.4016200000000003
 30
0.0
 10
-1.92517
 20
-3.4016200000000003
 30
0.0
 10
-1.5771900000000001
 20
-3.5108400000000004
 30
0.0
 10
-1.5771900000000001
 20
-3.5108400000000004
 30
0.0
 10
-1.5771900000000001
 20
-3.5108400000000004
 30
0.0
 10
-1.5619500000000002
 20
-3.6124400000000003
 30
0.0
 10
-1.7041900000000001
 20
-3.7623000000000002
 30
0.0
 10
-1.7880100000000001
 20
-3.8029400000000004
 30
0.0
 10
-1.7880100000000001
 20
-3.8029400000000004
 30
0.0
 10
-1.7499100000000001
 20
-3.6632400000000005
 30
0.0
 10
-1.7829300000000001
 20
-3.5006800000000005
 30
0.0
 10
-1.92517
 20
-3.4016200000000003
 30
0.0
  0
SPLINE
  5
68
100
AcDbEntity
  8
Ebene 1
 62
     7
100
AcDbSpline
210
0.0
220
0.0
230
1.0
 70
     1
 71
     3
 72
    28
 73
    24
 74
     0
 42
0.0000000001
 43
0.0000000001
 40
0.0
 40
0.0
 40
0.0
 40
0.0
 40
0.1666666666666667
 40
0.1666666666666667
 40
0.1666666666666667
 40
0.1666666666666667
 40
0.3333333333333333
 40
0.3333333333333333
 40
0.3333333333333333
 40
0.3333333333333333
 40
0.5
 40
0.5
 40
0.5
 40
0.5
 40
0.6666666666666666
 40
0.6666666666666666
 40
0.6666666666666666
 40
0.6666666666666666
 40
0.8333333333333333
 40
0.8333333333333333
 40
0.8333333333333333
 40
0.8333333333333333
 40
1.0
 40
1.0
 40
1.0
 40
1.0
 10
-3.0910300000000004
 20
-3.7623000000000002
 30
0.0
 10
-3.0072100000000002
 20
-3.8029400000000004
 30
0.0
 10
-2.8954500000000003
 20
-3.8435800000000002
 30
0.0
 10
-2.81671
 20
-3.8435800000000002
 30
0.0
 10
-2.81671
 20
-3.8435800000000002
 30
0.0
 10
-2.7201900000000001
 20
-3.9807400000000004
 30
0.0
 10
-2.7303500000000001
 20
-4.1788600000000002
 30
0.0
 10
-2.3976100000000002
 20
-4.2525200000000005
 30
0.0
 10
-2.3976100000000002
 20
-4.2525200000000005
 30
0.0
 10
-2.2401300000000002
 20
-4.4125400000000008
 30
0.0
 10
-2.05471
 20
-4.3820600000000001
 30
0.0
 10
-2.0572500000000002
 20
-4.5827200000000001
 30
0.0
 10
-2.0572500000000002
 20
-4.5827200000000001
 30
0.0
 10
-2.1232900000000003
 20
-4.6208200000000001
 30
0.0
 10
-2.1740900000000001
 20
-4.60304
 30
0.0
 10
-2.2477500000000004
 20
-4.6208200000000001
 30
0.0
 10
-2.2477500000000004
 20
-4.6208200000000001
 30
0.0
 10
-2.4357100000000003
 20
-4.3211000000000004
 30
0.0
 10
-2.7684500000000001
 20
-4.1610800000000001
 30
0.0
 10
-3.0656300000000001
 20
-4.0010600000000007
 30
0.0
 10
-3.0656300000000001
 20
-4.0010600000000007
 30
0.0
 10
-3.0783300000000002
 20
-3.9020000000000001
 30
0.0
 10
-3.15707
 20
-3.8232600000000003
 30
0.0
 10
-3.0910300000000004
 20
-3.7623000000000002
 30
0.0
  0
SPLINE
  5
69
100
AcDbEntity
  8
Ebene 1
 62
     7
100
AcDbSpline
210
0.0
220
0.0
230
1.0
 70
     1
 71
     3
 72
    28
 73
    24
 74
     0
 42
0.0000000001
 43
0.0000000001
 40
0.0
 40
0.0
 40
0.0
 40
0.0
 40
0.1666666666666667
 40
0.1666666666666667
 40
0.1666666666666667
 40
0.1666666666666667
 40
0.3333333333333333
 40
0.3333333333333333
 40
0.3333333333333333
 40
0.3333333333333333
 40
0.5
 40
0.5
 40
0.5
 40
0.5
 40
0.6666666666666666
 40
0.6666666666666666
 40
0.6666666666666666
 40
0.6666666666666666
 40
0.8333333333333333
 40
0.8333333333333333
 40
0.8333333333333333
 40
0.8333333333333333
 40
1.0
 40
1.0
 40
1.0
 40
1.0
 10
1.7603600000000001
 20
-3.9807400000000004
 30
0.0
 10
1.8010000000000002
 20
-4.0213800000000006
 30
0.0
 10
1.8010000000000002
 20
-4.0823400000000003
 30
0.0
 10
1.8187800000000001
 20
-4.1407600000000002
 30
0.0
 10
1.8187800000000001
 20
-4.1407600000000002
 30
0.0
 10
2.0600800000000001
 20
-4.2017200000000008
 30
0.0
 10
2.2988400000000002
 20
-4.6817800000000007
 30
0.0
 10
1.9407000000000001
 20
-4.8214800000000002
 30
0.0
 10
1.9407000000000001
 20
-4.8214800000000002
 30
0.0
 10
1.9203800000000002
 20
-4.7808400000000004
 30
0.0
 10
1.9610200000000002
 20
-4.7605200000000005
 30
0.0
 10
1.9813400000000001
 20
-4.7427400000000004
 30
0.0
 10
1.9813400000000001
 20
-4.7427400000000004
 30
0.0
 10
2.0397600000000002
 20
-4.7224200000000005
 30
0.0
 10
2.1794600000000002
 20
-4.5014400000000006
 30
0.0
 10
2.0397600000000002
 20
-4.5624000000000002
 30
0.0
 10
2.0397600000000002
 20
-4.5624000000000002
 30
0.0
 10
1.7603600000000001
 20
-4.64114
 30
0.0
 10
1.7197200000000001
 20
-4.2423600000000006
 30
0.0
 10
1.6587600000000002
 20
-4.0417000000000005
 30
0.0
 10
1.6587600000000002
 20
-4.0417000000000005
 30
0.0
 10
1.6587600000000002
 20
-4.0417000000000005
 30
0.0
 10
1.7603600000000001
 20
-3.9807400000000004
 30
0.0
 10
1.7603600000000001
 20
-3.9807400000000004
 30
0.0
  0
SPLINE
  5
6A
100
AcDbEntity
  8
Ebene 1
 62
     7
100
AcDbSpline
210
0.0
220
0.0
230
1.0
 70
     1
 71
     3
 72
    52
 73
    48
 74
     0
 42
0.0000000001
 43
0.0000000001
 40
0.0
 40
0.0
 40
0.0
 40
0.0
 40
0.0833333333333333
 40
0.0833333333333333
 40
0.0833333333333333
 40
0.0833333333333333
 40
0.1666666666666667
 40
0.1666666666666667
 40
0.1666666666666667
 40
0.1666666666666667
 40
0.25
 40
0.25
 40
0.25
 40
0.25
 40
0.3333333333333333
 40
0.3333333333333333
 40
0.3333333333333333
 40
0.3333333333333333
 40
0.4166666666666666
 40
0.4166666666666666
 40
0.4166666666666666
 40
0.4166666666666666
 40
0.4999999999999999
 40
0.4999999999999999
 40
0.4999999999999999
 40
0.4999999999999999
 40
0.5833333333333333
 40
0.5833333333333333
 40
0.5833333333333333
 40
0.5833333333333333
 40
0.6666666666666666
 40
0.6666666666666666
 40
0.6666666666666666
 40
0.6666666666666666
 40
0.75
 40
0.75
 40
0.75
 40
0.75
 40
0.8333333333333334
 40
0.8333333333333334
 40
0.8333333333333334
 40
0.8333333333333334
 40
0.9166666666666667
 40
0.9166666666666667
 40
0.9166666666666667
 40
0.9166666666666667
 40
1.0
 40
1.0
 40
1.0
 40
1.0
 10
-0.03541
 20
-4.3211000000000004
 30
0.0
 10
0.02808
 20
-4.3617400000000002
 30
0.0
 10
-0.19797
 20
-4.4862000000000002
 30
0.0
 10
-0.23607
 20
-4.5700200000000004
 30
0.0
 10
-0.23607
 20
-4.5700200000000004
 30
0.0
 10
-0.35291
 20
-4.8164000000000007
 30
0.0
 10
-0.3325900000000001
 20
-5.0500800000000003
 30
0.0
 10
-0.09637
 20
-5.1415200000000008
 30
0.0
 10
-0.09637
 20
-5.1415200000000008
 30
0.0
 10
0.32272
 20
-5.1415200000000008
 30
0.0
 10
0.6681600000000001
 20
-4.90022
 30
0.0
 10
1.06186
 20
-4.8011600000000003
 30
0.0
 10
1.06186
 20
-4.8011600000000003
 30
0.0
 10
1.3107800000000001
 20
-4.7427400000000004
 30
0.0
 10
1.48604
 20
-4.3820600000000001
 30
0.0
 10
1.31586
 20
-4.1610800000000001
 30
0.0
 10
1.31586
 20
-4.1610800000000001
 30
0.0
 10
1.31586
 20
-4.1610800000000001
 30
0.0
 10
1.2472800000000002
 20
-4.1001200000000004
 30
0.0
 10
1.2472800000000002
 20
-4.1001200000000004
 30
0.0
 10
1.2472800000000002
 20
-4.1001200000000004
 30
0.0
 10
1.6790800000000001
 20
-4.0620200000000004
 30
0.0
 10
1.9000600000000001
 20
-4.7605200000000005
 30
0.0
 10
1.6994000000000002
 20
-5.1008800000000001
 30
0.0
 10
1.6994000000000002
 20
-5.1008800000000001
 30
0.0
 10
1.2803000000000002
 20
-5.2609000000000004
 30
0.0
 10
0.7799200000000001
 20
-5.4615600000000004
 30
0.0
 10
0.30748
 20
-5.6393600000000008
 30
0.0
 10
0.30748
 20
-5.6393600000000008
 30
0.0
 10
0.30748
 20
-5.6393600000000008
 30
0.0
 10
0.76722
 20
-5.3396400000000002
 30
0.0
 10
0.76722
 20
-5.3396400000000002
 30
0.0
 10
0.76722
 20
-5.3396400000000002
 30
0.0
 10
1.0034400000000001
 20
-5.2812200000000002
 30
0.0
 10
1.1660000000000001
 20
-5.0602400000000003
 30
0.0
 10
1.39968
 20
-4.9815000000000005
 30
0.0
 10
1.39968
 20
-4.9815000000000005
 30
0.0
 10
1.4530200000000002
 20
-4.9408600000000007
 30
0.0
 10
1.5800200000000002
 20
-4.9408600000000007
 30
0.0
 10
1.5368400000000002
 20
-4.8418000000000001
 30
0.0
 10
1.5368400000000002
 20
-4.8418000000000001
 30
0.0
 10
1.06186
 20
-5.0805600000000002
 30
0.0
 10
0.5487800000000001
 20
-5.1999400000000007
 30
0.0
 10
0.10682
 20
-5.5022000000000002
 30
0.0
 10
0.10682
 20
-5.5022000000000002
 30
0.0
 10
-0.44689
 20
-5.5199800000000003
 30
0.0
 10
-0.57135
 20
-4.4227000000000007
 30
0.0
 10
-0.03541
 20
-4.3211000000000004
 30
0.0
  0
SPLINE
  5
6B
100
AcDbEntity
  8
Ebene 1
 62
     7
100
AcDbSpline
210
0.0
220
0.0
230
1.0
 70
     1
 71
     3
 72
    24
 73
    20
 74
     0
 42
0.0000000001
 43
0.0000000001
 40
0.0
 40
0.0
 40
0.0
 40
0.0
 40
0.2
 40
0.2
 40
0.2
 40
0.2
 40
0.4
 40
0.4
 40
0.4
 40
0.4
 40
0.6000000000000001
 40
0.6000000000000001
 40
0.6000000000000001
 40
0.6000000000000001
 40
0.8
 40
0.8
 40
0.8
 40
0.8
 40
1.0
 40
1.0
 40
1.0
 40
1.0
 10
0.70118
 20
-4.3820600000000001
 30
0.0
 10
0.70118
 20
-4.3820600000000001
 30
0.0
 10
0.9170800000000001
 20
-4.40238
 30
0.0
 10
0.9170800000000001
 20
-4.40238
 30
0.0
 10
0.9170800000000001
 20
-4.40238
 30
0.0
 10
0.9170800000000001
 20
-4.40238
 30
0.0
 10
0.0484
 20
-4.6208200000000001
 30
0.0
 10
0.0484
 20
-4.6208200000000001
 30
0.0
 10
0.0484
 20
-4.6208200000000001
 30
0.0
 10
0.02046
 20
-4.5420800000000003
 30
0.0
 10
0.1119
 20
-4.5217600000000004
 30
0.0
 10
0.15762
 20
-4.5014400000000006
 30
0.0
 10
0.15762
 20
-4.5014400000000006
 30
0.0
 10
0.15762
 20
-4.5014400000000006
 30
0.0
 10
0.3684400000000001
 20
-4.44048
 30
0.0
 10
0.3684400000000001
 20
-4.44048
 30
0.0
 10
0.3684400000000001
 20
-4.44048
 30
0.0
 10
0.3684400000000001
 20
-4.44048
 30
0.0
 10
0.70118
 20
-4.3820600000000001
 30
0.0
 10
0.70118
 20
-4.3820600000000001
 30
0.0
  0
ENDSEC
  0
SECTION
  2
OBJECTS
  0
DICTIONARY
  5
19
100
AcDbDictionary
280
     0
281
     1
  3
ACAD_GROUP
350
1A
  3
ACAD_MLINESTYLE
350
1B
  3
ACAD_LAYOUT
350
1E
  3
ACAD_PLOTSETTINGS
350
22
  3
ACAD_PLOTSTYLENAME
350
1F
  3
ACAD_WIPEOUT_VARS
350
23
  0
DICTIONARY
  5
1A
102
{ACAD_REACTORS
330
19
102
}
100
AcDbDictionary
280
     0
281
     1
  0
DICTIONARY
  5
1B
102
{ACAD_REACTORS
330
19
102
}
100
AcDbDictionary
280
     0
281
     1
  3
Standard
350
1C
  0
MLINESTYLE
  5
1C
102
{ACAD_REACTORS
330
1B
102
}
100
AcDbMlineStyle
  2
Standard
 70
     0
  3

 62
     0
 51
90.0
 52
90.0
 71
     2
 49
0.5
 62
   256
  6
BYLAYER
 49
-0.5
 62
   256
  6
BYLAYER
  0
ACDBDICTIONARYWDFLT
  5
1F
102
{ACAD_REACTORS
330
19
102
}
100
AcDbDictionary
281
     1
  3
Normal
350
1D
100
AcDbDictionaryWithDefault
340
1D
  0
ACDBPLACEHOLDER
  5
1D
102
{ACAD_REACTORS
330
1F
102
}
  0
LAYOUT
  5
20
102
{ACAD_REACTORS
330
1E
102
}
100
AcDbPlotSettings
  1

  2

  4

  6

 40
0.0
 41
0.0
 42
0.0
 43
0.0
 44
0.0
 45
0.0
 46
0.0
 47
0.0
 48
0.0
 49
0.0
140
0.0
141
0.0
142
1.0
143
1.0
 70
  1024
 72
     0
 73
     0
 74
     0
  7

 75
     0
147
1.0
148
0.0
149
0.0
100
AcDbLayout
  1
Model
 70
     0
 71
     0
 10
0.0
 20
0.0
 11
0.0
 21
0.0
 12
0.0
 22
0.0
 32
0.0
 14
0.0
 24
0.0
 34
0.0
 15
0.0
 25
0.0
 35
0.0
146
0.0
 13
0.0
 23
0.0
 33
0.0
 16
0.0
 26
0.0
 36
0.0
 17
0.0
 27
0.0
 37
0.0
 76
     0
330
A
331
0
345
0
346
0
  0
LAYOUT
  5
21
102
{ACAD_REACTORS
330
1E
102
}
100
AcDbPlotSettings
  1

  2

  4

  6

 40
0.0
 41
0.0
 42
0.0
 43
0.0
 44
0.0
 45
0.0
 46
0.0
 47
0.0
 48
0.0
 49
0.0
140
0.0
141
0.0
142
1.0
143
1.0
 70
     0
 72
     0
 73
     0
 74
     0
  7

 75
     0
147
1.0
148
0.0
149
0.0
100
AcDbLayout
  1
Layout1
 70
     0
 71
     0
 10
0.0
 20
0.0
 11
0.0
 21
0.0
 12
0.0
 22
0.0
 32
0.0
 14
0.0
 24
0.0
 34
0.0
 15
0.0
 25
0.0
 35
0.0
146
0.0
 13
0.0
 23
0.0
 33
0.0
 16
0.0
 26
0.0
 36
0.0
 17
0.0
 27
0.0
 37
0.0
 76
     0
330
B
331
0
345
0
346
0
  0
DICTIONARY
  5
1E
102
{ACAD_REACTORS
330
19
102
}
100
AcDbDictionary
280
     0
281
     1
  3
Layout1
350
21
  3
Model
350
20
  0
DICTIONARY
  5
22
102
{ACAD_REACTORS
330
19
102
}
100
AcDbDictionary
280
     0
281
     1
  0
WIPEOUTVARIABLES
  5
23
100
AcDbWipeoutVariables
 70
     1
  0
ENDSEC
  0
EOF
