  0
SECTION
  2
HEADER
  9
$ACADVER
  1
AC1015
  9
$ACADMAINTVER
 70
     6
  9
$DWGCODEPAGE
  3
DOS850
  9
$INSBASE
 10
0.0
 20
0.0
 30
0.0
  9
$EXTMIN
 10
-3.46949
 20
-6.62996
 30
1.000000E+20
  9
$EXTMAX
 10
3.47486
 20
6.62375
 30
-1.000000E+20
  9
$LIMMIN
 10
0.0
 20
0.0
  9
$LIMMAX
 10
0.0
 20
0.0
  9
$ORTHOMODE
 70
     0
  9
$REGENMODE
 70
     1
  9
$FILLMODE
 70
     1
  9
$QTEXTMODE
 70
     0
  9
$MIRRTEXT
 70
     1
  9
$LTSCALE
 40
1.0
  9
$ATTMODE
 70
     1
  9
$TEXTSIZE
 40
0.2
  9
$TRACEWID
 40
0.05
  9
$TEXTSTYLE
  7
Standard
  9
$CLAYER
  8
0
  9
$CELTYPE
  6
Continuous
  9
$CECOLOR
 62
   256
  9
$CELTSCALE
 40
1.0
  9
$DISPSILH
 70
     0
  9
$DIMSCALE
 40
1.0
  9
$DIMASZ
 40
0.18
  9
$DIMEXO
 40
0.0625
  9
$DIMDLI
 40
0.38
  9
$DIMRND
 40
0.0
  9
$DIMDLE
 40
0.0
  9
$DIMEXE
 40
0.18
  9
$DIMTP
 40
0.0
  9
$DIMTM
 40
0.0
  9
$DIMTXT
 40
0.18
  9
$DIMCEN
 40
0.09
  9
$DIMTSZ
 40
0.0
  9
$DIMTOL
 70
     0
  9
$DIMLIM
 70
     0
  9
$DIMTIH
 70
     1
  9
$DIMTOH
 70
     1
  9
$DIMSE1
 70
     0
  9
$DIMSE2
 70
     0
  9
$DIMTAD
 70
     0
  9
$DIMZIN
 70
     0
  9
$DIMBLK
  1

  9
$DIMASO
 70
     1
  9
$DIMSHO
 70
     1
  9
$DIMPOST
  1

  9
$DIMAPOST
  1

  9
$DIMALT
 70
     0
  9
$DIMALTD
 70
     2
  9
$DIMALTF
 40
25.4
  9
$DIMLFAC
 40
1.0
  9
$DIMTOFL
 70
     0
  9
$DIMTVP
 40
0.0
  9
$DIMTIX
 70
     0
  9
$DIMSOXD
 70
     0
  9
$DIMSAH
 70
     0
  9
$DIMBLK1
  1

  9
$DIMBLK2
  1

  9
$DIMSTYLE
  2
Standard
  9
$DIMCLRD
 70
     0
  9
$DIMCLRE
 70
     0
  9
$DIMCLRT
 70
     0
  9
$DIMTFAC
 40
1.0
  9
$DIMGAP
 40
0.09
  9
$DIMJUST
 70
     0
  9
$DIMSD1
 70
     0
  9
$DIMSD2
 70
     0
  9
$DIMTOLJ
 70
     1
  9
$DIMTZIN
 70
     0
  9
$DIMALTZ
 70
     0
  9
$DIMALTTZ
 70
     0
  9
$DIMUPT
 70
     0
  9
$DIMDEC
 70
     4
  9
$DIMTDEC
 70
     4
  9
$DIMALTU
 70
     2
  9
$DIMALTTD
 70
     2
  9
$DIMTXSTY
  7
Standard
  9
$DIMAUNIT
 70
     0
  9
$DIMADEC
 70
     0
  9
$DIMALTRND
 40
0.0
  9
$DIMAZIN
 70
     0
  9
$DIMDSEP
 70
     0
  9
$DIMATFIT
 70
     3
  9
$DIMFRAC
 70
     0
  9
$DIMLDRBLK
  1

  9
$DIMLUNIT
 70
     2
  9
$DIMLWD
 70
     0
  9
$DIMLWE
 70
     0
  9
$DIMTMOVE
 70
     0
  9
$LUNITS
 70
     2
  9
$LUPREC
 70
     4
  9
$SKETCHINC
 40
0.1
  9
$FILLETRAD
 40
0.0
  9
$AUNITS
 70
     0
  9
$AUPREC
 70
     0
  9
$MENU
  1
acad
  9
$ELEVATION
 40
0.0
  9
$PELEVATION
 40
0.0
  9
$THICKNESS
 40
0.0
  9
$LIMCHECK
 70
     0
  9
$CHAMFERA
 40
0.0
  9
$CHAMFERB
 40
0.0
  9
$CHAMFERC
 40
0.0
  9
$CHAMFERD
 40
0.0
  9
$SKPOLY
 70
     0
  9
$TDCREATE
 40
0.000000000
  9
$TDUCREATE
 40
0.000000000
  9
$TDUPDATE
 40
0.000000000
  9
$TDUUPDATE
 40
0.000000000
  9
$TDINDWG
 40
0.0000000000
  9
$TDUSRTIMER
 40
0.0000000000
  9
$USRTIMER
 70
     1
  9
$ANGBASE
 50
0.0
  9
$ANGDIR
 70
     0
  9
$PDMODE
 70
     0
  9
$PDSIZE
 40
0.0
  9
$PLINEWID
 40
0.0
  9
$SPLFRAME
 70
     0
  9
$SPLINETYPE
 70
     6
  9
$SPLINESEGS
 70
     8
  9
$HANDSEED
  5
6D
  9
$SURFTAB1
 70
     6
  9
$SURFTAB2
 70
     6
  9
$SURFTYPE
 70
     6
  9
$SURFU
 70
     6
  9
$SURFV
 70
     6
  9
$UCSBASE
  2

  9
$UCSNAME
  2

  9
$UCSORG
 10
0.0
 20
0.0
 30
0.0
  9
$UCSXDIR
 10
1.0
 20
0.0
 30
0.0
  9
$UCSYDIR
 10
0.0
 20
1.0
 30
0.0
  9
$UCSORTHOREF
  2

  9
$UCSORTHOVIEW
 70
     0
  9
$UCSORGTOP
 10
0.0
 20
0.0
 30
0.0
  9
$UCSORGBOTTOM
 10
0.0
 20
0.0
 30
0.0
  9
$UCSORGLEFT
 10
0.0
 20
0.0
 30
0.0
  9
$UCSORGRIGHT
 10
0.0
 20
0.0
 30
0.0
  9
$UCSORGFRONT
 10
0.0
 20
0.0
 30
0.0
  9
$UCSORGBACK
 10
0.0
 20
0.0
 30
0.0
  9
$PUCSBASE
  2

  9
$PUCSNAME
  2

  9
$PUCSORG
 10
0.0
 20
0.0
 30
0.0
  9
$PUCSXDIR
 10
1.0
 20
0.0
 30
0.0
  9
$PUCSYDIR
 10
0.0
 20
1.0
 30
0.0
  9
$PUCSORTHOREF
  2

  9
$PUCSORTHOVIEW
 70
     0
  9
$PUCSORGTOP
 10
0.0
 20
0.0
 30
0.0
  9
$PUCSORGBOTTOM
 10
0.0
 20
0.0
 30
0.0
  9
$PUCSORGLEFT
 10
0.0
 20
0.0
 30
0.0
  9
$PUCSORGRIGHT
 10
0.0
 20
0.0
 30
0.0
  9
$PUCSORGFRONT
 10
0.0
 20
0.0
 30
0.0
  9
$PUCSORGBACK
 10
0.0
 20
0.0
 30
0.0
  9
$USERI1
 70
     0
  9
$USERI2
 70
     0
  9
$USERI3
 70
     0
  9
$USERI4
 70
     0
  9
$USERI5
 70
     0
  9
$USERR1
 40
0.0
  9
$USERR2
 40
0.0
  9
$USERR3
 40
0.0
  9
$USERR4
 40
0.0
  9
$USERR5
 40
0.0
  9
$WORLDVIEW
 70
     1
  9
$SHADEDGE
 70
     3
  9
$SHADEDIF
 70
    70
  9
$TILEMODE
 70
     1
  9
$MAXACTVP
 70
    16
  9
$PINSBASE
 10
0.0
 20
0.0
 30
0.0
  9
$PLIMCHECK
 70
     0
  9
$PEXTMIN
 10
1.000000E+20
 20
1.000000E+20
 30
1.000000E+20
  9
$PEXTMAX
 10
-1.000000E+20
 20
-1.000000E+20
 30
-1.000000E+20
  9
$PLIMMIN
 10
0.0
 20
0.0
  9
$PLIMMAX
 10
12.0
 20
9.0
  9
$UNITMODE
 70
     0
  9
$VISRETAIN
 70
     0
  9
$PLINEGEN
 70
     1
  9
$PSLTSCALE
 70
     0
  9
$TREEDEPTH
 70
  3020
  9
$CMLSTYLE
  2
Standard
  9
$CMLJUST
 70
     0
  9
$CMLSCALE
 40
1.0
  9
$PROXYGRAPHICS
 70
     0
  9
$MEASUREMENT
 70
     0
  9
$CELWEIGHT
370
     0
  9
$ENDCAPS
280
     0
  9
$JOINSTYLE
280
     0
  9
$LWDISPLAY
290
     0
  9
$INSUNITS
 70
     5
  9
$HYPERLINKBASE
  1

  9
$XEDIT
290
     1
  9
$CEPSNTYPE
380
     0
  9
$PSTYLEMODE
290
     1
  9
$FINGERPRINTGUID
  2

  9
$VERSIONGUID
  2

  9
$EXTNAMES
290
     1
  9
$PSVPSCALE
 40
0.0
  0
ENDSEC
  0
SECTION
  2
CLASSES
  0
CLASS
  1
LWPOLYLINE
  2
AcDbPolyline
  3
AutoCAD 2000
 90
    32768
280
     0
281
     1
  0
CLASS
  1
IMAGE
  2
AcDbRasterImage
  3
ISM
 90
    32895
280
     0
281
     1
  0
CLASS
  1
OLE2FRAME
  2
AcDbOle2Frame
  3
AutoCAD 2000
 90
    32768
280
     0
281
     1
  0
CLASS
  1
HATCH
  2
AcDbHatch
  3
AutoCAD 2000
 90
    32768
280
     0
281
     1
  0
CLASS
  1
DICTIONARYVAR
  2
AcDbDictionaryVar
  3
AutoCAD 2000
 90
    32768
280
     0
281
     0
  0
CLASS
  1
RASTERVARIABLES
  2
AcDbRasterVariables
  3
ISM
 90
    32768
280
     0
281
     0
  0
CLASS
  1
IMAGEDEF
  2
AcDbRasterImageDef
  3
ISM
 90
    32768
280
     0
281
     0
  0
CLASS
  1
IMAGEDEF_REACTOR
  2
AcDbRasterImageDefReactor
  3
ISM
 90
    32769
280
     0
281
     0
  0
CLASS
  1
IDBUFFER
  2
AcDbIdBuffer
  3
AutoCAD 2000
 90
    32768
280
     0
281
     0
  0
CLASS
  1
SPATIAL_FILTER
  2
AcDbSpatialFilter
  3
AutoCAD 2000
 90
    32768
280
     0
281
     0
  0
CLASS
  1
XRECORD
  2
AcDbXrecord
  3
AutoCAD 2000
 90
    32768
280
     0
281
     0
  0
CLASS
  1
SORTENTSTABLE
  2
AcDbSortentsTable
  3
AutoCAD 2000
 90
    32768
280
     0
281
     0
  0
CLASS
  1
LAYER_INDEX
  2
AcDbLayerIndex
  3
AutoCAD 2000
 90
    32768
280
     0
281
     0
  0
CLASS
  1
SPATIAL_INDEX
  2
AcDbSpatialIndex
  3
AutoCAD 2000
 90
    32768
280
     0
281
     0
  0
CLASS
  1
OBJECT_PTR
  2
CAseDLPNTableRecord
  3
"ASE-LPNTableRecord"
 90
    32769
280
     0
281
     0
  0
CLASS
  1
LAYOUT
  2
AcDbLayout
  3
AutoCAD 2000
 90
        0
280
     0
281
     0
  0
CLASS
  1
PLOTSETTINGS
  2
AcDbPlotSettings
  3
AutoCAD 2000
 90
    32768
280
     0
281
     0
  0
CLASS
  1
ACDBDICTIONARYWDFLT
  2
AcDbDictionaryWithDefault
  3
AutoCAD 2000
 90
        0
280
     0
281
     0
  0
CLASS
  1
ACDBPLACEHOLDER
  2
AcDbPlaceHolder
  3
AutoCAD 2000
 90
        0
280
     0
281
     0
  0
CLASS
  1
VBA_PROJECT
  2
AcDbVbaProject
  3
acadvba
 90
    32768
280
     0
281
     0
  0
CLASS
  1
WIPEOUT
  2
AcDbWipeout
  3
WipeOut|AutoCAD Express Tool|expresstools@autodesk.com
 90
    32895
280
     0
281
     1
  0
CLASS
  1
WIPEOUTVARIABLES
  2
AcDbWipeoutVariables
  3
WipeOut|AutoCAD Express Tool|expresstools@autodesk.com
 90
        0
280
     0
281
     0
  0
CLASS
  1
RTEXT
  2
RText
  3
RText|AutoCAD Express Tool|expresstools@autodesk.com
 90
    32768
280
     0
281
     1
  0
CLASS
  1
ARCALIGNEDTEXT
  2
AcDbArcAlignedText
  3
ATEXT|AutoCAD Express Tool|expresstools@autodesk.com
 90
    32768
280
     0
281
     1
  0
ENDSEC
  0
SECTION
  2
TABLES
  0
TABLE
  2
VPORT
  5
7
100
AcDbSymbolTable
 70
     1
  0
VPORT
  5
15
100
AcDbSymbolTableRecord
100
AcDbViewportTableRecord
  2
*ACTIVE
 70
     0
 10
0.0
 20
0.0
 11
1.0
 21
1.0
 12
6.591288
 22
4.579184
 13
0.0
 23
0.0
 14
1.0
 24
1.0
 15
0.0
 25
0.0
 16
0.0
 26
0.0
 36
1.0
 17
0.0
 27
0.0
 37
0.0
 40
9.158369
 41
0.688564
 42
50.0
 43
0.0
 44
0.0
 50
0.0
 51
0.0
 71
     0
 72
   100
 73
     1
 74
     1
 75
     0
 76
     0
 77
     0
 78
     0
281
     0
 65
     0
110
0.0
120
0.0
130
0.0
111
1.0
121
0.0
131
0.0
112
0.0
122
1.0
132
0.0
345
0
346
0
 79
     0
146
0.0
  0
ENDTAB
  0
TABLE
  2
LTYPE
  5
4
100
AcDbSymbolTable
 70
     3
  0
LTYPE
  5
11
100
AcDbSymbolTableRecord
100
AcDbLinetypeTableRecord
  2
ByBlock
 70
    64
  3

 72
    65
 73
     0
 40
0.0
  0
LTYPE
  5
12
100
AcDbSymbolTableRecord
100
AcDbLinetypeTableRecord
  2
ByLayer
 70
    64
  3

 72
    65
 73
     0
 40
0.0
  0
LTYPE
  5
13
100
AcDbSymbolTableRecord
100
AcDbLinetypeTableRecord
  2
Continuous
 70
    64
  3
Solid line
 72
    65
 73
     0
 40
0.0
  0
ENDTAB
  0
TABLE
  2
LAYER
  5
2
100
AcDbSymbolTable
 70
     2
  0
LAYER
  5
14
100
AcDbSymbolTableRecord
100
AcDbLayerTableRecord
  2
0
 70
     0
 62
     7
  6
Continuous
290
     1
370
    -3
390
1D
  0
LAYER
  5
24
100
AcDbSymbolTableRecord
100
AcDbLayerTableRecord
  2
Ebene 1
 70
     0
 62
     7
  6
Continuous
290
     1
370
    -3
390
1F
  0
ENDTAB
  0
TABLE
  2
STYLE
  5
3
100
AcDbSymbolTable
 70
     1
  0
STYLE
  5
17
100
AcDbSymbolTableRecord
100
AcDbTextStyleTableRecord
  2
Standard
 70
     0
 40
0.0
 41
1.0
 50
0.0
 71
     0
 42
0.0
  3
txt
  4

  0
ENDTAB
  0
TABLE
  2
VIEW
  5
5
100
AcDbSymbolTable
 70
     0
  0
ENDTAB
  0
TABLE
  2
UCS
  5
6
100
AcDbSymbolTable
 70
     0
  0
ENDTAB
  0
TABLE
  2
APPID
  5
8
100
AcDbSymbolTable
 70
     1
  0
APPID
  5
16
100
AcDbSymbolTableRecord
100
AcDbRegAppTableRecord
  2
ACAD
 70
     0
  0
ENDTAB
  0
TABLE
  2
DIMSTYLE
  5
9
100
AcDbSymbolTable
 70
     1
100
AcDbDimStyleTable
 71
     0
  0
DIMSTYLE
105
18
100
AcDbSymbolTableRecord
100
AcDbDimStyleTableRecord
  2
Standard
 70
     0
  3

  4

 40
1.0
 41
0.18
 42
0.0625
 43
0.38
 44
0.18
 45
0.0
 46
0.0
 47
0.0
 48
0.0
 71
     0
 72
     0
 73
     1
 74
     1
 75
     0
 76
     0
 77
     0
 78
     0
 79
     0
140
0.18
141
0.09
142
0.0
143
25.4
144
1.0
145
0.0
146
1.0
147
0.09
148
0.0
170
     0
171
     2
172
     0
173
     0
174
     0
175
     0
176
     0
177
     0
178
     0
179
     0
271
     4
272
     4
273
     2
274
     2
275
     0
276
     0
277
     2
278
    46
279
     0
280
     0
281
     0
282
     0
283
     1
284
     0
285
     0
286
     0
288
     0
340
17
341
0
342
0
343
0
344
0
371
    -2
372
    -2
  0
ENDTAB
  0
TABLE
  2
BLOCK_RECORD
  5
1
100
AcDbSymbolTable
 70
     0
  0
BLOCK_RECORD
  5
A
100
AcDbSymbolTableRecord
100
AcDbBlockTableRecord
  2
*MODEL_SPACE
340
20
  0
BLOCK_RECORD
  5
B
100
AcDbSymbolTableRecord
100
AcDbBlockTableRecord
  2
*PAPER_SPACE
340
21
  0
ENDTAB
  0
ENDSEC
  0
SECTION
  2
BLOCKS
  0
BLOCK
  5
D
100
AcDbEntity
  8
0
100
AcDbBlockBegin
  2
*MODEL_SPACE
 70
     0
 10
0.0
 20
0.0
 30
0.0
  3
*MODEL_SPACE
  1

  0
ENDBLK
  5
E
100
AcDbEntity
  8
0
100
AcDbBlockEnd
  0
BLOCK
  5
F
100
AcDbEntity
 67
     1
  8
0
100
AcDbBlockBegin
  2
*PAPER_SPACE
 70
     0
 10
0.0
 20
0.0
 30
0.0
  3
*PAPER_SPACE
  1

  0
ENDBLK
  5
10
100
AcDbEntity
 67
     1
  8
0
100
AcDbBlockEnd
  0
ENDSEC
  0
SECTION
  2
ENTITIES
  0
SPLINE
  5
25
100
AcDbEntity
  8
Ebene 1
100
AcDbSpline
210
0.0
220
0.0
230
1.0
 70
     1
 71
     3
 72
   144
 73
   140
 74
     0
 42
0.0000000001
 43
0.0000000001
 40
0.0
 40
0.0
 40
0.0
 40
0.0
 40
0.0285714285714286
 40
0.0285714285714286
 40
0.0285714285714286
 40
0.0285714285714286
 40
0.0571428571428571
 40
0.0571428571428571
 40
0.0571428571428571
 40
0.0571428571428571
 40
0.0857142857142857
 40
0.0857142857142857
 40
0.0857142857142857
 40
0.0857142857142857
 40
0.1142857142857143
 40
0.1142857142857143
 40
0.1142857142857143
 40
0.1142857142857143
 40
0.1428571428571429
 40
0.1428571428571429
 40
0.1428571428571429
 40
0.1428571428571429
 40
0.1714285714285714
 40
0.1714285714285714
 40
0.1714285714285714
 40
0.1714285714285714
 40
0.2
 40
0.2
 40
0.2
 40
0.2
 40
0.2285714285714286
 40
0.2285714285714286
 40
0.2285714285714286
 40
0.2285714285714286
 40
0.2571428571428572
 40
0.2571428571428572
 40
0.2571428571428572
 40
0.2571428571428572
 40
0.2857142857142858
 40
0.2857142857142858
 40
0.2857142857142858
 40
0.2857142857142858
 40
0.3142857142857143
 40
0.3142857142857143
 40
0.3142857142857143
 40
0.3142857142857143
 40
0.3428571428571429
 40
0.3428571428571429
 40
0.3428571428571429
 40
0.3428571428571429
 40
0.3714285714285715
 40
0.3714285714285715
 40
0.3714285714285715
 40
0.3714285714285715
 40
0.4000000000000001
 40
0.4000000000000001
 40
0.4000000000000001
 40
0.4000000000000001
 40
0.4285714285714287
 40
0.4285714285714287
 40
0.4285714285714287
 40
0.4285714285714287
 40
0.4571428571428572
 40
0.4571428571428572
 40
0.4571428571428572
 40
0.4571428571428572
 40
0.4857142857142858
 40
0.4857142857142858
 40
0.4857142857142858
 40
0.4857142857142858
 40
0.5142857142857144
 40
0.5142857142857144
 40
0.5142857142857144
 40
0.5142857142857144
 40
0.5428571428571429
 40
0.5428571428571429
 40
0.5428571428571429
 40
0.5428571428571429
 40
0.5714285714285715
 40
0.5714285714285715
 40
0.5714285714285715
 40
0.5714285714285715
 40
0.6000000000000001
 40
0.6000000000000001
 40
0.6000000000000001
 40
0.6000000000000001
 40
0.6285714285714287
 40
0.6285714285714287
 40
0.6285714285714287
 40
0.6285714285714287
 40
0.6571428571428573
 40
0.6571428571428573
 40
0.6571428571428573
 40
0.6571428571428573
 40
0.6857142857142858
 40
0.6857142857142858
 40
0.6857142857142858
 40
0.6857142857142858
 40
0.7142857142857144
 40
0.7142857142857144
 40
0.7142857142857144
 40
0.7142857142857144
 40
0.742857142857143
 40
0.742857142857143
 40
0.742857142857143
 40
0.742857142857143
 40
0.7714285714285716
 40
0.7714285714285716
 40
0.7714285714285716
 40
0.7714285714285716
 40
0.8000000000000002
 40
0.8000000000000002
 40
0.8000000000000002
 40
0.8000000000000002
 40
0.8285714285714287
 40
0.8285714285714287
 40
0.8285714285714287
 40
0.8285714285714287
 40
0.8571428571428573
 40
0.8571428571428573
 40
0.8571428571428573
 40
0.8571428571428573
 40
0.8857142857142859
 40
0.8857142857142859
 40
0.8857142857142859
 40
0.8857142857142859
 40
0.9142857142857145
 40
0.9142857142857145
 40
0.9142857142857145
 40
0.9142857142857145
 40
0.9428571428571431
 40
0.9428571428571431
 40
0.9428571428571431
 40
0.9428571428571431
 40
0.9714285714285716
 40
0.9714285714285716
 40
0.9714285714285716
 40
0.9714285714285716
 40
1.0
 40
1.0
 40
1.0
 40
1.0
 10
0.04586
 20
6.6237500000000002
 30
0.0
 10
0.19572
 20
6.2960900000000004
 30
0.0
 10
0.05856
 20
5.7753900000000007
 30
0.0
 10
0.12714
 20
5.3715300000000008
 30
0.0
 10
0.12714
 20
5.3715300000000008
 30
0.0
 10
0.47004
 20
5.3258100000000006
 30
0.0
 10
1.2117200000000001
 20
5.47567
 30
0.0
 10
1.1990200000000002
 20
5.0438700000000001
 30
0.0
 10
1.1990200000000002
 20
5.0438700000000001
 30
0.0
 10
1.7756000000000001
 20
4.9397300000000008
 30
0.0
 10
2.2505800000000002
 20
4.5206300000000006
 30
0.0
 10
2.4766400000000002
 20
4.0151700000000003
 30
0.0
 10
2.4766400000000002
 20
4.0151700000000003
 30
0.0
 10
2.7865200000000003
 20
4.29711
 30
0.0
 10
3.1446600000000005
 20
4.6400100000000002
 30
0.0
 10
3.4748600000000005
 20
4.8660700000000006
 30
0.0
 10
3.4748600000000005
 20
4.8660700000000006
 30
0.0
 10
3.1929200000000004
 20
4.4901500000000008
 30
0.0
 10
2.8830400000000003
 20
4.1193100000000005
 30
0.0
 10
2.5680800000000001
 20
3.7611700000000003
 30
0.0
 10
2.5680800000000001
 20
3.7611700000000003
 30
0.0
 10
2.7052400000000003
 20
3.2684100000000003
 30
0.0
 10
2.6417400000000004
 20
2.7019900000000003
 30
0.0
 10
3.2970600000000001
 20
2.8518500000000002
 30
0.0
 10
3.2970600000000001
 20
2.8518500000000002
 30
0.0
 10
3.1522800000000002
 20
2.7324700000000002
 30
0.0
 10
2.92876
 20
2.7756500000000002
 30
0.0
 10
2.7662000000000004
 20
2.7019900000000003
 30
0.0
 10
2.7662000000000004
 20
2.7019900000000003
 30
0.0
 10
2.7103200000000003
 20
2.08223
 30
0.0
 10
2.6011000000000002
 20
1.3938900000000001
 30
0.0
 10
2.6138000000000003
 20
0.8223900000000001
 30
0.0
 10
2.6138000000000003
 20
0.8223900000000001
 30
0.0
 10
2.6188800000000003
 20
0.70047
 30
0.0
 10
2.7408000000000001
 20
0.7360300000000001
 30
0.0
 10
2.7712800000000004
 20
0.6242700000000001
 30
0.0
 10
2.7712800000000004
 20
0.6242700000000001
 30
0.0
 10
2.8119200000000002
 20
0.48711
 30
0.0
 10
2.7306400000000002
 20
0.31439
 30
0.0
 10
2.8220800000000001
 20
0.19755
 30
0.0
 10
2.8220800000000001
 20
0.19755
 30
0.0
 10
2.76112
 20
0.12135
 30
0.0
 10
2.7484200000000003
 20
-0.0031
 30
0.0
 10
2.6696800000000001
 20
-0.12756
 30
0.0
 10
2.6696800000000001
 20
-0.12756
 30
0.0
 10
2.4537800000000001
 20
-0.47554
 30
0.0
 10
2.2074000000000003
 20
-0.9225800000000001
 30
0.0
 10
2.6696800000000001
 20
-1.0978400000000001
 30
0.0
 10
2.6696800000000001
 20
-1.0978400000000001
 30
0.0
 10
2.6696800000000001
 20
-1.0978400000000001
 30
0.0
 10
2.6722200000000003
 20
-1.29088
 30
0.0
 10
2.6722200000000003
 20
-1.29088
 30
0.0
 10
2.6722200000000003
 20
-1.29088
 30
0.0
 10
2.16676
 20
-2.9622000000000002
 30
0.0
 10
1.6867000000000001
 20
-4.7071800000000001
 30
0.0
 10
1.4911200000000002
 20
-6.4775600000000004
 30
0.0
 10
1.4911200000000002
 20
-6.4775600000000004
 30
0.0
 10
1.2269600000000001
 20
-6.6934600000000009
 30
0.0
 10
0.82818
 20
-6.5588400000000009
 30
0.0
 10
0.5259200000000001
 20
-6.6299600000000005
 30
0.0
 10
0.5259200000000001
 20
-6.6299600000000005
 30
0.0
 10
0.4294000000000001
 20
-6.5918600000000005
 30
0.0
 10
0.2897
 20
-6.6172600000000008
 30
0.0
 10
0.24652
 20
-6.5055000000000005
 30
0.0
 10
0.24652
 20
-6.5055000000000005
 30
0.0
 10
0.25668
 20
-5.2583600000000006
 30
0.0
 10
0.2262
 20
-3.8867600000000002
 30
0.0
 10
0.5818000000000001
 20
-2.73868
 30
0.0
 10
0.5818000000000001
 20
-2.73868
 30
0.0
 10
0.1373
 20
-2.6345400000000003
 30
0.0
 10
-0.25893
 20
-2.7971000000000004
 30
0.0
 10
-0.6907300000000001
 20
-2.7666200000000001
 30
0.0
 10
-0.6907300000000001
 20
-2.7666200000000001
 30
0.0
 10
-0.91171
 20
-2.4542000000000002
 30
0.0
 10
-0.9396500000000001
 20
-2.0376400000000001
 30
0.0
 10
-1.0971300000000002
 20
-1.7252200000000002
 30
0.0
 10
-1.0971300000000002
 20
-1.7252200000000002
 30
0.0
 10
-1.1047500000000001
 20
-2.0376400000000001
 30
0.0
 10
-1.5619500000000002
 20
-2.6777200000000003
 30
0.0
 10
-1.8235700000000001
 20
-2.3653000000000004
 30
0.0
 10
-1.8235700000000001
 20
-2.3653000000000004
 30
0.0
 10
-1.8540500000000002
 20
-2.6624800000000004
 30
0.0
 10
-2.6287500000000001
 20
-2.6193000000000004
 30
0.0
 10
-2.6389100000000001
 20
-2.3805400000000003
 30
0.0
 10
-2.6389100000000001
 20
-2.3805400000000003
 30
0.0
 10
-2.7405100000000004
 20
-2.6193000000000004
 30
0.0
 10
-3.0757900000000005
 20
-2.3348200000000001
 30
0.0
 10
-3.1977100000000003
 20
-2.2027400000000004
 30
0.0
 10
-3.1977100000000003
 20
-2.2027400000000004
 30
0.0
 10
-3.3196300000000001
 20
-1.9868400000000002
 30
0.0
 10
-3.3907500000000002
 20
-1.7531600000000001
 30
0.0
 10
-3.4034500000000003
 20
-1.4864600000000001
 30
0.0
 10
-3.4034500000000003
 20
-1.4864600000000001
 30
0.0
 10
-3.4466300000000003
 20
-0.5746
 30
0.0
 10
-3.0402300000000002
 20
0.48203
 30
0.0
 10
-2.5601700000000003
 20
1.15005
 30
0.0
 10
-2.5601700000000003
 20
1.15005
 30
0.0
 10
-2.5347700000000004
 20
1.4802500000000001
 30
0.0
 10
-2.5068300000000003
 20
1.8079100000000001
 30
0.0
 10
-2.5042900000000001
 20
2.1508100000000003
 30
0.0
 10
-2.5042900000000001
 20
2.1508100000000003
 30
0.0
 10
-2.7887700000000004
 20
2.2092300000000002
 30
0.0
 10
-3.1443700000000003
 20
2.1812900000000002
 30
0.0
 10
-3.3958300000000001
 20
2.2701900000000004
 30
0.0
 10
-3.3958300000000001
 20
2.2701900000000004
 30
0.0
 10
-3.3958300000000001
 20
2.2701900000000004
 30
0.0
 10
-2.6236700000000002
 20
2.3590900000000001
 30
0.0
 10
-2.6236700000000002
 20
2.3590900000000001
 30
0.0
 10
-2.6236700000000002
 20
2.3590900000000001
 30
0.0
 10
-2.9691100000000001
 20
2.4327500000000004
 30
0.0
 10
-2.5220700000000003
 20
2.7908900000000001
 30
0.0
 10
-2.48651
 20
3.0017100000000001
 30
0.0
 10
-2.48651
 20
3.0017100000000001
 30
0.0
 10
-2.7735300000000001
 20
3.5071700000000003
 30
0.0
 10
-3.2104100000000004
 20
3.9110300000000002
 30
0.0
 10
-3.4694900000000004
 20
4.3860100000000006
 30
0.0
 10
-3.4694900000000004
 20
4.3860100000000006
 30
0.0
 10
-3.2383500000000001
 20
4.2666300000000001
 30
0.0
 10
-3.0402300000000002
 20
3.9262700000000001
 30
0.0
 10
-2.81671
 20
3.7306900000000005
 30
0.0
 10
-2.81671
 20
3.7306900000000005
 30
0.0
 10
-2.5271500000000002
 20
4.0735900000000003
 30
0.0
 10
-2.1334500000000003
 20
4.4317299999999999
 30
0.0
 10
-1.7422900000000001
 20
4.6247700000000007
 30
0.0
 10
-1.7422900000000001
 20
4.6247700000000007
 30
0.0
 10
-1.8743700000000001
 20
5.2369100000000008
 30
0.0
 10
-1.9734300000000002
 20
5.8795300000000008
 30
0.0
 10
-2.0191500000000002
 20
6.5043700000000007
 30
0.0
 10
-2.0191500000000002
 20
6.5043700000000007
 30
0.0
 10
-1.7702300000000002
 20
6.1462300000000001
 30
0.0
 10
-1.6813300000000002
 20
5.5798100000000002
 30
0.0
 10
-1.5416300000000001
 20
5.1175300000000004
 30
0.0
 10
-1.5416300000000001
 20
5.1175300000000004
 30
0.0
 10
-1.16571
 20
5.3410500000000001
 30
0.0
 10
-0.63231
 20
5.5061500000000008
 30
0.0
 10
-0.17765
 20
5.5798100000000002
 30
0.0
 10
-0.17765
 20
5.5798100000000002
 30
0.0
 10
-0.11669
 20
5.9379500000000007
 30
0.0
 10
-0.03287
 20
6.2808500000000009
 30
0.0
 10
0.04586
 20
6.6237500000000002
 30
0.0
  0
SPLINE
  5
26
100
AcDbEntity
  8
Ebene 1
 62
     7
100
AcDbSpline
210
0.0
220
0.0
230
1.0
 70
     1
 71
     3
 72
    12
 73
     8
 74
     0
 42
0.0000000001
 43
0.0000000001
 40
0.0
 40
0.0
 40
0.0
 40
0.0
 40
0.5
 40
0.5
 40
0.5
 40
0.5
 40
1.0
 40
1.0
 40
1.0
 40
1.0
 10
0.04586
 20
6.1767100000000008
 30
0.0
 10
0.07126
 20
5.9531900000000002
 30
0.0
 10
0.08142
 20
5.6560100000000002
 30
0.0
 10
0.03316
 20
5.4299500000000007
 30
0.0
 10
0.03316
 20
5.4299500000000007
 30
0.0
 10
-0.06843
 20
5.6560100000000002
 30
0.0
 10
0.01792
 20
5.9379500000000007
 30
0.0
 10
0.04586
 20
6.1767100000000008
 30
0.0
  0
SPLINE
  5
27
100
AcDbEntity
  8
Ebene 1
 62
     7
100
AcDbSpline
210
0.0
220
0.0
230
1.0
 70
     1
 71
     3
 72
    12
 73
     8
 74
     0
 42
0.0000000001
 43
0.0000000001
 40
0.0
 40
0.0
 40
0.0
 40
0.0
 40
0.5
 40
0.5
 40
0.5
 40
0.5
 40
1.0
 40
1.0
 40
1.0
 40
1.0
 10
-0.05573
 20
5.9379500000000007
 30
0.0
 10
-0.05319
 20
5.8033300000000008
 30
0.0
 10
-0.06081
 20
5.6712500000000006
 30
0.0
 10
-0.11415
 20
5.5645700000000007
 30
0.0
 10
-0.11415
 20
5.5645700000000007
 30
0.0
 10
-0.12177
 20
5.6991900000000006
 30
0.0
 10
-0.09129
 20
5.8338100000000006
 30
0.0
 10
-0.05573
 20
5.9379500000000007
 30
0.0
  0
SPLINE
  5
28
100
AcDbEntity
  8
Ebene 1
 62
     7
100
AcDbSpline
210
0.0
220
0.0
230
1.0
 70
     1
 71
     3
 72
    16
 73
    12
 74
     0
 42
0.0000000001
 43
0.0000000001
 40
0.0
 40
0.0
 40
0.0
 40
0.0
 40
0.3333333333333333
 40
0.3333333333333333
 40
0.3333333333333333
 40
0.3333333333333333
 40
0.6666666666666666
 40
0.6666666666666666
 40
0.6666666666666666
 40
0.6666666666666666
 40
1.0
 40
1.0
 40
1.0
 40
1.0
 10
-1.5314700000000001
 20
4.7009700000000008
 30
0.0
 10
-1.6381500000000002
 20
4.9829100000000004
 30
0.0
 10
-1.7041900000000001
 20
5.2953300000000008
 30
0.0
 10
-1.7702300000000002
 20
5.5950500000000005
 30
0.0
 10
-1.7702300000000002
 20
5.5950500000000005
 30
0.0
 10
-1.7702300000000002
 20
5.5950500000000005
 30
0.0
 10
-1.7346700000000002
 20
5.6407700000000007
 30
0.0
 10
-1.7346700000000002
 20
5.6407700000000007
 30
0.0
 10
-1.7346700000000002
 20
5.6407700000000007
 30
0.0
 10
-1.6533900000000001
 20
5.3410500000000001
 30
0.0
 10
-1.5238500000000001
 20
5.0438700000000001
 30
0.0
 10
-1.5314700000000001
 20
4.7009700000000008
 30
0.0
  0
SPLINE
  5
29
100
AcDbEntity
  8
Ebene 1
 62
     7
100
AcDbSpline
210
0.0
220
0.0
230
1.0
 70
     1
 71
     3
 72
    28
 73
    24
 74
     0
 42
0.0000000001
 43
0.0000000001
 40
0.0
 40
0.0
 40
0.0
 40
0.0
 40
0.1666666666666667
 40
0.1666666666666667
 40
0.1666666666666667
 40
0.1666666666666667
 40
0.3333333333333333
 40
0.3333333333333333
 40
0.3333333333333333
 40
0.3333333333333333
 40
0.5
 40
0.5
 40
0.5
 40
0.5
 40
0.6666666666666666
 40
0.6666666666666666
 40
0.6666666666666666
 40
0.6666666666666666
 40
0.8333333333333333
 40
0.8333333333333333
 40
0.8333333333333333
 40
0.8333333333333333
 40
1.0
 40
1.0
 40
1.0
 40
1.0
 10
-0.27671
 20
5.47567
 30
0.0
 10
-0.09383
 20
4.4012500000000001
 30
0.0
 10
-0.19797
 20
3.1490300000000002
 30
0.0
 10
-0.11415
 20
2.00095
 30
0.0
 10
-0.11415
 20
2.00095
 30
0.0
 10
-0.11415
 20
2.00095
 30
0.0
 10
-0.18781
 20
1.9704700000000002
 30
0.0
 10
-0.18781
 20
1.9704700000000002
 30
0.0
 10
-0.18781
 20
1.9704700000000002
 30
0.0
 10
-0.38085
 20
2.3590900000000001
 30
0.0
 10
-0.49769
 20
2.8518500000000002
 30
0.0
 10
-0.6094500000000001
 20
3.2836500000000002
 30
0.0
 10
-0.6094500000000001
 20
3.2836500000000002
 30
0.0
 10
-0.76185
 20
3.2988900000000001
 30
0.0
 10
-0.8736100000000001
 20
3.1490300000000002
 30
0.0
 10
-1.0183900000000001
 20
3.1490300000000002
 30
0.0
 10
-1.0183900000000001
 20
3.1490300000000002
 30
0.0
 10
-1.2241300000000002
 20
3.7459300000000004
 30
0.0
 10
-1.3562100000000001
 20
4.4012500000000001
 30
0.0
 10
-1.4374900000000002
 20
5.0591100000000004
 30
0.0
 10
-1.4374900000000002
 20
5.0591100000000004
 30
0.0
 10
-1.08443
 20
5.2369100000000008
 30
0.0
 10
-0.6729500000000001
 20
5.3867700000000003
 30
0.0
 10
-0.27671
 20
5.47567
 30
0.0
  0
SPLINE
  5
2A
100
AcDbEntity
  8
Ebene 1
100
AcDbSpline
210
0.0
220
0.0
230
1.0
 70
     1
 71
     3
 72
    40
 73
    36
 74
     0
 42
0.0000000001
 43
0.0000000001
 40
0.0
 40
0.0
 40
0.0
 40
0.0
 40
0.1111111111111111
 40
0.1111111111111111
 40
0.1111111111111111
 40
0.1111111111111111
 40
0.2222222222222222
 40
0.2222222222222222
 40
0.2222222222222222
 40
0.2222222222222222
 40
0.3333333333333333
 40
0.3333333333333333
 40
0.3333333333333333
 40
0.3333333333333333
 40
0.4444444444444444
 40
0.4444444444444444
 40
0.4444444444444444
 40
0.4444444444444444
 40
0.5555555555555556
 40
0.5555555555555556
 40
0.5555555555555556
 40
0.5555555555555556
 40
0.6666666666666667
 40
0.6666666666666667
 40
0.6666666666666667
 40
0.6666666666666667
 40
0.7777777777777779
 40
0.7777777777777779
 40
0.7777777777777779
 40
0.7777777777777779
 40
0.8888888888888891
 40
0.8888888888888891
 40
0.8888888888888891
 40
0.8888888888888891
 40
1.0
 40
1.0
 40
1.0
 40
1.0
 10
-0.47229
 20
5.3105700000000002
 30
0.0
 10
-0.47229
 20
5.3105700000000002
 30
0.0
 10
-0.35545
 20
5.3105700000000002
 30
0.0
 10
-0.35545
 20
5.3105700000000002
 30
0.0
 10
-0.35545
 20
5.3105700000000002
 30
0.0
 10
-0.27163
 20
4.9981500000000008
 30
0.0
 10
-0.3224300000000001
 20
4.6857300000000004
 30
0.0
 10
-0.27671
 20
4.3707700000000003
 30
0.0
 10
-0.27671
 20
4.3707700000000003
 30
0.0
 10
-0.27671
 20
4.3707700000000003
 30
0.0
 10
-0.24877
 20
4.0151700000000003
 30
0.0
 10
-0.24877
 20
4.0151700000000003
 30
0.0
 10
-0.24877
 20
4.0151700000000003
 30
0.0
 10
-0.24877
 20
4.0151700000000003
 30
0.0
 10
-0.25131
 20
3.7306900000000005
 30
0.0
 10
-0.25131
 20
3.7306900000000005
 30
0.0
 10
-0.25131
 20
3.7306900000000005
 30
0.0
 10
-0.3427500000000001
 20
3.7459300000000004
 30
0.0
 10
-0.32497
 20
3.8957900000000003
 30
0.0
 10
-0.33767
 20
3.9846900000000005
 30
0.0
 10
-0.33767
 20
3.9846900000000005
 30
0.0
 10
-0.34021
 20
4.3123500000000003
 30
0.0
 10
-0.40117
 20
4.5815900000000003
 30
0.0
 10
-0.4595900000000001
 20
4.8940100000000006
 30
0.0
 10
-0.4595900000000001
 20
4.8940100000000006
 30
0.0
 10
-0.67549
 20
5.0286300000000006
 30
0.0
 10
-1.0260100000000001
 20
5.0133900000000002
 30
0.0
 10
-1.2165100000000002
 20
4.8660700000000006
 30
0.0
 10
-1.2165100000000002
 20
4.8660700000000006
 30
0.0
 10
-1.2165100000000002
 20
4.8660700000000006
 30
0.0
 10
-1.2876300000000001
 20
4.8787700000000003
 30
0.0
 10
-1.2876300000000001
 20
4.8787700000000003
 30
0.0
 10
-1.2876300000000001
 20
4.8787700000000003
 30
0.0
 10
-1.1123700000000001
 20
5.1327700000000007
 30
0.0
 10
-0.7339100000000001
 20
5.17849
 30
0.0
 10
-0.47229
 20
5.3105700000000002
 30
0.0
  0
SPLINE
  5
2B
100
AcDbEntity
  8
Ebene 1
 62
     7
100
AcDbSpline
210
0.0
220
0.0
230
1.0
 70
     1
 71
     3
 72
    64
 73
    60
 74
     0
 42
0.0000000001
 43
0.0000000001
 40
0.0
 40
0.0
 40
0.0
 40
0.0
 40
0.0666666666666667
 40
0.0666666666666667
 40
0.0666666666666667
 40
0.0666666666666667
 40
0.1333333333333333
 40
0.1333333333333333
 40
0.1333333333333333
 40
0.1333333333333333
 40
0.2
 40
0.2
 40
0.2
 40
0.2
 40
0.2666666666666667
 40
0.2666666666666667
 40
0.2666666666666667
 40
0.2666666666666667
 40
0.3333333333333333
 40
0.3333333333333333
 40
0.3333333333333333
 40
0.3333333333333333
 40
0.4
 40
0.4
 40
0.4
 40
0.4
 40
0.4666666666666666
 40
0.4666666666666666
 40
0.4666666666666666
 40
0.4666666666666666
 40
0.5333333333333333
 40
0.5333333333333333
 40
0.5333333333333333
 40
0.5333333333333333
 40
0.6
 40
0.6
 40
0.6
 40
0.6
 40
0.6666666666666666
 40
0.6666666666666666
 40
0.6666666666666666
 40
0.6666666666666666
 40
0.7333333333333333
 40
0.7333333333333333
 40
0.7333333333333333
 40
0.7333333333333333
 40
0.7999999999999999
 40
0.7999999999999999
 40
0.7999999999999999
 40
0.7999999999999999
 40
0.8666666666666666
 40
0.8666666666666666
 40
0.8666666666666666
 40
0.8666666666666666
 40
0.9333333333333332
 40
0.9333333333333332
 40
0.9333333333333332
 40
0.9333333333333332
 40
1.0
 40
1.0
 40
1.0
 40
1.0
 10
-0.05573
 20
5.2826300000000002
 30
0.0
 10
0.31764
 20
5.2826300000000002
 30
0.0
 10
0.6910200000000001
 20
5.2953300000000008
 30
0.0
 10
1.02884
 20
5.1632500000000006
 30
0.0
 10
1.02884
 20
5.1632500000000006
 30
0.0
 10
1.02884
 20
5.1632500000000006
 30
0.0
 10
1.01614
 20
4.7746300000000002
 30
0.0
 10
1.01614
 20
4.7746300000000002
 30
0.0
 10
1.01614
 20
4.7746300000000002
 30
0.0
 10
1.01614
 20
4.7746300000000002
 30
0.0
 10
0.9983600000000001
 20
4.6857300000000004
 30
0.0
 10
0.9983600000000001
 20
4.6857300000000004
 30
0.0
 10
0.9983600000000001
 20
4.6857300000000004
 30
0.0
 10
0.8104000000000001
 20
4.7466900000000001
 30
0.0
 10
0.74436
 20
4.3707700000000003
 30
0.0
 10
0.912
 20
4.3707700000000003
 30
0.0
 10
0.912
 20
4.3707700000000003
 30
0.0
 10
0.8561200000000001
 20
4.1345499999999999
 30
0.0
 10
1.0059800000000001
 20
3.7154500000000001
 30
0.0
 10
0.7164200000000001
 20
3.7002100000000002
 30
0.0
 10
0.7164200000000001
 20
3.7002100000000002
 30
0.0
 10
0.7164200000000001
 20
3.7002100000000002
 30
0.0
 10
0.658
 20
3.5655900000000003
 30
0.0
 10
0.658
 20
3.5655900000000003
 30
0.0
 10
0.658
 20
3.5655900000000003
 30
0.0
 10
0.658
 20
3.5655900000000003
 30
0.0
 10
0.66308
 20
3.4487500000000004
 30
0.0
 10
0.66308
 20
3.4487500000000004
 30
0.0
 10
0.66308
 20
3.4487500000000004
 30
0.0
 10
0.66308
 20
3.4487500000000004
 30
0.0
 10
0.8205600000000001
 20
3.4766900000000005
 30
0.0
 10
0.8205600000000001
 20
3.4766900000000005
 30
0.0
 10
0.8205600000000001
 20
3.4766900000000005
 30
0.0
 10
0.7926200000000001
 20
3.2252300000000003
 30
0.0
 10
0.7748400000000001
 20
2.9559900000000003
 30
0.0
 10
0.70118
 20
2.7019900000000003
 30
0.0
 10
0.70118
 20
2.7019900000000003
 30
0.0
 10
0.70118
 20
2.7019900000000003
 30
0.0
 10
0.08142
 20
2.50895
 30
0.0
 10
0.08142
 20
2.50895
 30
0.0
 10
0.08142
 20
2.50895
 30
0.0
 10
-0.05573
 20
3.2404700000000002
 30
0.0
 10
-0.04557
 20
4.0735900000000003
 30
0.0
 10
0.06618
 20
4.80511
 30
0.0
 10
0.06618
 20
4.80511
 30
0.0
 10
0.06618
 20
4.80511
 30
0.0
 10
0.23128
 20
5.0133900000000002
 30
0.0
 10
0.23128
 20
5.0133900000000002
 30
0.0
 10
0.23128
 20
5.0133900000000002
 30
0.0
 10
0.40146
 20
5.10229
 30
0.0
 10
0.6097400000000001
 20
5.0743500000000008
 30
0.0
 10
0.7773800000000001
 20
5.0870500000000005
 30
0.0
 10
0.7773800000000001
 20
5.0870500000000005
 30
0.0
 10
0.5665600000000001
 20
5.2369100000000008
 30
0.0
 10
0.16778
 20
5.1911900000000006
 30
0.0
 10
-0.10907
 20
5.1632500000000006
 30
0.0
 10
-0.10907
 20
5.1632500000000006
 30
0.0
 10
-0.13193
 20
5.2216700000000005
 30
0.0
 10
-0.10907
 20
5.2673900000000007
 30
0.0
 10
-0.05573
 20
5.2826300000000002
 30
0.0
  0
SPLINE
  5
2C
100
AcDbEntity
  8
Ebene 1
 62
     7
100
AcDbSpline
210
0.0
220
0.0
230
1.0
 70
     1
 71
     3
 72
   124
 73
   120
 74
     0
 42
0.0000000001
 43
0.0000000001
 40
0.0
 40
0.0
 40
0.0
 40
0.0
 40
0.0333333333333333
 40
0.0333333333333333
 40
0.0333333333333333
 40
0.0333333333333333
 40
0.0666666666666667
 40
0.0666666666666667
 40
0.0666666666666667
 40
0.0666666666666667
 40
0.1
 40
0.1
 40
0.1
 40
0.1
 40
0.1333333333333333
 40
0.1333333333333333
 40
0.1333333333333333
 40
0.1333333333333333
 40
0.1666666666666667
 40
0.1666666666666667
 40
0.1666666666666667
 40
0.1666666666666667
 40
0.2
 40
0.2
 40
0.2
 40
0.2
 40
0.2333333333333333
 40
0.2333333333333333
 40
0.2333333333333333
 40
0.2333333333333333
 40
0.2666666666666667
 40
0.2666666666666667
 40
0.2666666666666667
 40
0.2666666666666667
 40
0.3
 40
0.3
 40
0.3
 40
0.3
 40
0.3333333333333333
 40
0.3333333333333333
 40
0.3333333333333333
 40
0.3333333333333333
 40
0.3666666666666666
 40
0.3666666666666666
 40
0.3666666666666666
 40
0.3666666666666666
 40
0.4
 40
0.4
 40
0.4
 40
0.4
 40
0.4333333333333333
 40
0.4333333333333333
 40
0.4333333333333333
 40
0.4333333333333333
 40
0.4666666666666666
 40
0.4666666666666666
 40
0.4666666666666666
 40
0.4666666666666666
 40
0.4999999999999999
 40
0.4999999999999999
 40
0.4999999999999999
 40
0.4999999999999999
 40
0.5333333333333333
 40
0.5333333333333333
 40
0.5333333333333333
 40
0.5333333333333333
 40
0.5666666666666667
 40
0.5666666666666667
 40
0.5666666666666667
 40
0.5666666666666667
 40
0.6
 40
0.6
 40
0.6
 40
0.6
 40
0.6333333333333333
 40
0.6333333333333333
 40
0.6333333333333333
 40
0.6333333333333333
 40
0.6666666666666666
 40
0.6666666666666666
 40
0.6666666666666666
 40
0.6666666666666666
 40
0.7
 40
0.7
 40
0.7
 40
0.7
 40
0.7333333333333333
 40
0.7333333333333333
 40
0.7333333333333333
 40
0.7333333333333333
 40
0.7666666666666666
 40
0.7666666666666666
 40
0.7666666666666666
 40
0.7666666666666666
 40
0.7999999999999999
 40
0.7999999999999999
 40
0.7999999999999999
 40
0.7999999999999999
 40
0.8333333333333333
 40
0.8333333333333333
 40
0.8333333333333333
 40
0.8333333333333333
 40
0.8666666666666666
 40
0.8666666666666666
 40
0.8666666666666666
 40
0.8666666666666666
 40
0.8999999999999999
 40
0.8999999999999999
 40
0.8999999999999999
 40
0.8999999999999999
 40
0.9333333333333332
 40
0.9333333333333332
 40
0.9333333333333332
 40
0.9333333333333332
 40
0.9666666666666666
 40
0.9666666666666666
 40
0.9666666666666666
 40
0.9666666666666666
 40
1.0
 40
1.0
 40
1.0
 40
1.0
 10
1.1812400000000001
 20
4.8660700000000006
 30
0.0
 10
1.7349600000000001
 20
4.8355900000000007
 30
0.0
 10
2.4360000000000004
 20
4.3123500000000003
 30
0.0
 10
2.3344
 20
3.7764100000000003
 30
0.0
 10
2.3344
 20
3.7764100000000003
 30
0.0
 10
2.6671400000000003
 20
3.6570300000000002
 30
0.0
 10
2.7662000000000004
 20
2.9407500000000004
 30
0.0
 10
2.5223600000000004
 20
2.7324700000000002
 30
0.0
 10
2.5223600000000004
 20
2.7324700000000002
 30
0.0
 10
2.5477600000000002
 20
2.6562700000000001
 30
0.0
 10
2.6442800000000002
 20
2.6867500000000004
 30
0.0
 10
2.6722200000000003
 20
2.6867500000000004
 30
0.0
 10
2.6722200000000003
 20
2.6867500000000004
 30
0.0
 10
2.6061800000000002
 20
2.3006700000000002
 30
0.0
 10
2.6417400000000004
 20
1.8510900000000001
 30
0.0
 10
2.46394
 20
1.5234300000000001
 30
0.0
 10
2.46394
 20
1.5234300000000001
 30
0.0
 10
2.4512400000000003
 20
1.4802500000000001
 30
0.0
 10
2.4715600000000002
 20
1.3913500000000001
 30
0.0
 10
2.50712
 20
1.4650100000000001
 30
0.0
 10
2.50712
 20
1.4650100000000001
 30
0.0
 10
2.6620600000000003
 20
1.6428100000000001
 30
0.0
 10
2.4893400000000003
 20
1.1348100000000001
 30
0.0
 10
2.3039200000000002
 20
1.1221100000000002
 30
0.0
 10
2.3039200000000002
 20
1.1221100000000002
 30
0.0
 10
2.30138
 20
1.19577
 30
0.0
 10
2.3801200000000002
 20
1.36087
 30
0.0
 10
2.2886800000000003
 20
1.3761100000000002
 30
0.0
 10
2.2886800000000003
 20
1.3761100000000002
 30
0.0
 10
2.1108800000000003
 20
0.9874900000000001
 30
0.0
 10
2.0931000000000002
 20
0.50997
 30
0.0
 10
1.7222600000000001
 20
0.24073
 30
0.0
 10
1.7222600000000001
 20
0.24073
 30
0.0
 10
1.7222600000000001
 20
0.24073
 30
0.0
 10
1.7222600000000001
 20
0.76397
 30
0.0
 10
1.7222600000000001
 20
0.76397
 30
0.0
 10
1.7222600000000001
 20
0.76397
 30
0.0
 10
1.6384400000000001
 20
0.5404500000000001
 30
0.0
 10
1.69686
 20
0.23819
 30
0.0
 10
1.5089000000000001
 20
0.06039
 30
0.0
 10
1.5089000000000001
 20
0.06039
 30
0.0
 10
1.31332
 20
0.02229
 30
0.0
 10
1.1025
 20
0.03499
 30
0.0
 10
0.95264
 20
0.10357
 30
0.0
 10
0.95264
 20
0.10357
 30
0.0
 10
0.8637400000000001
 20
0.14421
 30
0.0
 10
0.8535800000000001
 20
0.20009
 30
0.0
 10
0.76722
 20
0.26613
 30
0.0
 10
0.76722
 20
0.26613
 30
0.0
 10
0.7138800000000001
 20
0.30423
 30
0.0
 10
0.6732400000000001
 20
0.4007500000000001
 30
0.0
 10
0.55386
 20
0.3905900000000001
 30
0.0
 10
0.55386
 20
0.3905900000000001
 30
0.0
 10
0.8942200000000001
 20
0.03245
 30
0.0
 10
0.6300600000000001
 20
-0.26218
 30
0.0
 10
0.25668
 20
-0.18852
 30
0.0
 10
0.25668
 20
-0.18852
 30
0.0
 10
0.2262
 20
-0.5161800000000001
 30
0.0
 10
-0.23353
 20
-0.38156
 30
0.0
 10
-0.10145
 20
-0.08438
 30
0.0
 10
-0.10145
 20
-0.08438
 30
0.0
 10
-0.21067
 20
-0.17328
 30
0.0
 10
-0.22337
 20
-0.35108
 30
0.0
 10
-0.34021
 20
-0.4577600000000001
 30
0.0
 10
-0.34021
 20
-0.4577600000000001
 30
0.0
 10
-0.43419
 20
-0.20376
 30
0.0
 10
-0.7694700000000001
 20
0.07817
 30
0.0
 10
-0.82535
 20
-0.15804
 30
0.0
 10
-0.82535
 20
-0.15804
 30
0.0
 10
-0.90917
 20
0.01721
 30
0.0
 10
-0.6907300000000001
 20
0.18231
 30
0.0
 10
-0.6678700000000001
 20
0.34487
 30
0.0
 10
-0.6678700000000001
 20
0.34487
 30
0.0
 10
-0.9802900000000001
 20
-0.02342
 30
0.0
 10
-1.5771900000000001
 20
0.06293
 30
0.0
 10
-1.7092700000000001
 20
0.55569
 30
0.0
 10
-1.7092700000000001
 20
0.55569
 30
0.0
 10
-1.6178300000000001
 20
0.8223900000000001
 30
0.0
 10
-1.3460500000000002
 20
0.25597
 30
0.0
 10
-1.3181100000000001
 20
0.18231
 30
0.0
 10
-1.3181100000000001
 20
0.18231
 30
0.0
 10
-1.3181100000000001
 20
0.18231
 30
0.0
 10
-0.43165
 20
0.9951100000000001
 30
0.0
 10
-0.43165
 20
0.9951100000000001
 30
0.0
 10
-0.43165
 20
0.9951100000000001
 30
0.0
 10
-0.48499
 20
1.3659500000000002
 30
0.0
 10
-0.4926100000000001
 20
1.7190100000000001
 30
0.0
 10
-0.3122700000000001
 20
1.9272900000000002
 30
0.0
 10
-0.3122700000000001
 20
1.9272900000000002
 30
0.0
 10
-0.28941
 20
1.8815700000000002
 30
0.0
 10
-0.29195
 20
1.82315
 30
0.0
 10
-0.23607
 20
1.8079100000000001
 30
0.0
 10
-0.23607
 20
1.8079100000000001
 30
0.0
 10
-0.23607
 20
1.8079100000000001
 30
0.0
 10
-0.04303
 20
1.86633
 30
0.0
 10
-0.04303
 20
1.86633
 30
0.0
 10
-0.04303
 20
1.86633
 30
0.0
 10
-0.14971
 20
2.4048100000000003
 30
0.0
 10
0.34812
 20
2.5241900000000004
 30
0.0
 10
0.7748400000000001
 20
2.5978500000000002
 30
0.0
 10
0.7748400000000001
 20
2.5978500000000002
 30
0.0
 10
0.9653400000000001
 20
2.8670900000000001
 30
0.0
 10
0.7469
 20
3.5655900000000003
 30
0.0
 10
1.2066400000000002
 20
3.4335100000000001
 30
0.0
 10
1.2066400000000002
 20
3.4335100000000001
 30
0.0
 10
1.2574400000000001
 20
3.4919300000000004
 30
0.0
 10
1.23712
 20
3.5655900000000003
 30
0.0
 10
1.2396600000000002
 20
3.6417900000000003
 30
0.0
 10
1.2396600000000002
 20
3.6417900000000003
 30
0.0
 10
0.7723000000000001
 20
3.5960700000000001
 30
0.0
 10
0.8967600000000001
 20
4.6120700000000001
 30
0.0
 10
1.3565
 20
4.3275900000000007
 30
0.0
 10
1.3565
 20
4.3275900000000007
 30
0.0
 10
1.3565
 20
4.3275900000000007
 30
0.0
 10
1.4200000000000002
 20
4.5053900000000002
 30
0.0
 10
1.4200000000000002
 20
4.5053900000000002
 30
0.0
 10
1.4200000000000002
 20
4.5053900000000002
 30
0.0
 10
1.3565
 20
4.6552500000000006
 30
0.0
 10
0.8967600000000001
 20
4.6552500000000006
 30
0.0
 10
1.1812400000000001
 20
4.8660700000000006
 30
0.0
  0
SPLINE
  5
2D
100
AcDbEntity
  8
Ebene 1
 62
     7
100
AcDbSpline
210
0.0
220
0.0
230
1.0
 70
     1
 71
     3
 72
    20
 73
    16
 74
     0
 42
0.0000000001
 43
0.0000000001
 40
0.0
 40
0.0
 40
0.0
 40
0.0
 40
0.25
 40
0.25
 40
0.25
 40
0.25
 40
0.5
 40
0.5
 40
0.5
 40
0.5
 40
0.75
 40
0.75
 40
0.75
 40
0.75
 40
1.0
 40
1.0
 40
1.0
 40
1.0
 10
0.9424800000000001
 20
4.6120700000000001
 30
0.0
 10
1.0948800000000001
 20
4.6247700000000007
 30
0.0
 10
1.2295
 20
4.5815900000000003
 30
0.0
 10
1.3565
 20
4.5206300000000006
 30
0.0
 10
1.3565
 20
4.5206300000000006
 30
0.0
 10
1.3565
 20
4.5206300000000006
 30
0.0
 10
1.3260200000000002
 20
4.4164900000000005
 30
0.0
 10
1.3260200000000002
 20
4.4164900000000005
 30
0.0
 10
1.3260200000000002
 20
4.4164900000000005
 30
0.0
 10
1.3260200000000002
 20
4.4164900000000005
 30
0.0
 10
0.9475600000000001
 20
4.5053900000000002
 30
0.0
 10
0.9475600000000001
 20
4.5053900000000002
 30
0.0
 10
0.9475600000000001
 20
4.5053900000000002
 30
0.0
 10
0.9475600000000001
 20
4.5053900000000002
 30
0.0
 10
0.9424800000000001
 20
4.6120700000000001
 30
0.0
 10
0.9424800000000001
 20
4.6120700000000001
 30
0.0
  0
SPLINE
  5
2E
100
AcDbEntity
  8
Ebene 1
 62
     7
100
AcDbSpline
210
0.0
220
0.0
230
1.0
 70
     1
 71
     3
 72
    20
 73
    16
 74
     0
 42
0.0000000001
 43
0.0000000001
 40
0.0
 40
0.0
 40
0.0
 40
0.0
 40
0.25
 40
0.25
 40
0.25
 40
0.25
 40
0.5
 40
0.5
 40
0.5
 40
0.5
 40
0.75
 40
0.75
 40
0.75
 40
0.75
 40
1.0
 40
1.0
 40
1.0
 40
1.0
 10
-1.8286500000000001
 20
4.4774500000000002
 30
0.0
 10
-1.5695700000000001
 20
3.9415100000000005
 30
0.0
 10
-1.4501900000000001
 20
3.3141300000000005
 30
0.0
 10
-1.24699
 20
2.7477100000000001
 30
0.0
 10
-1.24699
 20
2.7477100000000001
 30
0.0
 10
-1.3485900000000002
 20
2.5368900000000001
 30
0.0
 10
-1.5848100000000001
 20
2.4327500000000004
 30
0.0
 10
-1.7194300000000002
 20
2.2397100000000001
 30
0.0
 10
-1.7194300000000002
 20
2.2397100000000001
 30
0.0
 10
-2.0801100000000003
 20
2.7019900000000003
 30
0.0
 10
-2.40523
 20
3.1642700000000001
 30
0.0
 10
-2.7227300000000003
 20
3.6570300000000002
 30
0.0
 10
-2.7227300000000003
 20
3.6570300000000002
 30
0.0
 10
-2.5144500000000001
 20
4.0151700000000003
 30
0.0
 10
-2.1588500000000002
 20
4.2539300000000004
 30
0.0
 10
-1.8286500000000001
 20
4.4774500000000002
 30
0.0
  0
SPLINE
  5
2F
100
AcDbEntity
  8
Ebene 1
 62
     7
100
AcDbSpline
210
0.0
220
0.0
230
1.0
 70
     1
 71
     3
 72
    28
 73
    24
 74
     0
 42
0.0000000001
 43
0.0000000001
 40
0.0
 40
0.0
 40
0.0
 40
0.0
 40
0.1666666666666667
 40
0.1666666666666667
 40
0.1666666666666667
 40
0.1666666666666667
 40
0.3333333333333333
 40
0.3333333333333333
 40
0.3333333333333333
 40
0.3333333333333333
 40
0.5
 40
0.5
 40
0.5
 40
0.5
 40
0.6666666666666666
 40
0.6666666666666666
 40
0.6666666666666666
 40
0.6666666666666666
 40
0.8333333333333333
 40
0.8333333333333333
 40
0.8333333333333333
 40
0.8333333333333333
 40
1.0
 40
1.0
 40
1.0
 40
1.0
 10
-1.50099
 20
4.4317299999999999
 30
0.0
 10
-1.50099
 20
4.4317299999999999
 30
0.0
 10
-1.4451100000000001
 20
4.4012500000000001
 30
0.0
 10
-1.4451100000000001
 20
4.4012500000000001
 30
0.0
 10
-1.4451100000000001
 20
4.4012500000000001
 30
0.0
 10
-1.4451100000000001
 20
4.4012500000000001
 30
0.0
 10
-1.1377700000000002
 20
2.9864700000000002
 30
0.0
 10
-1.1377700000000002
 20
2.9864700000000002
 30
0.0
 10
-1.1377700000000002
 20
2.9864700000000002
 30
0.0
 10
-0.99299
 20
3.0017100000000001
 30
0.0
 10
-0.7694700000000001
 20
3.1947500000000004
 30
0.0
 10
-0.6653300000000001
 20
3.0753700000000004
 30
0.0
 10
-0.6653300000000001
 20
3.0753700000000004
 30
0.0
 10
-0.6653300000000001
 20
3.0753700000000004
 30
0.0
 10
-1.1834900000000002
 20
2.8366100000000003
 30
0.0
 10
-1.1834900000000002
 20
2.8366100000000003
 30
0.0
 10
-1.1834900000000002
 20
2.8366100000000003
 30
0.0
 10
-1.1834900000000002
 20
2.8366100000000003
 30
0.0
 10
-1.6508500000000002
 20
4.3580700000000006
 30
0.0
 10
-1.6508500000000002
 20
4.3580700000000006
 30
0.0
 10
-1.6508500000000002
 20
4.3580700000000006
 30
0.0
 10
-1.6000500000000002
 20
4.3707700000000003
 30
0.0
 10
-1.5416300000000001
 20
4.3860100000000006
 30
0.0
 10
-1.50099
 20
4.4317299999999999
 30
0.0
  0
SPLINE
  5
30
100
AcDbEntity
  8
Ebene 1
100
AcDbSpline
210
0.0
220
0.0
230
1.0
 70
     1
 71
     3
 72
    24
 73
    20
 74
     0
 42
0.0000000001
 43
0.0000000001
 40
0.0
 40
0.0
 40
0.0
 40
0.0
 40
0.2
 40
0.2
 40
0.2
 40
0.2
 40
0.4
 40
0.4
 40
0.4
 40
0.4
 40
0.6000000000000001
 40
0.6000000000000001
 40
0.6000000000000001
 40
0.6000000000000001
 40
0.8
 40
0.8
 40
0.8
 40
0.8
 40
1.0
 40
1.0
 40
1.0
 40
1.0
 10
-1.8134100000000002
 20
4.29711
 30
0.0
 10
-1.7778500000000002
 20
4.29711
 30
0.0
 10
-1.7651500000000002
 20
4.2158300000000004
 30
0.0
 10
-1.7524500000000001
 20
4.17265
 30
0.0
 10
-1.7524500000000001
 20
4.17265
 30
0.0
 10
-1.7473700000000001
 20
3.7103700000000002
 30
0.0
 10
-1.50353
 20
3.4614500000000001
 30
0.0
 10
-1.4146300000000001
 20
3.0296500000000002
 30
0.0
 10
-1.4146300000000001
 20
3.0296500000000002
 30
0.0
 10
-1.6457700000000002
 20
3.3141300000000005
 30
0.0
 10
-1.6559300000000001
 20
3.8348300000000002
 30
0.0
 10
-1.9734300000000002
 20
4.0304100000000007
 30
0.0
 10
-1.9734300000000002
 20
4.0304100000000007
 30
0.0
 10
-2.1867900000000002
 20
3.9415100000000005
 30
0.0
 10
-2.31887
 20
3.7154500000000001
 30
0.0
 10
-2.4966700000000004
 20
3.6113100000000005
 30
0.0
 10
-2.4966700000000004
 20
3.6113100000000005
 30
0.0
 10
-2.4331700000000001
 20
3.9262700000000001
 30
0.0
 10
-2.05979
 20
4.1040700000000001
 30
0.0
 10
-1.8134100000000002
 20
4.29711
 30
0.0
  0
SPLINE
  5
31
100
AcDbEntity
  8
Ebene 1
 62
     7
100
AcDbSpline
210
0.0
220
0.0
230
1.0
 70
     1
 71
     3
 72
    16
 73
    12
 74
     0
 42
0.0000000001
 43
0.0000000001
 40
0.0
 40
0.0
 40
0.0
 40
0.0
 40
0.3333333333333333
 40
0.3333333333333333
 40
0.3333333333333333
 40
0.3333333333333333
 40
0.6666666666666666
 40
0.6666666666666666
 40
0.6666666666666666
 40
0.6666666666666666
 40
1.0
 40
1.0
 40
1.0
 40
1.0
 10
2.9109800000000003
 20
4.2386900000000001
 30
0.0
 10
2.7916000000000003
 20
4.0735900000000003
 30
0.0
 10
2.6696800000000001
 20
3.9262700000000001
 30
0.0
 10
2.50712
 20
3.8068900000000001
 30
0.0
 10
2.50712
 20
3.8068900000000001
 30
0.0
 10
2.50712
 20
3.8068900000000001
 30
0.0
 10
2.5122
 20
3.8500700000000001
 30
0.0
 10
2.5122
 20
3.8500700000000001
 30
0.0
 10
2.5122
 20
3.8500700000000001
 30
0.0
 10
2.5122
 20
3.8500700000000001
 30
0.0
 10
2.9109800000000003
 20
4.2386900000000001
 30
0.0
 10
2.9109800000000003
 20
4.2386900000000001
 30
0.0
  0
SPLINE
  5
32
100
AcDbEntity
  8
Ebene 1
 62
     7
100
AcDbSpline
210
0.0
220
0.0
230
1.0
 70
     1
 71
     3
 72
    12
 73
     8
 74
     0
 42
0.0000000001
 43
0.0000000001
 40
0.0
 40
0.0
 40
0.0
 40
0.0
 40
0.5
 40
0.5
 40
0.5
 40
0.5
 40
1.0
 40
1.0
 40
1.0
 40
1.0
 10
-3.0529300000000004
 20
3.9110300000000002
 30
0.0
 10
-2.9259300000000001
 20
3.7459300000000004
 30
0.0
 10
-2.7278100000000003
 20
3.6265500000000004
 30
0.0
 10
-2.6389100000000001
 20
3.4182700000000001
 30
0.0
 10
-2.6389100000000001
 20
3.4182700000000001
 30
0.0
 10
-2.7836900000000004
 20
3.5655900000000003
 30
0.0
 10
-2.9589500000000002
 20
3.7154500000000001
 30
0.0
 10
-3.0529300000000004
 20
3.9110300000000002
 30
0.0
  0
SPLINE
  5
33
100
AcDbEntity
  8
Ebene 1
 62
     7
100
AcDbSpline
210
0.0
220
0.0
230
1.0
 70
     1
 71
     3
 72
    20
 73
    16
 74
     0
 42
0.0000000001
 43
0.0000000001
 40
0.0
 40
0.0
 40
0.0
 40
0.0
 40
0.25
 40
0.25
 40
0.25
 40
0.25
 40
0.5
 40
0.5
 40
0.5
 40
0.5
 40
0.75
 40
0.75
 40
0.75
 40
0.75
 40
1.0
 40
1.0
 40
1.0
 40
1.0
 10
0.8383400000000001
 20
3.6849700000000003
 30
0.0
 10
0.9043800000000001
 20
3.7002100000000002
 30
0.0
 10
0.9450200000000001
 20
3.6341700000000001
 30
0.0
 10
1.0034400000000001
 20
3.6189300000000002
 30
0.0
 10
1.0034400000000001
 20
3.6189300000000002
 30
0.0
 10
1.05932
 20
3.6036900000000003
 30
0.0
 10
1.1761600000000001
 20
3.6189300000000002
 30
0.0
 10
1.1660000000000001
 20
3.5274900000000002
 30
0.0
 10
1.1660000000000001
 20
3.5274900000000002
 30
0.0
 10
1.0339200000000002
 20
3.5579700000000001
 30
0.0
 10
0.9069200000000001
 20
3.5655900000000003
 30
0.0
 10
0.78246
 20
3.5528900000000001
 30
0.0
 10
0.78246
 20
3.5528900000000001
 30
0.0
 10
0.76722
 20
3.6265500000000004
 30
0.0
 10
0.7748400000000001
 20
3.6849700000000003
 30
0.0
 10
0.8383400000000001
 20
3.6849700000000003
 30
0.0
  0
SPLINE
  5
34
100
AcDbEntity
  8
Ebene 1
100
AcDbSpline
210
0.0
220
0.0
230
1.0
 70
     1
 71
     3
 72
    16
 73
    12
 74
     0
 42
0.0000000001
 43
0.0000000001
 40
0.0
 40
0.0
 40
0.0
 40
0.0
 40
0.3333333333333333
 40
0.3333333333333333
 40
0.3333333333333333
 40
0.3333333333333333
 40
0.6666666666666666
 40
0.6666666666666666
 40
0.6666666666666666
 40
0.6666666666666666
 40
1.0
 40
1.0
 40
1.0
 40
1.0
 10
2.3598000000000003
 20
3.4030300000000002
 30
0.0
 10
2.41568
 20
3.0753700000000004
 30
0.0
 10
2.4283800000000002
 20
2.7019900000000003
 30
0.0
 10
2.3598000000000003
 20
2.3743300000000001
 30
0.0
 10
2.3598000000000003
 20
2.3743300000000001
 30
0.0
 10
2.2582
 20
2.4937100000000001
 30
0.0
 10
2.1515200000000001
 20
2.6130900000000001
 30
0.0
 10
2.09056
 20
2.7477100000000001
 30
0.0
 10
2.09056
 20
2.7477100000000001
 30
0.0
 10
2.3953600000000002
 20
2.7756500000000002
 30
0.0
 10
2.2963
 20
3.2099900000000003
 30
0.0
 10
2.3598000000000003
 20
3.4030300000000002
 30
0.0
  0
SPLINE
  5
35
100
AcDbEntity
  8
Ebene 1
100
AcDbSpline
210
0.0
220
0.0
230
1.0
 70
     1
 71
     3
 72
    28
 73
    24
 74
     0
 42
0.0000000001
 43
0.0000000001
 40
0.0
 40
0.0
 40
0.0
 40
0.0
 40
0.1666666666666667
 40
0.1666666666666667
 40
0.1666666666666667
 40
0.1666666666666667
 40
0.3333333333333333
 40
0.3333333333333333
 40
0.3333333333333333
 40
0.3333333333333333
 40
0.5
 40
0.5
 40
0.5
 40
0.5
 40
0.6666666666666666
 40
0.6666666666666666
 40
0.6666666666666666
 40
0.6666666666666666
 40
0.8333333333333333
 40
0.8333333333333333
 40
0.8333333333333333
 40
0.8333333333333333
 40
1.0
 40
1.0
 40
1.0
 40
1.0
 10
1.61304
 20
3.2836500000000002
 30
0.0
 10
1.7146400000000002
 20
3.2684100000000003
 30
0.0
 10
1.5546200000000001
 20
3.1642700000000001
 30
0.0
 10
1.6181200000000002
 20
3.0753700000000004
 30
0.0
 10
1.6181200000000002
 20
3.0753700000000004
 30
0.0
 10
1.6867000000000001
 20
3.0296500000000002
 30
0.0
 10
1.8010000000000002
 20
2.9864700000000002
 30
0.0
 10
1.7908400000000002
 20
2.8797900000000003
 30
0.0
 10
1.7908400000000002
 20
2.8797900000000003
 30
0.0
 10
1.56732
 20
3.0753700000000004
 30
0.0
 10
1.2930000000000001
 20
3.0448900000000001
 30
0.0
 10
1.0313800000000002
 20
2.9712300000000003
 30
0.0
 10
1.0313800000000002
 20
2.9712300000000003
 30
0.0
 10
1.0110600000000001
 20
2.9712300000000003
 30
0.0
 10
0.9983600000000001
 20
3.0017100000000001
 30
0.0
 10
1.0009000000000001
 20
3.0144100000000003
 30
0.0
 10
1.0009000000000001
 20
3.0144100000000003
 30
0.0
 10
1.0009000000000001
 20
3.0144100000000003
 30
0.0
 10
1.2549000000000001
 20
3.0753700000000004
 30
0.0
 10
1.2549000000000001
 20
3.0753700000000004
 30
0.0
 10
1.2549000000000001
 20
3.0753700000000004
 30
0.0
 10
1.39714
 20
3.1058500000000002
 30
0.0
 10
1.5139800000000001
 20
3.1795100000000001
 30
0.0
 10
1.61304
 20
3.2836500000000002
 30
0.0
  0
SPLINE
  5
36
100
AcDbEntity
  8
Ebene 1
 62
     7
100
AcDbSpline
210
0.0
220
0.0
230
1.0
 70
     1
 71
     3
 72
    36
 73
    32
 74
     0
 42
0.0000000001
 43
0.0000000001
 40
0.0
 40
0.0
 40
0.0
 40
0.0
 40
0.125
 40
0.125
 40
0.125
 40
0.125
 40
0.25
 40
0.25
 40
0.25
 40
0.25
 40
0.375
 40
0.375
 40
0.375
 40
0.375
 40
0.5
 40
0.5
 40
0.5
 40
0.5
 40
0.625
 40
0.625
 40
0.625
 40
0.625
 40
0.75
 40
0.75
 40
0.75
 40
0.75
 40
0.875
 40
0.875
 40
0.875
 40
0.875
 40
1.0
 40
1.0
 40
1.0
 40
1.0
 10
-2.3823700000000003
 20
2.9407500000000004
 30
0.0
 10
-2.3341100000000004
 20
2.7756500000000002
 30
0.0
 10
-2.5042900000000001
 20
2.6562700000000001
 30
0.0
 10
-2.4966700000000004
 20
2.4937100000000001
 30
0.0
 10
-2.4966700000000004
 20
2.4937100000000001
 30
0.0
 10
-2.35189
 20
2.5241900000000004
 30
0.0
 10
-2.2833100000000002
 20
2.7908900000000001
 30
0.0
 10
-2.1004300000000002
 20
2.6715100000000001
 30
0.0
 10
-2.1004300000000002
 20
2.6715100000000001
 30
0.0
 10
-1.9683500000000003
 20
2.4937100000000001
 30
0.0
 10
-1.8616700000000002
 20
2.3159100000000001
 30
0.0
 10
-1.7092700000000001
 20
2.1660500000000003
 30
0.0
 10
-1.7092700000000001
 20
2.1660500000000003
 30
0.0
 10
-1.7092700000000001
 20
2.1660500000000003
 30
0.0
 10
-1.37653
 20
2.4327500000000004
 30
0.0
 10
-1.37653
 20
2.4327500000000004
 30
0.0
 10
-1.37653
 20
2.4327500000000004
 30
0.0
 10
-1.3206500000000001
 20
2.3590900000000001
 30
0.0
 10
-1.2673100000000002
 20
2.2854300000000003
 30
0.0
 10
-1.24699
 20
2.2092300000000002
 30
0.0
 10
-1.24699
 20
2.2092300000000002
 30
0.0
 10
-1.24699
 20
2.2092300000000002
 30
0.0
 10
-1.4552700000000001
 20
2.0314300000000003
 30
0.0
 10
-1.4552700000000001
 20
2.0314300000000003
 30
0.0
 10
-1.4552700000000001
 20
2.0314300000000003
 30
0.0
 10
-1.8794500000000001
 20
2.1050900000000001
 30
0.0
 10
-2.2629900000000003
 20
2.3006700000000002
 30
0.0
 10
-2.6592300000000004
 20
2.4479900000000003
 30
0.0
 10
-2.6592300000000004
 20
2.4479900000000003
 30
0.0
 10
-2.5906500000000001
 20
2.6130900000000001
 30
0.0
 10
-2.4915900000000004
 20
2.7756500000000002
 30
0.0
 10
-2.3823700000000003
 20
2.9407500000000004
 30
0.0
  0
SPLINE
  5
37
100
AcDbEntity
  8
Ebene 1
 62
     7
100
AcDbSpline
210
0.0
220
0.0
230
1.0
 70
     1
 71
     3
 72
    40
 73
    36
 74
     0
 42
0.0000000001
 43
0.0000000001
 40
0.0
 40
0.0
 40
0.0
 40
0.0
 40
0.1111111111111111
 40
0.1111111111111111
 40
0.1111111111111111
 40
0.1111111111111111
 40
0.2222222222222222
 40
0.2222222222222222
 40
0.2222222222222222
 40
0.2222222222222222
 40
0.3333333333333333
 40
0.3333333333333333
 40
0.3333333333333333
 40
0.3333333333333333
 40
0.4444444444444444
 40
0.4444444444444444
 40
0.4444444444444444
 40
0.4444444444444444
 40
0.5555555555555556
 40
0.5555555555555556
 40
0.5555555555555556
 40
0.5555555555555556
 40
0.6666666666666667
 40
0.6666666666666667
 40
0.6666666666666667
 40
0.6666666666666667
 40
0.7777777777777779
 40
0.7777777777777779
 40
0.7777777777777779
 40
0.7777777777777779
 40
0.8888888888888891
 40
0.8888888888888891
 40
0.8888888888888891
 40
0.8888888888888891
 40
1.0
 40
1.0
 40
1.0
 40
1.0
 10
-0.6653300000000001
 20
2.9407500000000004
 30
0.0
 10
-0.6653300000000001
 20
2.9407500000000004
 30
0.0
 10
-0.6094500000000001
 20
2.9407500000000004
 30
0.0
 10
-0.6094500000000001
 20
2.9407500000000004
 30
0.0
 10
-0.6094500000000001
 20
2.9407500000000004
 30
0.0
 10
-0.74407
 20
2.80613
 30
0.0
 10
-0.9447300000000001
 20
2.7477100000000001
 30
0.0
 10
-1.0539500000000002
 20
2.5978500000000002
 30
0.0
 10
-1.0539500000000002
 20
2.5978500000000002
 30
0.0
 10
-1.0488700000000002
 20
2.5826100000000003
 30
0.0
 10
-1.0158500000000001
 20
2.5673700000000004
 30
0.0
 10
-1.00569
 20
2.5826100000000003
 30
0.0
 10
-1.00569
 20
2.5826100000000003
 30
0.0
 10
-0.8939300000000001
 20
2.6283300000000001
 30
0.0
 10
-0.78471
 20
2.6715100000000001
 30
0.0
 10
-0.6653300000000001
 20
2.6867500000000004
 30
0.0
 10
-0.6653300000000001
 20
2.6867500000000004
 30
0.0
 10
-0.5459500000000001
 20
2.5826100000000003
 30
0.0
 10
-0.4291100000000001
 20
2.4632300000000003
 30
0.0
 10
-0.4164100000000001
 20
2.3159100000000001
 30
0.0
 10
-0.4164100000000001
 20
2.3159100000000001
 30
0.0
 10
-0.65263
 20
2.2701900000000004
 30
0.0
 10
-0.8532900000000001
 20
2.1050900000000001
 30
0.0
 10
-1.08443
 20
2.0466700000000002
 30
0.0
 10
-1.08443
 20
2.0466700000000002
 30
0.0
 10
-1.16317
 20
2.2092300000000002
 30
0.0
 10
-1.4806700000000002
 20
2.5241900000000004
 30
0.0
 10
-1.1453900000000001
 20
2.5673700000000004
 30
0.0
 10
-1.1453900000000001
 20
2.5673700000000004
 30
0.0
 10
-1.1453900000000001
 20
2.5673700000000004
 30
0.0
 10
-1.1428500000000001
 20
2.6283300000000001
 30
0.0
 10
-1.1428500000000001
 20
2.6283300000000001
 30
0.0
 10
-1.1428500000000001
 20
2.6283300000000001
 30
0.0
 10
-1.1555500000000001
 20
2.8670900000000001
 30
0.0
 10
-0.8151900000000001
 20
2.8518500000000002
 30
0.0
 10
-0.6653300000000001
 20
2.9407500000000004
 30
0.0
  0
SPLINE
  5
38
100
AcDbEntity
  8
Ebene 1
 62
     7
100
AcDbSpline
210
0.0
220
0.0
230
1.0
 70
     1
 71
     3
 72
    12
 73
     8
 74
     0
 42
0.0000000001
 43
0.0000000001
 40
0.0
 40
0.0
 40
0.0
 40
0.0
 40
0.5
 40
0.5
 40
0.5
 40
0.5
 40
1.0
 40
1.0
 40
1.0
 40
1.0
 10
2.7306400000000002
 20
2.8213700000000004
 30
0.0
 10
2.9643200000000003
 20
2.8213700000000004
 30
0.0
 10
2.4766400000000002
 20
2.6867500000000004
 30
0.0
 10
2.6569800000000003
 20
2.80613
 30
0.0
 10
2.6569800000000003
 20
2.80613
 30
0.0
 10
2.6569800000000003
 20
2.80613
 30
0.0
 10
2.7306400000000002
 20
2.8213700000000004
 30
0.0
 10
2.7306400000000002
 20
2.8213700000000004
 30
0.0
  0
SPLINE
  5
39
100
AcDbEntity
  8
Ebene 1
100
AcDbSpline
210
0.0
220
0.0
230
1.0
 70
     1
 71
     3
 72
    68
 73
    64
 74
     0
 42
0.0000000001
 43
0.0000000001
 40
0.0
 40
0.0
 40
0.0
 40
0.0
 40
0.0625
 40
0.0625
 40
0.0625
 40
0.0625
 40
0.125
 40
0.125
 40
0.125
 40
0.125
 40
0.1875
 40
0.1875
 40
0.1875
 40
0.1875
 40
0.25
 40
0.25
 40
0.25
 40
0.25
 40
0.3125
 40
0.3125
 40
0.3125
 40
0.3125
 40
0.375
 40
0.375
 40
0.375
 40
0.375
 40
0.4375
 40
0.4375
 40
0.4375
 40
0.4375
 40
0.5
 40
0.5
 40
0.5
 40
0.5
 40
0.5625
 40
0.5625
 40
0.5625
 40
0.5625
 40
0.625
 40
0.625
 40
0.625
 40
0.625
 40
0.6875
 40
0.6875
 40
0.6875
 40
0.6875
 40
0.75
 40
0.75
 40
0.75
 40
0.75
 40
0.8125
 40
0.8125
 40
0.8125
 40
0.8125
 40
0.875
 40
0.875
 40
0.875
 40
0.875
 40
0.9375
 40
0.9375
 40
0.9375
 40
0.9375
 40
1.0
 40
1.0
 40
1.0
 40
1.0
 10
0.46496
 20
1.5234300000000001
 30
0.0
 10
0.45988
 20
1.5539100000000001
 30
0.0
 10
0.48782
 20
1.6910700000000001
 30
0.0
 10
0.50814
 20
1.7215500000000001
 30
0.0
 10
0.50814
 20
1.7215500000000001
 30
0.0
 10
0.50814
 20
1.7215500000000001
 30
0.0
 10
1.1380600000000001
 20
1.9857100000000001
 30
0.0
 10
1.1380600000000001
 20
1.9857100000000001
 30
0.0
 10
1.1380600000000001
 20
1.9857100000000001
 30
0.0
 10
1.18632
 20
2.1482700000000001
 30
0.0
 10
1.01614
 20
2.0542899999999999
 30
0.0
 10
1.01868
 20
2.0238100000000001
 30
0.0
 10
1.01868
 20
2.0238100000000001
 30
0.0
 10
0.6884800000000001
 20
1.9653900000000002
 30
0.0
 10
0.3455800000000001
 20
1.6428100000000001
 30
0.0
 10
0.04586
 20
1.9552300000000002
 30
0.0
 10
0.04586
 20
1.9552300000000002
 30
0.0
 10
0.3989200000000001
 20
1.7926700000000002
 30
0.0
 10
0.7164200000000001
 20
2.1812900000000002
 30
0.0
 10
1.0745600000000002
 20
2.2092300000000002
 30
0.0
 10
1.0745600000000002
 20
2.2092300000000002
 30
0.0
 10
1.27268
 20
2.3006700000000002
 30
0.0
 10
1.5063600000000001
 20
2.4200500000000003
 30
0.0
 10
1.5241400000000001
 20
2.6410300000000002
 30
0.0
 10
1.5241400000000001
 20
2.6410300000000002
 30
0.0
 10
1.6333600000000001
 20
2.5368900000000001
 30
0.0
 10
1.52922
 20
2.3438500000000002
 30
0.0
 10
1.4530200000000002
 20
2.25495
 30
0.0
 10
1.4530200000000002
 20
2.25495
 30
0.0
 10
1.8238600000000003
 20
2.25495
 30
0.0
 10
2.0626200000000003
 20
1.6732900000000002
 30
0.0
 10
2.3699600000000003
 20
2.0466700000000002
 30
0.0
 10
2.3699600000000003
 20
2.0466700000000002
 30
0.0
 10
2.3039200000000002
 20
1.82315
 30
0.0
 10
2.0448400000000002
 20
1.6885300000000001
 30
0.0
 10
2.0321400000000001
 20
1.4192900000000002
 30
0.0
 10
2.0321400000000001
 20
1.4192900000000002
 30
0.0
 10
1.9280000000000002
 20
1.01797
 30
0.0
 10
1.9965800000000002
 20
1.4802500000000001
 30
0.0
 10
2.0423
 20
1.6428100000000001
 30
0.0
 10
2.0423
 20
1.6428100000000001
 30
0.0
 10
2.1413600000000002
 20
1.8079100000000001
 30
0.0
 10
1.9915000000000003
 20
1.9399900000000001
 30
0.0
 10
1.9610200000000002
 20
1.7190100000000001
 30
0.0
 10
1.9610200000000002
 20
1.7190100000000001
 30
0.0
 10
1.8746600000000002
 20
1.4802500000000001
 30
0.0
 10
1.7857600000000002
 20
1.19577
 30
0.0
 10
1.5952600000000001
 20
1.0459100000000001
 30
0.0
 10
1.5952600000000001
 20
1.0459100000000001
 30
0.0
 10
1.27268
 20
0.95701
 30
0.0
 10
0.9424800000000001
 20
1.0027300000000001
 30
0.0
 10
0.6326000000000001
 20
1.01797
 30
0.0
 10
0.6326000000000001
 20
1.01797
 30
0.0
 10
0.55386
 20
1.10687
 30
0.0
 10
0.43448
 20
1.2262500000000001
 30
0.0
 10
0.43448
 20
1.3456300000000001
 30
0.0
 10
0.43448
 20
1.3456300000000001
 30
0.0
 10
0.51068
 20
1.2999100000000001
 30
0.0
 10
0.6935600000000001
 20
1.0027300000000001
 30
0.0
 10
0.6732400000000001
 20
1.1652900000000002
 30
0.0
 10
0.6732400000000001
 20
1.1652900000000002
 30
0.0
 10
0.5894200000000001
 20
1.2846700000000002
 30
0.0
 10
0.6503800000000001
 20
1.6732900000000002
 30
0.0
 10
0.46496
 20
1.5234300000000001
 30
0.0
  0
SPLINE
  5
3A
100
AcDbEntity
  8
Ebene 1
 62
     7
100
AcDbSpline
210
0.0
220
0.0
230
1.0
 70
     1
 71
     3
 72
    20
 73
    16
 74
     0
 42
0.0000000001
 43
0.0000000001
 40
0.0
 40
0.0
 40
0.0
 40
0.0
 40
0.25
 40
0.25
 40
0.25
 40
0.25
 40
0.5
 40
0.5
 40
0.5
 40
0.5
 40
0.75
 40
0.75
 40
0.75
 40
0.75
 40
1.0
 40
1.0
 40
1.0
 40
1.0
 10
-2.6795500000000003
 20
2.3006700000000002
 30
0.0
 10
-2.6795500000000003
 20
2.3006700000000002
 30
0.0
 10
-2.56271
 20
2.3006700000000002
 30
0.0
 10
-2.56271
 20
2.3006700000000002
 30
0.0
 10
-2.56271
 20
2.3006700000000002
 30
0.0
 10
-2.6135100000000002
 20
2.2397100000000001
 30
0.0
 10
-2.7481300000000002
 20
2.2701900000000004
 30
0.0
 10
-2.8090900000000003
 20
2.2854300000000003
 30
0.0
 10
-2.8090900000000003
 20
2.2854300000000003
 30
0.0
 10
-2.8090900000000003
 20
2.2854300000000003
 30
0.0
 10
-2.7379700000000002
 20
2.2854300000000003
 30
0.0
 10
-2.7379700000000002
 20
2.2854300000000003
 30
0.0
 10
-2.7379700000000002
 20
2.2854300000000003
 30
0.0
 10
-2.7379700000000002
 20
2.2854300000000003
 30
0.0
 10
-2.6795500000000003
 20
2.3006700000000002
 30
0.0
 10
-2.6795500000000003
 20
2.3006700000000002
 30
0.0
  0
SPLINE
  5
3B
100
AcDbEntity
  8
Ebene 1
 62
     7
100
AcDbSpline
210
0.0
220
0.0
230
1.0
 70
     1
 71
     3
 72
    44
 73
    40
 74
     0
 42
0.0000000001
 43
0.0000000001
 40
0.0
 40
0.0
 40
0.0
 40
0.0
 40
0.1
 40
0.1
 40
0.1
 40
0.1
 40
0.2
 40
0.2
 40
0.2
 40
0.2
 40
0.3
 40
0.3
 40
0.3
 40
0.3
 40
0.4
 40
0.4
 40
0.4
 40
0.4
 40
0.5
 40
0.5
 40
0.5
 40
0.5
 40
0.6
 40
0.6
 40
0.6
 40
0.6
 40
0.7
 40
0.7
 40
0.7
 40
0.7
 40
0.7999999999999999
 40
0.7999999999999999
 40
0.7999999999999999
 40
0.7999999999999999
 40
0.8999999999999999
 40
0.8999999999999999
 40
0.8999999999999999
 40
0.8999999999999999
 40
1.0
 40
1.0
 40
1.0
 40
1.0
 10
-0.47229
 20
2.2244700000000002
 30
0.0
 10
-0.39863
 20
2.0898500000000002
 30
0.0
 10
-0.5205500000000001
 20
1.8079100000000001
 30
0.0
 10
-0.59167
 20
1.6428100000000001
 30
0.0
 10
-0.59167
 20
1.6428100000000001
 30
0.0
 10
-0.55357
 20
1.4497700000000002
 30
0.0
 10
-0.5027700000000001
 20
1.2567300000000001
 30
0.0
 10
-0.5205500000000001
 20
1.0459100000000001
 30
0.0
 10
-0.5205500000000001
 20
1.0459100000000001
 30
0.0
 10
-0.75931
 20
0.7944500000000001
 30
0.0
 10
-1.0133100000000002
 20
0.55569
 30
0.0
 10
-1.3028700000000002
 20
0.32963
 30
0.0
 10
-1.3028700000000002
 20
0.32963
 30
0.0
 10
-1.3028700000000002
 20
0.32963
 30
0.0
 10
-1.54671
 20
0.6903100000000001
 30
0.0
 10
-1.54671
 20
0.6903100000000001
 30
0.0
 10
-1.54671
 20
0.6903100000000001
 30
0.0
 10
-1.6254500000000001
 20
0.8681100000000001
 30
0.0
 10
-1.2800100000000001
 20
0.8376300000000001
 30
0.0
 10
-1.1834900000000002
 20
0.95701
 30
0.0
 10
-1.1834900000000002
 20
0.95701
 30
0.0
 10
-1.12507
 20
0.95701
 30
0.0
 10
-0.95235
 20
1.0916300000000001
 30
0.0
 10
-1.0082300000000002
 20
0.95701
 30
0.0
 10
-1.0082300000000002
 20
0.95701
 30
0.0
 10
-1.0285500000000001
 20
0.7792100000000001
 30
0.0
 10
-1.1809500000000002
 20
0.61411
 30
0.0
 10
-1.3460500000000002
 20
0.5252100000000001
 30
0.0
 10
-1.3460500000000002
 20
0.5252100000000001
 30
0.0
 10
-1.3460500000000002
 20
0.5252100000000001
 30
0.0
 10
-1.3079500000000002
 20
0.4515500000000001
 30
0.0
 10
-1.3079500000000002
 20
0.4515500000000001
 30
0.0
 10
-1.3079500000000002
 20
0.4515500000000001
 30
0.0
 10
-1.0641100000000001
 20
0.6293500000000001
 30
0.0
 10
-0.8151900000000001
 20
0.85287
 30
0.0
 10
-0.6069100000000001
 20
1.0763900000000002
 30
0.0
 10
-0.6069100000000001
 20
1.0763900000000002
 30
0.0
 10
-0.8177300000000001
 20
1.4650100000000001
 30
0.0
 10
-0.6831100000000001
 20
1.86633
 30
0.0
 10
-0.47229
 20
2.2244700000000002
 30
0.0
  0
SPLINE
  5
3C
100
AcDbEntity
  8
Ebene 1
 62
     7
100
AcDbSpline
210
0.0
220
0.0
230
1.0
 70
     1
 71
     3
 72
    64
 73
    60
 74
     0
 42
0.0000000001
 43
0.0000000001
 40
0.0
 40
0.0
 40
0.0
 40
0.0
 40
0.0666666666666667
 40
0.0666666666666667
 40
0.0666666666666667
 40
0.0666666666666667
 40
0.1333333333333333
 40
0.1333333333333333
 40
0.1333333333333333
 40
0.1333333333333333
 40
0.2
 40
0.2
 40
0.2
 40
0.2
 40
0.2666666666666667
 40
0.2666666666666667
 40
0.2666666666666667
 40
0.2666666666666667
 40
0.3333333333333333
 40
0.3333333333333333
 40
0.3333333333333333
 40
0.3333333333333333
 40
0.4
 40
0.4
 40
0.4
 40
0.4
 40
0.4666666666666666
 40
0.4666666666666666
 40
0.4666666666666666
 40
0.4666666666666666
 40
0.5333333333333333
 40
0.5333333333333333
 40
0.5333333333333333
 40
0.5333333333333333
 40
0.6
 40
0.6
 40
0.6
 40
0.6
 40
0.6666666666666666
 40
0.6666666666666666
 40
0.6666666666666666
 40
0.6666666666666666
 40
0.7333333333333333
 40
0.7333333333333333
 40
0.7333333333333333
 40
0.7333333333333333
 40
0.7999999999999999
 40
0.7999999999999999
 40
0.7999999999999999
 40
0.7999999999999999
 40
0.8666666666666666
 40
0.8666666666666666
 40
0.8666666666666666
 40
0.8666666666666666
 40
0.9333333333333332
 40
0.9333333333333332
 40
0.9333333333333332
 40
0.9333333333333332
 40
1.0
 40
1.0
 40
1.0
 40
1.0
 10
-0.65517
 20
2.0746100000000003
 30
0.0
 10
-0.6653300000000001
 20
1.9399900000000001
 30
0.0
 10
-0.6729500000000001
 20
1.8358500000000002
 30
0.0
 10
-0.7288300000000001
 20
1.7317100000000001
 30
0.0
 10
-0.7288300000000001
 20
1.7317100000000001
 30
0.0
 10
-0.7288300000000001
 20
1.7317100000000001
 30
0.0
 10
-1.5848100000000001
 20
1.5107300000000001
 30
0.0
 10
-1.5848100000000001
 20
1.5107300000000001
 30
0.0
 10
-1.5848100000000001
 20
1.5107300000000001
 30
0.0
 10
-1.58989
 20
1.4192900000000002
 30
0.0
 10
-1.5975100000000002
 20
1.3303900000000002
 30
0.0
 10
-1.6229100000000001
 20
1.2414900000000002
 30
0.0
 10
-1.6229100000000001
 20
1.2414900000000002
 30
0.0
 10
-1.6229100000000001
 20
1.2414900000000002
 30
0.0
 10
-2.4509500000000002
 20
1.0916300000000001
 30
0.0
 10
-2.4509500000000002
 20
1.0916300000000001
 30
0.0
 10
-2.4509500000000002
 20
1.0916300000000001
 30
0.0
 10
-2.4509500000000002
 20
1.0916300000000001
 30
0.0
 10
-2.3747500000000001
 20
2.1812900000000002
 30
0.0
 10
-2.3747500000000001
 20
2.1812900000000002
 30
0.0
 10
-2.3747500000000001
 20
2.1812900000000002
 30
0.0
 10
-2.35189
 20
2.1812900000000002
 30
0.0
 10
-2.31379
 20
2.1812900000000002
 30
0.0
 10
-2.3061700000000003
 20
2.1508100000000003
 30
0.0
 10
-2.3061700000000003
 20
2.1508100000000003
 30
0.0
 10
-2.3061700000000003
 20
2.1508100000000003
 30
0.0
 10
-2.27061
 20
1.31515
 30
0.0
 10
-2.27061
 20
1.31515
 30
0.0
 10
-2.27061
 20
1.31515
 30
0.0
 10
-2.2528300000000003
 20
1.40405
 30
0.0
 10
-2.19441
 20
1.4091300000000002
 30
0.0
 10
-2.1740900000000001
 20
1.5107300000000001
 30
0.0
 10
-2.1740900000000001
 20
1.5107300000000001
 30
0.0
 10
-2.14107
 20
1.6834500000000001
 30
0.0
 10
-2.2553700000000001
 20
2.0847700000000002
 30
0.0
 10
-1.9632700000000001
 20
2.0161900000000004
 30
0.0
 10
-1.9632700000000001
 20
2.0161900000000004
 30
0.0
 10
-1.7118100000000001
 20
2.00095
 30
0.0
 10
-1.46035
 20
1.7774300000000001
 30
0.0
 10
-1.24699
 20
2.00095
 30
0.0
 10
-1.24699
 20
2.00095
 30
0.0
 10
-1.1809500000000002
 20
1.9272900000000002
 30
0.0
 10
-1.0742700000000001
 20
1.8815700000000002
 30
0.0
 10
-0.9904500000000001
 20
1.9704700000000002
 30
0.0
 10
-0.9904500000000001
 20
1.9704700000000002
 30
0.0
 10
-0.9904500000000001
 20
1.9704700000000002
 30
0.0
 10
-0.9066300000000001
 20
2.00095
 30
0.0
 10
-0.9066300000000001
 20
2.00095
 30
0.0
 10
-0.9066300000000001
 20
2.00095
 30
0.0
 10
-0.9193300000000001
 20
1.7469500000000002
 30
0.0
 10
-1.2850900000000001
 20
1.7926700000000002
 30
0.0
 10
-1.46543
 20
1.6885300000000001
 30
0.0
 10
-1.46543
 20
1.6885300000000001
 30
0.0
 10
-1.20889
 20
1.7139300000000002
 30
0.0
 10
-0.9015500000000001
 20
1.7291700000000001
 30
0.0
 10
-0.7567700000000001
 20
1.9704700000000002
 30
0.0
 10
-0.7567700000000001
 20
1.9704700000000002
 30
0.0
 10
-0.7339100000000001
 20
2.0034900000000002
 30
0.0
 10
-0.71867
 20
2.1330300000000002
 30
0.0
 10
-0.65517
 20
2.0746100000000003
 30
0.0
  0
SPLINE
  5
3D
100
AcDbEntity
  8
Ebene 1
100
AcDbSpline
210
0.0
220
0.0
230
1.0
 70
     1
 71
     3
 72
    20
 73
    16
 74
     0
 42
0.0000000001
 43
0.0000000001
 40
0.0
 40
0.0
 40
0.0
 40
0.0
 40
0.25
 40
0.25
 40
0.25
 40
0.25
 40
0.5
 40
0.5
 40
0.5
 40
0.5
 40
0.75
 40
0.75
 40
0.75
 40
0.75
 40
1.0
 40
1.0
 40
1.0
 40
1.0
 10
0.4192400000000001
 20
1.5056500000000002
 30
0.0
 10
0.44718
 20
1.44469
 30
0.0
 10
0.47766
 20
1.4192900000000002
 30
0.0
 10
0.42178
 20
1.40405
 30
0.0
 10
0.42178
 20
1.40405
 30
0.0
 10
0.3252600000000001
 20
1.4954900000000002
 30
0.0
 10
0.18556
 20
1.6732900000000002
 30
0.0
 10
0.31256
 20
1.7621900000000001
 30
0.0
 10
0.31256
 20
1.7621900000000001
 30
0.0
 10
0.31256
 20
1.7621900000000001
 30
0.0
 10
0.36082
 20
1.6275700000000002
 30
0.0
 10
0.36082
 20
1.6275700000000002
 30
0.0
 10
0.36082
 20
1.6275700000000002
 30
0.0
 10
0.38622
 20
1.5843900000000002
 30
0.0
 10
0.3659
 20
1.5183500000000001
 30
0.0
 10
0.4192400000000001
 20
1.5056500000000002
 30
0.0
  0
SPLINE
  5
3E
100
AcDbEntity
  8
Ebene 1
 62
     7
100
AcDbSpline
210
0.0
220
0.0
230
1.0
 70
     1
 71
     3
 72
    20
 73
    16
 74
     0
 42
0.0000000001
 43
0.0000000001
 40
0.0
 40
0.0
 40
0.0
 40
0.0
 40
0.25
 40
0.25
 40
0.25
 40
0.25
 40
0.5
 40
0.5
 40
0.5
 40
0.5
 40
0.75
 40
0.75
 40
0.75
 40
0.75
 40
1.0
 40
1.0
 40
1.0
 40
1.0
 10
1.1202800000000002
 20
1.7317100000000001
 30
0.0
 10
1.1660000000000001
 20
1.7190100000000001
 30
0.0
 10
1.2142600000000001
 20
1.7190100000000001
 30
0.0
 10
1.2523600000000001
 20
1.6885300000000001
 30
0.0
 10
1.2523600000000001
 20
1.6885300000000001
 30
0.0
 10
1.2523600000000001
 20
1.6885300000000001
 30
0.0
 10
1.3260200000000002
 20
1.6428100000000001
 30
0.0
 10
1.3260200000000002
 20
1.6428100000000001
 30
0.0
 10
1.3260200000000002
 20
1.6428100000000001
 30
0.0
 10
1.23458
 20
1.56915
 30
0.0
 10
1.0847200000000001
 20
1.5386700000000002
 30
0.0
 10
0.9780400000000001
 20
1.61487
 30
0.0
 10
0.9780400000000001
 20
1.61487
 30
0.0
 10
1.0085200000000001
 20
1.6580500000000002
 30
0.0
 10
1.06948
 20
1.7037700000000002
 30
0.0
 10
1.1202800000000002
 20
1.7317100000000001
 30
0.0
  0
SPLINE
  5
3F
100
AcDbEntity
  8
Ebene 1
100
AcDbSpline
210
0.0
220
0.0
230
1.0
 70
     1
 71
     3
 72
    36
 73
    32
 74
     0
 42
0.0000000001
 43
0.0000000001
 40
0.0
 40
0.0
 40
0.0
 40
0.0
 40
0.125
 40
0.125
 40
0.125
 40
0.125
 40
0.25
 40
0.25
 40
0.25
 40
0.25
 40
0.375
 40
0.375
 40
0.375
 40
0.375
 40
0.5
 40
0.5
 40
0.5
 40
0.5
 40
0.625
 40
0.625
 40
0.625
 40
0.625
 40
0.75
 40
0.75
 40
0.75
 40
0.75
 40
0.875
 40
0.875
 40
0.875
 40
0.875
 40
1.0
 40
1.0
 40
1.0
 40
1.0
 10
-0.17257
 20
1.5996300000000001
 30
0.0
 10
-0.17257
 20
1.5996300000000001
 30
0.0
 10
-0.18527
 20
1.2846700000000002
 30
0.0
 10
-0.18527
 20
1.2846700000000002
 30
0.0
 10
-0.18527
 20
1.2846700000000002
 30
0.0
 10
-0.13701
 20
1.2846700000000002
 30
0.0
 10
-0.07859
 20
1.2694300000000001
 30
0.0
 10
-0.04303
 20
1.31515
 30
0.0
 10
-0.04303
 20
1.31515
 30
0.0
 10
0.2516000000000001
 20
1.0763900000000002
 30
0.0
 10
0.27192
 20
0.65983
 30
0.0
 10
0.36082
 20
0.30169
 30
0.0
 10
0.36082
 20
0.30169
 30
0.0
 10
0.36082
 20
0.30169
 30
0.0
 10
0.25414
 20
0.13659
 30
0.0
 10
0.25414
 20
0.13659
 30
0.0
 10
0.25414
 20
0.13659
 30
0.0
 10
0.1119
 20
0.09341
 30
0.0
 10
-0.02017
 20
0.22549
 30
0.0
 10
-0.10145
 20
0.32963
 30
0.0
 10
-0.10145
 20
0.32963
 30
0.0
 10
-0.16495
 20
0.16707
 30
0.0
 10
-0.37069
 20
0.03245
 30
0.0
 10
-0.52817
 20
0.15183
 30
0.0
 10
-0.52817
 20
0.15183
 30
0.0
 10
-0.5662700000000001
 20
0.60141
 30
0.0
 10
-0.40371
 20
1.0001900000000001
 30
0.0
 10
-0.27163
 20
1.40659
 30
0.0
 10
-0.27163
 20
1.40659
 30
0.0
 10
-0.24877
 20
1.4726300000000001
 30
0.0
 10
-0.26147
 20
1.6656700000000002
 30
0.0
 10
-0.17257
 20
1.5996300000000001
 30
0.0
  0
SPLINE
  5
40
100
AcDbEntity
  8
Ebene 1
 62
     7
100
AcDbSpline
210
0.0
220
0.0
230
1.0
 70
     1
 71
     3
 72
    44
 73
    40
 74
     0
 42
0.0000000001
 43
0.0000000001
 40
0.0
 40
0.0
 40
0.0
 40
0.0
 40
0.1
 40
0.1
 40
0.1
 40
0.1
 40
0.2
 40
0.2
 40
0.2
 40
0.2
 40
0.3
 40
0.3
 40
0.3
 40
0.3
 40
0.4
 40
0.4
 40
0.4
 40
0.4
 40
0.5
 40
0.5
 40
0.5
 40
0.5
 40
0.6
 40
0.6
 40
0.6
 40
0.6
 40
0.7
 40
0.7
 40
0.7
 40
0.7
 40
0.7999999999999999
 40
0.7999999999999999
 40
0.7999999999999999
 40
0.7999999999999999
 40
0.8999999999999999
 40
0.8999999999999999
 40
0.8999999999999999
 40
0.8999999999999999
 40
1.0
 40
1.0
 40
1.0
 40
1.0
 10
-1.1428500000000001
 20
1.5843900000000002
 30
0.0
 10
-1.0107700000000002
 20
1.5234300000000001
 30
0.0
 10
-1.1022100000000001
 20
1.31515
 30
0.0
 10
-1.08697
 20
1.1805300000000001
 30
0.0
 10
-1.08697
 20
1.1805300000000001
 30
0.0
 10
-1.08697
 20
1.1805300000000001
 30
0.0
 10
-2.0343900000000001
 20
0.65983
 30
0.0
 10
-2.0343900000000001
 20
0.65983
 30
0.0
 10
-2.0343900000000001
 20
0.65983
 30
0.0
 10
-2.0775700000000001
 20
0.7792100000000001
 30
0.0
 10
-2.15123
 20
0.8985900000000001
 30
0.0
 10
-2.1537700000000002
 20
1.03067
 30
0.0
 10
-2.1537700000000002
 20
1.03067
 30
0.0
 10
-1.9988300000000001
 20
1.1348100000000001
 30
0.0
 10
-2.0623300000000002
 20
0.8681100000000001
 30
0.0
 10
-1.9658100000000001
 20
0.8681100000000001
 30
0.0
 10
-1.9658100000000001
 20
0.8681100000000001
 30
0.0
 10
-2.0293100000000002
 20
1.2414900000000002
 30
0.0
 10
-1.50607
 20
1.01797
 30
0.0
 10
-1.4806700000000002
 20
1.2999100000000001
 30
0.0
 10
-1.4806700000000002
 20
1.2999100000000001
 30
0.0
 10
-1.4806700000000002
 20
1.2999100000000001
 30
0.0
 10
-1.3917700000000002
 20
1.3456300000000001
 30
0.0
 10
-1.3917700000000002
 20
1.3456300000000001
 30
0.0
 10
-1.3917700000000002
 20
1.3456300000000001
 30
0.0
 10
-1.3917700000000002
 20
1.3456300000000001
 30
0.0
 10
-1.3257300000000001
 20
1.31515
 30
0.0
 10
-1.3257300000000001
 20
1.31515
 30
0.0
 10
-1.3257300000000001
 20
1.31515
 30
0.0
 10
-1.41717
 20
1.1221100000000002
 30
0.0
 10
-1.7219700000000002
 20
1.06115
 30
0.0
 10
-1.8235700000000001
 20
0.8833500000000001
 30
0.0
 10
-1.8235700000000001
 20
0.8833500000000001
 30
0.0
 10
-1.8235700000000001
 20
0.8833500000000001
 30
0.0
 10
-1.24953
 20
1.15005
 30
0.0
 10
-1.24953
 20
1.15005
 30
0.0
 10
-1.24953
 20
1.15005
 30
0.0
 10
-1.1733300000000002
 20
1.2846700000000002
 30
0.0
 10
-1.21397
 20
1.4650100000000001
 30
0.0
 10
-1.1428500000000001
 20
1.5843900000000002
 30
0.0
  0
SPLINE
  5
41
100
AcDbEntity
  8
Ebene 1
 62
     7
100
AcDbSpline
210
0.0
220
0.0
230
1.0
 70
     1
 71
     3
 72
    44
 73
    40
 74
     0
 42
0.0000000001
 43
0.0000000001
 40
0.0
 40
0.0
 40
0.0
 40
0.0
 40
0.1
 40
0.1
 40
0.1
 40
0.1
 40
0.2
 40
0.2
 40
0.2
 40
0.2
 40
0.3
 40
0.3
 40
0.3
 40
0.3
 40
0.4
 40
0.4
 40
0.4
 40
0.4
 40
0.5
 40
0.5
 40
0.5
 40
0.5
 40
0.6
 40
0.6
 40
0.6
 40
0.6
 40
0.7
 40
0.7
 40
0.7
 40
0.7
 40
0.7999999999999999
 40
0.7999999999999999
 40
0.7999999999999999
 40
0.7999999999999999
 40
0.8999999999999999
 40
0.8999999999999999
 40
0.8999999999999999
 40
0.8999999999999999
 40
1.0
 40
1.0
 40
1.0
 40
1.0
 10
2.0321400000000001
 20
-0.6812800000000001
 30
0.0
 10
2.0245200000000003
 20
-0.63556
 30
0.0
 10
2.0753200000000001
 20
-0.63556
 30
0.0
 10
2.1032600000000001
 20
-0.63556
 30
0.0
 10
2.1032600000000001
 20
-0.63556
 30
0.0
 10
2.2404200000000003
 20
-0.53142
 30
0.0
 10
2.0321400000000001
 20
-0.6203200000000001
 30
0.0
 10
1.9762600000000001
 20
-0.63556
 30
0.0
 10
1.9762600000000001
 20
-0.63556
 30
0.0
 10
1.9762600000000001
 20
-0.63556
 30
0.0
 10
1.7832200000000002
 20
-0.7549400000000001
 30
0.0
 10
1.7832200000000002
 20
-0.7549400000000001
 30
0.0
 10
1.7832200000000002
 20
-0.7549400000000001
 30
0.0
 10
1.7984600000000002
 20
-0.32314
 30
0.0
 10
1.8289400000000002
 20
0.13659
 30
0.0
 10
2.0727800000000003
 20
0.4947300000000001
 30
0.0
 10
2.0727800000000003
 20
0.4947300000000001
 30
0.0
 10
2.09056
 20
0.4210700000000001
 30
0.0
 10
1.9737200000000001
 20
0.22549
 30
0.0
 10
2.1210400000000003
 20
0.24073
 30
0.0
 10
2.1210400000000003
 20
0.24073
 30
0.0
 10
2.2963
 20
0.12135
 30
0.0
 10
2.1312000000000002
 20
-0.12756
 30
0.0
 10
2.2277200000000001
 20
-0.24694
 30
0.0
 10
2.2277200000000001
 20
-0.24694
 30
0.0
 10
2.3852000000000002
 20
0.04769
 30
0.0
 10
2.1921600000000003
 20
0.3169300000000001
 30
0.0
 10
2.2277200000000001
 20
0.6293500000000001
 30
0.0
 10
2.2277200000000001
 20
0.6293500000000001
 30
0.0
 10
2.2937600000000002
 20
0.76397
 30
0.0
 10
2.2302600000000004
 20
1.0027300000000001
 30
0.0
 10
2.4309200000000004
 20
1.06115
 30
0.0
 10
2.4309200000000004
 20
1.06115
 30
0.0
 10
2.41568
 20
0.4642500000000001
 30
0.0
 10
2.4436200000000001
 20
-0.02342
 30
0.0
 10
2.3699600000000003
 20
-0.6050800000000001
 30
0.0
 10
2.3699600000000003
 20
-0.6050800000000001
 30
0.0
 10
2.3699600000000003
 20
-0.6050800000000001
 30
0.0
 10
2.0321400000000001
 20
-0.6812800000000001
 30
0.0
 10
2.0321400000000001
 20
-0.6812800000000001
 30
0.0
  0
SPLINE
  5
42
100
AcDbEntity
  8
Ebene 1
 62
     7
100
AcDbSpline
210
0.0
220
0.0
230
1.0
 70
     1
 71
     3
 72
    44
 73
    40
 74
     0
 42
0.0000000001
 43
0.0000000001
 40
0.0
 40
0.0
 40
0.0
 40
0.0
 40
0.1
 40
0.1
 40
0.1
 40
0.1
 40
0.2
 40
0.2
 40
0.2
 40
0.2
 40
0.3
 40
0.3
 40
0.3
 40
0.3
 40
0.4
 40
0.4
 40
0.4
 40
0.4
 40
0.5
 40
0.5
 40
0.5
 40
0.5
 40
0.6
 40
0.6
 40
0.6
 40
0.6
 40
0.7
 40
0.7
 40
0.7
 40
0.7
 40
0.7999999999999999
 40
0.7999999999999999
 40
0.7999999999999999
 40
0.7999999999999999
 40
0.8999999999999999
 40
0.8999999999999999
 40
0.8999999999999999
 40
0.8999999999999999
 40
1.0
 40
1.0
 40
1.0
 40
1.0
 10
-2.5144500000000001
 20
0.91383
 30
0.0
 10
-2.3798300000000001
 20
0.8985900000000001
 30
0.0
 10
-2.1563100000000004
 20
0.9417700000000001
 30
0.0
 10
-2.14107
 20
0.7792100000000001
 30
0.0
 10
-2.14107
 20
0.7792100000000001
 30
0.0
 10
-2.27569
 20
0.80715
 30
0.0
 10
-2.48143
 20
0.8223900000000001
 30
0.0
 10
-2.6160500000000004
 20
0.7182500000000001
 30
0.0
 10
-2.6160500000000004
 20
0.7182500000000001
 30
0.0
 10
-2.6160500000000004
 20
0.7182500000000001
 30
0.0
 10
-2.7201900000000001
 20
0.5709300000000001
 30
0.0
 10
-2.7201900000000001
 20
0.5709300000000001
 30
0.0
 10
-2.7201900000000001
 20
0.5709300000000001
 30
0.0
 10
-2.9005300000000003
 20
-0.24694
 30
0.0
 10
-3.2942300000000002
 20
-1.20198
 30
0.0
 10
-2.9589500000000002
 20
-2.0376400000000001
 30
0.0
 10
-2.9589500000000002
 20
-2.0376400000000001
 30
0.0
 10
-2.8776700000000002
 20
-2.1113
 30
0.0
 10
-2.7862300000000002
 20
-2.1875
 30
0.0
 10
-2.6820900000000001
 20
-2.2179800000000003
 30
0.0
 10
-2.6820900000000001
 20
-2.2179800000000003
 30
0.0
 10
-2.6820900000000001
 20
-2.30688
 30
0.0
 10
-2.7176500000000003
 20
-2.35006
 30
0.0
 10
-2.7430500000000002
 20
-2.4262600000000001
 30
0.0
 10
-2.7430500000000002
 20
-2.4262600000000001
 30
0.0
 10
-2.9056100000000002
 20
-2.3957800000000002
 30
0.0
 10
-3.0224500000000001
 20
-2.2916400000000001
 30
0.0
 10
-3.1367500000000001
 20
-2.1875
 30
0.0
 10
-3.1367500000000001
 20
-2.1875
 30
0.0
 10
-3.2281900000000001
 20
-2.05288
 30
0.0
 10
-3.2840700000000003
 20
-1.9030200000000002
 30
0.0
 10
-3.3196300000000001
 20
-1.7684000000000002
 30
0.0
 10
-3.3196300000000001
 20
-1.7684000000000002
 30
0.0
 10
-3.4542500000000005
 20
-0.7752600000000001
 30
0.0
 10
-3.0859500000000004
 20
-0.0158
 30
0.0
 10
-2.73543
 20
0.7792100000000001
 30
0.0
 10
-2.73543
 20
0.7792100000000001
 30
0.0
 10
-2.6770100000000001
 20
0.85287
 30
0.0
 10
-2.5830300000000004
 20
0.8833500000000001
 30
0.0
 10
-2.5144500000000001
 20
0.91383
 30
0.0
  0
SPLINE
  5
43
100
AcDbEntity
  8
Ebene 1
 62
     7
100
AcDbSpline
210
0.0
220
0.0
230
1.0
 70
     1
 71
     3
 72
    24
 73
    20
 74
     0
 42
0.0000000001
 43
0.0000000001
 40
0.0
 40
0.0
 40
0.0
 40
0.0
 40
0.2
 40
0.2
 40
0.2
 40
0.2
 40
0.4
 40
0.4
 40
0.4
 40
0.4
 40
0.6000000000000001
 40
0.6000000000000001
 40
0.6000000000000001
 40
0.6000000000000001
 40
0.8
 40
0.8
 40
0.8
 40
0.8
 40
1.0
 40
1.0
 40
1.0
 40
1.0
 10
-1.8743700000000001
 20
0.65983
 30
0.0
 10
-1.8769100000000001
 20
0.4947300000000001
 30
0.0
 10
-1.8032500000000002
 20
0.37535
 30
0.0
 10
-1.6686300000000001
 20
0.27121
 30
0.0
 10
-1.6686300000000001
 20
0.27121
 30
0.0
 10
-1.6559300000000001
 20
0.13659
 30
0.0
 10
-1.5619500000000002
 20
-0.02342
 30
0.0
 10
-1.6533900000000001
 20
-0.15804
 30
0.0
 10
-1.6533900000000001
 20
-0.15804
 30
0.0
 10
-1.7448300000000001
 20
0.07817
 30
0.0
 10
-1.8311900000000001
 20
0.32963
 30
0.0
 10
-1.9073900000000001
 20
0.5861700000000001
 30
0.0
 10
-1.9073900000000001
 20
0.5861700000000001
 30
0.0
 10
-1.9073900000000001
 20
0.5861700000000001
 30
0.0
 10
-1.9581900000000001
 20
0.61411
 30
0.0
 10
-1.9581900000000001
 20
0.61411
 30
0.0
 10
-1.9581900000000001
 20
0.61411
 30
0.0
 10
-1.9581900000000001
 20
0.61411
 30
0.0
 10
-1.8743700000000001
 20
0.65983
 30
0.0
 10
-1.8743700000000001
 20
0.65983
 30
0.0
  0
SPLINE
  5
44
100
AcDbEntity
  8
Ebene 1
 62
     7
100
AcDbSpline
210
0.0
220
0.0
230
1.0
 70
     1
 71
     3
 72
    16
 73
    12
 74
     0
 42
0.0000000001
 43
0.0000000001
 40
0.0
 40
0.0
 40
0.0
 40
0.0
 40
0.3333333333333333
 40
0.3333333333333333
 40
0.3333333333333333
 40
0.3333333333333333
 40
0.6666666666666666
 40
0.6666666666666666
 40
0.6666666666666666
 40
0.6666666666666666
 40
1.0
 40
1.0
 40
1.0
 40
1.0
 10
-2.4407900000000002
 20
0.59887
 30
0.0
 10
-2.2960100000000003
 20
0.59887
 30
0.0
 10
-2.1334500000000003
 20
0.59887
 30
0.0
 10
-2.0420100000000003
 20
0.5252100000000001
 30
0.0
 10
-2.0420100000000003
 20
0.5252100000000001
 30
0.0
 10
-1.9531100000000001
 20
0.32963
 30
0.0
 10
-2.0343900000000001
 20
0.09341
 30
0.0
 10
-2.2198100000000003
 20
0.00197
 30
0.0
 10
-2.2198100000000003
 20
0.00197
 30
0.0
 10
-2.5906500000000001
 20
-0.11232
 30
0.0
 10
-2.7633700000000001
 20
0.43631
 30
0.0
 10
-2.4407900000000002
 20
0.59887
 30
0.0
  0
SPLINE
  5
45
100
AcDbEntity
  8
Ebene 1
100
AcDbSpline
210
0.0
220
0.0
230
1.0
 70
     1
 71
     3
 72
    20
 73
    16
 74
     0
 42
0.0000000001
 43
0.0000000001
 40
0.0
 40
0.0
 40
0.0
 40
0.0
 40
0.25
 40
0.25
 40
0.25
 40
0.25
 40
0.5
 40
0.5
 40
0.5
 40
0.5
 40
0.75
 40
0.75
 40
0.75
 40
0.75
 40
1.0
 40
1.0
 40
1.0
 40
1.0
 10
-2.48651
 20
0.5404500000000001
 30
0.0
 10
-2.3290300000000004
 20
0.5861700000000001
 30
0.0
 10
-2.48651
 20
0.40583
 30
0.0
 10
-2.3671300000000004
 20
0.36011
 30
0.0
 10
-2.3671300000000004
 20
0.36011
 30
0.0
 10
-2.2299700000000002
 20
0.3169300000000001
 30
0.0
 10
-2.2579100000000003
 20
0.47949
 30
0.0
 10
-2.2172700000000001
 20
0.5404500000000001
 30
0.0
 10
-2.2172700000000001
 20
0.5404500000000001
 30
0.0
 10
-1.9988300000000001
 20
0.47949
 30
0.0
 10
-2.0191500000000002
 20
0.12135
 30
0.0
 10
-2.23251
 20
0.06293
 30
0.0
 10
-2.23251
 20
0.06293
 30
0.0
 10
-2.51953
 20
-0.00818
 30
0.0
 10
-2.6820900000000001
 20
0.32963
 30
0.0
 10
-2.48651
 20
0.5404500000000001
 30
0.0
  0
SPLINE
  5
46
100
AcDbEntity
  8
Ebene 1
 62
     7
100
AcDbSpline
210
0.0
220
0.0
230
1.0
 70
     1
 71
     3
 72
    28
 73
    24
 74
     0
 42
0.0000000001
 43
0.0000000001
 40
0.0
 40
0.0
 40
0.0
 40
0.0
 40
0.1666666666666667
 40
0.1666666666666667
 40
0.1666666666666667
 40
0.1666666666666667
 40
0.3333333333333333
 40
0.3333333333333333
 40
0.3333333333333333
 40
0.3333333333333333
 40
0.5
 40
0.5
 40
0.5
 40
0.5
 40
0.6666666666666666
 40
0.6666666666666666
 40
0.6666666666666666
 40
0.6666666666666666
 40
0.8333333333333333
 40
0.8333333333333333
 40
0.8333333333333333
 40
0.8333333333333333
 40
1.0
 40
1.0
 40
1.0
 40
1.0
 10
2.6265000000000001
 20
0.47949
 30
0.0
 10
2.6265000000000001
 20
0.47949
 30
0.0
 10
2.6849200000000004
 20
0.4642500000000001
 30
0.0
 10
2.6849200000000004
 20
0.4642500000000001
 30
0.0
 10
2.6849200000000004
 20
0.4642500000000001
 30
0.0
 10
2.6874600000000002
 20
0.3169300000000001
 30
0.0
 10
2.6849200000000004
 20
0.18231
 30
0.0
 10
2.6696800000000001
 20
0.03245
 30
0.0
 10
2.6696800000000001
 20
0.03245
 30
0.0
 10
2.6696800000000001
 20
0.03245
 30
0.0
 10
2.6265000000000001
 20
0.01721
 30
0.0
 10
2.6265000000000001
 20
0.01721
 30
0.0
 10
2.6265000000000001
 20
0.01721
 30
0.0
 10
2.5985600000000004
 20
0.01721
 30
0.0
 10
2.5960200000000002
 20
0.06293
 30
0.0
 10
2.5807800000000003
 20
0.07817
 30
0.0
 10
2.5807800000000003
 20
0.07817
 30
0.0
 10
2.6341200000000002
 20
0.12135
 30
0.0
 10
2.6087200000000004
 20
0.19755
 30
0.0
 10
2.5807800000000003
 20
0.25597
 30
0.0
 10
2.5807800000000003
 20
0.25597
 30
0.0
 10
2.5807800000000003
 20
0.25597
 30
0.0
 10
2.6265000000000001
 20
0.47949
 30
0.0
 10
2.6265000000000001
 20
0.47949
 30
0.0
  0
SPLINE
  5
47
100
AcDbEntity
  8
Ebene 1
 62
     7
100
AcDbSpline
210
0.0
220
0.0
230
1.0
 70
     1
 71
     3
 72
    20
 73
    16
 74
     0
 42
0.0000000001
 43
0.0000000001
 40
0.0
 40
0.0
 40
0.0
 40
0.0
 40
0.25
 40
0.25
 40
0.25
 40
0.25
 40
0.5
 40
0.5
 40
0.5
 40
0.5
 40
0.75
 40
0.75
 40
0.75
 40
0.75
 40
1.0
 40
1.0
 40
1.0
 40
1.0
 10
2.5376000000000003
 20
0.22549
 30
0.0
 10
2.5376000000000003
 20
0.22549
 30
0.0
 10
2.50712
 20
-0.21646
 30
0.0
 10
2.50712
 20
-0.21646
 30
0.0
 10
2.50712
 20
-0.21646
 30
0.0
 10
2.4868000000000001
 20
-0.21646
 30
0.0
 10
2.46394
 20
-0.21646
 30
0.0
 10
2.4537800000000001
 20
-0.20376
 30
0.0
 10
2.4537800000000001
 20
-0.20376
 30
0.0
 10
2.4817200000000001
 20
-0.06914
 30
0.0
 10
2.4283800000000002
 20
0.25597
 30
0.0
 10
2.5249000000000001
 20
0.3474100000000001
 30
0.0
 10
2.5249000000000001
 20
0.3474100000000001
 30
0.0
 10
2.5249000000000001
 20
0.3474100000000001
 30
0.0
 10
2.5376000000000003
 20
0.22549
 30
0.0
 10
2.5376000000000003
 20
0.22549
 30
0.0
  0
SPLINE
  5
48
100
AcDbEntity
  8
Ebene 1
 62
     7
100
AcDbSpline
210
0.0
220
0.0
230
1.0
 70
     1
 71
     3
 72
    20
 73
    16
 74
     0
 42
0.0000000001
 43
0.0000000001
 40
0.0
 40
0.0
 40
0.0
 40
0.0
 40
0.25
 40
0.25
 40
0.25
 40
0.25
 40
0.5
 40
0.5
 40
0.5
 40
0.5
 40
0.75
 40
0.75
 40
0.75
 40
0.75
 40
1.0
 40
1.0
 40
1.0
 40
1.0
 10
1.7756000000000001
 20
0.19755
 30
0.0
 10
1.7679800000000001
 20
0.00197
 30
0.0
 10
1.7171800000000002
 20
-0.24694
 30
0.0
 10
1.6765400000000001
 20
-0.44252
 30
0.0
 10
1.6765400000000001
 20
-0.44252
 30
0.0
 10
1.6765400000000001
 20
-0.44252
 30
0.0
 10
1.6003400000000001
 20
-0.35616
 30
0.0
 10
1.6003400000000001
 20
-0.35616
 30
0.0
 10
1.6003400000000001
 20
-0.35616
 30
0.0
 10
1.6003400000000001
 20
-0.35616
 30
0.0
 10
1.6765400000000001
 20
0.10611
 30
0.0
 10
1.6765400000000001
 20
0.10611
 30
0.0
 10
1.6765400000000001
 20
0.10611
 30
0.0
 10
1.6765400000000001
 20
0.10611
 30
0.0
 10
1.7756000000000001
 20
0.19755
 30
0.0
 10
1.7756000000000001
 20
0.19755
 30
0.0
  0
SPLINE
  5
49
100
AcDbEntity
  8
Ebene 1
 62
     7
100
AcDbSpline
210
0.0
220
0.0
230
1.0
 70
     1
 71
     3
 72
   108
 73
   104
 74
     0
 42
0.0000000001
 43
0.0000000001
 40
0.0
 40
0.0
 40
0.0
 40
0.0
 40
0.0384615384615385
 40
0.0384615384615385
 40
0.0384615384615385
 40
0.0384615384615385
 40
0.0769230769230769
 40
0.0769230769230769
 40
0.0769230769230769
 40
0.0769230769230769
 40
0.1153846153846154
 40
0.1153846153846154
 40
0.1153846153846154
 40
0.1153846153846154
 40
0.1538461538461539
 40
0.1538461538461539
 40
0.1538461538461539
 40
0.1538461538461539
 40
0.1923076923076923
 40
0.1923076923076923
 40
0.1923076923076923
 40
0.1923076923076923
 40
0.2307692307692308
 40
0.2307692307692308
 40
0.2307692307692308
 40
0.2307692307692308
 40
0.2692307692307693
 40
0.2692307692307693
 40
0.2692307692307693
 40
0.2692307692307693
 40
0.3076923076923077
 40
0.3076923076923077
 40
0.3076923076923077
 40
0.3076923076923077
 40
0.3461538461538462
 40
0.3461538461538462
 40
0.3461538461538462
 40
0.3461538461538462
 40
0.3846153846153846
 40
0.3846153846153846
 40
0.3846153846153846
 40
0.3846153846153846
 40
0.423076923076923
 40
0.423076923076923
 40
0.423076923076923
 40
0.423076923076923
 40
0.4615384615384615
 40
0.4615384615384615
 40
0.4615384615384615
 40
0.4615384615384615
 40
0.4999999999999999
 40
0.4999999999999999
 40
0.4999999999999999
 40
0.4999999999999999
 40
0.5384615384615383
 40
0.5384615384615383
 40
0.5384615384615383
 40
0.5384615384615383
 40
0.5769230769230768
 40
0.5769230769230768
 40
0.5769230769230768
 40
0.5769230769230768
 40
0.6153846153846152
 40
0.6153846153846152
 40
0.6153846153846152
 40
0.6153846153846152
 40
0.6538461538461536
 40
0.6538461538461536
 40
0.6538461538461536
 40
0.6538461538461536
 40
0.6923076923076921
 40
0.6923076923076921
 40
0.6923076923076921
 40
0.6923076923076921
 40
0.7307692307692305
 40
0.7307692307692305
 40
0.7307692307692305
 40
0.7307692307692305
 40
0.7692307692307689
 40
0.7692307692307689
 40
0.7692307692307689
 40
0.7692307692307689
 40
0.8076923076923074
 40
0.8076923076923074
 40
0.8076923076923074
 40
0.8076923076923074
 40
0.8461538461538458
 40
0.8461538461538458
 40
0.8461538461538458
 40
0.8461538461538458
 40
0.8846153846153843
 40
0.8846153846153843
 40
0.8846153846153843
 40
0.8846153846153843
 40
0.9230769230769227
 40
0.9230769230769227
 40
0.9230769230769227
 40
0.9230769230769227
 40
0.9615384615384611
 40
0.9615384615384611
 40
0.9615384615384611
 40
0.9615384615384611
 40
1.0
 40
1.0
 40
1.0
 40
1.0
 10
-1.4425700000000001
 20
0.07817
 30
0.0
 10
-1.2215900000000002
 20
-0.03866
 30
0.0
 10
-1.3968500000000001
 20
-0.3968
 30
0.0
 10
-1.3079500000000002
 20
-0.5619000000000001
 30
0.0
 10
-1.3079500000000002
 20
-0.5619000000000001
 30
0.0
 10
-1.2012700000000001
 20
-0.35108
 30
0.0
 10
-1.2800100000000001
 20
0.00197
 30
0.0
 10
-0.9980700000000001
 20
0.03245
 30
0.0
 10
-0.9980700000000001
 20
0.03245
 30
0.0
 10
-0.95235
 20
-0.4272800000000001
 30
0.0
 10
-1.03363
 20
-1.0521200000000002
 30
0.0
 10
-0.6500900000000001
 20
-1.4407400000000001
 30
0.0
 10
-0.6500900000000001
 20
-1.4407400000000001
 30
0.0
 10
-0.6729500000000001
 20
-1.5906000000000002
 30
0.0
 10
-0.6221500000000001
 20
-1.7099800000000001
 30
0.0
 10
-0.6018300000000001
 20
-1.8420600000000003
 30
0.0
 10
-0.6018300000000001
 20
-1.8420600000000003
 30
0.0
 10
-0.5459500000000001
 20
-1.7531600000000001
 30
0.0
 10
-0.63485
 20
-1.5601200000000002
 30
0.0
 10
-0.6018300000000001
 20
-1.4255000000000002
 30
0.0
 10
-0.6018300000000001
 20
-1.4255000000000002
 30
0.0
 10
-0.58913
 20
-1.6795000000000002
 30
0.0
 10
-0.42403
 20
-1.8090400000000002
 30
0.0
 10
-0.46721
 20
-2.0909800000000001
 30
0.0
 10
-0.46721
 20
-2.0909800000000001
 30
0.0
 10
-0.36307
 20
-2.1519400000000002
 30
0.0
 10
-0.41387
 20
-2.0782800000000003
 30
0.0
 10
-0.35291
 20
-2.0046200000000001
 30
0.0
 10
-0.35291
 20
-2.0046200000000001
 30
0.0
 10
-0.32497
 20
-1.9716000000000002
 30
0.0
 10
-0.21829
 20
-1.9893800000000001
 30
0.0
 10
-0.16241
 20
-1.9335000000000002
 30
0.0
 10
-0.16241
 20
-1.9335000000000002
 30
0.0
 10
-0.17257
 20
-2.0224000000000002
 30
0.0
 10
-0.20051
 20
-2.1875
 30
0.0
 10
-0.11669
 20
-2.23068
 30
0.0
 10
-0.11669
 20
-2.23068
 30
0.0
 10
-0.11669
 20
-2.23068
 30
0.0
 10
-0.10907
 20
-1.9030200000000002
 30
0.0
 10
-0.10907
 20
-1.9030200000000002
 30
0.0
 10
-0.10907
 20
-1.9030200000000002
 30
0.0
 10
-0.00747
 20
-2.1113
 30
0.0
 10
0.16524
 20
-1.9030200000000002
 30
0.0
 10
0.17286
 20
-1.7379200000000001
 30
0.0
 10
0.17286
 20
-1.7379200000000001
 30
0.0
 10
0.2262
 20
-1.8573000000000002
 30
0.0
 10
0.11698
 20
-2.06812
 30
0.0
 10
0.21096
 20
-2.1417800000000002
 30
0.0
 10
0.21096
 20
-2.1417800000000002
 30
0.0
 10
0.25414
 20
-2.05288
 30
0.0
 10
0.20334
 20
-1.8293600000000001
 30
0.0
 10
0.27192
 20
-1.7988800000000003
 30
0.0
 10
0.27192
 20
-1.7988800000000003
 30
0.0
 10
0.3659
 20
-1.8293600000000001
 30
0.0
 10
0.4192400000000001
 20
-1.7099800000000001
 30
0.0
 10
0.46496
 20
-1.7099800000000001
 30
0.0
 10
0.46496
 20
-1.7099800000000001
 30
0.0
 10
0.46496
 20
-1.7099800000000001
 30
0.0
 10
0.47004
 20
-1.9766800000000002
 30
0.0
 10
0.47004
 20
-1.9766800000000002
 30
0.0
 10
0.47004
 20
-1.9766800000000002
 30
0.0
 10
0.5818000000000001
 20
-1.9335000000000002
 30
0.0
 10
0.55386
 20
-1.6591800000000001
 30
0.0
 10
0.48528
 20
-1.5296400000000001
 30
0.0
 10
0.48528
 20
-1.5296400000000001
 30
0.0
 10
0.66054
 20
-1.6947400000000001
 30
0.0
 10
0.7773800000000001
 20
-1.3823200000000002
 30
0.0
 10
0.7088000000000001
 20
-1.2324600000000001
 30
0.0
 10
0.7088000000000001
 20
-1.2324600000000001
 30
0.0
 10
1.06186
 20
-1.0673600000000001
 30
0.0
 10
0.8154800000000001
 20
-0.38156
 30
0.0
 10
0.9018400000000001
 20
0.03245
 30
0.0
 10
0.9018400000000001
 20
0.03245
 30
0.0
 10
1.23458
 20
0.10611
 30
0.0
 10
1.09996
 20
-0.29266
 30
0.0
 10
1.2269600000000001
 20
-0.44252
 30
0.0
 10
1.2269600000000001
 20
-0.44252
 30
0.0
 10
1.2980800000000001
 20
-0.3079
 30
0.0
 10
1.27268
 20
-0.00818
 30
0.0
 10
1.4911200000000002
 20
-0.00818
 30
0.0
 10
1.4911200000000002
 20
-0.00818
 30
0.0
 10
1.4911200000000002
 20
-0.00818
 30
0.0
 10
1.4682600000000001
 20
-0.63556
 30
0.0
 10
1.4682600000000001
 20
-0.63556
 30
0.0
 10
1.4682600000000001
 20
-0.63556
 30
0.0
 10
1.09996
 20
-1.2172200000000002
 30
0.0
 10
0.89168
 20
-1.8725400000000001
 30
0.0
 10
0.70118
 20
-2.5583400000000003
 30
0.0
 10
0.70118
 20
-2.5583400000000003
 30
0.0
 10
0.5259200000000001
 20
-2.7082000000000002
 30
0.0
 10
0.03316
 20
-2.60406
 30
0.0
 10
0.27192
 20
-2.4389600000000002
 30
0.0
 10
0.27192
 20
-2.4389600000000002
 30
0.0
 10
-0.02779
 20
-2.4694400000000001
 30
0.0
 10
-0.3325900000000001
 20
-2.73868
 30
0.0
 10
-0.63231
 20
-2.60406
 30
0.0
 10
-0.63231
 20
-2.60406
 30
0.0
 10
-0.7034300000000001
 20
-2.5151600000000003
 30
0.0
 10
-0.7720100000000001
 20
-2.4542000000000002
 30
0.0
 10
-0.82535
 20
-2.3653000000000004
 30
0.0
 10
-0.82535
 20
-2.3653000000000004
 30
0.0
 10
-0.90917
 20
-1.4712200000000002
 30
0.0
 10
-1.8007100000000003
 20
-0.8743200000000001
 30
0.0
 10
-1.4425700000000001
 20
0.07817
 30
0.0
  0
SPLINE
  5
4A
100
AcDbEntity
  8
Ebene 1
 62
     7
100
AcDbSpline
210
0.0
220
0.0
230
1.0
 70
     1
 71
     3
 72
    12
 73
     8
 74
     0
 42
0.0000000001
 43
0.0000000001
 40
0.0
 40
0.0
 40
0.0
 40
0.0
 40
0.5
 40
0.5
 40
0.5
 40
0.5
 40
1.0
 40
1.0
 40
1.0
 40
1.0
 10
0.70372
 20
-0.11232
 30
0.0
 10
0.74436
 20
-0.12756
 30
0.0
 10
0.8180200000000001
 20
-0.1428
 30
0.0
 10
0.7900800000000001
 20
-0.20376
 30
0.0
 10
0.7900800000000001
 20
-0.20376
 30
0.0
 10
0.7545200000000001
 20
-0.20376
 30
0.0
 10
0.64022
 20
-0.1428
 30
0.0
 10
0.70372
 20
-0.11232
 30
0.0
  0
SPLINE
  5
4B
100
AcDbEntity
  8
Ebene 1
 62
     7
100
AcDbSpline
210
0.0
220
0.0
230
1.0
 70
     1
 71
     3
 72
    12
 73
     8
 74
     0
 42
0.0000000001
 43
0.0000000001
 40
0.0
 40
0.0
 40
0.0
 40
0.0
 40
0.5
 40
0.5
 40
0.5
 40
0.5
 40
1.0
 40
1.0
 40
1.0
 40
1.0
 10
-2.0064500000000001
 20
-0.17328
 30
0.0
 10
-1.9353300000000002
 20
-0.17328
 30
0.0
 10
-1.9454900000000002
 20
-0.26218
 30
0.0
 10
-1.9658100000000001
 20
-0.3079
 30
0.0
 10
-1.9658100000000001
 20
-0.3079
 30
0.0
 10
-2.0775700000000001
 20
-0.33838
 30
0.0
 10
-2.0851900000000003
 20
-0.20376
 30
0.0
 10
-2.0064500000000001
 20
-0.17328
 30
0.0
  0
SPLINE
  5
4C
100
AcDbEntity
  8
Ebene 1
 62
     7
100
AcDbSpline
210
0.0
220
0.0
230
1.0
 70
     1
 71
     3
 72
    20
 73
    16
 74
     0
 42
0.0000000001
 43
0.0000000001
 40
0.0
 40
0.0
 40
0.0
 40
0.0
 40
0.25
 40
0.25
 40
0.25
 40
0.25
 40
0.5
 40
0.5
 40
0.5
 40
0.5
 40
0.75
 40
0.75
 40
0.75
 40
0.75
 40
1.0
 40
1.0
 40
1.0
 40
1.0
 10
-0.7110500000000001
 20
-0.17328
 30
0.0
 10
-0.6627900000000001
 20
-0.17328
 30
0.0
 10
-0.6196100000000001
 20
-0.20376
 30
0.0
 10
-0.5789700000000001
 20
-0.21646
 30
0.0
 10
-0.5789700000000001
 20
-0.21646
 30
0.0
 10
-0.5789700000000001
 20
-0.21646
 30
0.0
 10
-0.7796300000000001
 20
-0.4857
 30
0.0
 10
-0.7796300000000001
 20
-0.4857
 30
0.0
 10
-0.7796300000000001
 20
-0.4857
 30
0.0
 10
-0.7796300000000001
 20
-0.4857
 30
0.0
 10
-0.78471
 20
-0.35108
 30
0.0
 10
-0.78471
 20
-0.35108
 30
0.0
 10
-0.78471
 20
-0.35108
 30
0.0
 10
-0.7720100000000001
 20
-0.29266
 30
0.0
 10
-0.74407
 20
-0.2317
 30
0.0
 10
-0.7110500000000001
 20
-0.17328
 30
0.0
  0
SPLINE
  5
4D
100
AcDbEntity
  8
Ebene 1
 62
     7
100
AcDbSpline
210
0.0
220
0.0
230
1.0
 70
     1
 71
     3
 72
    16
 73
    12
 74
     0
 42
0.0000000001
 43
0.0000000001
 40
0.0
 40
0.0
 40
0.0
 40
0.0
 40
0.3333333333333333
 40
0.3333333333333333
 40
0.3333333333333333
 40
0.3333333333333333
 40
0.6666666666666666
 40
0.6666666666666666
 40
0.6666666666666666
 40
0.6666666666666666
 40
1.0
 40
1.0
 40
1.0
 40
1.0
 10
0.55386
 20
-0.2444
 30
0.0
 10
0.6503800000000001
 20
-0.28758
 30
0.0
 10
0.6021200000000001
 20
-0.42982
 30
0.0
 10
0.6249800000000001
 20
-0.5187200000000001
 30
0.0
 10
0.6249800000000001
 20
-0.5187200000000001
 30
0.0
 10
0.6249800000000001
 20
-0.5187200000000001
 30
0.0
 10
0.4395600000000001
 20
-0.27742
 30
0.0
 10
0.4395600000000001
 20
-0.27742
 30
0.0
 10
0.4395600000000001
 20
-0.27742
 30
0.0
 10
0.4395600000000001
 20
-0.27742
 30
0.0
 10
0.55386
 20
-0.2444
 30
0.0
 10
0.55386
 20
-0.2444
 30
0.0
  0
SPLINE
  5
4E
100
AcDbEntity
  8
Ebene 1
 62
     7
100
AcDbSpline
210
0.0
220
0.0
230
1.0
 70
     1
 71
     3
 72
    12
 73
     8
 74
     0
 42
0.0000000001
 43
0.0000000001
 40
0.0
 40
0.0
 40
0.0
 40
0.0
 40
0.5
 40
0.5
 40
0.5
 40
0.5
 40
1.0
 40
1.0
 40
1.0
 40
1.0
 10
-2.6947900000000002
 20
-0.21646
 30
0.0
 10
-2.5906500000000001
 20
-0.18852
 30
0.0
 10
-2.5017500000000004
 20
-0.33838
 30
0.0
 10
-2.6236700000000002
 20
-0.38156
 30
0.0
 10
-2.6236700000000002
 20
-0.38156
 30
0.0
 10
-2.7074900000000004
 20
-0.36632
 30
0.0
 10
-2.7278100000000003
 20
-0.27742
 30
0.0
 10
-2.6947900000000002
 20
-0.21646
 30
0.0
  0
SPLINE
  5
4F
100
AcDbEntity
  8
Ebene 1
 62
     7
100
AcDbSpline
210
0.0
220
0.0
230
1.0
 70
     1
 71
     3
 72
    16
 73
    12
 74
     0
 42
0.0000000001
 43
0.0000000001
 40
0.0
 40
0.0
 40
0.0
 40
0.0
 40
0.3333333333333333
 40
0.3333333333333333
 40
0.3333333333333333
 40
0.3333333333333333
 40
0.6666666666666666
 40
0.6666666666666666
 40
0.6666666666666666
 40
0.6666666666666666
 40
1.0
 40
1.0
 40
1.0
 40
1.0
 10
0.29986
 20
-0.2317
 30
0.0
 10
0.41416
 20
-0.35108
 30
0.0
 10
0.3024
 20
-0.5161800000000001
 30
0.0
 10
0.28208
 20
-0.6508000000000001
 30
0.0
 10
0.28208
 20
-0.6508000000000001
 30
0.0
 10
0.28208
 20
-0.6508000000000001
 30
0.0
 10
0.24652
 20
-0.6660400000000001
 30
0.0
 10
0.24652
 20
-0.6660400000000001
 30
0.0
 10
0.24652
 20
-0.6660400000000001
 30
0.0
 10
0.16524
 20
-0.5161800000000001
 30
0.0
 10
0.19064
 20
-0.35108
 30
0.0
 10
0.29986
 20
-0.2317
 30
0.0
  0
SPLINE
  5
50
100
AcDbEntity
  8
Ebene 1
 62
     7
100
AcDbSpline
210
0.0
220
0.0
230
1.0
 70
     1
 71
     3
 72
    20
 73
    16
 74
     0
 42
0.0000000001
 43
0.0000000001
 40
0.0
 40
0.0
 40
0.0
 40
0.0
 40
0.25
 40
0.25
 40
0.25
 40
0.25
 40
0.5
 40
0.5
 40
0.5
 40
0.5
 40
0.75
 40
0.75
 40
0.75
 40
0.75
 40
1.0
 40
1.0
 40
1.0
 40
1.0
 10
-0.53071
 20
-0.26218
 30
0.0
 10
-0.53071
 20
-0.26218
 30
0.0
 10
-0.4900700000000001
 20
-0.27742
 30
0.0
 10
-0.4900700000000001
 20
-0.27742
 30
0.0
 10
-0.4900700000000001
 20
-0.27742
 30
0.0
 10
-0.4799100000000001
 20
-0.38156
 30
0.0
 10
-0.4291100000000001
 20
-0.4577600000000001
 30
0.0
 10
-0.36815
 20
-0.53142
 30
0.0
 10
-0.36815
 20
-0.53142
 30
0.0
 10
-0.36815
 20
-0.53142
 30
0.0
 10
-0.4164100000000001
 20
-0.7092200000000001
 30
0.0
 10
-0.4164100000000001
 20
-0.7092200000000001
 30
0.0
 10
-0.4164100000000001
 20
-0.7092200000000001
 30
0.0
 10
-0.51293
 20
-0.59238
 30
0.0
 10
-0.5459500000000001
 20
-0.4272800000000001
 30
0.0
 10
-0.53071
 20
-0.26218
 30
0.0
  0
SPLINE
  5
51
100
AcDbEntity
  8
Ebene 1
 62
     7
100
AcDbSpline
210
0.0
220
0.0
230
1.0
 70
     1
 71
     3
 72
    12
 73
     8
 74
     0
 42
0.0000000001
 43
0.0000000001
 40
0.0
 40
0.0
 40
0.0
 40
0.0
 40
0.5
 40
0.5
 40
0.5
 40
0.5
 40
1.0
 40
1.0
 40
1.0
 40
1.0
 10
-0.17257
 20
-0.36632
 30
0.0
 10
-0.07859
 20
-0.41204
 30
0.0
 10
-0.15479
 20
-0.5619000000000001
 30
0.0
 10
-0.13193
 20
-0.6508000000000001
 30
0.0
 10
-0.13193
 20
-0.6508000000000001
 30
0.0
 10
-0.19289
 20
-0.5771400000000001
 30
0.0
 10
-0.20813
 20
-0.4577600000000001
 30
0.0
 10
-0.17257
 20
-0.36632
 30
0.0
  0
SPLINE
  5
52
100
AcDbEntity
  8
Ebene 1
 62
     7
100
AcDbSpline
210
0.0
220
0.0
230
1.0
 70
     1
 71
     3
 72
    12
 73
     8
 74
     0
 42
0.0000000001
 43
0.0000000001
 40
0.0
 40
0.0
 40
0.0
 40
0.0
 40
0.5
 40
0.5
 40
0.5
 40
0.5
 40
1.0
 40
1.0
 40
1.0
 40
1.0
 10
-0.05573
 20
-0.3968
 30
0.0
 10
0.13222
 20
-0.38156
 30
0.0
 10
0.00014
 20
-0.59238
 30
0.0
 10
-0.01255
 20
-0.69652
 30
0.0
 10
-0.01255
 20
-0.69652
 30
0.0
 10
-0.08875
 20
-0.63556
 30
0.0
 10
-0.04811
 20
-0.4857
 30
0.0
 10
-0.05573
 20
-0.3968
 30
0.0
  0
SPLINE
  5
53
100
AcDbEntity
  8
Ebene 1
 62
     7
100
AcDbSpline
210
0.0
220
0.0
230
1.0
 70
     1
 71
     3
 72
    12
 73
     8
 74
     0
 42
0.0000000001
 43
0.0000000001
 40
0.0
 40
0.0
 40
0.0
 40
0.0
 40
0.5
 40
0.5
 40
0.5
 40
0.5
 40
1.0
 40
1.0
 40
1.0
 40
1.0
 10
-2.3061700000000003
 20
-0.6050800000000001
 30
0.0
 10
-2.1359900000000001
 20
-0.59238
 30
0.0
 10
-2.09789
 20
-0.80066
 30
0.0
 10
-2.2604500000000001
 20
-0.84384
 30
0.0
 10
-2.2604500000000001
 20
-0.84384
 30
0.0
 10
-2.4306300000000003
 20
-0.8743200000000001
 30
0.0
 10
-2.4179300000000001
 20
-0.6660400000000001
 30
0.0
 10
-2.3061700000000003
 20
-0.6050800000000001
 30
0.0
  0
SPLINE
  5
54
100
AcDbEntity
  8
Ebene 1
100
AcDbSpline
210
0.0
220
0.0
230
1.0
 70
     1
 71
     3
 72
    20
 73
    16
 74
     0
 42
0.0000000001
 43
0.0000000001
 40
0.0
 40
0.0
 40
0.0
 40
0.0
 40
0.25
 40
0.25
 40
0.25
 40
0.25
 40
0.5
 40
0.5
 40
0.5
 40
0.5
 40
0.75
 40
0.75
 40
0.75
 40
0.75
 40
1.0
 40
1.0
 40
1.0
 40
1.0
 10
-3.1723100000000004
 20
-0.7092200000000001
 30
0.0
 10
-3.15707
 20
-1.1435600000000001
 30
0.0
 10
-3.3399500000000004
 20
-1.6795000000000002
 30
0.0
 10
-3.0249900000000003
 20
-2.0224000000000002
 30
0.0
 10
-3.0249900000000003
 20
-2.0224000000000002
 30
0.0
 10
-3.0249900000000003
 20
-2.0224000000000002
 30
0.0
 10
-3.0554700000000001
 20
-2.1113
 30
0.0
 10
-3.0554700000000001
 20
-2.1113
 30
0.0
 10
-3.0554700000000001
 20
-2.1113
 30
0.0
 10
-3.0554700000000001
 20
-2.1113
 30
0.0
 10
-3.1240500000000004
 20
-2.1113
 30
0.0
 10
-3.1240500000000004
 20
-2.1113
 30
0.0
 10
-3.1240500000000004
 20
-2.1113
 30
0.0
 10
-3.4161500000000005
 20
-1.7099800000000001
 30
0.0
 10
-3.2434300000000005
 20
-1.1435600000000001
 30
0.0
 10
-3.1723100000000004
 20
-0.7092200000000001
 30
0.0
  0
SPLINE
  5
55
100
AcDbEntity
  8
Ebene 1
 62
     7
100
AcDbSpline
210
0.0
220
0.0
230
1.0
 70
     1
 71
     3
 72
    16
 73
    12
 74
     0
 42
0.0000000001
 43
0.0000000001
 40
0.0
 40
0.0
 40
0.0
 40
0.0
 40
0.3333333333333333
 40
0.3333333333333333
 40
0.3333333333333333
 40
0.3333333333333333
 40
0.6666666666666666
 40
0.6666666666666666
 40
0.6666666666666666
 40
0.6666666666666666
 40
1.0
 40
1.0
 40
1.0
 40
1.0
 10
2.1947000000000001
 20
-0.7244600000000001
 30
0.0
 10
2.3471000000000002
 20
-0.69652
 30
0.0
 10
2.2582
 20
-0.8590800000000001
 30
0.0
 10
2.2658200000000002
 20
-0.94798
 30
0.0
 10
2.2658200000000002
 20
-0.94798
 30
0.0
 10
2.20486
 20
-0.9632200000000001
 30
0.0
 10
2.1489800000000003
 20
-0.9327400000000001
 30
0.0
 10
2.0956400000000004
 20
-0.9200400000000001
 30
0.0
 10
2.0956400000000004
 20
-0.9200400000000001
 30
0.0
 10
2.1058000000000003
 20
-0.84384
 30
0.0
 10
2.1362800000000002
 20
-0.7701800000000001
 30
0.0
 10
2.1947000000000001
 20
-0.7244600000000001
 30
0.0
  0
SPLINE
  5
56
100
AcDbEntity
  8
Ebene 1
 62
     7
100
AcDbSpline
210
0.0
220
0.0
230
1.0
 70
     1
 71
     3
 72
    16
 73
    12
 74
     0
 42
0.0000000001
 43
0.0000000001
 40
0.0
 40
0.0
 40
0.0
 40
0.0
 40
0.3333333333333333
 40
0.3333333333333333
 40
0.3333333333333333
 40
0.3333333333333333
 40
0.6666666666666666
 40
0.6666666666666666
 40
0.6666666666666666
 40
0.6666666666666666
 40
1.0
 40
1.0
 40
1.0
 40
1.0
 10
1.9864200000000001
 20
-0.80066
 30
0.0
 10
1.9864200000000001
 20
-0.80066
 30
0.0
 10
2.0118200000000002
 20
-0.80066
 30
0.0
 10
2.0118200000000002
 20
-0.80066
 30
0.0
 10
2.0118200000000002
 20
-0.80066
 30
0.0
 10
2.0321400000000001
 20
-0.9200400000000001
 30
0.0
 10
1.8873600000000001
 20
-0.9048000000000001
 30
0.0
 10
1.8111600000000001
 20
-0.9200400000000001
 30
0.0
 10
1.8111600000000001
 20
-0.9200400000000001
 30
0.0
 10
1.8111600000000001
 20
-0.9200400000000001
 30
0.0
 10
1.9864200000000001
 20
-0.80066
 30
0.0
 10
1.9864200000000001
 20
-0.80066
 30
0.0
  0
SPLINE
  5
57
100
AcDbEntity
  8
Ebene 1
 62
     7
100
AcDbSpline
210
0.0
220
0.0
230
1.0
 70
     1
 71
     3
 72
    28
 73
    24
 74
     0
 42
0.0000000001
 43
0.0000000001
 40
0.0
 40
0.0
 40
0.0
 40
0.0
 40
0.1666666666666667
 40
0.1666666666666667
 40
0.1666666666666667
 40
0.1666666666666667
 40
0.3333333333333333
 40
0.3333333333333333
 40
0.3333333333333333
 40
0.3333333333333333
 40
0.5
 40
0.5
 40
0.5
 40
0.5
 40
0.6666666666666666
 40
0.6666666666666666
 40
0.6666666666666666
 40
0.6666666666666666
 40
0.8333333333333333
 40
0.8333333333333333
 40
0.8333333333333333
 40
0.8333333333333333
 40
1.0
 40
1.0
 40
1.0
 40
1.0
 10
-2.5906500000000001
 20
-0.9048000000000001
 30
0.0
 10
-2.5906500000000001
 20
-0.9048000000000001
 30
0.0
 10
-2.2604500000000001
 20
-1.0673600000000001
 30
0.0
 10
-2.2604500000000001
 20
-1.0673600000000001
 30
0.0
 10
-2.2604500000000001
 20
-1.0673600000000001
 30
0.0
 10
-2.2604500000000001
 20
-1.0673600000000001
 30
0.0
 10
-2.1004300000000002
 20
-1.03688
 30
0.0
 10
-2.1004300000000002
 20
-1.03688
 30
0.0
 10
-2.1004300000000002
 20
-1.03688
 30
0.0
 10
-2.1004300000000002
 20
-1.03688
 30
0.0
 10
-1.9480300000000002
 20
-0.9048000000000001
 30
0.0
 10
-1.9480300000000002
 20
-0.9048000000000001
 30
0.0
 10
-1.9480300000000002
 20
-0.9048000000000001
 30
0.0
 10
-1.5594100000000002
 20
-1.0521200000000002
 30
0.0
 10
-1.5771900000000001
 20
-1.7099800000000001
 30
0.0
 10
-1.8032500000000002
 20
-1.9919200000000001
 30
0.0
 10
-1.8032500000000002
 20
-1.9919200000000001
 30
0.0
 10
-2.1486900000000002
 20
-2.2459200000000004
 30
0.0
 10
-2.6820900000000001
 20
-2.1417800000000002
 30
0.0
 10
-2.8979900000000001
 20
-1.7836400000000001
 30
0.0
 10
-2.8979900000000001
 20
-1.7836400000000001
 30
0.0
 10
-2.9818100000000003
 20
-1.4559800000000001
 30
0.0
 10
-2.8954500000000003
 20
-1.0673600000000001
 30
0.0
 10
-2.5906500000000001
 20
-0.9048000000000001
 30
0.0
  0
SPLINE
  5
58
100
AcDbEntity
  8
Ebene 1
 62
     7
100
AcDbSpline
210
0.0
220
0.0
230
1.0
 70
     1
 71
     3
 72
    16
 73
    12
 74
     0
 42
0.0000000001
 43
0.0000000001
 40
0.0
 40
0.0
 40
0.0
 40
0.0
 40
0.3333333333333333
 40
0.3333333333333333
 40
0.3333333333333333
 40
0.3333333333333333
 40
0.6666666666666666
 40
0.6666666666666666
 40
0.6666666666666666
 40
0.6666666666666666
 40
1.0
 40
1.0
 40
1.0
 40
1.0
 10
0.7723000000000001
 20
-0.84638
 30
0.0
 10
0.785
 20
-0.9200400000000001
 30
0.0
 10
0.8154800000000001
 20
-1.1054600000000001
 30
0.0
 10
0.7392800000000001
 20
-1.16388
 30
0.0
 10
0.7392800000000001
 20
-1.16388
 30
0.0
 10
0.7392800000000001
 20
-1.16388
 30
0.0
 10
0.6935600000000001
 20
-1.0445
 30
0.0
 10
0.6935600000000001
 20
-1.0445
 30
0.0
 10
0.6935600000000001
 20
-1.0445
 30
0.0
 10
0.6935600000000001
 20
-1.0445
 30
0.0
 10
0.7723000000000001
 20
-0.84638
 30
0.0
 10
0.7723000000000001
 20
-0.84638
 30
0.0
  0
SPLINE
  5
59
100
AcDbEntity
  8
Ebene 1
 62
     7
100
AcDbSpline
210
0.0
220
0.0
230
1.0
 70
     1
 71
     3
 72
    12
 73
     8
 74
     0
 42
0.0000000001
 43
0.0000000001
 40
0.0
 40
0.0
 40
0.0
 40
0.0
 40
0.5
 40
0.5
 40
0.5
 40
0.5
 40
1.0
 40
1.0
 40
1.0
 40
1.0
 10
-0.7694700000000001
 20
-0.94798
 30
0.0
 10
-0.7110500000000001
 20
-1.0673600000000001
 30
0.0
 10
-0.6272300000000001
 20
-1.20198
 30
0.0
 10
-0.65263
 20
-1.3670800000000001
 30
0.0
 10
-0.65263
 20
-1.3670800000000001
 30
0.0
 10
-0.7974100000000001
 20
-1.29088
 30
0.0
 10
-0.7694700000000001
 20
-1.0978400000000001
 30
0.0
 10
-0.7694700000000001
 20
-0.94798
 30
0.0
  0
SPLINE
  5
5A
100
AcDbEntity
  8
Ebene 1
 62
     7
100
AcDbSpline
210
0.0
220
0.0
230
1.0
 70
     1
 71
     3
 72
    52
 73
    48
 74
     0
 42
0.0000000001
 43
0.0000000001
 40
0.0
 40
0.0
 40
0.0
 40
0.0
 40
0.0833333333333333
 40
0.0833333333333333
 40
0.0833333333333333
 40
0.0833333333333333
 40
0.1666666666666667
 40
0.1666666666666667
 40
0.1666666666666667
 40
0.1666666666666667
 40
0.25
 40
0.25
 40
0.25
 40
0.25
 40
0.3333333333333333
 40
0.3333333333333333
 40
0.3333333333333333
 40
0.3333333333333333
 40
0.4166666666666666
 40
0.4166666666666666
 40
0.4166666666666666
 40
0.4166666666666666
 40
0.4999999999999999
 40
0.4999999999999999
 40
0.4999999999999999
 40
0.4999999999999999
 40
0.5833333333333333
 40
0.5833333333333333
 40
0.5833333333333333
 40
0.5833333333333333
 40
0.6666666666666666
 40
0.6666666666666666
 40
0.6666666666666666
 40
0.6666666666666666
 40
0.75
 40
0.75
 40
0.75
 40
0.75
 40
0.8333333333333334
 40
0.8333333333333334
 40
0.8333333333333334
 40
0.8333333333333334
 40
0.9166666666666667
 40
0.9166666666666667
 40
0.9166666666666667
 40
0.9166666666666667
 40
1.0
 40
1.0
 40
1.0
 40
1.0
 10
1.8975200000000001
 20
-0.9937
 30
0.0
 10
2.42584
 20
-0.9632200000000001
 30
0.0
 10
1.9991200000000002
 20
-1.5017
 30
0.0
 10
2.1362800000000002
 20
-1.7684000000000002
 30
0.0
 10
2.1362800000000002
 20
-1.7684000000000002
 30
0.0
 10
2.0931000000000002
 20
-1.8141200000000002
 30
0.0
 10
2.0880200000000002
 20
-1.8877800000000002
 30
0.0
 10
2.0727800000000003
 20
-1.9487400000000001
 30
0.0
 10
2.0727800000000003
 20
-1.9487400000000001
 30
0.0
 10
2.0042
 20
-1.9919200000000001
 30
0.0
 10
2.03722
 20
-2.1113
 30
0.0
 10
2.0346800000000003
 20
-2.1875
 30
0.0
 10
2.0346800000000003
 20
-2.1875
 30
0.0
 10
2.0346800000000003
 20
-2.1875
 30
0.0
 10
2.2683600000000004
 20
-1.7099800000000001
 30
0.0
 10
2.2683600000000004
 20
-1.7099800000000001
 30
0.0
 10
2.2683600000000004
 20
-1.7099800000000001
 30
0.0
 10
2.1896200000000001
 20
-1.5753600000000001
 30
0.0
 10
2.2759800000000001
 20
-1.4864600000000001
 30
0.0
 10
2.3471000000000002
 20
-1.3670800000000001
 30
0.0
 10
2.3471000000000002
 20
-1.3670800000000001
 30
0.0
 10
2.4283800000000002
 20
-1.29088
 30
0.0
 10
2.37758
 20
-1.1562600000000001
 30
0.0
 10
2.4233000000000002
 20
-1.0521200000000002
 30
0.0
 10
2.4233000000000002
 20
-1.0521200000000002
 30
0.0
 10
2.5045800000000003
 20
-1.0521200000000002
 30
0.0
 10
2.5680800000000001
 20
-1.1130800000000001
 30
0.0
 10
2.6239600000000003
 20
-1.1715
 30
0.0
 10
2.6239600000000003
 20
-1.1715
 30
0.0
 10
2.5401400000000001
 20
-1.7099800000000001
 30
0.0
 10
2.3242400000000001
 20
-2.1900400000000002
 30
0.0
 10
2.1642200000000003
 20
-2.6955
 30
0.0
 10
2.1642200000000003
 20
-2.6955
 30
0.0
 10
1.9788000000000001
 20
-2.5024600000000001
 30
0.0
 10
1.7476600000000002
 20
-2.4999200000000004
 30
0.0
 10
1.4987400000000002
 20
-2.4389600000000002
 30
0.0
 10
1.4987400000000002
 20
-2.4389600000000002
 30
0.0
 10
1.4987400000000002
 20
-2.4389600000000002
 30
0.0
 10
1.5343000000000002
 20
-2.3348200000000001
 30
0.0
 10
1.5343000000000002
 20
-2.3348200000000001
 30
0.0
 10
1.5343000000000002
 20
-2.3348200000000001
 30
0.0
 10
1.1558400000000002
 20
-2.2027400000000004
 30
0.0
 10
1.3514200000000001
 20
-1.6947400000000001
 30
0.0
 10
1.6257400000000002
 20
-1.5296400000000001
 30
0.0
 10
1.6257400000000002
 20
-1.5296400000000001
 30
0.0
 10
1.5546200000000001
 20
-1.29088
 30
0.0
 10
1.61304
 20
-0.9937
 30
0.0
 10
1.8975200000000001
 20
-0.9937
 30
0.0
  0
SPLINE
  5
5B
100
AcDbEntity
  8
Ebene 1
100
AcDbSpline
210
0.0
220
0.0
230
1.0
 70
     1
 71
     3
 72
    36
 73
    32
 74
     0
 42
0.0000000001
 43
0.0000000001
 40
0.0
 40
0.0
 40
0.0
 40
0.0
 40
0.125
 40
0.125
 40
0.125
 40
0.125
 40
0.25
 40
0.25
 40
0.25
 40
0.25
 40
0.375
 40
0.375
 40
0.375
 40
0.375
 40
0.5
 40
0.5
 40
0.5
 40
0.5
 40
0.625
 40
0.625
 40
0.625
 40
0.625
 40
0.75
 40
0.75
 40
0.75
 40
0.75
 40
0.875
 40
0.875
 40
0.875
 40
0.875
 40
1.0
 40
1.0
 40
1.0
 40
1.0
 10
-2.5601700000000003
 20
-1.0521200000000002
 30
0.0
 10
-2.5601700000000003
 20
-1.0521200000000002
 30
0.0
 10
-2.4890500000000002
 20
-1.0521200000000002
 30
0.0
 10
-2.4890500000000002
 20
-1.0521200000000002
 30
0.0
 10
-2.4890500000000002
 20
-1.0521200000000002
 30
0.0
 10
-2.3493500000000003
 20
-1.3366
 30
0.0
 10
-2.10297
 20
-1.0521200000000002
 30
0.0
 10
-1.9226300000000001
 20
-1.0673600000000001
 30
0.0
 10
-1.9226300000000001
 20
-1.0673600000000001
 30
0.0
 10
-1.9200900000000001
 20
-1.4559800000000001
 30
0.0
 10
-2.44333
 20
-1.1867400000000001
 30
0.0
 10
-2.5703300000000002
 20
-1.4712200000000002
 30
0.0
 10
-2.5703300000000002
 20
-1.4712200000000002
 30
0.0
 10
-2.6262100000000004
 20
-1.6947400000000001
 30
0.0
 10
-2.4788900000000003
 20
-1.9487400000000001
 30
0.0
 10
-2.2477500000000004
 20
-1.9182600000000001
 30
0.0
 10
-2.2477500000000004
 20
-1.9182600000000001
 30
0.0
 10
-2.1486900000000002
 20
-1.9182600000000001
 30
0.0
 10
-2.0521700000000003
 20
-1.9030200000000002
 30
0.0
 10
-1.9658100000000001
 20
-1.8725400000000001
 30
0.0
 10
-1.9658100000000001
 20
-1.8725400000000001
 30
0.0
 10
-1.9454900000000002
 20
-1.9614400000000001
 30
0.0
 10
-2.0674100000000002
 20
-1.9919200000000001
 30
0.0
 10
-2.1258300000000001
 20
-2.0071600000000003
 30
0.0
 10
-2.1258300000000001
 20
-2.0071600000000003
 30
0.0
 10
-2.3747500000000001
 20
-2.09606
 30
0.0
 10
-2.7227300000000003
 20
-2.0071600000000003
 30
0.0
 10
-2.8395700000000001
 20
-1.7531600000000001
 30
0.0
 10
-2.8395700000000001
 20
-1.7531600000000001
 30
0.0
 10
-2.8802100000000004
 20
-1.4712200000000002
 30
0.0
 10
-2.8141700000000003
 20
-1.1715
 30
0.0
 10
-2.5601700000000003
 20
-1.0521200000000002
 30
0.0
  0
SPLINE
  5
5C
100
AcDbEntity
  8
Ebene 1
 62
     7
100
AcDbSpline
210
0.0
220
0.0
230
1.0
 70
     1
 71
     3
 72
    16
 73
    12
 74
     0
 42
0.0000000001
 43
0.0000000001
 40
0.0
 40
0.0
 40
0.0
 40
0.0
 40
0.3333333333333333
 40
0.3333333333333333
 40
0.3333333333333333
 40
0.3333333333333333
 40
0.6666666666666666
 40
0.6666666666666666
 40
0.6666666666666666
 40
0.6666666666666666
 40
1.0
 40
1.0
 40
1.0
 40
1.0
 10
0.5843400000000001
 20
-1.0521200000000002
 30
0.0
 10
0.61736
 20
-1.1867400000000001
 30
0.0
 10
0.7545200000000001
 20
-1.4255000000000002
 30
0.0
 10
0.5894200000000001
 20
-1.5296400000000001
 30
0.0
 10
0.5894200000000001
 20
-1.5296400000000001
 30
0.0
 10
0.5894200000000001
 20
-1.5296400000000001
 30
0.0
 10
0.5437000000000001
 20
-1.5017
 30
0.0
 10
0.5437000000000001
 20
-1.5017
 30
0.0
 10
0.5437000000000001
 20
-1.5017
 30
0.0
 10
0.52846
 20
-1.3366
 30
0.0
 10
0.5462400000000001
 20
-1.1867400000000001
 30
0.0
 10
0.5843400000000001
 20
-1.0521200000000002
 30
0.0
  0
SPLINE
  5
5D
100
AcDbEntity
  8
Ebene 1
 62
     7
100
AcDbSpline
210
0.0
220
0.0
230
1.0
 70
     1
 71
     3
 72
    24
 73
    20
 74
     0
 42
0.0000000001
 43
0.0000000001
 40
0.0
 40
0.0
 40
0.0
 40
0.0
 40
0.2
 40
0.2
 40
0.2
 40
0.2
 40
0.4
 40
0.4
 40
0.4
 40
0.4
 40
0.6000000000000001
 40
0.6000000000000001
 40
0.6000000000000001
 40
0.6000000000000001
 40
0.8
 40
0.8
 40
0.8
 40
0.8
 40
1.0
 40
1.0
 40
1.0
 40
1.0
 10
1.5089000000000001
 20
-1.1435600000000001
 30
0.0
 10
1.48604
 20
-1.3823200000000002
 30
0.0
 10
1.23712
 20
-1.6795000000000002
 30
0.0
 10
1.2523600000000001
 20
-1.9919200000000001
 30
0.0
 10
1.2523600000000001
 20
-1.9919200000000001
 30
0.0
 10
1.2523600000000001
 20
-1.9919200000000001
 30
0.0
 10
1.15076
 20
-2.1570200000000002
 30
0.0
 10
1.15076
 20
-2.1570200000000002
 30
0.0
 10
1.15076
 20
-2.1570200000000002
 30
0.0
 10
1.1736200000000001
 20
-2.2179800000000003
 30
0.0
 10
1.1990200000000002
 20
-2.2764000000000002
 30
0.0
 10
1.19394
 20
-2.3348200000000001
 30
0.0
 10
1.19394
 20
-2.3348200000000001
 30
0.0
 10
1.19394
 20
-2.3348200000000001
 30
0.0
 10
0.9170800000000001
 20
-2.3957800000000002
 30
0.0
 10
0.9170800000000001
 20
-2.3957800000000002
 30
0.0
 10
0.9170800000000001
 20
-2.3957800000000002
 30
0.0
 10
0.9170800000000001
 20
-2.3957800000000002
 30
0.0
 10
1.5089000000000001
 20
-1.1435600000000001
 30
0.0
 10
1.5089000000000001
 20
-1.1435600000000001
 30
0.0
  0
SPLINE
  5
5E
100
AcDbEntity
  8
Ebene 1
 62
     7
100
AcDbSpline
210
0.0
220
0.0
230
1.0
 70
     1
 71
     3
 72
    12
 73
     8
 74
     0
 42
0.0000000001
 43
0.0000000001
 40
0.0
 40
0.0
 40
0.0
 40
0.0
 40
0.5
 40
0.5
 40
0.5
 40
0.5
 40
1.0
 40
1.0
 40
1.0
 40
1.0
 10
-0.5459500000000001
 20
-1.2477
 30
0.0
 10
-0.48753
 20
-1.3518400000000002
 30
0.0
 10
-0.36053
 20
-1.5169400000000002
 30
0.0
 10
-0.47483
 20
-1.6337800000000002
 30
0.0
 10
-0.47483
 20
-1.6337800000000002
 30
0.0
 10
-0.5815100000000001
 20
-1.5601200000000002
 30
0.0
 10
-0.53071
 20
-1.3670800000000001
 30
0.0
 10
-0.5459500000000001
 20
-1.2477
 30
0.0
  0
SPLINE
  5
5F
100
AcDbEntity
  8
Ebene 1
 62
     7
100
AcDbSpline
210
0.0
220
0.0
230
1.0
 70
     1
 71
     3
 72
    12
 73
     8
 74
     0
 42
0.0000000001
 43
0.0000000001
 40
0.0
 40
0.0
 40
0.0
 40
0.0
 40
0.5
 40
0.5
 40
0.5
 40
0.5
 40
1.0
 40
1.0
 40
1.0
 40
1.0
 10
0.3455800000000001
 20
-1.2781800000000001
 30
0.0
 10
0.40654
 20
-1.3975600000000001
 30
0.0
 10
0.51322
 20
-1.7836400000000001
 30
0.0
 10
0.24652
 20
-1.7252200000000002
 30
0.0
 10
0.24652
 20
-1.7252200000000002
 30
0.0
 10
0.19826
 20
-1.5753600000000001
 30
0.0
 10
0.27954
 20
-1.4128000000000001
 30
0.0
 10
0.3455800000000001
 20
-1.2781800000000001
 30
0.0
  0
SPLINE
  5
60
100
AcDbEntity
  8
Ebene 1
 62
     7
100
AcDbSpline
210
0.0
220
0.0
230
1.0
 70
     1
 71
     3
 72
    20
 73
    16
 74
     0
 42
0.0000000001
 43
0.0000000001
 40
0.0
 40
0.0
 40
0.0
 40
0.0
 40
0.25
 40
0.25
 40
0.25
 40
0.25
 40
0.5
 40
0.5
 40
0.5
 40
0.5
 40
0.75
 40
0.75
 40
0.75
 40
0.75
 40
1.0
 40
1.0
 40
1.0
 40
1.0
 10
-0.29195
 20
-1.3670800000000001
 30
0.0
 10
-0.29195
 20
-1.3670800000000001
 30
0.0
 10
-0.25131
 20
-1.3670800000000001
 30
0.0
 10
-0.25131
 20
-1.3670800000000001
 30
0.0
 10
-0.25131
 20
-1.3670800000000001
 30
0.0
 10
-0.19289
 20
-1.5296400000000001
 30
0.0
 10
-0.06335
 20
-1.8420600000000003
 30
0.0
 10
-0.27671
 20
-1.9487400000000001
 30
0.0
 10
-0.27671
 20
-1.9487400000000001
 30
0.0
 10
-0.35291
 20
-1.9030200000000002
 30
0.0
 10
-0.39101
 20
-1.7252200000000002
 30
0.0
 10
-0.30719
 20
-1.6642600000000001
 30
0.0
 10
-0.30719
 20
-1.6642600000000001
 30
0.0
 10
-0.30719
 20
-1.6642600000000001
 30
0.0
 10
-0.29195
 20
-1.3670800000000001
 30
0.0
 10
-0.29195
 20
-1.3670800000000001
 30
0.0
  0
SPLINE
  5
61
100
AcDbEntity
  8
Ebene 1
 62
     7
100
AcDbSpline
210
0.0
220
0.0
230
1.0
 70
     1
 71
     3
 72
    20
 73
    16
 74
     0
 42
0.0000000001
 43
0.0000000001
 40
0.0
 40
0.0
 40
0.0
 40
0.0
 40
0.25
 40
0.25
 40
0.25
 40
0.25
 40
0.5
 40
0.5
 40
0.5
 40
0.5
 40
0.75
 40
0.75
 40
0.75
 40
0.75
 40
1.0
 40
1.0
 40
1.0
 40
1.0
 10
0.01792
 20
-1.4128000000000001
 30
0.0
 10
0.01792
 20
-1.4128000000000001
 30
0.0
 10
0.04586
 20
-1.4128000000000001
 30
0.0
 10
0.04586
 20
-1.4128000000000001
 30
0.0
 10
0.04586
 20
-1.4128000000000001
 30
0.0
 10
0.0738
 20
-1.6058400000000002
 30
0.0
 10
0.18048
 20
-1.7836400000000001
 30
0.0
 10
0.03316
 20
-1.9335000000000002
 30
0.0
 10
0.03316
 20
-1.9335000000000002
 30
0.0
 10
-0.05065
 20
-1.9487400000000001
 30
0.0
 10
-0.05573
 20
-1.8420600000000003
 30
0.0
 10
-0.09891
 20
-1.7988800000000003
 30
0.0
 10
-0.09891
 20
-1.7988800000000003
 30
0.0
 10
-0.09891
 20
-1.7988800000000003
 30
0.0
 10
0.01792
 20
-1.4128000000000001
 30
0.0
 10
0.01792
 20
-1.4128000000000001
 30
0.0
  0
SPLINE
  5
62
100
AcDbEntity
  8
Ebene 1
 62
     7
100
AcDbSpline
210
0.0
220
0.0
230
1.0
 70
     1
 71
     3
 72
    28
 73
    24
 74
     0
 42
0.0000000001
 43
0.0000000001
 40
0.0
 40
0.0
 40
0.0
 40
0.0
 40
0.1666666666666667
 40
0.1666666666666667
 40
0.1666666666666667
 40
0.1666666666666667
 40
0.3333333333333333
 40
0.3333333333333333
 40
0.3333333333333333
 40
0.3333333333333333
 40
0.5
 40
0.5
 40
0.5
 40
0.5
 40
0.6666666666666666
 40
0.6666666666666666
 40
0.6666666666666666
 40
0.6666666666666666
 40
0.8333333333333333
 40
0.8333333333333333
 40
0.8333333333333333
 40
0.8333333333333333
 40
1.0
 40
1.0
 40
1.0
 40
1.0
 10
-1.38161
 20
-1.4407400000000001
 30
0.0
 10
-1.1555500000000001
 20
-1.7252200000000002
 30
0.0
 10
-1.4400300000000001
 20
-2.06812
 30
0.0
 10
-1.6457700000000002
 20
-2.2611600000000003
 30
0.0
 10
-1.6457700000000002
 20
-2.2611600000000003
 30
0.0
 10
-1.6457700000000002
 20
-2.2611600000000003
 30
0.0
 10
-1.6457700000000002
 20
-2.3348200000000001
 30
0.0
 10
-1.6457700000000002
 20
-2.3348200000000001
 30
0.0
 10
-1.6457700000000002
 20
-2.3348200000000001
 30
0.0
 10
-1.5187700000000002
 20
-2.3094200000000003
 30
0.0
 10
-1.33843
 20
-2.06812
 30
0.0
 10
-1.24953
 20
-1.9487400000000001
 30
0.0
 10
-1.24953
 20
-1.9487400000000001
 30
0.0
 10
-1.25461
 20
-2.09606
 30
0.0
 10
-1.3485900000000002
 20
-2.2027400000000004
 30
0.0
 10
-1.4578100000000001
 20
-2.2916400000000001
 30
0.0
 10
-1.4578100000000001
 20
-2.2916400000000001
 30
0.0
 10
-1.58989
 20
-2.4389600000000002
 30
0.0
 10
-1.8540500000000002
 20
-2.4694400000000001
 30
0.0
 10
-1.7803900000000001
 20
-2.1875
 30
0.0
 10
-1.7803900000000001
 20
-2.1875
 30
0.0
 10
-1.46289
 20
-2.0833600000000003
 30
0.0
 10
-1.4552700000000001
 20
-1.7252200000000002
 30
0.0
 10
-1.38161
 20
-1.4407400000000001
 30
0.0
  0
SPLINE
  5
63
100
AcDbEntity
  8
Ebene 1
100
AcDbSpline
210
0.0
220
0.0
230
1.0
 70
     1
 71
     3
 72
    12
 73
     8
 74
     0
 42
0.0000000001
 43
0.0000000001
 40
0.0
 40
0.0
 40
0.0
 40
0.0
 40
0.5
 40
0.5
 40
0.5
 40
0.5
 40
1.0
 40
1.0
 40
1.0
 40
1.0
 10
-2.9919700000000002
 20
-2.1570200000000002
 30
0.0
 10
-2.9157700000000002
 20
-2.1722600000000001
 30
0.0
 10
-2.7887700000000004
 20
-2.1875
 30
0.0
 10
-2.7862300000000002
 20
-2.2916400000000001
 30
0.0
 10
-2.7862300000000002
 20
-2.2916400000000001
 30
0.0
 10
-2.8751300000000004
 20
-2.35006
 30
0.0
 10
-3.0046700000000004
 20
-2.2611600000000003
 30
0.0
 10
-2.9919700000000002
 20
-2.1570200000000002
 30
0.0
  0
SPLINE
  5
64
100
AcDbEntity
  8
Ebene 1
 62
     7
100
AcDbSpline
210
0.0
220
0.0
230
1.0
 70
     1
 71
     3
 72
    44
 73
    40
 74
     0
 42
0.0000000001
 43
0.0000000001
 40
0.0
 40
0.0
 40
0.0
 40
0.0
 40
0.1
 40
0.1
 40
0.1
 40
0.1
 40
0.2
 40
0.2
 40
0.2
 40
0.2
 40
0.3
 40
0.3
 40
0.3
 40
0.3
 40
0.4
 40
0.4
 40
0.4
 40
0.4
 40
0.5
 40
0.5
 40
0.5
 40
0.5
 40
0.6
 40
0.6
 40
0.6
 40
0.6
 40
0.7
 40
0.7
 40
0.7
 40
0.7
 40
0.7999999999999999
 40
0.7999999999999999
 40
0.7999999999999999
 40
0.7999999999999999
 40
0.8999999999999999
 40
0.8999999999999999
 40
0.8999999999999999
 40
0.8999999999999999
 40
1.0
 40
1.0
 40
1.0
 40
1.0
 10
-2.5601700000000003
 20
-2.2459200000000004
 30
0.0
 10
-2.3468100000000001
 20
-2.2916400000000001
 30
0.0
 10
-2.0953500000000003
 20
-2.30688
 30
0.0
 10
-1.8921500000000002
 20
-2.2611600000000003
 30
0.0
 10
-1.8921500000000002
 20
-2.2611600000000003
 30
0.0
 10
-1.9378700000000002
 20
-2.3348200000000001
 30
0.0
 10
-2.1309100000000001
 20
-2.35006
 30
0.0
 10
-2.23251
 20
-2.3348200000000001
 30
0.0
 10
-2.23251
 20
-2.3348200000000001
 30
0.0
 10
-2.23251
 20
-2.3348200000000001
 30
0.0
 10
-2.4509500000000002
 20
-2.3221200000000004
 30
0.0
 10
-2.4509500000000002
 20
-2.3221200000000004
 30
0.0
 10
-2.4509500000000002
 20
-2.3221200000000004
 30
0.0
 10
-2.4509500000000002
 20
-2.3221200000000004
 30
0.0
 10
-2.4992100000000002
 20
-2.35006
 30
0.0
 10
-2.4992100000000002
 20
-2.35006
 30
0.0
 10
-2.4992100000000002
 20
-2.35006
 30
0.0
 10
-2.4992100000000002
 20
-2.35006
 30
0.0
 10
-2.48143
 20
-2.4110200000000002
 30
0.0
 10
-2.48143
 20
-2.4110200000000002
 30
0.0
 10
-2.48143
 20
-2.4110200000000002
 30
0.0
 10
-2.2934700000000001
 20
-2.4389600000000002
 30
0.0
 10
-2.0775700000000001
 20
-2.4694400000000001
 30
0.0
 10
-1.8921500000000002
 20
-2.4110200000000002
 30
0.0
 10
-1.8921500000000002
 20
-2.4110200000000002
 30
0.0
 10
-1.8921500000000002
 20
-2.4110200000000002
 30
0.0
 10
-1.9658100000000001
 20
-2.48468
 30
0.0
 10
-1.9658100000000001
 20
-2.48468
 30
0.0
 10
-1.9658100000000001
 20
-2.48468
 30
0.0
 10
-2.0293100000000002
 20
-2.5151600000000003
 30
0.0
 10
-2.0902700000000003
 20
-2.48468
 30
0.0
 10
-2.1537700000000002
 20
-2.48468
 30
0.0
 10
-2.1537700000000002
 20
-2.48468
 30
0.0
 10
-2.1537700000000002
 20
-2.48468
 30
0.0
 10
-2.3671300000000004
 20
-2.48468
 30
0.0
 10
-2.3671300000000004
 20
-2.48468
 30
0.0
 10
-2.3671300000000004
 20
-2.48468
 30
0.0
 10
-2.5423900000000001
 20
-2.5304000000000002
 30
0.0
 10
-2.6287500000000001
 20
-2.4110200000000002
 30
0.0
 10
-2.5601700000000003
 20
-2.2459200000000004
 30
0.0
  0
SPLINE
  5
65
100
AcDbEntity
  8
Ebene 1
 62
     7
100
AcDbSpline
210
0.0
220
0.0
230
1.0
 70
     1
 71
     3
 72
    16
 73
    12
 74
     0
 42
0.0000000001
 43
0.0000000001
 40
0.0
 40
0.0
 40
0.0
 40
0.0
 40
0.3333333333333333
 40
0.3333333333333333
 40
0.3333333333333333
 40
0.3333333333333333
 40
0.6666666666666666
 40
0.6666666666666666
 40
0.6666666666666666
 40
0.6666666666666666
 40
1.0
 40
1.0
 40
1.0
 40
1.0
 10
1.31586
 20
-2.5583400000000003
 30
0.0
 10
1.5774800000000002
 20
-2.5583400000000003
 30
0.0
 10
1.9915000000000003
 20
-2.5151600000000003
 30
0.0
 10
2.0118200000000002
 20
-2.85806
 30
0.0
 10
2.0118200000000002
 20
-2.85806
 30
0.0
 10
1.7959200000000002
 20
-2.7539200000000004
 30
0.0
 10
1.5825600000000002
 20
-2.5888200000000001
 30
0.0
 10
1.3184
 20
-2.60406
 30
0.0
 10
1.3184
 20
-2.60406
 30
0.0
 10
1.3184
 20
-2.60406
 30
0.0
 10
1.31586
 20
-2.5583400000000003
 30
0.0
 10
1.31586
 20
-2.5583400000000003
 30
0.0
  0
SPLINE
  5
66
100
AcDbEntity
  8
Ebene 1
 62
     7
100
AcDbSpline
210
0.0
220
0.0
230
1.0
 70
     1
 71
     3
 72
    48
 73
    44
 74
     0
 42
0.0000000001
 43
0.0000000001
 40
0.0
 40
0.0
 40
0.0
 40
0.0
 40
0.0909090909090909
 40
0.0909090909090909
 40
0.0909090909090909
 40
0.0909090909090909
 40
0.1818181818181818
 40
0.1818181818181818
 40
0.1818181818181818
 40
0.1818181818181818
 40
0.2727272727272727
 40
0.2727272727272727
 40
0.2727272727272727
 40
0.2727272727272727
 40
0.3636363636363637
 40
0.3636363636363637
 40
0.3636363636363637
 40
0.3636363636363637
 40
0.4545454545454546
 40
0.4545454545454546
 40
0.4545454545454546
 40
0.4545454545454546
 40
0.5454545454545455
 40
0.5454545454545455
 40
0.5454545454545455
 40
0.5454545454545455
 40
0.6363636363636365
 40
0.6363636363636365
 40
0.6363636363636365
 40
0.6363636363636365
 40
0.7272727272727274
 40
0.7272727272727274
 40
0.7272727272727274
 40
0.7272727272727274
 40
0.8181818181818183
 40
0.8181818181818183
 40
0.8181818181818183
 40
0.8181818181818183
 40
0.9090909090909093
 40
0.9090909090909093
 40
0.9090909090909093
 40
0.9090909090909093
 40
1.0
 40
1.0
 40
1.0
 40
1.0
 10
1.0745600000000002
 20
-2.6650200000000002
 30
0.0
 10
1.56986
 20
-2.6218400000000002
 30
0.0
 10
2.3242400000000001
 20
-3.0663400000000003
 30
0.0
 10
1.8721200000000002
 20
-3.5133800000000002
 30
0.0
 10
1.8721200000000002
 20
-3.5133800000000002
 30
0.0
 10
1.8822800000000002
 20
-3.3787600000000002
 30
0.0
 10
1.9051400000000001
 20
-3.2314400000000001
 30
0.0
 10
1.8518000000000001
 20
-3.11206
 30
0.0
 10
1.8518000000000001
 20
-3.11206
 30
0.0
 10
1.8518000000000001
 20
-3.11206
 30
0.0
 10
1.8060800000000001
 20
-3.4397200000000003
 30
0.0
 10
1.8060800000000001
 20
-3.4397200000000003
 30
0.0
 10
1.8060800000000001
 20
-3.4397200000000003
 30
0.0
 10
1.6308200000000002
 20
-4.0061400000000003
 30
0.0
 10
1.8949800000000001
 20
-4.6767000000000003
 30
0.0
 10
1.5546200000000001
 20
-5.1847000000000003
 30
0.0
 10
1.5546200000000001
 20
-5.1847000000000003
 30
0.0
 10
1.5546200000000001
 20
-5.1847000000000003
 30
0.0
 10
1.2676000000000001
 20
-3.8867600000000002
 30
0.0
 10
1.2676000000000001
 20
-3.8867600000000002
 30
0.0
 10
1.2676000000000001
 20
-3.8867600000000002
 30
0.0
 10
1.06948
 20
-3.7064200000000005
 30
0.0
 10
0.6935600000000001
 20
-3.6784800000000004
 30
0.0
 10
0.4395600000000001
 20
-3.8283400000000003
 30
0.0
 10
0.4395600000000001
 20
-3.8283400000000003
 30
0.0
 10
0.531
 20
-3.4397200000000003
 30
0.0
 10
0.43702
 20
-2.7971000000000004
 30
0.0
 10
0.8942200000000001
 20
-2.64724
 30
0.0
 10
0.8942200000000001
 20
-2.64724
 30
0.0
 10
0.8967600000000001
 20
-2.7234400000000001
 30
0.0
 10
0.7519800000000001
 20
-2.8275800000000002
 30
0.0
 10
0.8535800000000001
 20
-2.8885400000000003
 30
0.0
 10
0.8535800000000001
 20
-2.8885400000000003
 30
0.0
 10
0.8535800000000001
 20
-2.8885400000000003
 30
0.0
 10
0.55894
 20
-3.4676600000000004
 30
0.0
 10
0.55894
 20
-3.4676600000000004
 30
0.0
 10
0.55894
 20
-3.4676600000000004
 30
0.0
 10
0.55894
 20
-3.4676600000000004
 30
0.0
 10
0.57926
 20
-3.6480000000000001
 30
0.0
 10
0.57926
 20
-3.6480000000000001
 30
0.0
 10
0.57926
 20
-3.6480000000000001
 30
0.0
 10
0.57926
 20
-3.6480000000000001
 30
0.0
 10
1.0745600000000002
 20
-2.6650200000000002
 30
0.0
 10
1.0745600000000002
 20
-2.6650200000000002
 30
0.0
  0
SPLINE
  5
67
100
AcDbEntity
  8
Ebene 1
 62
     7
100
AcDbSpline
210
0.0
220
0.0
230
1.0
 70
     1
 71
     3
 72
    32
 73
    28
 74
     0
 42
0.0000000001
 43
0.0000000001
 40
0.0
 40
0.0
 40
0.0
 40
0.0
 40
0.1428571428571429
 40
0.1428571428571429
 40
0.1428571428571429
 40
0.1428571428571429
 40
0.2857142857142857
 40
0.2857142857142857
 40
0.2857142857142857
 40
0.2857142857142857
 40
0.4285714285714286
 40
0.4285714285714286
 40
0.4285714285714286
 40
0.4285714285714286
 40
0.5714285714285714
 40
0.5714285714285714
 40
0.5714285714285714
 40
0.5714285714285714
 40
0.7142857142857142
 40
0.7142857142857142
 40
0.7142857142857142
 40
0.7142857142857142
 40
0.857142857142857
 40
0.857142857142857
 40
0.857142857142857
 40
0.857142857142857
 40
1.0
 40
1.0
 40
1.0
 40
1.0
 10
0.71896
 20
-3.7826200000000001
 30
0.0
 10
0.8535800000000001
 20
-3.7978600000000005
 30
0.0
 10
1.0085200000000001
 20
-3.7673800000000002
 30
0.0
 10
1.1177400000000002
 20
-3.8562800000000004
 30
0.0
 10
1.1177400000000002
 20
-3.8562800000000004
 30
0.0
 10
1.1177400000000002
 20
-3.8562800000000004
 30
0.0
 10
1.2549000000000001
 20
-4.09504
 30
0.0
 10
1.2549000000000001
 20
-4.09504
 30
0.0
 10
1.2549000000000001
 20
-4.09504
 30
0.0
 10
1.3184
 20
-4.8418000000000001
 30
0.0
 10
1.5089000000000001
 20
-5.5860200000000004
 30
0.0
 10
1.4936600000000002
 20
-6.3632600000000004
 30
0.0
 10
1.4936600000000002
 20
-6.3632600000000004
 30
0.0
 10
1.4682600000000001
 20
-6.4267600000000007
 30
0.0
 10
1.4073000000000002
 20
-6.4597800000000003
 30
0.0
 10
1.3565
 20
-6.5055000000000005
 30
0.0
 10
1.3565
 20
-6.5055000000000005
 30
0.0
 10
1.0110600000000001
 20
-6.5207400000000009
 30
0.0
 10
0.5945
 20
-6.6477400000000006
 30
0.0
 10
0.2897
 20
-6.4775600000000004
 30
0.0
 10
0.2897
 20
-6.4775600000000004
 30
0.0
 10
0.24398
 20
-5.6901600000000006
 30
0.0
 10
0.33796
 20
-4.7529000000000003
 30
0.0
 10
0.4395600000000001
 20
-3.9172400000000005
 30
0.0
 10
0.4395600000000001
 20
-3.9172400000000005
 30
0.0
 10
0.49798
 20
-3.8410400000000005
 30
0.0
 10
0.6199
 20
-3.7978600000000005
 30
0.0
 10
0.71896
 20
-3.7826200000000001
 30
0.0
  0
SPLINE
  5
68
100
AcDbEntity
  8
Ebene 1
100
AcDbSpline
210
0.0
220
0.0
230
1.0
 70
     1
 71
     3
 72
    28
 73
    24
 74
     0
 42
0.0000000001
 43
0.0000000001
 40
0.0
 40
0.0
 40
0.0
 40
0.0
 40
0.1666666666666667
 40
0.1666666666666667
 40
0.1666666666666667
 40
0.1666666666666667
 40
0.3333333333333333
 40
0.3333333333333333
 40
0.3333333333333333
 40
0.3333333333333333
 40
0.5
 40
0.5
 40
0.5
 40
0.5
 40
0.6666666666666666
 40
0.6666666666666666
 40
0.6666666666666666
 40
0.6666666666666666
 40
0.8333333333333333
 40
0.8333333333333333
 40
0.8333333333333333
 40
0.8333333333333333
 40
1.0
 40
1.0
 40
1.0
 40
1.0
 10
0.6300600000000001
 20
-3.8562800000000004
 30
0.0
 10
0.8129400000000001
 20
-3.8410400000000005
 30
0.0
 10
1.0034400000000001
 20
-3.8562800000000004
 30
0.0
 10
1.1329800000000001
 20
-3.9756600000000004
 30
0.0
 10
1.1329800000000001
 20
-3.9756600000000004
 30
0.0
 10
1.2472800000000002
 20
-4.7681400000000007
 30
0.0
 10
1.4835
 20
-5.5733200000000007
 30
0.0
 10
1.4200000000000002
 20
-6.3785000000000007
 30
0.0
 10
1.4200000000000002
 20
-6.3785000000000007
 30
0.0
 10
1.4200000000000002
 20
-6.3785000000000007
 30
0.0
 10
1.3565
 20
-6.4318400000000002
 30
0.0
 10
1.3565
 20
-6.4318400000000002
 30
0.0
 10
1.3565
 20
-6.4318400000000002
 30
0.0
 10
1.06948
 20
-6.4750200000000007
 30
0.0
 10
0.69864
 20
-6.5588400000000009
 30
0.0
 10
0.42432
 20
-6.4013600000000004
 30
0.0
 10
0.42432
 20
-6.4013600000000004
 30
0.0
 10
0.2897
 20
-5.6165000000000003
 30
0.0
 10
0.404
 20
-4.73766
 30
0.0
 10
0.49798
 20
-3.9324800000000004
 30
0.0
 10
0.49798
 20
-3.9324800000000004
 30
0.0
 10
0.49798
 20
-3.9324800000000004
 30
0.0
 10
0.6300600000000001
 20
-3.8562800000000004
 30
0.0
 10
0.6300600000000001
 20
-3.8562800000000004
 30
0.0
  0
SPLINE
  5
69
100
AcDbEntity
  8
Ebene 1
 62
     7
100
AcDbSpline
210
0.0
220
0.0
230
1.0
 70
     1
 71
     3
 72
    12
 73
     8
 74
     0
 42
0.0000000001
 43
0.0000000001
 40
0.0
 40
0.0
 40
0.0
 40
0.0
 40
0.5
 40
0.5
 40
0.5
 40
0.5
 40
1.0
 40
1.0
 40
1.0
 40
1.0
 10
0.7469
 20
-3.9909000000000003
 30
0.0
 10
1.01614
 20
-3.9324800000000004
 30
0.0
 10
1.15076
 20
-4.3642799999999999
 30
0.0
 10
0.8383400000000001
 20
-4.4074600000000004
 30
0.0
 10
0.8383400000000001
 20
-4.4074600000000004
 30
0.0
 10
0.55894
 20
-4.4684200000000001
 30
0.0
 10
0.5005200000000001
 20
-4.0518600000000005
 30
0.0
 10
0.7469
 20
-3.9909000000000003
 30
0.0
  0
SPLINE
  5
6A
100
AcDbEntity
  8
Ebene 1
100
AcDbSpline
210
0.0
220
0.0
230
1.0
 70
     1
 71
     3
 72
    20
 73
    16
 74
     0
 42
0.0000000001
 43
0.0000000001
 40
0.0
 40
0.0
 40
0.0
 40
0.0
 40
0.25
 40
0.25
 40
0.25
 40
0.25
 40
0.5
 40
0.5
 40
0.5
 40
0.5
 40
0.75
 40
0.75
 40
0.75
 40
0.75
 40
1.0
 40
1.0
 40
1.0
 40
1.0
 10
0.7342000000000001
 20
-4.0366200000000001
 30
0.0
 10
0.7926200000000001
 20
-4.0518600000000005
 30
0.0
 10
0.7367400000000001
 20
-4.1407600000000002
 30
0.0
 10
0.7926200000000001
 20
-4.1687000000000003
 30
0.0
 10
0.7926200000000001
 20
-4.1687000000000003
 30
0.0
 10
0.8535800000000001
 20
-4.1687000000000003
 30
0.0
 10
0.8840600000000001
 20
-4.1102800000000004
 30
0.0
 10
0.8967600000000001
 20
-4.0645600000000002
 30
0.0
 10
0.8967600000000001
 20
-4.0645600000000002
 30
0.0
 10
1.0517000000000001
 20
-4.1407600000000002
 30
0.0
 10
0.9399400000000001
 20
-4.3642799999999999
 30
0.0
 10
0.7926200000000001
 20
-4.3769800000000005
 30
0.0
 10
0.7926200000000001
 20
-4.3769800000000005
 30
0.0
 10
0.6122800000000001
 20
-4.3490400000000005
 30
0.0
 10
0.5411600000000001
 20
-4.1102800000000004
 30
0.0
 10
0.7342000000000001
 20
-4.0366200000000001
 30
0.0
  0
SPLINE
  5
6B
100
AcDbEntity
  8
Ebene 1
 62
     7
100
AcDbSpline
210
0.0
220
0.0
230
1.0
 70
     1
 71
     3
 72
    52
 73
    48
 74
     0
 42
0.0000000001
 43
0.0000000001
 40
0.0
 40
0.0
 40
0.0
 40
0.0
 40
0.0833333333333333
 40
0.0833333333333333
 40
0.0833333333333333
 40
0.0833333333333333
 40
0.1666666666666667
 40
0.1666666666666667
 40
0.1666666666666667
 40
0.1666666666666667
 40
0.25
 40
0.25
 40
0.25
 40
0.25
 40
0.3333333333333333
 40
0.3333333333333333
 40
0.3333333333333333
 40
0.3333333333333333
 40
0.4166666666666666
 40
0.4166666666666666
 40
0.4166666666666666
 40
0.4166666666666666
 40
0.4999999999999999
 40
0.4999999999999999
 40
0.4999999999999999
 40
0.4999999999999999
 40
0.5833333333333333
 40
0.5833333333333333
 40
0.5833333333333333
 40
0.5833333333333333
 40
0.6666666666666666
 40
0.6666666666666666
 40
0.6666666666666666
 40
0.6666666666666666
 40
0.75
 40
0.75
 40
0.75
 40
0.75
 40
0.8333333333333334
 40
0.8333333333333334
 40
0.8333333333333334
 40
0.8333333333333334
 40
0.9166666666666667
 40
0.9166666666666667
 40
0.9166666666666667
 40
0.9166666666666667
 40
1.0
 40
1.0
 40
1.0
 40
1.0
 10
0.658
 20
-4.5878000000000005
 30
0.0
 10
0.658
 20
-4.5878000000000005
 30
0.0
 10
1.05932
 20
-4.6182800000000004
 30
0.0
 10
1.05932
 20
-4.6182800000000004
 30
0.0
 10
1.05932
 20
-4.6182800000000004
 30
0.0
 10
1.1736200000000001
 20
-5.1237400000000006
 30
0.0
 10
1.19648
 20
-5.6622200000000005
 30
0.0
 10
1.2396600000000002
 20
-6.1829200000000002
 30
0.0
 10
1.2396600000000002
 20
-6.1829200000000002
 30
0.0
 10
1.2396600000000002
 20
-6.1829200000000002
 30
0.0
 10
1.1634600000000002
 20
-6.2972200000000003
 30
0.0
 10
1.1634600000000002
 20
-6.2972200000000003
 30
0.0
 10
1.1634600000000002
 20
-6.2972200000000003
 30
0.0
 10
0.9805800000000001
 20
-6.3302400000000008
 30
0.0
 10
0.7062600000000001
 20
-6.4013600000000004
 30
0.0
 10
0.55894
 20
-6.2388000000000003
 30
0.0
 10
0.55894
 20
-6.2388000000000003
 30
0.0
 10
0.51322
 20
-5.8400200000000009
 30
0.0
 10
0.5564
 20
-5.40822
 30
0.0
 10
0.5691000000000001
 20
-5.0043600000000001
 30
0.0
 10
0.5691000000000001
 20
-5.0043600000000001
 30
0.0
 10
0.5640200000000001
 20
-4.9891200000000007
 30
0.0
 10
0.57672
 20
-4.9611800000000006
 30
0.0
 10
0.5945
 20
-4.9611800000000006
 30
0.0
 10
0.5945
 20
-4.9611800000000006
 30
0.0
 10
0.59958
 20
-5.1542200000000005
 30
0.0
 10
0.6300600000000001
 20
-5.3625000000000007
 30
0.0
 10
0.59958
 20
-5.5428400000000009
 30
0.0
 10
0.59958
 20
-5.5428400000000009
 30
0.0
 10
0.59958
 20
-5.5428400000000009
 30
0.0
 10
0.64022
 20
-5.7663600000000006
 30
0.0
 10
0.64022
 20
-5.7663600000000006
 30
0.0
 10
0.64022
 20
-5.7663600000000006
 30
0.0
 10
0.6910200000000001
 20
-5.4387000000000008
 30
0.0
 10
0.5945
 20
-4.8418000000000001
 30
0.0
 10
1.0009000000000001
 20
-4.8265600000000006
 30
0.0
 10
1.0009000000000001
 20
-4.8265600000000006
 30
0.0
 10
1.02122
 20
-4.6462200000000005
 30
0.0
 10
0.7723000000000001
 20
-4.5878000000000005
 30
0.0
 10
0.65546
 20
-4.6767000000000003
 30
0.0
 10
0.65546
 20
-4.6767000000000003
 30
0.0
 10
0.65546
 20
-4.6767000000000003
 30
0.0
 10
0.5894200000000001
 20
-4.8722800000000008
 30
0.0
 10
0.5894200000000001
 20
-4.8722800000000008
 30
0.0
 10
0.5894200000000001
 20
-4.8722800000000008
 30
0.0
 10
0.5665600000000001
 20
-4.7681400000000007
 30
0.0
 10
0.5868800000000001
 20
-4.6462200000000005
 30
0.0
 10
0.658
 20
-4.5878000000000005
 30
0.0
  0
SPLINE
  5
6C
100
AcDbEntity
  8
Ebene 1
100
AcDbSpline
210
0.0
220
0.0
230
1.0
 70
     1
 71
     3
 72
    28
 73
    24
 74
     0
 42
0.0000000001
 43
0.0000000001
 40
0.0
 40
0.0
 40
0.0
 40
0.0
 40
0.1666666666666667
 40
0.1666666666666667
 40
0.1666666666666667
 40
0.1666666666666667
 40
0.3333333333333333
 40
0.3333333333333333
 40
0.3333333333333333
 40
0.3333333333333333
 40
0.5
 40
0.5
 40
0.5
 40
0.5
 40
0.6666666666666666
 40
0.6666666666666666
 40
0.6666666666666666
 40
0.6666666666666666
 40
0.8333333333333333
 40
0.8333333333333333
 40
0.8333333333333333
 40
0.8333333333333333
 40
1.0
 40
1.0
 40
1.0
 40
1.0
 10
1.10504
 20
-5.8984400000000008
 30
0.0
 10
1.10504
 20
-5.8984400000000008
 30
0.0
 10
1.14822
 20
-5.8984400000000008
 30
0.0
 10
1.14822
 20
-5.8984400000000008
 30
0.0
 10
1.14822
 20
-5.8984400000000008
 30
0.0
 10
1.14822
 20
-5.8984400000000008
 30
0.0
 10
1.14822
 20
-6.1930800000000001
 30
0.0
 10
1.14822
 20
-6.1930800000000001
 30
0.0
 10
1.14822
 20
-6.1930800000000001
 30
0.0
 10
1.0872600000000001
 20
-6.2667400000000004
 30
0.0
 10
0.9755
 20
-6.2743600000000006
 30
0.0
 10
0.9018400000000001
 20
-6.2235600000000009
 30
0.0
 10
0.9018400000000001
 20
-6.2235600000000009
 30
0.0
 10
0.9018400000000001
 20
-6.2235600000000009
 30
0.0
 10
0.9018400000000001
 20
-6.1854600000000008
 30
0.0
 10
0.9018400000000001
 20
-6.1854600000000008
 30
0.0
 10
0.9018400000000001
 20
-6.1854600000000008
 30
0.0
 10
1.0136000000000001
 20
-6.1473600000000008
 30
0.0
 10
1.0923400000000001
 20
-6.0457600000000005
 30
0.0
 10
1.0821800000000001
 20
-5.9136800000000003
 30
0.0
 10
1.0821800000000001
 20
-5.9136800000000003
 30
0.0
 10
1.0821800000000001
 20
-5.9136800000000003
 30
0.0
 10
1.10504
 20
-5.8984400000000008
 30
0.0
 10
1.10504
 20
-5.8984400000000008
 30
0.0
  0
ENDSEC
  0
SECTION
  2
OBJECTS
  0
DICTIONARY
  5
19
100
AcDbDictionary
280
     0
281
     1
  3
ACAD_GROUP
350
1A
  3
ACAD_MLINESTYLE
350
1B
  3
ACAD_LAYOUT
350
1E
  3
ACAD_PLOTSETTINGS
350
22
  3
ACAD_PLOTSTYLENAME
350
1F
  3
ACAD_WIPEOUT_VARS
350
23
  0
DICTIONARY
  5
1A
102
{ACAD_REACTORS
330
19
102
}
100
AcDbDictionary
280
     0
281
     1
  0
DICTIONARY
  5
1B
102
{ACAD_REACTORS
330
19
102
}
100
AcDbDictionary
280
     0
281
     1
  3
Standard
350
1C
  0
MLINESTYLE
  5
1C
102
{ACAD_REACTORS
330
1B
102
}
100
AcDbMlineStyle
  2
Standard
 70
     0
  3

 62
     0
 51
90.0
 52
90.0
 71
     2
 49
0.5
 62
   256
  6
BYLAYER
 49
-0.5
 62
   256
  6
BYLAYER
  0
ACDBDICTIONARYWDFLT
  5
1F
102
{ACAD_REACTORS
330
19
102
}
100
AcDbDictionary
281
     1
  3
Normal
350
1D
100
AcDbDictionaryWithDefault
340
1D
  0
ACDBPLACEHOLDER
  5
1D
102
{ACAD_REACTORS
330
1F
102
}
  0
LAYOUT
  5
20
102
{ACAD_REACTORS
330
1E
102
}
100
AcDbPlotSettings
  1

  2

  4

  6

 40
0.0
 41
0.0
 42
0.0
 43
0.0
 44
0.0
 45
0.0
 46
0.0
 47
0.0
 48
0.0
 49
0.0
140
0.0
141
0.0
142
1.0
143
1.0
 70
  1024
 72
     0
 73
     0
 74
     0
  7

 75
     0
147
1.0
148
0.0
149
0.0
100
AcDbLayout
  1
Model
 70
     0
 71
     0
 10
0.0
 20
0.0
 11
0.0
 21
0.0
 12
0.0
 22
0.0
 32
0.0
 14
0.0
 24
0.0
 34
0.0
 15
0.0
 25
0.0
 35
0.0
146
0.0
 13
0.0
 23
0.0
 33
0.0
 16
0.0
 26
0.0
 36
0.0
 17
0.0
 27
0.0
 37
0.0
 76
     0
330
A
331
0
345
0
346
0
  0
LAYOUT
  5
21
102
{ACAD_REACTORS
330
1E
102
}
100
AcDbPlotSettings
  1

  2

  4

  6

 40
0.0
 41
0.0
 42
0.0
 43
0.0
 44
0.0
 45
0.0
 46
0.0
 47
0.0
 48
0.0
 49
0.0
140
0.0
141
0.0
142
1.0
143
1.0
 70
     0
 72
     0
 73
     0
 74
     0
  7

 75
     0
147
1.0
148
0.0
149
0.0
100
AcDbLayout
  1
Layout1
 70
     0
 71
     0
 10
0.0
 20
0.0
 11
0.0
 21
0.0
 12
0.0
 22
0.0
 32
0.0
 14
0.0
 24
0.0
 34
0.0
 15
0.0
 25
0.0
 35
0.0
146
0.0
 13
0.0
 23
0.0
 33
0.0
 16
0.0
 26
0.0
 36
0.0
 17
0.0
 27
0.0
 37
0.0
 76
     0
330
B
331
0
345
0
346
0
  0
DICTIONARY
  5
1E
102
{ACAD_REACTORS
330
19
102
}
100
AcDbDictionary
280
     0
281
     1
  3
Layout1
350
21
  3
Model
350
20
  0
DICTIONARY
  5
22
102
{ACAD_REACTORS
330
19
102
}
100
AcDbDictionary
280
     0
281
     1
  0
WIPEOUTVARIABLES
  5
23
100
AcDbWipeoutVariables
 70
     1
  0
ENDSEC
  0
EOF
