  0
SECTION
  2
HEADER
  9
$ACADVER
  1
AC1015
  9
$ACADMAINTVER
 70
     6
  9
$DWGCODEPAGE
  3
DOS850
  9
$INSBASE
 10
0.0
 20
0.0
 30
0.0
  9
$EXTMIN
 10
-5.87741
 20
-5.7689
 30
1.000000E+20
  9
$EXTMAX
 10
5.88257
 20
5.76425
 30
-1.000000E+20
  9
$LIMMIN
 10
0.0
 20
0.0
  9
$LIMMAX
 10
0.0
 20
0.0
  9
$ORTHOMODE
 70
     0
  9
$REGENMODE
 70
     1
  9
$FILLMODE
 70
     1
  9
$QTEXTMODE
 70
     0
  9
$MIRRTEXT
 70
     1
  9
$LTSCALE
 40
1.0
  9
$ATTMODE
 70
     1
  9
$TEXTSIZE
 40
0.2
  9
$TRACEWID
 40
0.05
  9
$TEXTSTYLE
  7
Standard
  9
$CLAYER
  8
0
  9
$CELTYPE
  6
Continuous
  9
$CECOLOR
 62
   256
  9
$CELTSCALE
 40
1.0
  9
$DISPSILH
 70
     0
  9
$DIMSCALE
 40
1.0
  9
$DIMASZ
 40
0.18
  9
$DIMEXO
 40
0.0625
  9
$DIMDLI
 40
0.38
  9
$DIMRND
 40
0.0
  9
$DIMDLE
 40
0.0
  9
$DIMEXE
 40
0.18
  9
$DIMTP
 40
0.0
  9
$DIMTM
 40
0.0
  9
$DIMTXT
 40
0.18
  9
$DIMCEN
 40
0.09
  9
$DIMTSZ
 40
0.0
  9
$DIMTOL
 70
     0
  9
$DIMLIM
 70
     0
  9
$DIMTIH
 70
     1
  9
$DIMTOH
 70
     1
  9
$DIMSE1
 70
     0
  9
$DIMSE2
 70
     0
  9
$DIMTAD
 70
     0
  9
$DIMZIN
 70
     0
  9
$DIMBLK
  1

  9
$DIMASO
 70
     1
  9
$DIMSHO
 70
     1
  9
$DIMPOST
  1

  9
$DIMAPOST
  1

  9
$DIMALT
 70
     0
  9
$DIMALTD
 70
     2
  9
$DIMALTF
 40
25.4
  9
$DIMLFAC
 40
1.0
  9
$DIMTOFL
 70
     0
  9
$DIMTVP
 40
0.0
  9
$DIMTIX
 70
     0
  9
$DIMSOXD
 70
     0
  9
$DIMSAH
 70
     0
  9
$DIMBLK1
  1

  9
$DIMBLK2
  1

  9
$DIMSTYLE
  2
Standard
  9
$DIMCLRD
 70
     0
  9
$DIMCLRE
 70
     0
  9
$DIMCLRT
 70
     0
  9
$DIMTFAC
 40
1.0
  9
$DIMGAP
 40
0.09
  9
$DIMJUST
 70
     0
  9
$DIMSD1
 70
     0
  9
$DIMSD2
 70
     0
  9
$DIMTOLJ
 70
     1
  9
$DIMTZIN
 70
     0
  9
$DIMALTZ
 70
     0
  9
$DIMALTTZ
 70
     0
  9
$DIMUPT
 70
     0
  9
$DIMDEC
 70
     4
  9
$DIMTDEC
 70
     4
  9
$DIMALTU
 70
     2
  9
$DIMALTTD
 70
     2
  9
$DIMTXSTY
  7
Standard
  9
$DIMAUNIT
 70
     0
  9
$DIMADEC
 70
     0
  9
$DIMALTRND
 40
0.0
  9
$DIMAZIN
 70
     0
  9
$DIMDSEP
 70
     0
  9
$DIMATFIT
 70
     3
  9
$DIMFRAC
 70
     0
  9
$DIMLDRBLK
  1

  9
$DIMLUNIT
 70
     2
  9
$DIMLWD
 70
     0
  9
$DIMLWE
 70
     0
  9
$DIMTMOVE
 70
     0
  9
$LUNITS
 70
     2
  9
$LUPREC
 70
     4
  9
$SKETCHINC
 40
0.1
  9
$FILLETRAD
 40
0.0
  9
$AUNITS
 70
     0
  9
$AUPREC
 70
     0
  9
$MENU
  1
acad
  9
$ELEVATION
 40
0.0
  9
$PELEVATION
 40
0.0
  9
$THICKNESS
 40
0.0
  9
$LIMCHECK
 70
     0
  9
$CHAMFERA
 40
0.0
  9
$CHAMFERB
 40
0.0
  9
$CHAMFERC
 40
0.0
  9
$CHAMFERD
 40
0.0
  9
$SKPOLY
 70
     0
  9
$TDCREATE
 40
0.000000000
  9
$TDUCREATE
 40
0.000000000
  9
$TDUPDATE
 40
0.000000000
  9
$TDUUPDATE
 40
0.000000000
  9
$TDINDWG
 40
0.0000000000
  9
$TDUSRTIMER
 40
0.0000000000
  9
$USRTIMER
 70
     1
  9
$ANGBASE
 50
0.0
  9
$ANGDIR
 70
     0
  9
$PDMODE
 70
     0
  9
$PDSIZE
 40
0.0
  9
$PLINEWID
 40
0.0
  9
$SPLFRAME
 70
     0
  9
$SPLINETYPE
 70
     6
  9
$SPLINESEGS
 70
     8
  9
$HANDSEED
  5
41
  9
$SURFTAB1
 70
     6
  9
$SURFTAB2
 70
     6
  9
$SURFTYPE
 70
     6
  9
$SURFU
 70
     6
  9
$SURFV
 70
     6
  9
$UCSBASE
  2

  9
$UCSNAME
  2

  9
$UCSORG
 10
0.0
 20
0.0
 30
0.0
  9
$UCSXDIR
 10
1.0
 20
0.0
 30
0.0
  9
$UCSYDIR
 10
0.0
 20
1.0
 30
0.0
  9
$UCSORTHOREF
  2

  9
$UCSORTHOVIEW
 70
     0
  9
$UCSORGTOP
 10
0.0
 20
0.0
 30
0.0
  9
$UCSORGBOTTOM
 10
0.0
 20
0.0
 30
0.0
  9
$UCSORGLEFT
 10
0.0
 20
0.0
 30
0.0
  9
$UCSORGRIGHT
 10
0.0
 20
0.0
 30
0.0
  9
$UCSORGFRONT
 10
0.0
 20
0.0
 30
0.0
  9
$UCSORGBACK
 10
0.0
 20
0.0
 30
0.0
  9
$PUCSBASE
  2

  9
$PUCSNAME
  2

  9
$PUCSORG
 10
0.0
 20
0.0
 30
0.0
  9
$PUCSXDIR
 10
1.0
 20
0.0
 30
0.0
  9
$PUCSYDIR
 10
0.0
 20
1.0
 30
0.0
  9
$PUCSORTHOREF
  2

  9
$PUCSORTHOVIEW
 70
     0
  9
$PUCSORGTOP
 10
0.0
 20
0.0
 30
0.0
  9
$PUCSORGBOTTOM
 10
0.0
 20
0.0
 30
0.0
  9
$PUCSORGLEFT
 10
0.0
 20
0.0
 30
0.0
  9
$PUCSORGRIGHT
 10
0.0
 20
0.0
 30
0.0
  9
$PUCSORGFRONT
 10
0.0
 20
0.0
 30
0.0
  9
$PUCSORGBACK
 10
0.0
 20
0.0
 30
0.0
  9
$USERI1
 70
     0
  9
$USERI2
 70
     0
  9
$USERI3
 70
     0
  9
$USERI4
 70
     0
  9
$USERI5
 70
     0
  9
$USERR1
 40
0.0
  9
$USERR2
 40
0.0
  9
$USERR3
 40
0.0
  9
$USERR4
 40
0.0
  9
$USERR5
 40
0.0
  9
$WORLDVIEW
 70
     1
  9
$SHADEDGE
 70
     3
  9
$SHADEDIF
 70
    70
  9
$TILEMODE
 70
     1
  9
$MAXACTVP
 70
    16
  9
$PINSBASE
 10
0.0
 20
0.0
 30
0.0
  9
$PLIMCHECK
 70
     0
  9
$PEXTMIN
 10
1.000000E+20
 20
1.000000E+20
 30
1.000000E+20
  9
$PEXTMAX
 10
-1.000000E+20
 20
-1.000000E+20
 30
-1.000000E+20
  9
$PLIMMIN
 10
0.0
 20
0.0
  9
$PLIMMAX
 10
12.0
 20
9.0
  9
$UNITMODE
 70
     0
  9
$VISRETAIN
 70
     0
  9
$PLINEGEN
 70
     1
  9
$PSLTSCALE
 70
     0
  9
$TREEDEPTH
 70
  3020
  9
$CMLSTYLE
  2
Standard
  9
$CMLJUST
 70
     0
  9
$CMLSCALE
 40
1.0
  9
$PROXYGRAPHICS
 70
     0
  9
$MEASUREMENT
 70
     0
  9
$CELWEIGHT
370
     0
  9
$ENDCAPS
280
     0
  9
$JOINSTYLE
280
     0
  9
$LWDISPLAY
290
     0
  9
$INSUNITS
 70
     5
  9
$HYPERLINKBASE
  1

  9
$XEDIT
290
     1
  9
$CEPSNTYPE
380
     0
  9
$PSTYLEMODE
290
     1
  9
$FINGERPRINTGUID
  2

  9
$VERSIONGUID
  2

  9
$EXTNAMES
290
     1
  9
$PSVPSCALE
 40
0.0
  0
ENDSEC
  0
SECTION
  2
CLASSES
  0
CLASS
  1
LWPOLYLINE
  2
AcDbPolyline
  3
AutoCAD 2000
 90
    32768
280
     0
281
     1
  0
CLASS
  1
IMAGE
  2
AcDbRasterImage
  3
ISM
 90
    32895
280
     0
281
     1
  0
CLASS
  1
OLE2FRAME
  2
AcDbOle2Frame
  3
AutoCAD 2000
 90
    32768
280
     0
281
     1
  0
CLASS
  1
HATCH
  2
AcDbHatch
  3
AutoCAD 2000
 90
    32768
280
     0
281
     1
  0
CLASS
  1
DICTIONARYVAR
  2
AcDbDictionaryVar
  3
AutoCAD 2000
 90
    32768
280
     0
281
     0
  0
CLASS
  1
RASTERVARIABLES
  2
AcDbRasterVariables
  3
ISM
 90
    32768
280
     0
281
     0
  0
CLASS
  1
IMAGEDEF
  2
AcDbRasterImageDef
  3
ISM
 90
    32768
280
     0
281
     0
  0
CLASS
  1
IMAGEDEF_REACTOR
  2
AcDbRasterImageDefReactor
  3
ISM
 90
    32769
280
     0
281
     0
  0
CLASS
  1
IDBUFFER
  2
AcDbIdBuffer
  3
AutoCAD 2000
 90
    32768
280
     0
281
     0
  0
CLASS
  1
SPATIAL_FILTER
  2
AcDbSpatialFilter
  3
AutoCAD 2000
 90
    32768
280
     0
281
     0
  0
CLASS
  1
XRECORD
  2
AcDbXrecord
  3
AutoCAD 2000
 90
    32768
280
     0
281
     0
  0
CLASS
  1
SORTENTSTABLE
  2
AcDbSortentsTable
  3
AutoCAD 2000
 90
    32768
280
     0
281
     0
  0
CLASS
  1
LAYER_INDEX
  2
AcDbLayerIndex
  3
AutoCAD 2000
 90
    32768
280
     0
281
     0
  0
CLASS
  1
SPATIAL_INDEX
  2
AcDbSpatialIndex
  3
AutoCAD 2000
 90
    32768
280
     0
281
     0
  0
CLASS
  1
OBJECT_PTR
  2
CAseDLPNTableRecord
  3
"ASE-LPNTableRecord"
 90
    32769
280
     0
281
     0
  0
CLASS
  1
LAYOUT
  2
AcDbLayout
  3
AutoCAD 2000
 90
        0
280
     0
281
     0
  0
CLASS
  1
PLOTSETTINGS
  2
AcDbPlotSettings
  3
AutoCAD 2000
 90
    32768
280
     0
281
     0
  0
CLASS
  1
ACDBDICTIONARYWDFLT
  2
AcDbDictionaryWithDefault
  3
AutoCAD 2000
 90
        0
280
     0
281
     0
  0
CLASS
  1
ACDBPLACEHOLDER
  2
AcDbPlaceHolder
  3
AutoCAD 2000
 90
        0
280
     0
281
     0
  0
CLASS
  1
VBA_PROJECT
  2
AcDbVbaProject
  3
acadvba
 90
    32768
280
     0
281
     0
  0
CLASS
  1
WIPEOUT
  2
AcDbWipeout
  3
WipeOut|AutoCAD Express Tool|expresstools@autodesk.com
 90
    32895
280
     0
281
     1
  0
CLASS
  1
WIPEOUTVARIABLES
  2
AcDbWipeoutVariables
  3
WipeOut|AutoCAD Express Tool|expresstools@autodesk.com
 90
        0
280
     0
281
     0
  0
CLASS
  1
RTEXT
  2
RText
  3
RText|AutoCAD Express Tool|expresstools@autodesk.com
 90
    32768
280
     0
281
     1
  0
CLASS
  1
ARCALIGNEDTEXT
  2
AcDbArcAlignedText
  3
ATEXT|AutoCAD Express Tool|expresstools@autodesk.com
 90
    32768
280
     0
281
     1
  0
ENDSEC
  0
SECTION
  2
TABLES
  0
TABLE
  2
VPORT
  5
7
100
AcDbSymbolTable
 70
     1
  0
VPORT
  5
15
100
AcDbSymbolTableRecord
100
AcDbViewportTableRecord
  2
*ACTIVE
 70
     0
 10
0.0
 20
0.0
 11
1.0
 21
1.0
 12
6.591288
 22
4.579184
 13
0.0
 23
0.0
 14
1.0
 24
1.0
 15
0.0
 25
0.0
 16
0.0
 26
0.0
 36
1.0
 17
0.0
 27
0.0
 37
0.0
 40
9.158369
 41
0.688564
 42
50.0
 43
0.0
 44
0.0
 50
0.0
 51
0.0
 71
     0
 72
   100
 73
     1
 74
     1
 75
     0
 76
     0
 77
     0
 78
     0
281
     0
 65
     0
110
0.0
120
0.0
130
0.0
111
1.0
121
0.0
131
0.0
112
0.0
122
1.0
132
0.0
345
0
346
0
 79
     0
146
0.0
  0
ENDTAB
  0
TABLE
  2
LTYPE
  5
4
100
AcDbSymbolTable
 70
     3
  0
LTYPE
  5
11
100
AcDbSymbolTableRecord
100
AcDbLinetypeTableRecord
  2
ByBlock
 70
    64
  3

 72
    65
 73
     0
 40
0.0
  0
LTYPE
  5
12
100
AcDbSymbolTableRecord
100
AcDbLinetypeTableRecord
  2
ByLayer
 70
    64
  3

 72
    65
 73
     0
 40
0.0
  0
LTYPE
  5
13
100
AcDbSymbolTableRecord
100
AcDbLinetypeTableRecord
  2
Continuous
 70
    64
  3
Solid line
 72
    65
 73
     0
 40
0.0
  0
ENDTAB
  0
TABLE
  2
LAYER
  5
2
100
AcDbSymbolTable
 70
     2
  0
LAYER
  5
14
100
AcDbSymbolTableRecord
100
AcDbLayerTableRecord
  2
0
 70
     0
 62
     7
  6
Continuous
290
     1
370
    -3
390
1D
  0
LAYER
  5
24
100
AcDbSymbolTableRecord
100
AcDbLayerTableRecord
  2
Ebene 1
 70
     0
 62
     7
  6
Continuous
290
     1
370
    -3
390
1F
  0
ENDTAB
  0
TABLE
  2
STYLE
  5
3
100
AcDbSymbolTable
 70
     1
  0
STYLE
  5
17
100
AcDbSymbolTableRecord
100
AcDbTextStyleTableRecord
  2
Standard
 70
     0
 40
0.0
 41
1.0
 50
0.0
 71
     0
 42
0.0
  3
txt
  4

  0
ENDTAB
  0
TABLE
  2
VIEW
  5
5
100
AcDbSymbolTable
 70
     0
  0
ENDTAB
  0
TABLE
  2
UCS
  5
6
100
AcDbSymbolTable
 70
     0
  0
ENDTAB
  0
TABLE
  2
APPID
  5
8
100
AcDbSymbolTable
 70
     1
  0
APPID
  5
16
100
AcDbSymbolTableRecord
100
AcDbRegAppTableRecord
  2
ACAD
 70
     0
  0
ENDTAB
  0
TABLE
  2
DIMSTYLE
  5
9
100
AcDbSymbolTable
 70
     1
100
AcDbDimStyleTable
 71
     0
  0
DIMSTYLE
105
18
100
AcDbSymbolTableRecord
100
AcDbDimStyleTableRecord
  2
Standard
 70
     0
  3

  4

 40
1.0
 41
0.18
 42
0.0625
 43
0.38
 44
0.18
 45
0.0
 46
0.0
 47
0.0
 48
0.0
 71
     0
 72
     0
 73
     1
 74
     1
 75
     0
 76
     0
 77
     0
 78
     0
 79
     0
140
0.18
141
0.09
142
0.0
143
25.4
144
1.0
145
0.0
146
1.0
147
0.09
148
0.0
170
     0
171
     2
172
     0
173
     0
174
     0
175
     0
176
     0
177
     0
178
     0
179
     0
271
     4
272
     4
273
     2
274
     2
275
     0
276
     0
277
     2
278
    46
279
     0
280
     0
281
     0
282
     0
283
     1
284
     0
285
     0
286
     0
288
     0
340
17
341
0
342
0
343
0
344
0
371
    -2
372
    -2
  0
ENDTAB
  0
TABLE
  2
BLOCK_RECORD
  5
1
100
AcDbSymbolTable
 70
     0
  0
BLOCK_RECORD
  5
A
100
AcDbSymbolTableRecord
100
AcDbBlockTableRecord
  2
*MODEL_SPACE
340
20
  0
BLOCK_RECORD
  5
B
100
AcDbSymbolTableRecord
100
AcDbBlockTableRecord
  2
*PAPER_SPACE
340
21
  0
ENDTAB
  0
ENDSEC
  0
SECTION
  2
BLOCKS
  0
BLOCK
  5
D
100
AcDbEntity
  8
0
100
AcDbBlockBegin
  2
*MODEL_SPACE
 70
     0
 10
0.0
 20
0.0
 30
0.0
  3
*MODEL_SPACE
  1

  0
ENDBLK
  5
E
100
AcDbEntity
  8
0
100
AcDbBlockEnd
  0
BLOCK
  5
F
100
AcDbEntity
 67
     1
  8
0
100
AcDbBlockBegin
  2
*PAPER_SPACE
 70
     0
 10
0.0
 20
0.0
 30
0.0
  3
*PAPER_SPACE
  1

  0
ENDBLK
  5
10
100
AcDbEntity
 67
     1
  8
0
100
AcDbBlockEnd
  0
ENDSEC
  0
SECTION
  2
ENTITIES
  0
SPLINE
  5
25
100
AcDbEntity
  8
Ebene 1
100
AcDbSpline
210
0.0
220
0.0
230
1.0
 70
     1
 71
     3
 72
   128
 73
   124
 74
     0
 42
0.0000000001
 43
0.0000000001
 40
0.0
 40
0.0
 40
0.0
 40
0.0
 40
0.032258064516129
 40
0.032258064516129
 40
0.032258064516129
 40
0.032258064516129
 40
0.0645161290322581
 40
0.0645161290322581
 40
0.0645161290322581
 40
0.0645161290322581
 40
0.0967741935483871
 40
0.0967741935483871
 40
0.0967741935483871
 40
0.0967741935483871
 40
0.1290322580645161
 40
0.1290322580645161
 40
0.1290322580645161
 40
0.1290322580645161
 40
0.1612903225806452
 40
0.1612903225806452
 40
0.1612903225806452
 40
0.1612903225806452
 40
0.1935483870967742
 40
0.1935483870967742
 40
0.1935483870967742
 40
0.1935483870967742
 40
0.2258064516129032
 40
0.2258064516129032
 40
0.2258064516129032
 40
0.2258064516129032
 40
0.2580645161290323
 40
0.2580645161290323
 40
0.2580645161290323
 40
0.2580645161290323
 40
0.2903225806451613
 40
0.2903225806451613
 40
0.2903225806451613
 40
0.2903225806451613
 40
0.3225806451612903
 40
0.3225806451612903
 40
0.3225806451612903
 40
0.3225806451612903
 40
0.3548387096774193
 40
0.3548387096774193
 40
0.3548387096774193
 40
0.3548387096774193
 40
0.3870967741935483
 40
0.3870967741935483
 40
0.3870967741935483
 40
0.3870967741935483
 40
0.4193548387096773
 40
0.4193548387096773
 40
0.4193548387096773
 40
0.4193548387096773
 40
0.4516129032258063
 40
0.4516129032258063
 40
0.4516129032258063
 40
0.4516129032258063
 40
0.4838709677419353
 40
0.4838709677419353
 40
0.4838709677419353
 40
0.4838709677419353
 40
0.5161290322580643
 40
0.5161290322580643
 40
0.5161290322580643
 40
0.5161290322580643
 40
0.5483870967741933
 40
0.5483870967741933
 40
0.5483870967741933
 40
0.5483870967741933
 40
0.5806451612903223
 40
0.5806451612903223
 40
0.5806451612903223
 40
0.5806451612903223
 40
0.6129032258064513
 40
0.6129032258064513
 40
0.6129032258064513
 40
0.6129032258064513
 40
0.6451612903225803
 40
0.6451612903225803
 40
0.6451612903225803
 40
0.6451612903225803
 40
0.6774193548387093
 40
0.6774193548387093
 40
0.6774193548387093
 40
0.6774193548387093
 40
0.7096774193548383
 40
0.7096774193548383
 40
0.7096774193548383
 40
0.7096774193548383
 40
0.7419354838709673
 40
0.7419354838709673
 40
0.7419354838709673
 40
0.7419354838709673
 40
0.7741935483870963
 40
0.7741935483870963
 40
0.7741935483870963
 40
0.7741935483870963
 40
0.8064516129032253
 40
0.8064516129032253
 40
0.8064516129032253
 40
0.8064516129032253
 40
0.8387096774193543
 40
0.8387096774193543
 40
0.8387096774193543
 40
0.8387096774193543
 40
0.8709677419354833
 40
0.8709677419354833
 40
0.8709677419354833
 40
0.8709677419354833
 40
0.9032258064516123
 40
0.9032258064516123
 40
0.9032258064516123
 40
0.9032258064516123
 40
0.9354838709677413
 40
0.9354838709677413
 40
0.9354838709677413
 40
0.9354838709677413
 40
0.9677419354838703
 40
0.9677419354838703
 40
0.9677419354838703
 40
0.9677419354838703
 40
1.0
 40
1.0
 40
1.0
 40
1.0
 10
2.8297000000000003
 20
5.7347500000000009
 30
0.0
 10
4.0997000000000003
 20
5.7576100000000006
 30
0.0
 10
5.3849400000000003
 20
4.9498900000000008
 30
0.0
 10
5.8777000000000008
 20
3.8348300000000002
 30
0.0
 10
5.8777000000000008
 20
3.8348300000000002
 30
0.0
 10
5.9361200000000007
 20
3.3471500000000001
 30
0.0
 10
5.4586000000000006
 20
3.0626700000000002
 30
0.0
 10
5.2350800000000008
 20
2.6892900000000002
 30
0.0
 10
5.2350800000000008
 20
2.6892900000000002
 30
0.0
 10
5.2350800000000008
 20
2.6892900000000002
 30
0.0
 10
5.0268000000000006
 20
2.4962500000000003
 30
0.0
 10
5.0268000000000006
 20
2.4962500000000003
 30
0.0
 10
5.0268000000000006
 20
2.4962500000000003
 30
0.0
 10
4.6077000000000004
 20
2.4911700000000003
 30
0.0
 10
4.3664000000000005
 20
2.03905
 30
0.0
 10
4.0717600000000003
 20
1.7672700000000001
 30
0.0
 10
4.0717600000000003
 20
1.7672700000000001
 30
0.0
 10
3.5561400000000001
 20
1.2897500000000002
 30
0.0
 10
3.5002600000000004
 20
0.85287
 30
0.0
 10
3.4012000000000002
 20
0.66491
 30
0.0
 10
3.4012000000000002
 20
0.66491
 30
0.0
 10
0.7138800000000001
 20
-0.8768600000000001
 30
0.0
 10
-0.20559
 20
-4.1687000000000003
 30
0.0
 10
-2.8014700000000001
 20
-5.7689000000000004
 30
0.0
 10
-2.8014700000000001
 20
-5.7689000000000004
 30
0.0
 10
-2.9056100000000002
 20
-5.4514000000000005
 30
0.0
 10
-2.5220700000000003
 20
-4.6538400000000006
 30
0.0
 10
-2.5779500000000004
 20
-4.3033200000000003
 30
0.0
 10
-2.5779500000000004
 20
-4.3033200000000003
 30
0.0
 10
-2.1740900000000001
 20
-4.5903400000000003
 30
0.0
 10
-2.18425
 20
-3.8918400000000002
 30
0.0
 10
-2.2604500000000001
 20
-3.6200600000000005
 30
0.0
 10
-2.2604500000000001
 20
-3.6200600000000005
 30
0.0
 10
-1.8210300000000001
 20
-3.8664400000000003
 30
0.0
 10
-2.2680700000000003
 20
-3.1679400000000002
 30
0.0
 10
-2.1258300000000001
 20
-2.9342600000000001
 30
0.0
 10
-2.1258300000000001
 20
-2.9342600000000001
 30
0.0
 10
-2.1258300000000001
 20
-2.9342600000000001
 30
0.0
 10
-1.9378700000000002
 20
-3.1146000000000003
 30
0.0
 10
-1.9378700000000002
 20
-3.1146000000000003
 30
0.0
 10
-1.9378700000000002
 20
-3.1146000000000003
 30
0.0
 10
-1.7880100000000001
 20
-2.94442
 30
0.0
 10
-2.0724900000000002
 20
-2.6167600000000002
 30
0.0
 10
-1.9302500000000002
 20
-2.3653000000000004
 30
0.0
 10
-1.9302500000000002
 20
-2.3653000000000004
 30
0.0
 10
-1.8464300000000002
 20
-2.3145000000000002
 30
0.0
 10
-1.8718300000000001
 20
-2.5202400000000003
 30
0.0
 10
-1.7727700000000002
 20
-2.5126200000000001
 30
0.0
 10
-1.7727700000000002
 20
-2.5126200000000001
 30
0.0
 10
-1.6406900000000002
 20
-2.0808200000000001
 30
0.0
 10
-1.3993900000000001
 20
-1.7226800000000002
 30
0.0
 10
-1.6965700000000001
 20
-1.33152
 30
0.0
 10
-1.6965700000000001
 20
-1.33152
 30
0.0
 10
-1.4755900000000002
 20
-1.3823200000000002
 30
0.0
 10
-1.3714500000000001
 20
-1.3239000000000001
 30
0.0
 10
-1.3968500000000001
 20
-1.0318000000000001
 30
0.0
 10
-1.3968500000000001
 20
-1.0318000000000001
 30
0.0
 10
-1.37907
 20
-0.88702
 30
0.0
 10
-1.3485900000000002
 20
-0.74224
 30
0.0
 10
-1.3104900000000002
 20
-0.6025400000000001
 30
0.0
 10
-1.3104900000000002
 20
-0.6025400000000001
 30
0.0
 10
-1.6686300000000001
 20
-0.82352
 30
0.0
 10
-1.8210300000000001
 20
-1.2096
 30
0.0
 10
-1.9988300000000001
 20
-1.5652000000000001
 30
0.0
 10
-1.9988300000000001
 20
-1.5652000000000001
 30
0.0
 10
-2.11313
 20
-1.5245600000000001
 30
0.0
 10
-2.0572500000000002
 20
-1.2654800000000002
 30
0.0
 10
-2.0572500000000002
 20
-1.1410200000000001
 30
0.0
 10
-2.0572500000000002
 20
-1.1410200000000001
 30
0.0
 10
-2.39507
 20
-1.46106
 30
0.0
 10
-2.48651
 20
-1.9766800000000002
 30
0.0
 10
-2.8014700000000001
 20
-2.31704
 30
0.0
 10
-2.8014700000000001
 20
-2.31704
 30
0.0
 10
-2.8624300000000003
 20
-2.0757400000000001
 30
0.0
 10
-2.8827500000000001
 20
-1.5347200000000001
 30
0.0
 10
-3.2332700000000001
 20
-1.9766800000000002
 30
0.0
 10
-3.2332700000000001
 20
-1.9766800000000002
 30
0.0
 10
-3.5101300000000002
 20
-2.10114
 30
0.0
 10
-3.8962100000000004
 20
-3.0485600000000002
 30
0.0
 10
-3.8581100000000004
 20
-2.3221200000000004
 30
0.0
 10
-3.8581100000000004
 20
-2.3221200000000004
 30
0.0
 10
-4.22133
 20
-3.1781000000000001
 30
0.0
 10
-4.2949900000000003
 20
-2.9291800000000001
 30
0.0
 10
-4.6709100000000001
 20
-3.4829000000000003
 30
0.0
 10
-4.6709100000000001
 20
-3.4829000000000003
 30
0.0
 10
-4.8207700000000004
 20
-3.3914600000000004
 30
0.0
 10
-4.5743900000000002
 20
-3.1400000000000001
 30
0.0
 10
-4.7115500000000008
 20
-3.0993600000000003
 30
0.0
 10
-4.7115500000000008
 20
-3.0993600000000003
 30
0.0
 10
-4.7318700000000007
 20
-3.2873200000000002
 30
0.0
 10
-4.7623500000000005
 20
-3.4803600000000001
 30
0.0
 10
-4.8817300000000001
 20
-3.6276800000000002
 30
0.0
 10
-4.8817300000000001
 20
-3.6276800000000002
 30
0.0
 10
-5.1077900000000005
 20
-3.9121600000000005
 30
0.0
 10
-4.9706300000000008
 20
-3.4168600000000002
 30
0.0
 10
-5.0315900000000005
 20
-3.2771600000000003
 30
0.0
 10
-5.0315900000000005
 20
-3.2771600000000003
 30
0.0
 10
-5.3389300000000004
 20
-3.3813000000000004
 30
0.0
 10
-5.2347900000000003
 20
-3.8105600000000002
 30
0.0
 10
-5.5192700000000006
 20
-3.9578800000000003
 30
0.0
 10
-5.5192700000000006
 20
-3.9578800000000003
 30
0.0
 10
-5.4989500000000007
 20
-3.4067000000000003
 30
0.0
 10
-5.5827700000000009
 20
-3.5870400000000005
 30
0.0
 10
-5.8774100000000002
 20
-3.7343600000000001
 30
0.0
 10
-5.8774100000000002
 20
-3.7343600000000001
 30
0.0
 10
-5.74533
 20
-2.8529800000000001
 30
0.0
 10
-5.3668700000000005
 20
-1.8496800000000002
 30
0.0
 10
-4.6023300000000003
 20
-1.2375400000000001
 30
0.0
 10
-4.6023300000000003
 20
-1.2375400000000001
 30
0.0
 10
-3.9520900000000001
 20
0.09849
 30
0.0
 10
-3.0529300000000004
 20
1.1424300000000001
 30
0.0
 10
-1.9988300000000001
 20
2.1228700000000003
 30
0.0
 10
-1.9988300000000001
 20
2.1228700000000003
 30
0.0
 10
-1.9861300000000002
 20
2.4302100000000002
 30
0.0
 10
-1.9531100000000001
 20
2.7299300000000004
 30
0.0
 10
-1.84135
 20
3.01187
 30
0.0
 10
-1.84135
 20
3.01187
 30
0.0
 10
-1.6457700000000002
 20
3.3217500000000002
 30
0.0
 10
-1.25461
 20
3.5681300000000005
 30
0.0
 10
-1.08951
 20
3.7535500000000002
 30
0.0
 10
-1.08951
 20
3.7535500000000002
 30
0.0
 10
0.00268
 20
4.9752900000000002
 30
0.0
 10
1.0644
 20
5.9481100000000007
 30
0.0
 10
2.8297000000000003
 20
5.7347500000000009
 30
0.0
  0
SPLINE
  5
26
100
AcDbEntity
  8
Ebene 1
100
AcDbSpline
210
0.0
220
0.0
230
1.0
 70
     1
 71
     3
 72
    56
 73
    52
 74
     0
 42
0.0000000001
 43
0.0000000001
 40
0.0
 40
0.0
 40
0.0
 40
0.0
 40
0.0769230769230769
 40
0.0769230769230769
 40
0.0769230769230769
 40
0.0769230769230769
 40
0.1538461538461539
 40
0.1538461538461539
 40
0.1538461538461539
 40
0.1538461538461539
 40
0.2307692307692308
 40
0.2307692307692308
 40
0.2307692307692308
 40
0.2307692307692308
 40
0.3076923076923077
 40
0.3076923076923077
 40
0.3076923076923077
 40
0.3076923076923077
 40
0.3846153846153846
 40
0.3846153846153846
 40
0.3846153846153846
 40
0.3846153846153846
 40
0.4615384615384616
 40
0.4615384615384616
 40
0.4615384615384616
 40
0.4615384615384616
 40
0.5384615384615386
 40
0.5384615384615386
 40
0.5384615384615386
 40
0.5384615384615386
 40
0.6153846153846154
 40
0.6153846153846154
 40
0.6153846153846154
 40
0.6153846153846154
 40
0.6923076923076923
 40
0.6923076923076923
 40
0.6923076923076923
 40
0.6923076923076923
 40
0.7692307692307692
 40
0.7692307692307692
 40
0.7692307692307692
 40
0.7692307692307692
 40
0.846153846153846
 40
0.846153846153846
 40
0.846153846153846
 40
0.846153846153846
 40
0.9230769230769229
 40
0.9230769230769229
 40
0.9230769230769229
 40
0.9230769230769229
 40
1.0
 40
1.0
 40
1.0
 40
1.0
 10
0.40654
 20
0.29407
 30
0.0
 10
0.3151000000000001
 20
0.17977
 30
0.0
 10
0.21604
 20
0.04261
 30
0.0
 10
0.13476
 20
-0.08692
 30
0.0
 10
0.13476
 20
-0.08692
 30
0.0
 10
-1.0564900000000002
 20
-1.04196
 30
0.0
 10
-1.2292100000000001
 20
-2.6142200000000004
 30
0.0
 10
-1.8159500000000002
 20
-3.9020000000000001
 30
0.0
 10
-1.8159500000000002
 20
-3.9020000000000001
 30
0.0
 10
-1.8159500000000002
 20
-4.0848800000000001
 30
0.0
 10
-1.9835900000000002
 20
-4.2779199999999999
 30
0.0
 10
-1.9150100000000001
 20
-4.4354000000000005
 30
0.0
 10
-1.9150100000000001
 20
-4.4354000000000005
 30
0.0
 10
-1.67371
 20
-4.2931600000000003
 30
0.0
 10
-1.5136900000000002
 20
-4.0036000000000005
 30
0.0
 10
-1.33843
 20
-3.7826200000000001
 30
0.0
 10
-1.33843
 20
-3.7826200000000001
 30
0.0
 10
-1.4730500000000002
 20
-3.6759400000000002
 30
0.0
 10
-1.54671
 20
-3.4651200000000002
 30
0.0
 10
-1.42225
 20
-3.3076400000000001
 30
0.0
 10
-1.42225
 20
-3.3076400000000001
 30
0.0
 10
-1.33081
 20
-3.2924000000000002
 30
0.0
 10
-1.3435100000000002
 20
-3.4905200000000001
 30
0.0
 10
-1.2190500000000002
 20
-3.4676600000000004
 30
0.0
 10
-1.2190500000000002
 20
-3.4676600000000004
 30
0.0
 10
-0.9879100000000001
 20
-3.1450800000000001
 30
0.0
 10
-0.6500900000000001
 20
-2.6980400000000002
 30
0.0
 10
-1.0209300000000001
 20
-2.3729200000000001
 30
0.0
 10
-1.0209300000000001
 20
-2.3729200000000001
 30
0.0
 10
-1.0209300000000001
 20
-2.3729200000000001
 30
0.0
 10
-1.0209300000000001
 20
-2.1875
 30
0.0
 10
-1.0209300000000001
 20
-2.1875
 30
0.0
 10
-1.0209300000000001
 20
-2.1875
 30
0.0
 10
-0.9066300000000001
 20
-2.2179800000000003
 30
0.0
 10
-0.7516900000000001
 20
-2.4288000000000003
 30
0.0
 10
-0.5611900000000001
 20
-2.3780000000000001
 30
0.0
 10
-0.5611900000000001
 20
-2.3780000000000001
 30
0.0
 10
-0.26655
 20
-1.9512800000000001
 30
0.0
 10
0.51322
 20
-1.3950200000000001
 30
0.0
 10
0.03316
 20
-0.8540000000000001
 30
0.0
 10
0.03316
 20
-0.8540000000000001
 30
0.0
 10
0.11952
 20
-0.7676400000000001
 30
0.0
 10
0.47766
 20
-0.9352800000000001
 30
0.0
 10
0.4192400000000001
 20
-0.63302
 30
0.0
 10
0.4192400000000001
 20
-0.63302
 30
0.0
 10
0.25922
 20
-0.65334
 30
0.0
 10
-0.01255
 20
-0.6762
 30
0.0
 10
-0.08367
 20
-0.49332
 30
0.0
 10
-0.08367
 20
-0.49332
 30
0.0
 10
0.26938
 20
-0.50856
 30
0.0
 10
1.0034400000000001
 20
0.13659
 30
0.0
 10
0.40654
 20
0.29407
 30
0.0
  0
SPLINE
  5
27
100
AcDbEntity
  8
Ebene 1
 62
     7
100
AcDbSpline
210
0.0
220
0.0
230
1.0
 70
     1
 71
     3
 72
   352
 73
   348
 74
     0
 42
0.0000000001
 43
0.0000000001
 40
0.0
 40
0.0
 40
0.0
 40
0.0
 40
0.0114942528735632
 40
0.0114942528735632
 40
0.0114942528735632
 40
0.0114942528735632
 40
0.0229885057471264
 40
0.0229885057471264
 40
0.0229885057471264
 40
0.0229885057471264
 40
0.0344827586206897
 40
0.0344827586206897
 40
0.0344827586206897
 40
0.0344827586206897
 40
0.0459770114942529
 40
0.0459770114942529
 40
0.0459770114942529
 40
0.0459770114942529
 40
0.0574712643678161
 40
0.0574712643678161
 40
0.0574712643678161
 40
0.0574712643678161
 40
0.0689655172413793
 40
0.0689655172413793
 40
0.0689655172413793
 40
0.0689655172413793
 40
0.0804597701149425
 40
0.0804597701149425
 40
0.0804597701149425
 40
0.0804597701149425
 40
0.0919540229885057
 40
0.0919540229885057
 40
0.0919540229885057
 40
0.0919540229885057
 40
0.103448275862069
 40
0.103448275862069
 40
0.103448275862069
 40
0.103448275862069
 40
0.1149425287356322
 40
0.1149425287356322
 40
0.1149425287356322
 40
0.1149425287356322
 40
0.1264367816091954
 40
0.1264367816091954
 40
0.1264367816091954
 40
0.1264367816091954
 40
0.1379310344827586
 40
0.1379310344827586
 40
0.1379310344827586
 40
0.1379310344827586
 40
0.1494252873563218
 40
0.1494252873563218
 40
0.1494252873563218
 40
0.1494252873563218
 40
0.160919540229885
 40
0.160919540229885
 40
0.160919540229885
 40
0.160919540229885
 40
0.1724137931034482
 40
0.1724137931034482
 40
0.1724137931034482
 40
0.1724137931034482
 40
0.1839080459770114
 40
0.1839080459770114
 40
0.1839080459770114
 40
0.1839080459770114
 40
0.1954022988505746
 40
0.1954022988505746
 40
0.1954022988505746
 40
0.1954022988505746
 40
0.2068965517241378
 40
0.2068965517241378
 40
0.2068965517241378
 40
0.2068965517241378
 40
0.2183908045977011
 40
0.2183908045977011
 40
0.2183908045977011
 40
0.2183908045977011
 40
0.2298850574712643
 40
0.2298850574712643
 40
0.2298850574712643
 40
0.2298850574712643
 40
0.2413793103448275
 40
0.2413793103448275
 40
0.2413793103448275
 40
0.2413793103448275
 40
0.2528735632183907
 40
0.2528735632183907
 40
0.2528735632183907
 40
0.2528735632183907
 40
0.2643678160919539
 40
0.2643678160919539
 40
0.2643678160919539
 40
0.2643678160919539
 40
0.2758620689655171
 40
0.2758620689655171
 40
0.2758620689655171
 40
0.2758620689655171
 40
0.2873563218390803
 40
0.2873563218390803
 40
0.2873563218390803
 40
0.2873563218390803
 40
0.2988505747126435
 40
0.2988505747126435
 40
0.2988505747126435
 40
0.2988505747126435
 40
0.3103448275862067
 40
0.3103448275862067
 40
0.3103448275862067
 40
0.3103448275862067
 40
0.3218390804597699
 40
0.3218390804597699
 40
0.3218390804597699
 40
0.3218390804597699
 40
0.3333333333333331
 40
0.3333333333333331
 40
0.3333333333333331
 40
0.3333333333333331
 40
0.3448275862068963
 40
0.3448275862068963
 40
0.3448275862068963
 40
0.3448275862068963
 40
0.3563218390804595
 40
0.3563218390804595
 40
0.3563218390804595
 40
0.3563218390804595
 40
0.3678160919540227
 40
0.3678160919540227
 40
0.3678160919540227
 40
0.3678160919540227
 40
0.3793103448275859
 40
0.3793103448275859
 40
0.3793103448275859
 40
0.3793103448275859
 40
0.3908045977011491
 40
0.3908045977011491
 40
0.3908045977011491
 40
0.3908045977011491
 40
0.4022988505747123
 40
0.4022988505747123
 40
0.4022988505747123
 40
0.4022988505747123
 40
0.4137931034482755
 40
0.4137931034482755
 40
0.4137931034482755
 40
0.4137931034482755
 40
0.4252873563218387
 40
0.4252873563218387
 40
0.4252873563218387
 40
0.4252873563218387
 40
0.4367816091954019
 40
0.4367816091954019
 40
0.4367816091954019
 40
0.4367816091954019
 40
0.4482758620689651
 40
0.4482758620689651
 40
0.4482758620689651
 40
0.4482758620689651
 40
0.4597701149425283
 40
0.4597701149425283
 40
0.4597701149425283
 40
0.4597701149425283
 40
0.4712643678160916
 40
0.4712643678160916
 40
0.4712643678160916
 40
0.4712643678160916
 40
0.4827586206896548
 40
0.4827586206896548
 40
0.4827586206896548
 40
0.4827586206896548
 40
0.494252873563218
 40
0.494252873563218
 40
0.494252873563218
 40
0.494252873563218
 40
0.5057471264367812
 40
0.5057471264367812
 40
0.5057471264367812
 40
0.5057471264367812
 40
0.5172413793103444
 40
0.5172413793103444
 40
0.5172413793103444
 40
0.5172413793103444
 40
0.5287356321839076
 40
0.5287356321839076
 40
0.5287356321839076
 40
0.5287356321839076
 40
0.5402298850574708
 40
0.5402298850574708
 40
0.5402298850574708
 40
0.5402298850574708
 40
0.551724137931034
 40
0.551724137931034
 40
0.551724137931034
 40
0.551724137931034
 40
0.5632183908045972
 40
0.5632183908045972
 40
0.5632183908045972
 40
0.5632183908045972
 40
0.5747126436781604
 40
0.5747126436781604
 40
0.5747126436781604
 40
0.5747126436781604
 40
0.5862068965517236
 40
0.5862068965517236
 40
0.5862068965517236
 40
0.5862068965517236
 40
0.5977011494252869
 40
0.5977011494252869
 40
0.5977011494252869
 40
0.5977011494252869
 40
0.6091954022988501
 40
0.6091954022988501
 40
0.6091954022988501
 40
0.6091954022988501
 40
0.6206896551724133
 40
0.6206896551724133
 40
0.6206896551724133
 40
0.6206896551724133
 40
0.6321839080459765
 40
0.6321839080459765
 40
0.6321839080459765
 40
0.6321839080459765
 40
0.6436781609195397
 40
0.6436781609195397
 40
0.6436781609195397
 40
0.6436781609195397
 40
0.6551724137931029
 40
0.6551724137931029
 40
0.6551724137931029
 40
0.6551724137931029
 40
0.6666666666666661
 40
0.6666666666666661
 40
0.6666666666666661
 40
0.6666666666666661
 40
0.6781609195402293
 40
0.6781609195402293
 40
0.6781609195402293
 40
0.6781609195402293
 40
0.6896551724137925
 40
0.6896551724137925
 40
0.6896551724137925
 40
0.6896551724137925
 40
0.7011494252873557
 40
0.7011494252873557
 40
0.7011494252873557
 40
0.7011494252873557
 40
0.7126436781609189
 40
0.7126436781609189
 40
0.7126436781609189
 40
0.7126436781609189
 40
0.7241379310344821
 40
0.7241379310344821
 40
0.7241379310344821
 40
0.7241379310344821
 40
0.7356321839080453
 40
0.7356321839080453
 40
0.7356321839080453
 40
0.7356321839080453
 40
0.7471264367816085
 40
0.7471264367816085
 40
0.7471264367816085
 40
0.7471264367816085
 40
0.7586206896551717
 40
0.7586206896551717
 40
0.7586206896551717
 40
0.7586206896551717
 40
0.7701149425287349
 40
0.7701149425287349
 40
0.7701149425287349
 40
0.7701149425287349
 40
0.7816091954022981
 40
0.7816091954022981
 40
0.7816091954022981
 40
0.7816091954022981
 40
0.7931034482758613
 40
0.7931034482758613
 40
0.7931034482758613
 40
0.7931034482758613
 40
0.8045977011494245
 40
0.8045977011494245
 40
0.8045977011494245
 40
0.8045977011494245
 40
0.8160919540229877
 40
0.8160919540229877
 40
0.8160919540229877
 40
0.8160919540229877
 40
0.8275862068965509
 40
0.8275862068965509
 40
0.8275862068965509
 40
0.8275862068965509
 40
0.8390804597701141
 40
0.8390804597701141
 40
0.8390804597701141
 40
0.8390804597701141
 40
0.8505747126436773
 40
0.8505747126436773
 40
0.8505747126436773
 40
0.8505747126436773
 40
0.8620689655172406
 40
0.8620689655172406
 40
0.8620689655172406
 40
0.8620689655172406
 40
0.8735632183908038
 40
0.8735632183908038
 40
0.8735632183908038
 40
0.8735632183908038
 40
0.885057471264367
 40
0.885057471264367
 40
0.885057471264367
 40
0.885057471264367
 40
0.8965517241379302
 40
0.8965517241379302
 40
0.8965517241379302
 40
0.8965517241379302
 40
0.9080459770114934
 40
0.9080459770114934
 40
0.9080459770114934
 40
0.9080459770114934
 40
0.9195402298850566
 40
0.9195402298850566
 40
0.9195402298850566
 40
0.9195402298850566
 40
0.9310344827586198
 40
0.9310344827586198
 40
0.9310344827586198
 40
0.9310344827586198
 40
0.942528735632183
 40
0.942528735632183
 40
0.942528735632183
 40
0.942528735632183
 40
0.9540229885057462
 40
0.9540229885057462
 40
0.9540229885057462
 40
0.9540229885057462
 40
0.9655172413793094
 40
0.9655172413793094
 40
0.9655172413793094
 40
0.9655172413793094
 40
0.9770114942528726
 40
0.9770114942528726
 40
0.9770114942528726
 40
0.9770114942528726
 40
0.9885057471264358
 40
0.9885057471264358
 40
0.9885057471264358
 40
0.9885057471264358
 40
1.0
 40
1.0
 40
1.0
 40
1.0
 10
-0.88885
 20
-0.04628
 30
0.0
 10
-0.9980700000000001
 20
-0.21392
 30
0.0
 10
-1.1123700000000001
 20
-0.43998
 30
0.0
 10
-1.3181100000000001
 20
-0.4907800000000001
 30
0.0
 10
-1.3181100000000001
 20
-0.4907800000000001
 30
0.0
 10
-1.3511300000000002
 20
-0.40696
 30
0.0
 10
-1.00315
 20
-0.07168
 30
0.0
 10
-1.2215900000000002
 20
-0.2063
 30
0.0
 10
-1.2215900000000002
 20
-0.2063
 30
0.0
 10
-1.2215900000000002
 20
-0.2063
 30
0.0
 10
-1.4451100000000001
 20
-0.50602
 30
0.0
 10
-1.4451100000000001
 20
-0.50602
 30
0.0
 10
-1.4451100000000001
 20
-0.50602
 30
0.0
 10
-1.50353
 20
-0.5822200000000001
 30
0.0
 10
-1.6025900000000002
 20
-0.6406400000000001
 30
0.0
 10
-1.6762500000000002
 20
-0.6838200000000001
 30
0.0
 10
-1.6762500000000002
 20
-0.6838200000000001
 30
0.0
 10
-1.6533900000000001
 20
-0.38156
 30
0.0
 10
-1.5416300000000001
 20
-0.10724
 30
0.0
 10
-1.3866900000000002
 20
0.14167
 30
0.0
 10
-1.3866900000000002
 20
0.14167
 30
0.0
 10
-1.3866900000000002
 20
0.14167
 30
0.0
 10
-1.6025900000000002
 20
0.00705
 30
0.0
 10
-1.6025900000000002
 20
0.00705
 30
0.0
 10
-1.6025900000000002
 20
0.00705
 30
0.0
 10
-1.6813300000000002
 20
-0.08438
 30
0.0
 10
-1.7930900000000001
 20
-0.16312
 30
0.0
 10
-1.8997700000000002
 20
-0.1555
 30
0.0
 10
-1.8997700000000002
 20
-0.1555
 30
0.0
 10
-1.9886700000000002
 20
-0.22916
 30
0.0
 10
-1.8159500000000002
 20
-0.24694
 30
0.0
 10
-1.7727700000000002
 20
-0.29012
 30
0.0
 10
-1.7727700000000002
 20
-0.29012
 30
0.0
 10
-1.71435
 20
-0.44252
 30
0.0
 10
-1.7321300000000002
 20
-0.61016
 30
0.0
 10
-1.7880100000000001
 20
-0.76002
 30
0.0
 10
-1.7880100000000001
 20
-0.76002
 30
0.0
 10
-1.7880100000000001
 20
-0.76002
 30
0.0
 10
-1.8718300000000001
 20
-0.7066800000000001
 30
0.0
 10
-1.8718300000000001
 20
-0.7066800000000001
 30
0.0
 10
-1.8718300000000001
 20
-0.7066800000000001
 30
0.0
 10
-1.8718300000000001
 20
-0.7066800000000001
 30
0.0
 10
-1.9658100000000001
 20
-0.76256
 30
0.0
 10
-1.9658100000000001
 20
-0.76256
 30
0.0
 10
-1.9658100000000001
 20
-0.76256
 30
0.0
 10
-1.9658100000000001
 20
-0.76256
 30
0.0
 10
-1.9226300000000001
 20
-0.6482600000000001
 30
0.0
 10
-1.9226300000000001
 20
-0.6482600000000001
 30
0.0
 10
-1.9226300000000001
 20
-0.6482600000000001
 30
0.0
 10
-2.10297
 20
-0.80574
 30
0.0
 10
-2.1639300000000001
 20
-1.2350000000000001
 30
0.0
 10
-2.43825
 20
-1.16896
 30
0.0
 10
-2.43825
 20
-1.16896
 30
0.0
 10
-2.4788900000000003
 20
-1.2273800000000001
 30
0.0
 10
-2.5322300000000002
 20
-1.2756400000000001
 30
0.0
 10
-2.5881100000000004
 20
-1.3188200000000001
 30
0.0
 10
-2.5881100000000004
 20
-1.3188200000000001
 30
0.0
 10
-2.6592300000000004
 20
-1.41534
 30
0.0
 10
-2.7278100000000003
 20
-1.5245600000000001
 30
0.0
 10
-2.7684500000000001
 20
-1.62616
 30
0.0
 10
-2.7684500000000001
 20
-1.62616
 30
0.0
 10
-2.7684500000000001
 20
-1.62616
 30
0.0
 10
-2.7684500000000001
 20
-1.4534400000000001
 30
0.0
 10
-2.7684500000000001
 20
-1.4534400000000001
 30
0.0
 10
-2.7684500000000001
 20
-1.4534400000000001
 30
0.0
 10
-2.60589
 20
-1.21214
 30
0.0
 10
-2.3366500000000001
 20
-1.0622800000000001
 30
0.0
 10
-2.1334500000000003
 20
-0.86416
 30
0.0
 10
-2.1334500000000003
 20
-0.86416
 30
0.0
 10
-2.1232900000000003
 20
-0.8108200000000001
 30
0.0
 10
-2.19441
 20
-0.8590800000000001
 30
0.0
 10
-2.2147300000000003
 20
-0.86416
 30
0.0
 10
-2.2147300000000003
 20
-0.86416
 30
0.0
 10
-2.1436100000000002
 20
-0.7041400000000001
 30
0.0
 10
-2.02169
 20
-0.5161800000000001
 30
0.0
 10
-1.9962900000000001
 20
-0.3587
 30
0.0
 10
-1.9962900000000001
 20
-0.3587
 30
0.0
 10
-1.9962900000000001
 20
-0.3587
 30
0.0
 10
-2.2071100000000001
 20
-0.6406400000000001
 30
0.0
 10
-2.2071100000000001
 20
-0.6406400000000001
 30
0.0
 10
-2.2071100000000001
 20
-0.6406400000000001
 30
0.0
 10
-2.2071100000000001
 20
-0.6406400000000001
 30
0.0
 10
-2.5373100000000002
 20
-1.0140200000000001
 30
0.0
 10
-2.5373100000000002
 20
-1.0140200000000001
 30
0.0
 10
-2.5373100000000002
 20
-1.0140200000000001
 30
0.0
 10
-2.5373100000000002
 20
-1.0140200000000001
 30
0.0
 10
-3.0681700000000003
 20
-1.5499600000000002
 30
0.0
 10
-3.0681700000000003
 20
-1.5499600000000002
 30
0.0
 10
-3.0681700000000003
 20
-1.5499600000000002
 30
0.0
 10
-3.0681700000000003
 20
-1.5499600000000002
 30
0.0
 10
-2.9665700000000004
 20
-1.5118600000000002
 30
0.0
 10
-2.9665700000000004
 20
-1.5118600000000002
 30
0.0
 10
-2.9665700000000004
 20
-1.5118600000000002
 30
0.0
 10
-2.9665700000000004
 20
-1.5118600000000002
 30
0.0
 10
-2.9564100000000004
 20
-1.62616
 30
0.0
 10
-2.9564100000000004
 20
-1.62616
 30
0.0
 10
-2.9564100000000004
 20
-1.62616
 30
0.0
 10
-3.1621500000000005
 20
-1.7074400000000001
 30
0.0
 10
-3.3221700000000003
 20
-1.8827000000000003
 30
0.0
 10
-3.4898100000000003
 20
-2.01986
 30
0.0
 10
-3.4898100000000003
 20
-2.01986
 30
0.0
 10
-3.4898100000000003
 20
-2.01986
 30
0.0
 10
-3.5075900000000004
 20
-1.8268200000000001
 30
0.0
 10
-3.5075900000000004
 20
-1.8268200000000001
 30
0.0
 10
-3.5075900000000004
 20
-1.8268200000000001
 30
0.0
 10
-3.5075900000000004
 20
-1.8268200000000001
 30
0.0
 10
-3.6498300000000001
 20
-1.7226800000000002
 30
0.0
 10
-3.6498300000000001
 20
-1.7226800000000002
 30
0.0
 10
-3.6498300000000001
 20
-1.7226800000000002
 30
0.0
 10
-3.8479500000000004
 20
-1.79634
 30
0.0
 10
-3.8200100000000003
 20
-2.02494
 30
0.0
 10
-3.8377900000000005
 20
-2.1951200000000002
 30
0.0
 10
-3.8377900000000005
 20
-2.1951200000000002
 30
0.0
 10
-3.9165300000000003
 20
-2.2256
 30
0.0
 10
-3.9901900000000001
 20
-2.2764000000000002
 30
0.0
 10
-4.0536900000000005
 20
-2.3297400000000001
 30
0.0
 10
-4.0536900000000005
 20
-2.3297400000000001
 30
0.0
 10
-4.1044900000000002
 20
-2.2332200000000002
 30
0.0
 10
-3.9393900000000004
 20
-2.0808200000000001
 30
0.0
 10
-4.0384500000000001
 20
-2.05288
 30
0.0
 10
-4.0384500000000001
 20
-2.05288
 30
0.0
 10
-4.0384500000000001
 20
-2.05288
 30
0.0
 10
-4.1654500000000008
 20
-2.26878
 30
0.0
 10
-4.1654500000000008
 20
-2.26878
 30
0.0
 10
-4.1654500000000008
 20
-2.26878
 30
0.0
 10
-4.1654500000000008
 20
-2.26878
 30
0.0
 10
-4.2619700000000007
 20
-2.2459200000000004
 30
0.0
 10
-4.2619700000000007
 20
-2.2459200000000004
 30
0.0
 10
-4.2619700000000007
 20
-2.2459200000000004
 30
0.0
 10
-4.2619700000000007
 20
-2.2459200000000004
 30
0.0
 10
-4.2111700000000001
 20
-2.1570200000000002
 30
0.0
 10
-4.2111700000000001
 20
-2.1570200000000002
 30
0.0
 10
-4.2111700000000001
 20
-2.1570200000000002
 30
0.0
 10
-4.3610300000000004
 20
-2.1951200000000002
 30
0.0
 10
-4.3508700000000005
 20
-2.3881600000000001
 30
0.0
 10
-4.3889700000000005
 20
-2.5075400000000001
 30
0.0
 10
-4.3889700000000005
 20
-2.5075400000000001
 30
0.0
 10
-4.4981900000000001
 20
-2.6116800000000002
 30
0.0
 10
-4.5845500000000001
 20
-2.7234400000000001
 30
0.0
 10
-4.6404300000000003
 20
-2.8555200000000003
 30
0.0
 10
-4.6404300000000003
 20
-2.8555200000000003
 30
0.0
 10
-4.6226500000000001
 20
-2.6650200000000002
 30
0.0
 10
-4.4702500000000001
 20
-2.5126200000000001
 30
0.0
 10
-4.4194500000000003
 20
-2.3373600000000003
 30
0.0
 10
-4.4194500000000003
 20
-2.3373600000000003
 30
0.0
 10
-4.55661
 20
-2.4491200000000002
 30
0.0
 10
-4.6480500000000005
 20
-2.6828000000000003
 30
0.0
 10
-4.7318700000000007
 20
-2.8529800000000001
 30
0.0
 10
-4.7318700000000007
 20
-2.8529800000000001
 30
0.0
 10
-4.7598100000000008
 20
-2.9469600000000002
 30
0.0
 10
-4.78775
 20
-2.9876
 30
0.0
 10
-4.8741100000000008
 20
-2.9342600000000001
 30
0.0
 10
-4.8741100000000008
 20
-2.9342600000000001
 30
0.0
 10
-4.9426900000000007
 20
-3.0155400000000001
 30
0.0
 10
-5.0392100000000006
 20
-3.0638000000000001
 30
0.0
 10
-5.0163500000000001
 20
-3.1806400000000004
 30
0.0
 10
-5.0163500000000001
 20
-3.1806400000000004
 30
0.0
 10
-5.0544500000000001
 20
-3.2009600000000002
 30
0.0
 10
-5.0874700000000006
 20
-3.2441400000000002
 30
0.0
 10
-5.1281100000000004
 20
-3.2416000000000005
 30
0.0
 10
-5.1281100000000004
 20
-3.2416000000000005
 30
0.0
 10
-5.1484300000000003
 20
-2.5354800000000002
 30
0.0
 10
-4.4499300000000002
 20
-2.22052
 30
0.0
 10
-3.9851100000000002
 20
-1.8877800000000002
 30
0.0
 10
-3.9851100000000002
 20
-1.8877800000000002
 30
0.0
 10
-3.9851100000000002
 20
-1.8877800000000002
 30
0.0
 10
-4.2822900000000006
 20
-2.01986
 30
0.0
 10
-4.2822900000000006
 20
-2.01986
 30
0.0
 10
-4.2822900000000006
 20
-2.01986
 30
0.0
 10
-4.2721300000000006
 20
-1.9766800000000002
 30
0.0
 10
-4.1603700000000003
 20
-1.9030200000000002
 30
0.0
 10
-4.2365700000000004
 20
-1.8852400000000002
 30
0.0
 10
-4.2365700000000004
 20
-1.8852400000000002
 30
0.0
 10
-4.4778700000000002
 20
-2.1265400000000003
 30
0.0
 10
-4.7547300000000003
 20
-2.3221200000000004
 30
0.0
 10
-5.0544500000000001
 20
-2.48468
 30
0.0
 10
-5.0544500000000001
 20
-2.48468
 30
0.0
 10
-5.0773100000000007
 20
-2.5862800000000004
 30
0.0
 10
-4.9731700000000005
 20
-2.4999200000000004
 30
0.0
 10
-4.9553900000000004
 20
-2.5126200000000001
 30
0.0
 10
-4.9553900000000004
 20
-2.5126200000000001
 30
0.0
 10
-5.2195500000000008
 20
-2.9266400000000004
 30
0.0
 10
-5.4202100000000009
 20
-3.0282400000000003
 30
0.0
 10
-5.6818300000000006
 20
-3.4498800000000003
 30
0.0
 10
-5.6818300000000006
 20
-3.4498800000000003
 30
0.0
 10
-5.6157900000000005
 20
-2.31196
 30
0.0
 10
-4.7801300000000007
 20
-1.33152
 30
0.0
 10
-3.8377900000000005
 20
-0.7295400000000001
 30
0.0
 10
-3.8377900000000005
 20
-0.7295400000000001
 30
0.0
 10
-3.9647900000000003
 20
-0.5746
 30
0.0
 10
-4.18323
 20
-0.8946400000000001
 30
0.0
 10
-4.3381700000000007
 20
-0.9378200000000001
 30
0.0
 10
-4.3381700000000007
 20
-0.9378200000000001
 30
0.0
 10
-4.1552899999999999
 20
-0.3841000000000001
 30
0.0
 10
-3.7641300000000002
 20
0.06547
 30
0.0
 10
-3.3856700000000002
 20
0.48965
 30
0.0
 10
-3.3856700000000002
 20
0.48965
 30
0.0
 10
-3.4339300000000001
 20
0.32455
 30
0.0
 10
-3.5152100000000002
 20
0.08325
 30
0.0
 10
-3.6066500000000001
 20
-0.08692
 30
0.0
 10
-3.6066500000000001
 20
-0.08692
 30
0.0
 10
-3.3424900000000002
 20
-0.1174
 30
0.0
 10
-3.1392900000000004
 20
0.6496700000000001
 30
0.0
 10
-3.03261
 20
0.8249300000000001
 30
0.0
 10
-3.03261
 20
0.8249300000000001
 30
0.0
 10
-2.6846300000000003
 20
1.3811900000000001
 30
0.0
 10
-2.1309100000000001
 20
1.9806300000000001
 30
0.0
 10
-1.4755900000000002
 20
2.0847700000000002
 30
0.0
 10
-1.4755900000000002
 20
2.0847700000000002
 30
0.0
 10
-1.4349500000000002
 20
2.0517500000000002
 30
0.0
 10
-1.4832100000000001
 20
1.9552300000000002
 30
0.0
 10
-1.4120900000000001
 20
1.9526900000000003
 30
0.0
 10
-1.4120900000000001
 20
1.9526900000000003
 30
0.0
 10
-1.4120900000000001
 20
1.9526900000000003
 30
0.0
 10
-1.3536700000000002
 20
2.1025500000000004
 30
0.0
 10
-1.3536700000000002
 20
2.1025500000000004
 30
0.0
 10
-1.3536700000000002
 20
2.1025500000000004
 30
0.0
 10
-1.3282700000000001
 20
2.2295500000000001
 30
0.0
 10
-1.33589
 20
2.4835500000000001
 30
0.0
 10
-1.4908300000000001
 20
2.3006700000000002
 30
0.0
 10
-1.4908300000000001
 20
2.3006700000000002
 30
0.0
 10
-1.5619500000000002
 20
2.1457300000000004
 30
0.0
 10
-1.7651500000000002
 20
2.08731
 30
0.0
 10
-1.7803900000000001
 20
2.3006700000000002
 30
0.0
 10
-1.7803900000000001
 20
2.3006700000000002
 30
0.0
 10
-2.0013700000000001
 20
3.4487500000000004
 30
0.0
 10
-0.70089
 20
3.5935300000000003
 30
0.0
 10
-0.20559
 20
4.2742500000000003
 30
0.0
 10
-0.20559
 20
4.2742500000000003
 30
0.0
 10
-0.26401
 20
4.34537
 30
0.0
 10
-0.36307
 20
4.1523300000000001
 30
0.0
 10
-0.45197
 20
4.1701100000000002
 30
0.0
 10
-0.45197
 20
4.1701100000000002
 30
0.0
 10
0.03062
 20
4.9117900000000008
 30
0.0
 10
0.87136
 20
5.4553500000000001
 30
0.0
 10
1.7679800000000001
 20
5.4782100000000007
 30
0.0
 10
1.7679800000000001
 20
5.4782100000000007
 30
0.0
 10
1.5597000000000001
 20
5.2165900000000001
 30
0.0
 10
1.2498200000000002
 20
4.9371900000000002
 30
0.0
 10
1.2422000000000002
 20
4.6171500000000005
 30
0.0
 10
1.2422000000000002
 20
4.6171500000000005
 30
0.0
 10
1.9330800000000001
 20
5.8490500000000001
 30
0.0
 10
4.5188000000000006
 20
6.0344700000000007
 30
0.0
 10
4.8159800000000006
 20
4.4545900000000005
 30
0.0
 10
4.8159800000000006
 20
4.4545900000000005
 30
0.0
 10
4.8769400000000003
 20
4.2996500000000006
 30
0.0
 10
4.9353600000000002
 20
4.1497900000000003
 30
0.0
 10
5.0115600000000002
 20
4.0050100000000004
 30
0.0
 10
5.0115600000000002
 20
4.0050100000000004
 30
0.0
 10
5.1614200000000006
 20
3.9415100000000005
 30
0.0
 10
4.9226600000000005
 20
4.38347
 30
0.0
 10
4.9506000000000006
 20
4.5358700000000001
 30
0.0
 10
4.9506000000000006
 20
4.5358700000000001
 30
0.0
 10
5.3849400000000003
 20
4.50793
 30
0.0
 10
5.8624600000000004
 20
3.9161100000000002
 30
0.0
 10
5.6237000000000004
 20
3.5528900000000001
 30
0.0
 10
5.6237000000000004
 20
3.5528900000000001
 30
0.0
 10
5.5779800000000002
 20
3.5732100000000004
 30
0.0
 10
5.6237000000000004
 20
3.6265500000000004
 30
0.0
 10
5.6237000000000004
 20
3.6570300000000002
 30
0.0
 10
5.6237000000000004
 20
3.6570300000000002
 30
0.0
 10
5.6237000000000004
 20
3.7662500000000003
 30
0.0
 10
5.5500400000000001
 20
3.6163900000000004
 30
0.0
 10
5.5500400000000001
 20
3.5681300000000005
 30
0.0
 10
5.5500400000000001
 20
3.5681300000000005
 30
0.0
 10
5.5195600000000002
 20
3.1744300000000001
 30
0.0
 10
5.2046000000000001
 20
2.7324700000000002
 30
0.0
 10
4.7880400000000005
 20
2.7019900000000003
 30
0.0
 10
4.7880400000000005
 20
2.7019900000000003
 30
0.0
 10
4.7880400000000005
 20
2.8366100000000003
 30
0.0
 10
5.0115600000000002
 20
3.0575900000000003
 30
0.0
 10
4.9353600000000002
 20
3.1617300000000004
 30
0.0
 10
4.9353600000000002
 20
3.1617300000000004
 30
0.0
 10
4.7270799999999999
 20
2.8162900000000004
 30
0.0
 10
4.3384600000000004
 20
2.4505300000000001
 30
0.0
 10
3.9346000000000005
 20
2.41751
 30
0.0
 10
3.9346000000000005
 20
2.41751
 30
0.0
 10
3.7847400000000002
 20
2.4556100000000001
 30
0.0
 10
3.6348800000000003
 20
2.5445100000000003
 30
0.0
 10
3.4850200000000005
 20
2.4352900000000002
 30
0.0
 10
3.4850200000000005
 20
2.4352900000000002
 30
0.0
 10
3.6044000000000005
 20
2.41751
 30
0.0
 10
3.9650800000000004
 20
2.3921100000000002
 30
0.0
 10
3.9193600000000002
 20
2.1812900000000002
 30
0.0
 10
3.9193600000000002
 20
2.1812900000000002
 30
0.0
 10
3.6958400000000005
 20
2.1025500000000004
 30
0.0
 10
3.3377000000000003
 20
2.26003
 30
0.0
 10
3.1116400000000004
 20
2.0466700000000002
 30
0.0
 10
3.1116400000000004
 20
2.0466700000000002
 30
0.0
 10
2.9338400000000004
 20
2.3438500000000002
 30
0.0
 10
3.2462600000000004
 20
2.6257900000000003
 30
0.0
 10
3.3377000000000003
 20
2.8772500000000001
 30
0.0
 10
3.3377000000000003
 20
2.8772500000000001
 30
0.0
 10
3.2919800000000001
 20
2.9534500000000001
 30
0.0
 10
3.2310200000000004
 20
3.0245700000000002
 30
0.0
 10
3.2310200000000004
 20
3.1160100000000002
 30
0.0
 10
3.2310200000000004
 20
3.1160100000000002
 30
0.0
 10
2.7535000000000003
 20
3.2023700000000002
 30
0.0
 10
2.8881200000000002
 20
3.9161100000000002
 30
0.0
 10
2.3369400000000002
 20
3.8195900000000003
 30
0.0
 10
2.3369400000000002
 20
3.8195900000000003
 30
0.0
 10
2.8144600000000004
 20
3.7154500000000001
 30
0.0
 10
2.7535000000000003
 20
3.1693500000000001
 30
0.0
 10
3.0227400000000002
 20
2.8645500000000004
 30
0.0
 10
3.0227400000000002
 20
2.8645500000000004
 30
0.0
 10
2.9033600000000002
 20
2.7400900000000004
 30
0.0
 10
2.7839800000000001
 20
2.6080100000000002
 30
0.0
 10
2.7382600000000004
 20
2.4479900000000003
 30
0.0
 10
2.7382600000000004
 20
2.4479900000000003
 30
0.0
 10
3.0684600000000004
 20
1.6453500000000001
 30
0.0
 10
2.4106000000000001
 20
1.53105
 30
0.0
 10
1.8568800000000001
 20
1.27197
 30
0.0
 10
1.8568800000000001
 20
1.27197
 30
0.0
 10
1.8137000000000001
 20
1.2186300000000001
 30
0.0
 10
1.7375
 20
1.1729100000000001
 30
0.0
 10
1.7375
 20
1.10687
 30
0.0
 10
1.7375
 20
1.10687
 30
0.0
 10
1.8416400000000002
 20
1.07131
 30
0.0
 10
1.9330800000000001
 20
1.2465700000000002
 30
0.0
 10
2.0219800000000001
 20
1.2922900000000002
 30
0.0
 10
2.0219800000000001
 20
1.2922900000000002
 30
0.0
 10
2.3369400000000002
 20
-0.09454
 30
0.0
 10
0.5487800000000001
 20
0.4439300000000001
 30
0.0
 10
-0.21829
 20
0.39821
 30
0.0
 10
-0.21829
 20
0.39821
 30
0.0
 10
-0.23353
 20
0.3905900000000001
 30
0.0
 10
-0.25893
 20
0.35249
 30
0.0
 10
-0.23607
 20
0.3372500000000001
 30
0.0
 10
-0.23607
 20
0.3372500000000001
 30
0.0
 10
0.05856
 20
0.39821
 30
0.0
 10
-0.31481
 20
-0.05898
 30
0.0
 10
-0.49769
 20
-0.07168
 30
0.0
 10
-0.49769
 20
-0.07168
 30
0.0
 10
-0.5789700000000001
 20
0.14675
 30
0.0
 10
-0.13193
 20
0.7106300000000001
 30
0.0
 10
-0.35545
 20
0.6268100000000001
 30
0.0
 10
-0.35545
 20
0.6268100000000001
 30
0.0
 10
-0.35545
 20
0.6268100000000001
 30
0.0
 10
-0.53071
 20
0.30931
 30
0.0
 10
-0.53071
 20
0.30931
 30
0.0
 10
-0.53071
 20
0.30931
 30
0.0
 10
-0.6450100000000001
 20
0.21533
 30
0.0
 10
-0.5611900000000001
 20
-0.09962
 30
0.0
 10
-0.7364500000000001
 20
-0.01326
 30
0.0
 10
-0.7364500000000001
 20
-0.01326
 30
0.0
 10
-0.5459500000000001
 20
0.25851
 30
0.0
 10
-0.8736100000000001
 20
0.11627
 30
0.0
 10
-0.88885
 20
-0.04628
 30
0.0
  0
SPLINE
  5
28
100
AcDbEntity
  8
Ebene 1
100
AcDbSpline
210
0.0
220
0.0
230
1.0
 70
     1
 71
     3
 72
    32
 73
    28
 74
     0
 42
0.0000000001
 43
0.0000000001
 40
0.0
 40
0.0
 40
0.0
 40
0.0
 40
0.1428571428571429
 40
0.1428571428571429
 40
0.1428571428571429
 40
0.1428571428571429
 40
0.2857142857142857
 40
0.2857142857142857
 40
0.2857142857142857
 40
0.2857142857142857
 40
0.4285714285714286
 40
0.4285714285714286
 40
0.4285714285714286
 40
0.4285714285714286
 40
0.5714285714285714
 40
0.5714285714285714
 40
0.5714285714285714
 40
0.5714285714285714
 40
0.7142857142857142
 40
0.7142857142857142
 40
0.7142857142857142
 40
0.7142857142857142
 40
0.857142857142857
 40
0.857142857142857
 40
0.857142857142857
 40
0.857142857142857
 40
1.0
 40
1.0
 40
1.0
 40
1.0
 10
-0.5002300000000001
 20
3.8500700000000001
 30
0.0
 10
-0.4494300000000001
 20
3.7027500000000004
 30
0.0
 10
-0.56881
 20
3.5046300000000001
 30
0.0
 10
-0.5611900000000001
 20
3.3293700000000004
 30
0.0
 10
-0.5611900000000001
 20
3.3293700000000004
 30
0.0
 10
-0.5154700000000001
 20
3.1160100000000002
 30
0.0
 10
-0.27163
 20
3.4081100000000002
 30
0.0
 10
-0.11161
 20
3.3877900000000003
 30
0.0
 10
-0.11161
 20
3.3877900000000003
 30
0.0
 10
0.04078
 20
3.4487500000000004
 30
0.0
 10
0.19318
 20
3.5249500000000005
 30
0.0
 10
0.36336
 20
3.5376500000000002
 30
0.0
 10
0.36336
 20
3.5376500000000002
 30
0.0
 10
0.4395600000000001
 20
3.5655900000000003
 30
0.0
 10
0.5462400000000001
 20
3.5960700000000001
 30
0.0
 10
0.61736
 20
3.5681300000000005
 30
0.0
 10
0.61736
 20
3.5681300000000005
 30
0.0
 10
0.15
 20
3.3496900000000003
 30
0.0
 10
-0.40879
 20
3.1896700000000004
 30
0.0
 10
-0.7669300000000001
 20
2.7781900000000004
 30
0.0
 10
-0.7669300000000001
 20
2.7781900000000004
 30
0.0
 10
-0.71867
 20
2.9204300000000001
 30
0.0
 10
-0.7059700000000001
 20
3.0499700000000001
 30
0.0
 10
-0.7110500000000001
 20
3.2099900000000003
 30
0.0
 10
-0.7110500000000001
 20
3.2099900000000003
 30
0.0
 10
-0.7034300000000001
 20
3.4411300000000002
 30
0.0
 10
-0.6094500000000001
 20
3.6519500000000003
 30
0.0
 10
-0.5002300000000001
 20
3.8500700000000001
 30
0.0
  0
SPLINE
  5
29
100
AcDbEntity
  8
Ebene 1
100
AcDbSpline
210
0.0
220
0.0
230
1.0
 70
     1
 71
     3
 72
    24
 73
    20
 74
     0
 42
0.0000000001
 43
0.0000000001
 40
0.0
 40
0.0
 40
0.0
 40
0.0
 40
0.2
 40
0.2
 40
0.2
 40
0.2
 40
0.4
 40
0.4
 40
0.4
 40
0.4
 40
0.6000000000000001
 40
0.6000000000000001
 40
0.6000000000000001
 40
0.6000000000000001
 40
0.8
 40
0.8
 40
0.8
 40
0.8
 40
1.0
 40
1.0
 40
1.0
 40
1.0
 10
1.6638400000000002
 20
3.7764100000000003
 30
0.0
 10
1.8416400000000002
 20
3.7865700000000002
 30
0.0
 10
1.9915000000000003
 20
3.7433900000000002
 30
0.0
 10
2.1413600000000002
 20
3.6773500000000001
 30
0.0
 10
2.1413600000000002
 20
3.6773500000000001
 30
0.0
 10
2.2607400000000002
 20
3.5859100000000002
 30
0.0
 10
2.42584
 20
3.4944700000000002
 30
0.0
 10
2.4106000000000001
 20
3.3166700000000002
 30
0.0
 10
2.4106000000000001
 20
3.3166700000000002
 30
0.0
 10
2.03722
 20
3.6595700000000004
 30
0.0
 10
1.4276200000000001
 20
3.7078300000000004
 30
0.0
 10
0.9805800000000001
 20
3.4665300000000001
 30
0.0
 10
0.9805800000000001
 20
3.4665300000000001
 30
0.0
 10
1.0313800000000002
 20
3.5681300000000005
 30
0.0
 10
1.1812400000000001
 20
3.5630500000000005
 30
0.0
 10
1.2803000000000002
 20
3.6392500000000001
 30
0.0
 10
1.2803000000000002
 20
3.6392500000000001
 30
0.0
 10
1.40222
 20
3.6951300000000002
 30
0.0
 10
1.5444600000000002
 20
3.7408500000000005
 30
0.0
 10
1.6638400000000002
 20
3.7764100000000003
 30
0.0
  0
SPLINE
  5
2A
100
AcDbEntity
  8
Ebene 1
100
AcDbSpline
210
0.0
220
0.0
230
1.0
 70
     1
 71
     3
 72
    68
 73
    64
 74
     0
 42
0.0000000001
 43
0.0000000001
 40
0.0
 40
0.0
 40
0.0
 40
0.0
 40
0.0625
 40
0.0625
 40
0.0625
 40
0.0625
 40
0.125
 40
0.125
 40
0.125
 40
0.125
 40
0.1875
 40
0.1875
 40
0.1875
 40
0.1875
 40
0.25
 40
0.25
 40
0.25
 40
0.25
 40
0.3125
 40
0.3125
 40
0.3125
 40
0.3125
 40
0.375
 40
0.375
 40
0.375
 40
0.375
 40
0.4375
 40
0.4375
 40
0.4375
 40
0.4375
 40
0.5
 40
0.5
 40
0.5
 40
0.5
 40
0.5625
 40
0.5625
 40
0.5625
 40
0.5625
 40
0.625
 40
0.625
 40
0.625
 40
0.625
 40
0.6875
 40
0.6875
 40
0.6875
 40
0.6875
 40
0.75
 40
0.75
 40
0.75
 40
0.75
 40
0.8125
 40
0.8125
 40
0.8125
 40
0.8125
 40
0.875
 40
0.875
 40
0.875
 40
0.875
 40
0.9375
 40
0.9375
 40
0.9375
 40
0.9375
 40
1.0
 40
1.0
 40
1.0
 40
1.0
 10
1.8365600000000002
 20
3.2277700000000005
 30
0.0
 10
1.8365600000000002
 20
3.2277700000000005
 30
0.0
 10
1.5419200000000002
 20
3.1439500000000002
 30
0.0
 10
1.5419200000000002
 20
3.1439500000000002
 30
0.0
 10
1.5419200000000002
 20
3.1439500000000002
 30
0.0
 10
1.5419200000000002
 20
3.1439500000000002
 30
0.0
 10
1.3361800000000001
 20
3.0499700000000001
 30
0.0
 10
1.3361800000000001
 20
3.0499700000000001
 30
0.0
 10
1.3361800000000001
 20
3.0499700000000001
 30
0.0
 10
1.3361800000000001
 20
3.0499700000000001
 30
0.0
 10
1.14568
 20
2.8670900000000001
 30
0.0
 10
1.14568
 20
2.8670900000000001
 30
0.0
 10
1.14568
 20
2.8670900000000001
 30
0.0
 10
1.14568
 20
2.8670900000000001
 30
0.0
 10
1.06948
 20
2.7502500000000003
 30
0.0
 10
1.06948
 20
2.7502500000000003
 30
0.0
 10
1.06948
 20
2.7502500000000003
 30
0.0
 10
1.06948
 20
2.7502500000000003
 30
0.0
 10
1.23458
 20
2.7731100000000004
 30
0.0
 10
1.23458
 20
2.7731100000000004
 30
0.0
 10
1.23458
 20
2.7731100000000004
 30
0.0
 10
1.5444600000000002
 20
2.8924900000000004
 30
0.0
 10
1.8568800000000001
 20
2.6791300000000002
 30
0.0
 10
2.0677000000000003
 20
2.4581500000000003
 30
0.0
 10
2.0677000000000003
 20
2.4581500000000003
 30
0.0
 10
2.0829400000000002
 20
2.3768700000000003
 30
0.0
 10
1.9915000000000003
 20
2.4784700000000002
 30
0.0
 10
2.0067400000000002
 20
2.41751
 30
0.0
 10
2.0067400000000002
 20
2.41751
 30
0.0
 10
2.17184
 20
1.9044300000000001
 30
0.0
 10
1.8416400000000002
 20
1.2643500000000001
 30
0.0
 10
1.2955400000000001
 20
1.1729100000000001
 30
0.0
 10
1.2955400000000001
 20
1.1729100000000001
 30
0.0
 10
1.2955400000000001
 20
1.1729100000000001
 30
0.0
 10
1.1990200000000002
 20
1.1322700000000001
 30
0.0
 10
1.1990200000000002
 20
1.1322700000000001
 30
0.0
 10
1.1990200000000002
 20
1.1322700000000001
 30
0.0
 10
1.2828400000000002
 20
1.0560700000000001
 30
0.0
 10
1.4149200000000002
 20
1.06115
 30
0.0
 10
1.52922
 20
1.0535300000000001
 30
0.0
 10
1.52922
 20
1.0535300000000001
 30
0.0
 10
0.9983600000000001
 20
0.7741300000000001
 30
0.0
 10
0.49798
 20
0.9697100000000001
 30
0.0
 10
0.36336
 20
1.4142100000000002
 30
0.0
 10
0.36336
 20
1.4142100000000002
 30
0.0
 10
0.36336
 20
1.4142100000000002
 30
0.0
 10
0.24906
 20
1.39897
 30
0.0
 10
0.24906
 20
1.39897
 30
0.0
 10
0.24906
 20
1.39897
 30
0.0
 10
-0.12685
 20
0.9646300000000001
 30
0.0
 10
-0.9853700000000001
 20
1.1602100000000002
 30
0.0
 10
-1.00569
 20
1.7723500000000001
 30
0.0
 10
-1.00569
 20
1.7723500000000001
 30
0.0
 10
-0.9040900000000001
 20
1.4116700000000002
 30
0.0
 10
-0.3859300000000001
 20
1.2516500000000002
 30
0.0
 10
-0.01255
 20
1.4192900000000002
 30
0.0
 10
-0.01255
 20
1.4192900000000002
 30
0.0
 10
0.00268
 20
1.44215
 30
0.0
 10
0.4522600000000001
 20
2.3565500000000004
 30
0.0
 10
0.9805800000000001
 20
2.8797900000000003
 30
0.0
 10
0.9805800000000001
 20
2.8797900000000003
 30
0.0
 10
1.2396600000000002
 20
3.1363300000000001
 30
0.0
 10
1.4073000000000002
 20
3.2099900000000003
 30
0.0
 10
1.8365600000000002
 20
3.2277700000000005
 30
0.0
  0
SPLINE
  5
2B
100
AcDbEntity
  8
Ebene 1
100
AcDbSpline
210
0.0
220
0.0
230
1.0
 70
     1
 71
     3
 72
    20
 73
    16
 74
     0
 42
0.0000000001
 43
0.0000000001
 40
0.0
 40
0.0
 40
0.0
 40
0.0
 40
0.25
 40
0.25
 40
0.25
 40
0.25
 40
0.5
 40
0.5
 40
0.5
 40
0.5
 40
0.75
 40
0.75
 40
0.75
 40
0.75
 40
1.0
 40
1.0
 40
1.0
 40
1.0
 10
1.8137000000000001
 20
2.9686900000000001
 30
0.0
 10
1.8137000000000001
 20
2.9686900000000001
 30
0.0
 10
2.1870800000000004
 20
2.9204300000000001
 30
0.0
 10
2.1870800000000004
 20
2.9204300000000001
 30
0.0
 10
2.1870800000000004
 20
2.9204300000000001
 30
0.0
 10
2.3801200000000002
 20
2.6715100000000001
 30
0.0
 10
2.5147400000000002
 20
2.2803500000000003
 30
0.0
 10
2.3217000000000003
 20
2.0034900000000002
 30
0.0
 10
2.3217000000000003
 20
2.0034900000000002
 30
0.0
 10
2.3953600000000002
 20
2.3590900000000001
 30
0.0
 10
2.2175600000000002
 20
2.8467700000000002
 30
0.0
 10
1.7984600000000002
 20
2.9128100000000003
 30
0.0
 10
1.7984600000000002
 20
2.9128100000000003
 30
0.0
 10
1.7679800000000001
 20
2.9356700000000004
 30
0.0
 10
1.7984600000000002
 20
2.9534500000000001
 30
0.0
 10
1.8137000000000001
 20
2.9686900000000001
 30
0.0
  0
SPLINE
  5
2C
100
AcDbEntity
  8
Ebene 1
 62
     7
100
AcDbSpline
210
0.0
220
0.0
230
1.0
 70
     1
 71
     3
 72
    24
 73
    20
 74
     0
 42
0.0000000001
 43
0.0000000001
 40
0.0
 40
0.0
 40
0.0
 40
0.0
 40
0.2
 40
0.2
 40
0.2
 40
0.2
 40
0.4
 40
0.4
 40
0.4
 40
0.4
 40
0.6000000000000001
 40
0.6000000000000001
 40
0.6000000000000001
 40
0.6000000000000001
 40
0.8
 40
0.8
 40
0.8
 40
0.8
 40
1.0
 40
1.0
 40
1.0
 40
1.0
 10
1.2599800000000001
 20
2.7019900000000003
 30
0.0
 10
1.2599800000000001
 20
2.7019900000000003
 30
0.0
 10
1.4352400000000001
 20
2.6969100000000004
 30
0.0
 10
1.4352400000000001
 20
2.6969100000000004
 30
0.0
 10
1.4352400000000001
 20
2.6969100000000004
 30
0.0
 10
1.2574400000000001
 20
2.6283300000000001
 30
0.0
 10
1.0466200000000001
 20
2.5800700000000001
 30
0.0
 10
0.8764400000000001
 20
2.4810100000000004
 30
0.0
 10
0.8764400000000001
 20
2.4810100000000004
 30
0.0
 10
0.86882
 20
2.5191100000000004
 30
0.0
 10
0.9069200000000001
 20
2.5495900000000002
 30
0.0
 10
0.93486
 20
2.5775300000000003
 30
0.0
 10
0.93486
 20
2.5775300000000003
 30
0.0
 10
0.93486
 20
2.5775300000000003
 30
0.0
 10
1.0771000000000002
 20
2.6308700000000003
 30
0.0
 10
1.0771000000000002
 20
2.6308700000000003
 30
0.0
 10
1.0771000000000002
 20
2.6308700000000003
 30
0.0
 10
1.0771000000000002
 20
2.6308700000000003
 30
0.0
 10
1.2599800000000001
 20
2.7019900000000003
 30
0.0
 10
1.2599800000000001
 20
2.7019900000000003
 30
0.0
  0
SPLINE
  5
2D
100
AcDbEntity
  8
Ebene 1
100
AcDbSpline
210
0.0
220
0.0
230
1.0
 70
     1
 71
     3
 72
    20
 73
    16
 74
     0
 42
0.0000000001
 43
0.0000000001
 40
0.0
 40
0.0
 40
0.0
 40
0.0
 40
0.25
 40
0.25
 40
0.25
 40
0.25
 40
0.5
 40
0.5
 40
0.5
 40
0.5
 40
0.75
 40
0.75
 40
0.75
 40
0.75
 40
1.0
 40
1.0
 40
1.0
 40
1.0
 10
-0.63485
 20
2.34131
 30
0.0
 10
-0.61707
 20
2.3438500000000002
 30
0.0
 10
-0.57643
 20
2.3438500000000002
 30
0.0
 10
-0.59421
 20
2.3159100000000001
 30
0.0
 10
-0.59421
 20
2.3159100000000001
 30
0.0
 10
-0.8431300000000001
 20
2.2016100000000001
 30
0.0
 10
-1.04125
 20
1.9679300000000002
 30
0.0
 10
-1.0691900000000001
 20
1.69869
 30
0.0
 10
-1.0691900000000001
 20
1.69869
 30
0.0
 10
-1.16825
 20
1.7494900000000002
 30
0.0
 10
-1.21397
 20
1.8866500000000002
 30
0.0
 10
-1.2444500000000001
 20
1.9806300000000001
 30
0.0
 10
-1.2444500000000001
 20
1.9806300000000001
 30
0.0
 10
-1.2444500000000001
 20
1.9806300000000001
 30
0.0
 10
-0.63485
 20
2.34131
 30
0.0
 10
-0.63485
 20
2.34131
 30
0.0
  0
SPLINE
  5
2E
100
AcDbEntity
  8
Ebene 1
 62
     7
100
AcDbSpline
210
0.0
220
0.0
230
1.0
 70
     1
 71
     3
 72
    12
 73
     8
 74
     0
 42
0.0000000001
 43
0.0000000001
 40
0.0
 40
0.0
 40
0.0
 40
0.0
 40
0.5
 40
0.5
 40
0.5
 40
0.5
 40
1.0
 40
1.0
 40
1.0
 40
1.0
 10
1.3031600000000001
 20
2.2524100000000002
 30
0.0
 10
1.1609200000000002
 20
2.0288900000000001
 30
0.0
 10
0.9297800000000001
 20
1.7164700000000002
 30
0.0
 10
0.6072000000000001
 20
1.6885300000000001
 30
0.0
 10
0.6072000000000001
 20
1.6885300000000001
 30
0.0
 10
0.7494400000000001
 20
1.9577700000000002
 30
0.0
 10
0.9780400000000001
 20
2.2473300000000003
 30
0.0
 10
1.3031600000000001
 20
2.2524100000000002
 30
0.0
  0
SPLINE
  5
2F
100
AcDbEntity
  8
Ebene 1
 62
     7
100
AcDbSpline
210
0.0
220
0.0
230
1.0
 70
     1
 71
     3
 72
   172
 73
   168
 74
     0
 42
0.0000000001
 43
0.0000000001
 40
0.0
 40
0.0
 40
0.0
 40
0.0
 40
0.0238095238095238
 40
0.0238095238095238
 40
0.0238095238095238
 40
0.0238095238095238
 40
0.0476190476190476
 40
0.0476190476190476
 40
0.0476190476190476
 40
0.0476190476190476
 40
0.0714285714285714
 40
0.0714285714285714
 40
0.0714285714285714
 40
0.0714285714285714
 40
0.0952380952380952
 40
0.0952380952380952
 40
0.0952380952380952
 40
0.0952380952380952
 40
0.119047619047619
 40
0.119047619047619
 40
0.119047619047619
 40
0.119047619047619
 40
0.1428571428571429
 40
0.1428571428571429
 40
0.1428571428571429
 40
0.1428571428571429
 40
0.1666666666666667
 40
0.1666666666666667
 40
0.1666666666666667
 40
0.1666666666666667
 40
0.1904761904761905
 40
0.1904761904761905
 40
0.1904761904761905
 40
0.1904761904761905
 40
0.2142857142857143
 40
0.2142857142857143
 40
0.2142857142857143
 40
0.2142857142857143
 40
0.2380952380952381
 40
0.2380952380952381
 40
0.2380952380952381
 40
0.2380952380952381
 40
0.2619047619047619
 40
0.2619047619047619
 40
0.2619047619047619
 40
0.2619047619047619
 40
0.2857142857142857
 40
0.2857142857142857
 40
0.2857142857142857
 40
0.2857142857142857
 40
0.3095238095238095
 40
0.3095238095238095
 40
0.3095238095238095
 40
0.3095238095238095
 40
0.3333333333333334
 40
0.3333333333333334
 40
0.3333333333333334
 40
0.3333333333333334
 40
0.3571428571428572
 40
0.3571428571428572
 40
0.3571428571428572
 40
0.3571428571428572
 40
0.380952380952381
 40
0.380952380952381
 40
0.380952380952381
 40
0.380952380952381
 40
0.4047619047619049
 40
0.4047619047619049
 40
0.4047619047619049
 40
0.4047619047619049
 40
0.4285714285714287
 40
0.4285714285714287
 40
0.4285714285714287
 40
0.4285714285714287
 40
0.4523809523809526
 40
0.4523809523809526
 40
0.4523809523809526
 40
0.4523809523809526
 40
0.4761904761904764
 40
0.4761904761904764
 40
0.4761904761904764
 40
0.4761904761904764
 40
0.5000000000000002
 40
0.5000000000000002
 40
0.5000000000000002
 40
0.5000000000000002
 40
0.5238095238095241
 40
0.5238095238095241
 40
0.5238095238095241
 40
0.5238095238095241
 40
0.5476190476190479
 40
0.5476190476190479
 40
0.5476190476190479
 40
0.5476190476190479
 40
0.5714285714285717
 40
0.5714285714285717
 40
0.5714285714285717
 40
0.5714285714285717
 40
0.5952380952380956
 40
0.5952380952380956
 40
0.5952380952380956
 40
0.5952380952380956
 40
0.6190476190476194
 40
0.6190476190476194
 40
0.6190476190476194
 40
0.6190476190476194
 40
0.6428571428571432
 40
0.6428571428571432
 40
0.6428571428571432
 40
0.6428571428571432
 40
0.6666666666666671
 40
0.6666666666666671
 40
0.6666666666666671
 40
0.6666666666666671
 40
0.6904761904761909
 40
0.6904761904761909
 40
0.6904761904761909
 40
0.6904761904761909
 40
0.7142857142857148
 40
0.7142857142857148
 40
0.7142857142857148
 40
0.7142857142857148
 40
0.7380952380952386
 40
0.7380952380952386
 40
0.7380952380952386
 40
0.7380952380952386
 40
0.7619047619047624
 40
0.7619047619047624
 40
0.7619047619047624
 40
0.7619047619047624
 40
0.7857142857142863
 40
0.7857142857142863
 40
0.7857142857142863
 40
0.7857142857142863
 40
0.8095238095238101
 40
0.8095238095238101
 40
0.8095238095238101
 40
0.8095238095238101
 40
0.8333333333333339
 40
0.8333333333333339
 40
0.8333333333333339
 40
0.8333333333333339
 40
0.8571428571428578
 40
0.8571428571428578
 40
0.8571428571428578
 40
0.8571428571428578
 40
0.8809523809523816
 40
0.8809523809523816
 40
0.8809523809523816
 40
0.8809523809523816
 40
0.9047619047619054
 40
0.9047619047619054
 40
0.9047619047619054
 40
0.9047619047619054
 40
0.9285714285714293
 40
0.9285714285714293
 40
0.9285714285714293
 40
0.9285714285714293
 40
0.9523809523809531
 40
0.9523809523809531
 40
0.9523809523809531
 40
0.9523809523809531
 40
0.9761904761904769
 40
0.9761904761904769
 40
0.9761904761904769
 40
0.9761904761904769
 40
1.0
 40
1.0
 40
1.0
 40
1.0
 10
3.5612200000000005
 20
1.27959
 30
0.0
 10
3.5612200000000005
 20
1.27959
 30
0.0
 10
3.2767400000000002
 20
0.7334900000000001
 30
0.0
 10
3.2767400000000002
 20
0.7334900000000001
 30
0.0
 10
3.2767400000000002
 20
0.7334900000000001
 30
0.0
 10
3.1268800000000003
 20
0.6344300000000001
 30
0.0
 10
2.9922600000000004
 20
0.53791
 30
0.0
 10
2.8449400000000002
 20
0.45917
 30
0.0
 10
2.8449400000000002
 20
0.45917
 30
0.0
 10
2.9338400000000004
 20
0.5683900000000001
 30
0.0
 10
3.0379800000000001
 20
0.6776100000000001
 30
0.0
 10
3.1116400000000004
 20
0.7995300000000001
 30
0.0
 10
3.1116400000000004
 20
0.7995300000000001
 30
0.0
 10
2.54522
 20
0.24327
 30
0.0
 10
2.0219800000000001
 20
-0.34346
 30
0.0
 10
1.3844400000000001
 20
-0.78034
 30
0.0
 10
1.3844400000000001
 20
-0.78034
 30
0.0
 10
1.3844400000000001
 20
-0.78034
 30
0.0
 10
1.6486000000000001
 20
-0.02088
 30
0.0
 10
1.6486000000000001
 20
-0.02088
 30
0.0
 10
1.6486000000000001
 20
-0.02088
 30
0.0
 10
1.3793600000000001
 20
-0.5593600000000001
 30
0.0
 10
1.11012
 20
-1.1003800000000001
 30
0.0
 10
0.7265800000000001
 20
-1.5728200000000001
 30
0.0
 10
0.7265800000000001
 20
-1.5728200000000001
 30
0.0
 10
0.3786000000000001
 20
-2.2840200000000004
 30
0.0
 10
-0.05065
 20
-3.0180800000000003
 30
0.0
 10
-0.6653300000000001
 20
-3.5438600000000005
 30
0.0
 10
-0.6653300000000001
 20
-3.5438600000000005
 30
0.0
 10
-0.5408700000000001
 20
-3.1476200000000003
 30
0.0
 10
-0.19543
 20
-2.8377400000000002
 30
0.0
 10
-0.01255
 20
-2.4719800000000003
 30
0.0
 10
-0.01255
 20
-2.4719800000000003
 30
0.0
 10
-0.34529
 20
-2.8225000000000002
 30
0.0
 10
-0.6043700000000001
 20
-3.2974800000000002
 30
0.0
 10
-0.9599700000000001
 20
-3.6505400000000003
 30
0.0
 10
-0.9599700000000001
 20
-3.6505400000000003
 30
0.0
 10
-0.94981
 20
-3.7597600000000004
 30
0.0
 10
-0.8507500000000001
 20
-3.5946600000000002
 30
0.0
 10
-0.80249
 20
-3.5768800000000005
 30
0.0
 10
-0.80249
 20
-3.5768800000000005
 30
0.0
 10
-0.94981
 20
-3.9705800000000004
 30
0.0
 10
-1.1885700000000001
 20
-4.3287200000000006
 30
0.0
 10
-1.5187700000000002
 20
-4.6055800000000007
 30
0.0
 10
-1.5187700000000002
 20
-4.6055800000000007
 30
0.0
 10
-1.46289
 20
-4.4709600000000007
 30
0.0
 10
-1.38161
 20
-4.3465000000000007
 30
0.0
 10
-1.29525
 20
-4.2271200000000002
 30
0.0
 10
-1.29525
 20
-4.2271200000000002
 30
0.0
 10
-1.29525
 20
-4.2271200000000002
 30
0.0
 10
-1.1174500000000001
 20
-3.8893000000000004
 30
0.0
 10
-1.1174500000000001
 20
-3.8893000000000004
 30
0.0
 10
-1.1174500000000001
 20
-3.8893000000000004
 30
0.0
 10
-1.2393700000000001
 20
-3.9629600000000003
 30
0.0
 10
-1.3104900000000002
 20
-4.1483800000000004
 30
0.0
 10
-1.3968500000000001
 20
-4.2753800000000002
 30
0.0
 10
-1.3968500000000001
 20
-4.2753800000000002
 30
0.0
 10
-1.6457700000000002
 20
-4.5700200000000004
 30
0.0
 10
-1.8032500000000002
 20
-4.9281600000000001
 30
0.0
 10
-2.1182100000000004
 20
-5.1694600000000008
 30
0.0
 10
-2.1182100000000004
 20
-5.1694600000000008
 30
0.0
 10
-2.2909300000000004
 20
-5.3066200000000006
 30
0.0
 10
-2.4560300000000002
 20
-5.4818800000000003
 30
0.0
 10
-2.6643100000000004
 20
-5.5428400000000009
 30
0.0
 10
-2.6643100000000004
 20
-5.5428400000000009
 30
0.0
 10
-2.1537700000000002
 20
-4.91038
 30
0.0
 10
-1.6432300000000002
 20
-4.2830000000000004
 30
0.0
 10
-1.1174500000000001
 20
-3.6581600000000001
 30
0.0
 10
-1.1174500000000001
 20
-3.6581600000000001
 30
0.0
 10
-1.08443
 20
-3.5870400000000005
 30
0.0
 10
-1.11999
 20
-3.5235400000000001
 30
0.0
 10
-1.1403100000000002
 20
-3.4575000000000005
 30
0.0
 10
-1.1403100000000002
 20
-3.4575000000000005
 30
0.0
 10
-0.9472700000000001
 20
-3.2543000000000002
 30
0.0
 10
-0.82535
 20
-3.0003000000000002
 30
0.0
 10
-0.7059700000000001
 20
-2.7539200000000004
 30
0.0
 10
-0.7059700000000001
 20
-2.7539200000000004
 30
0.0
 10
-0.6450100000000001
 20
-2.7183600000000001
 30
0.0
 10
-0.48753
 20
-2.7564600000000001
 30
0.0
 10
-0.44435
 20
-2.6675600000000004
 30
0.0
 10
-0.44435
 20
-2.6675600000000004
 30
0.0
 10
-0.5789700000000001
 20
-2.7539200000000004
 30
0.0
 10
-1.0539500000000002
 20
-2.3297400000000001
 30
0.0
 10
-0.82535
 20
-2.4338800000000003
 30
0.0
 10
-0.82535
 20
-2.4338800000000003
 30
0.0
 10
-0.7770900000000001
 20
-2.4796
 30
0.0
 10
-0.7110500000000001
 20
-2.5075400000000001
 30
0.0
 10
-0.6500900000000001
 20
-2.52786
 30
0.0
 10
-0.6500900000000001
 20
-2.52786
 30
0.0
 10
-0.3757700000000001
 20
-2.73868
 30
0.0
 10
-0.37831
 20
-2.1976600000000004
 30
0.0
 10
-0.13193
 20
-2.0224000000000002
 30
0.0
 10
-0.13193
 20
-2.0224000000000002
 30
0.0
 10
-0.13193
 20
-2.0224000000000002
 30
0.0
 10
-0.15733
 20
-2.1087600000000002
 30
0.0
 10
-0.15733
 20
-2.1087600000000002
 30
0.0
 10
-0.15733
 20
-2.1087600000000002
 30
0.0
 10
-0.15733
 20
-2.1087600000000002
 30
0.0
 10
-0.24369
 20
-2.35006
 30
0.0
 10
-0.24369
 20
-2.35006
 30
0.0
 10
-0.24369
 20
-2.35006
 30
0.0
 10
-0.23607
 20
-2.4338800000000003
 30
0.0
 10
-0.34021
 20
-2.48468
 30
0.0
 10
-0.31735
 20
-2.5685000000000002
 30
0.0
 10
-0.31735
 20
-2.5685000000000002
 30
0.0
 10
-0.31735
 20
-2.5685000000000002
 30
0.0
 10
0.22874
 20
-1.83952
 30
0.0
 10
0.22874
 20
-1.83952
 30
0.0
 10
0.22874
 20
-1.83952
 30
0.0
 10
0.25668
 20
-1.8420600000000003
 30
0.0
 10
0.2262
 20
-1.8115800000000002
 30
0.0
 10
0.22874
 20
-1.83952
 30
0.0
 10
0.22874
 20
-1.83952
 30
0.0
 10
0.22874
 20
-1.83952
 30
0.0
 10
-0.02271
 20
-2.0046200000000001
 30
0.0
 10
-0.02271
 20
-2.0046200000000001
 30
0.0
 10
-0.02271
 20
-2.0046200000000001
 30
0.0
 10
0.10936
 20
-1.6820400000000002
 30
0.0
 10
0.29986
 20
-1.3543800000000001
 30
0.0
 10
0.5843400000000001
 20
-1.1918200000000001
 30
0.0
 10
0.5843400000000001
 20
-1.1918200000000001
 30
0.0
 10
0.59196
 20
-1.1537200000000001
 30
0.0
 10
0.61482
 20
-1.1130800000000001
 30
0.0
 10
0.59958
 20
-1.0648200000000001
 30
0.0
 10
0.59958
 20
-1.0648200000000001
 30
0.0
 10
0.28208
 20
-0.7955800000000001
 30
0.0
 10
0.7062600000000001
 20
-0.5568200000000001
 30
0.0
 10
0.8993000000000001
 20
-0.3739400000000001
 30
0.0
 10
0.8993000000000001
 20
-0.3739400000000001
 30
0.0
 10
0.9069200000000001
 20
-0.18852
 30
0.0
 10
0.6224400000000001
 20
-0.10216
 30
0.0
 10
0.83072
 20
0.06801
 30
0.0
 10
0.83072
 20
0.06801
 30
0.0
 10
0.83072
 20
0.06801
 30
0.0
 10
1.0491600000000001
 20
0.17469
 30
0.0
 10
1.0491600000000001
 20
0.17469
 30
0.0
 10
1.0491600000000001
 20
0.17469
 30
0.0
 10
1.5444600000000002
 20
0.10865
 30
0.0
 10
2.3521800000000002
 20
0.32963
 30
0.0
 10
2.1566000000000001
 20
0.99765
 30
0.0
 10
2.1566000000000001
 20
0.99765
 30
0.0
 10
2.1566000000000001
 20
0.99765
 30
0.0
 10
2.17184
 20
1.27959
 30
0.0
 10
2.17184
 20
1.27959
 30
0.0
 10
2.17184
 20
1.27959
 30
0.0
 10
2.3953600000000002
 20
1.18815
 30
0.0
 10
2.3648800000000003
 20
0.9189100000000001
 30
0.0
 10
2.5604600000000004
 20
0.8020700000000001
 30
0.0
 10
2.5604600000000004
 20
0.8020700000000001
 30
0.0
 10
3.0379800000000001
 20
1.0814700000000002
 30
0.0
 10
2.9338400000000004
 20
1.8714100000000002
 30
0.0
 10
3.5155000000000003
 20
2.0288900000000001
 30
0.0
 10
3.5155000000000003
 20
2.0288900000000001
 30
0.0
 10
3.8152200000000005
 20
1.9577700000000002
 30
0.0
 10
3.5155000000000003
 20
1.6885300000000001
 30
0.0
 10
3.5307400000000002
 20
1.5335900000000002
 30
0.0
 10
3.5307400000000002
 20
1.5335900000000002
 30
0.0
 10
3.6806000000000001
 20
1.5996300000000001
 30
0.0
 10
3.6958400000000005
 20
1.9349100000000001
 30
0.0
 10
3.9193600000000002
 20
1.9501500000000001
 30
0.0
 10
3.9193600000000002
 20
1.9501500000000001
 30
0.0
 10
4.0082599999999999
 20
1.5970900000000001
 30
0.0
 10
3.3808800000000003
 20
1.3329300000000002
 30
0.0
 10
3.3224600000000004
 20
1.0535300000000001
 30
0.0
 10
3.3224600000000004
 20
1.0535300000000001
 30
0.0
 10
3.3224600000000004
 20
1.0535300000000001
 30
0.0
 10
3.5612200000000005
 20
1.27959
 30
0.0
 10
3.5612200000000005
 20
1.27959
 30
0.0
  0
SPLINE
  5
30
100
AcDbEntity
  8
Ebene 1
100
AcDbSpline
210
0.0
220
0.0
230
1.0
 70
     1
 71
     3
 72
    28
 73
    24
 74
     0
 42
0.0000000001
 43
0.0000000001
 40
0.0
 40
0.0
 40
0.0
 40
0.0
 40
0.1666666666666667
 40
0.1666666666666667
 40
0.1666666666666667
 40
0.1666666666666667
 40
0.3333333333333333
 40
0.3333333333333333
 40
0.3333333333333333
 40
0.3333333333333333
 40
0.5
 40
0.5
 40
0.5
 40
0.5
 40
0.6666666666666666
 40
0.6666666666666666
 40
0.6666666666666666
 40
0.6666666666666666
 40
0.8333333333333333
 40
0.8333333333333333
 40
0.8333333333333333
 40
0.8333333333333333
 40
1.0
 40
1.0
 40
1.0
 40
1.0
 10
-1.6381500000000002
 20
1.3405500000000001
 30
0.0
 10
-1.6076700000000002
 20
1.2008500000000002
 30
0.0
 10
-1.8210300000000001
 20
0.99765
 30
0.0
 10
-1.8464300000000002
 20
0.8173100000000001
 30
0.0
 10
-1.8464300000000002
 20
0.8173100000000001
 30
0.0
 10
-1.4247900000000002
 20
0.8173100000000001
 30
0.0
 10
-1.3206500000000001
 20
0.16707
 30
0.0
 10
-1.7372100000000001
 20
0.06039
 30
0.0
 10
-1.7372100000000001
 20
0.06039
 30
0.0
 10
-1.7372100000000001
 20
0.06039
 30
0.0
 10
-1.6381500000000002
 20
0.23565
 30
0.0
 10
-1.6381500000000002
 20
0.23565
 30
0.0
 10
-1.6381500000000002
 20
0.23565
 30
0.0
 10
-1.58989
 20
0.3270900000000001
 30
0.0
 10
-1.5695700000000001
 20
0.44901
 30
0.0
 10
-1.6610100000000001
 20
0.5226700000000001
 30
0.0
 10
-1.6610100000000001
 20
0.5226700000000001
 30
0.0
 10
-1.9708900000000003
 20
0.8452500000000001
 30
0.0
 10
-2.35189
 20
0.49219
 30
0.0
 10
-2.6338300000000001
 20
0.32963
 30
0.0
 10
-2.6338300000000001
 20
0.32963
 30
0.0
 10
-2.3798300000000001
 20
0.7106300000000001
 30
0.0
 10
-1.8870700000000002
 20
0.95701
 30
0.0
 10
-1.6381500000000002
 20
1.3405500000000001
 30
0.0
  0
SPLINE
  5
31
100
AcDbEntity
  8
Ebene 1
100
AcDbSpline
210
0.0
220
0.0
230
1.0
 70
     1
 71
     3
 72
    32
 73
    28
 74
     0
 42
0.0000000001
 43
0.0000000001
 40
0.0
 40
0.0
 40
0.0
 40
0.0
 40
0.1428571428571429
 40
0.1428571428571429
 40
0.1428571428571429
 40
0.1428571428571429
 40
0.2857142857142857
 40
0.2857142857142857
 40
0.2857142857142857
 40
0.2857142857142857
 40
0.4285714285714286
 40
0.4285714285714286
 40
0.4285714285714286
 40
0.4285714285714286
 40
0.5714285714285714
 40
0.5714285714285714
 40
0.5714285714285714
 40
0.5714285714285714
 40
0.7142857142857142
 40
0.7142857142857142
 40
0.7142857142857142
 40
0.7142857142857142
 40
0.857142857142857
 40
0.857142857142857
 40
0.857142857142857
 40
0.857142857142857
 40
1.0
 40
1.0
 40
1.0
 40
1.0
 10
-2.2198100000000003
 20
0.33979
 30
0.0
 10
-2.1613900000000004
 20
0.34995
 30
0.0
 10
-2.1105900000000002
 20
0.32201
 30
0.0
 10
-2.0724900000000002
 20
0.27629
 30
0.0
 10
-2.0724900000000002
 20
0.27629
 30
0.0
 10
-2.0293100000000002
 20
0.21025
 30
0.0
 10
-2.0420100000000003
 20
0.13151
 30
0.0
 10
-2.0420100000000003
 20
0.05531
 30
0.0
 10
-2.0420100000000003
 20
0.05531
 30
0.0
 10
-2.2299700000000002
 20
-0.30282
 30
0.0
 10
-2.69225
 20
-0.5009400000000001
 30
0.0
 10
-2.9919700000000002
 20
-0.5873
 30
0.0
 10
-2.9919700000000002
 20
-0.5873
 30
0.0
 10
-2.9919700000000002
 20
-0.5873
 30
0.0
 10
-3.1494500000000003
 20
-0.7905000000000001
 30
0.0
 10
-3.1494500000000003
 20
-0.7905000000000001
 30
0.0
 10
-3.1494500000000003
 20
-0.7905000000000001
 30
0.0
 10
-3.1697700000000002
 20
-0.8159000000000001
 30
0.0
 10
-3.2002500000000005
 20
-0.8362200000000001
 30
0.0
 10
-3.2332700000000001
 20
-0.8184400000000001
 30
0.0
 10
-3.2332700000000001
 20
-0.8184400000000001
 30
0.0
 10
-3.2332700000000001
 20
-0.8184400000000001
 30
0.0
 10
-3.2612100000000002
 20
-0.7676400000000001
 30
0.0
 10
-3.2612100000000002
 20
-0.7676400000000001
 30
0.0
 10
-3.2612100000000002
 20
-0.7676400000000001
 30
0.0
 10
-2.9792700000000001
 20
-0.35108
 30
0.0
 10
-2.7176500000000003
 20
0.14675
 30
0.0
 10
-2.2198100000000003
 20
0.33979
 30
0.0
  0
SPLINE
  5
32
100
AcDbEntity
  8
Ebene 1
 62
     7
100
AcDbSpline
210
0.0
220
0.0
230
1.0
 70
     1
 71
     3
 72
    32
 73
    28
 74
     0
 42
0.0000000001
 43
0.0000000001
 40
0.0
 40
0.0
 40
0.0
 40
0.0
 40
0.1428571428571429
 40
0.1428571428571429
 40
0.1428571428571429
 40
0.1428571428571429
 40
0.2857142857142857
 40
0.2857142857142857
 40
0.2857142857142857
 40
0.2857142857142857
 40
0.4285714285714286
 40
0.4285714285714286
 40
0.4285714285714286
 40
0.4285714285714286
 40
0.5714285714285714
 40
0.5714285714285714
 40
0.5714285714285714
 40
0.5714285714285714
 40
0.7142857142857142
 40
0.7142857142857142
 40
0.7142857142857142
 40
0.7142857142857142
 40
0.857142857142857
 40
0.857142857142857
 40
0.857142857142857
 40
0.857142857142857
 40
1.0
 40
1.0
 40
1.0
 40
1.0
 10
-0.73899
 20
-0.06152
 30
0.0
 10
-0.71613
 20
-0.05644
 30
0.0
 10
-0.6856500000000001
 20
-0.06406
 30
0.0
 10
-0.68057
 20
-0.092
 30
0.0
 10
-0.68057
 20
-0.092
 30
0.0
 10
-0.8075700000000001
 20
-0.3968
 30
0.0
 10
-0.9650500000000001
 20
-0.7117600000000001
 30
0.0
 10
-1.2292100000000001
 20
-0.9378200000000001
 30
0.0
 10
-1.2292100000000001
 20
-0.9378200000000001
 30
0.0
 10
-1.2292100000000001
 20
-0.9378200000000001
 30
0.0
 10
-1.1428500000000001
 20
-0.67366
 30
0.0
 10
-1.1428500000000001
 20
-0.67366
 30
0.0
 10
-1.1428500000000001
 20
-0.67366
 30
0.0
 10
-1.1047500000000001
 20
-0.5593600000000001
 30
0.0
 10
-1.08951
 20
-0.4145800000000001
 30
0.0
 10
-0.9980700000000001
 20
-0.3637800000000001
 30
0.0
 10
-0.9980700000000001
 20
-0.3637800000000001
 30
0.0
 10
-0.9980700000000001
 20
-0.3637800000000001
 30
0.0
 10
-1.03871
 20
-0.5238
 30
0.0
 10
-1.03871
 20
-0.5238
 30
0.0
 10
-1.03871
 20
-0.5238
 30
0.0
 10
-1.0666500000000001
 20
-0.5746
 30
0.0
 10
-1.08189
 20
-0.6482600000000001
 30
0.0
 10
-1.03871
 20
-0.6889000000000001
 30
0.0
 10
-1.03871
 20
-0.6889000000000001
 30
0.0
 10
-0.9345700000000001
 20
-0.49586
 30
0.0
 10
-0.9269500000000001
 20
-0.20122
 30
0.0
 10
-0.73899
 20
-0.06152
 30
0.0
  0
SPLINE
  5
33
100
AcDbEntity
  8
Ebene 1
 62
     7
100
AcDbSpline
210
0.0
220
0.0
230
1.0
 70
     1
 71
     3
 72
    28
 73
    24
 74
     0
 42
0.0000000001
 43
0.0000000001
 40
0.0
 40
0.0
 40
0.0
 40
0.0
 40
0.1666666666666667
 40
0.1666666666666667
 40
0.1666666666666667
 40
0.1666666666666667
 40
0.3333333333333333
 40
0.3333333333333333
 40
0.3333333333333333
 40
0.3333333333333333
 40
0.5
 40
0.5
 40
0.5
 40
0.5
 40
0.6666666666666666
 40
0.6666666666666666
 40
0.6666666666666666
 40
0.6666666666666666
 40
0.8333333333333333
 40
0.8333333333333333
 40
0.8333333333333333
 40
0.8333333333333333
 40
1.0
 40
1.0
 40
1.0
 40
1.0
 10
0.6910200000000001
 20
-0.21138
 30
0.0
 10
0.74436
 20
-0.20122
 30
0.0
 10
0.76468
 20
-0.24186
 30
0.0
 10
0.7926200000000001
 20
-0.27488
 30
0.0
 10
0.7926200000000001
 20
-0.27488
 30
0.0
 10
0.7113400000000001
 20
-0.5644400000000001
 30
0.0
 10
0.28716
 20
-0.5365000000000001
 30
0.0
 10
0.0484
 20
-0.5238
 30
0.0
 10
0.0484
 20
-0.5238
 30
0.0
 10
0.0484
 20
-0.5238
 30
0.0
 10
0.28462
 20
-0.4171200000000001
 30
0.0
 10
0.28462
 20
-0.4171200000000001
 30
0.0
 10
0.28462
 20
-0.4171200000000001
 30
0.0
 10
0.2897
 20
-0.40696
 30
0.0
 10
0.30494
 20
-0.40188
 30
0.0
 10
0.3151000000000001
 20
-0.4095
 30
0.0
 10
0.3151000000000001
 20
-0.4095
 30
0.0
 10
0.3532
 20
-0.44506
 30
0.0
 10
0.33034
 20
-0.4476000000000001
 30
0.0
 10
0.32272
 20
-0.4907800000000001
 30
0.0
 10
0.32272
 20
-0.4907800000000001
 30
0.0
 10
0.32272
 20
-0.4907800000000001
 30
0.0
 10
0.6910200000000001
 20
-0.21138
 30
0.0
 10
0.6910200000000001
 20
-0.21138
 30
0.0
  0
SPLINE
  5
34
100
AcDbEntity
  8
Ebene 1
 62
     7
100
AcDbSpline
210
0.0
220
0.0
230
1.0
 70
     1
 71
     3
 72
    20
 73
    16
 74
     0
 42
0.0000000001
 43
0.0000000001
 40
0.0
 40
0.0
 40
0.0
 40
0.0
 40
0.25
 40
0.25
 40
0.25
 40
0.25
 40
0.5
 40
0.5
 40
0.5
 40
0.5
 40
0.75
 40
0.75
 40
0.75
 40
0.75
 40
1.0
 40
1.0
 40
1.0
 40
1.0
 10
-2.6084300000000002
 20
-0.3002800000000001
 30
0.0
 10
-2.6084300000000002
 20
-0.3002800000000001
 30
0.0
 10
-2.5525500000000001
 20
-0.30282
 30
0.0
 10
-2.5525500000000001
 20
-0.30282
 30
0.0
 10
-2.5525500000000001
 20
-0.30282
 30
0.0
 10
-2.65415
 20
-0.38156
 30
0.0
 10
-2.7811500000000002
 20
-0.4577600000000001
 30
0.0
 10
-2.90307
 20
-0.4907800000000001
 30
0.0
 10
-2.90307
 20
-0.4907800000000001
 30
0.0
 10
-2.90307
 20
-0.4907800000000001
 30
0.0
 10
-2.8294100000000002
 20
-0.37902
 30
0.0
 10
-2.8294100000000002
 20
-0.37902
 30
0.0
 10
-2.8294100000000002
 20
-0.37902
 30
0.0
 10
-2.7506700000000004
 20
-0.41204
 30
0.0
 10
-2.6693900000000004
 20
-0.34092
 30
0.0
 10
-2.6084300000000002
 20
-0.3002800000000001
 30
0.0
  0
SPLINE
  5
35
100
AcDbEntity
  8
Ebene 1
 62
     7
100
AcDbSpline
210
0.0
220
0.0
230
1.0
 70
     1
 71
     3
 72
    16
 73
    12
 74
     0
 42
0.0000000001
 43
0.0000000001
 40
0.0
 40
0.0
 40
0.0
 40
0.0
 40
0.3333333333333333
 40
0.3333333333333333
 40
0.3333333333333333
 40
0.3333333333333333
 40
0.6666666666666666
 40
0.6666666666666666
 40
0.6666666666666666
 40
0.6666666666666666
 40
1.0
 40
1.0
 40
1.0
 40
1.0
 10
-1.9073900000000001
 20
-0.8336800000000001
 30
0.0
 10
-1.8794500000000001
 20
-0.8362200000000001
 30
0.0
 10
-1.8515100000000002
 20
-0.8286000000000001
 30
0.0
 10
-1.8337300000000001
 20
-0.8489200000000001
 30
0.0
 10
-1.8337300000000001
 20
-0.8489200000000001
 30
0.0
 10
-1.8184900000000002
 20
-0.9987800000000001
 30
0.0
 10
-1.8616700000000002
 20
-1.1588000000000001
 30
0.0
 10
-1.9607300000000001
 20
-1.2680200000000001
 30
0.0
 10
-1.9607300000000001
 20
-1.2680200000000001
 30
0.0
 10
-2.0039100000000003
 20
-1.11816
 30
0.0
 10
-1.9988300000000001
 20
-0.9657600000000001
 30
0.0
 10
-1.9073900000000001
 20
-0.8336800000000001
 30
0.0
  0
SPLINE
  5
36
100
AcDbEntity
  8
Ebene 1
 62
     7
100
AcDbSpline
210
0.0
220
0.0
230
1.0
 70
     1
 71
     3
 72
    12
 73
     8
 74
     0
 42
0.0000000001
 43
0.0000000001
 40
0.0
 40
0.0
 40
0.0
 40
0.0
 40
0.5
 40
0.5
 40
0.5
 40
0.5
 40
1.0
 40
1.0
 40
1.0
 40
1.0
 10
0.10936
 20
-0.8692400000000001
 30
0.0
 10
0.27192
 20
-0.8971800000000001
 30
0.0
 10
0.55894
 20
-0.9022600000000001
 30
0.0
 10
0.4954400000000001
 20
-1.1486400000000001
 30
0.0
 10
0.4954400000000001
 20
-1.1486400000000001
 30
0.0
 10
0.3354200000000001
 20
-1.1410200000000001
 30
0.0
 10
0.2008
 20
-0.9860800000000001
 30
0.0
 10
0.10936
 20
-0.8692400000000001
 30
0.0
  0
SPLINE
  5
37
100
AcDbEntity
  8
Ebene 1
 62
     7
100
AcDbSpline
210
0.0
220
0.0
230
1.0
 70
     1
 71
     3
 72
    16
 73
    12
 74
     0
 42
0.0000000001
 43
0.0000000001
 40
0.0
 40
0.0
 40
0.0
 40
0.0
 40
0.3333333333333333
 40
0.3333333333333333
 40
0.3333333333333333
 40
0.3333333333333333
 40
0.6666666666666666
 40
0.6666666666666666
 40
0.6666666666666666
 40
0.6666666666666666
 40
1.0
 40
1.0
 40
1.0
 40
1.0
 10
-2.4280900000000001
 20
-1.2578600000000002
 30
0.0
 10
-2.3976100000000002
 20
-1.2477
 30
0.0
 10
-2.39507
 20
-1.2807200000000001
 30
0.0
 10
-2.40015
 20
-1.3010400000000002
 30
0.0
 10
-2.40015
 20
-1.3010400000000002
 30
0.0
 10
-2.4915900000000004
 20
-1.5702800000000001
 30
0.0
 10
-2.5804900000000002
 20
-1.8598400000000002
 30
0.0
 10
-2.7532100000000002
 20
-2.0884400000000003
 30
0.0
 10
-2.7532100000000002
 20
-2.0884400000000003
 30
0.0
 10
-2.7481300000000002
 20
-1.7887200000000001
 30
0.0
 10
-2.6262100000000004
 20
-1.4890000000000001
 30
0.0
 10
-2.4280900000000001
 20
-1.2578600000000002
 30
0.0
  0
SPLINE
  5
38
100
AcDbEntity
  8
Ebene 1
 62
     7
100
AcDbSpline
210
0.0
220
0.0
230
1.0
 70
     1
 71
     3
 72
     8
 73
     4
 74
     0
 42
0.0000000001
 43
0.0000000001
 40
0.0
 40
0.0
 40
0.0
 40
0.0
 40
1.0
 40
1.0
 40
1.0
 40
1.0
 10
-2.9665700000000004
 20
-1.5118600000000002
 30
0.0
 10
-2.9691100000000001
 20
-1.4839200000000001
 30
0.0
 10
-2.9386300000000003
 20
-1.5118600000000002
 30
0.0
 10
-2.9665700000000004
 20
-1.5118600000000002
 30
0.0
  0
SPLINE
  5
39
100
AcDbEntity
  8
Ebene 1
 62
     7
100
AcDbSpline
210
0.0
220
0.0
230
1.0
 70
     1
 71
     3
 72
    24
 73
    20
 74
     0
 42
0.0000000001
 43
0.0000000001
 40
0.0
 40
0.0
 40
0.0
 40
0.0
 40
0.2
 40
0.2
 40
0.2
 40
0.2
 40
0.4
 40
0.4
 40
0.4
 40
0.4
 40
0.6000000000000001
 40
0.6000000000000001
 40
0.6000000000000001
 40
0.6000000000000001
 40
0.8
 40
0.8
 40
0.8
 40
0.8
 40
1.0
 40
1.0
 40
1.0
 40
1.0
 10
-3.6701500000000005
 20
-1.79634
 30
0.0
 10
-3.6472900000000004
 20
-1.7938000000000001
 30
0.0
 10
-3.6269700000000005
 20
-1.7938000000000001
 30
0.0
 10
-3.6117300000000001
 20
-1.8115800000000002
 30
0.0
 10
-3.6117300000000001
 20
-1.8115800000000002
 30
0.0
 10
-3.5863300000000002
 20
-1.9182600000000001
 30
0.0
 10
-3.5660100000000003
 20
-2.0452600000000003
 30
0.0
 10
-3.6396700000000002
 20
-2.13924
 30
0.0
 10
-3.6396700000000002
 20
-2.13924
 30
0.0
 10
-3.6117300000000001
 20
-2.2535400000000001
 30
0.0
 10
-3.7107900000000003
 20
-2.3856200000000003
 30
0.0
 10
-3.7692100000000002
 20
-2.4796
 30
0.0
 10
-3.7692100000000002
 20
-2.4796
 30
0.0
 10
-3.7692100000000002
 20
-2.4796
 30
0.0
 10
-3.7387300000000003
 20
-1.8877800000000002
 30
0.0
 10
-3.7387300000000003
 20
-1.8877800000000002
 30
0.0
 10
-3.7387300000000003
 20
-1.8877800000000002
 30
0.0
 10
-3.7387300000000003
 20
-1.8877800000000002
 30
0.0
 10
-3.6701500000000005
 20
-1.79634
 30
0.0
 10
-3.6701500000000005
 20
-1.79634
 30
0.0
  0
SPLINE
  5
3A
100
AcDbEntity
  8
Ebene 1
 62
     7
100
AcDbSpline
210
0.0
220
0.0
230
1.0
 70
     1
 71
     3
 72
    16
 73
    12
 74
     0
 42
0.0000000001
 43
0.0000000001
 40
0.0
 40
0.0
 40
0.0
 40
0.0
 40
0.3333333333333333
 40
0.3333333333333333
 40
0.3333333333333333
 40
0.3333333333333333
 40
0.6666666666666666
 40
0.6666666666666666
 40
0.6666666666666666
 40
0.6666666666666666
 40
1.0
 40
1.0
 40
1.0
 40
1.0
 10
-4.2518100000000008
 20
-2.31704
 30
0.0
 10
-4.1222700000000003
 20
-2.3780000000000001
 30
0.0
 10
-4.1171899999999999
 20
-2.5939000000000001
 30
0.0
 10
-4.2035500000000008
 20
-2.6955
 30
0.0
 10
-4.2035500000000008
 20
-2.6955
 30
0.0
 10
-4.1629100000000001
 20
-2.7717000000000001
 30
0.0
 10
-4.26959
 20
-2.9164800000000004
 30
0.0
 10
-4.30769
 20
-3.0003000000000002
 30
0.0
 10
-4.30769
 20
-3.0003000000000002
 30
0.0
 10
-4.30769
 20
-3.0003000000000002
 30
0.0
 10
-4.2518100000000008
 20
-2.31704
 30
0.0
 10
-4.2518100000000008
 20
-2.31704
 30
0.0
  0
SPLINE
  5
3B
100
AcDbEntity
  8
Ebene 1
 62
     7
100
AcDbSpline
210
0.0
220
0.0
230
1.0
 70
     1
 71
     3
 72
    16
 73
    12
 74
     0
 42
0.0000000001
 43
0.0000000001
 40
0.0
 40
0.0
 40
0.0
 40
0.0
 40
0.3333333333333333
 40
0.3333333333333333
 40
0.3333333333333333
 40
0.3333333333333333
 40
0.6666666666666666
 40
0.6666666666666666
 40
0.6666666666666666
 40
0.6666666666666666
 40
1.0
 40
1.0
 40
1.0
 40
1.0
 10
-4.4626300000000008
 20
-2.69042
 30
0.0
 10
-4.4626300000000008
 20
-2.69042
 30
0.0
 10
-4.4346900000000007
 20
-2.6955
 30
0.0
 10
-4.4346900000000007
 20
-2.6955
 30
0.0
 10
-4.4346900000000007
 20
-2.6955
 30
0.0
 10
-4.3991300000000004
 20
-2.9088600000000002
 30
0.0
 10
-4.49057
 20
-3.1146000000000003
 30
0.0
 10
-4.60487
 20
-3.2695400000000001
 30
0.0
 10
-4.60487
 20
-3.2695400000000001
 30
0.0
 10
-4.5515300000000005
 20
-3.0841200000000004
 30
0.0
 10
-4.60487
 20
-2.8479000000000001
 30
0.0
 10
-4.4626300000000008
 20
-2.69042
 30
0.0
  0
SPLINE
  5
3C
100
AcDbEntity
  8
Ebene 1
 62
     7
100
AcDbSpline
210
0.0
220
0.0
230
1.0
 70
     1
 71
     3
 72
    12
 73
     8
 74
     0
 42
0.0000000001
 43
0.0000000001
 40
0.0
 40
0.0
 40
0.0
 40
0.0
 40
0.5
 40
0.5
 40
0.5
 40
0.5
 40
1.0
 40
1.0
 40
1.0
 40
1.0
 10
-4.94015
 20
-3.4981400000000002
 30
0.0
 10
-4.8969700000000005
 20
-3.3152600000000003
 30
0.0
 10
-5.0493700000000006
 20
-3.0815800000000002
 30
0.0
 10
-4.85379
 20
-2.9799800000000003
 30
0.0
 10
-4.85379
 20
-2.9799800000000003
 30
0.0
 10
-4.7115500000000008
 20
-3.1222200000000004
 30
0.0
 10
-4.8029900000000003
 20
-3.3940000000000001
 30
0.0
 10
-4.94015
 20
-3.4981400000000002
 30
0.0
  0
SPLINE
  5
3D
100
AcDbEntity
  8
Ebene 1
 62
     7
100
AcDbSpline
210
0.0
220
0.0
230
1.0
 70
     1
 71
     3
 72
    16
 73
    12
 74
     0
 42
0.0000000001
 43
0.0000000001
 40
0.0
 40
0.0
 40
0.0
 40
0.0
 40
0.3333333333333333
 40
0.3333333333333333
 40
0.3333333333333333
 40
0.3333333333333333
 40
0.6666666666666666
 40
0.6666666666666666
 40
0.6666666666666666
 40
0.6666666666666666
 40
1.0
 40
1.0
 40
1.0
 40
1.0
 10
-5.3592500000000003
 20
-3.1247600000000002
 30
0.0
 10
-5.2957500000000008
 20
-3.1882600000000001
 30
0.0
 10
-5.28559
 20
-3.3330400000000004
 30
0.0
 10
-5.3440100000000008
 20
-3.3787600000000002
 30
0.0
 10
-5.3440100000000008
 20
-3.3787600000000002
 30
0.0
 10
-5.3008300000000004
 20
-3.5032200000000002
 30
0.0
 10
-5.3592500000000003
 20
-3.6657800000000003
 30
0.0
 10
-5.4125900000000007
 20
-3.7775400000000001
 30
0.0
 10
-5.4125900000000007
 20
-3.7775400000000001
 30
0.0
 10
-5.3465500000000006
 20
-3.5565600000000002
 30
0.0
 10
-5.4227500000000006
 20
-3.3279600000000005
 30
0.0
 10
-5.3592500000000003
 20
-3.1247600000000002
 30
0.0
  0
SPLINE
  5
3E
100
AcDbEntity
  8
Ebene 1
 62
     7
100
AcDbSpline
210
0.0
220
0.0
230
1.0
 70
     1
 71
     3
 72
    16
 73
    12
 74
     0
 42
0.0000000001
 43
0.0000000001
 40
0.0
 40
0.0
 40
0.0
 40
0.0
 40
0.3333333333333333
 40
0.3333333333333333
 40
0.3333333333333333
 40
0.3333333333333333
 40
0.6666666666666666
 40
0.6666666666666666
 40
0.6666666666666666
 40
0.6666666666666666
 40
1.0
 40
1.0
 40
1.0
 40
1.0
 10
-1.3968500000000001
 20
-3.4092400000000005
 30
0.0
 10
-1.3181100000000001
 20
-3.4422600000000001
 30
0.0
 10
-1.2596900000000002
 20
-3.5514800000000002
 30
0.0
 10
-1.1606300000000001
 20
-3.5159200000000004
 30
0.0
 10
-1.1606300000000001
 20
-3.5159200000000004
 30
0.0
 10
-1.1479300000000001
 20
-3.5489400000000004
 30
0.0
 10
-1.1352300000000002
 20
-3.5794200000000003
 30
0.0
 10
-1.1479300000000001
 20
-3.6149800000000001
 30
0.0
 10
-1.1479300000000001
 20
-3.6149800000000001
 30
0.0
 10
-1.2800100000000001
 20
-3.7292800000000002
 30
0.0
 10
-1.4374900000000002
 20
-3.5514800000000002
 30
0.0
 10
-1.3968500000000001
 20
-3.4092400000000005
 30
0.0
  0
SPLINE
  5
3F
100
AcDbEntity
  8
Ebene 1
 62
     7
100
AcDbSpline
210
0.0
220
0.0
230
1.0
 70
     1
 71
     3
 72
     8
 73
     4
 74
     0
 42
0.0000000001
 43
0.0000000001
 40
0.0
 40
0.0
 40
0.0
 40
0.0
 40
1.0
 40
1.0
 40
1.0
 40
1.0
 10
-0.6653300000000001
 20
-3.5438600000000005
 30
0.0
 10
-0.65517
 20
-3.5921200000000004
 30
0.0
 10
-0.7034300000000001
 20
-3.5540200000000004
 30
0.0
 10
-0.6653300000000001
 20
-3.5438600000000005
 30
0.0
  0
SPLINE
  5
40
100
AcDbEntity
  8
Ebene 1
 62
     7
100
AcDbSpline
210
0.0
220
0.0
230
1.0
 70
     1
 71
     3
 72
    16
 73
    12
 74
     0
 42
0.0000000001
 43
0.0000000001
 40
0.0
 40
0.0
 40
0.0
 40
0.0
 40
0.3333333333333333
 40
0.3333333333333333
 40
0.3333333333333333
 40
0.3333333333333333
 40
0.6666666666666666
 40
0.6666666666666666
 40
0.6666666666666666
 40
0.6666666666666666
 40
1.0
 40
1.0
 40
1.0
 40
1.0
 10
-2.3391900000000003
 20
-4.4709600000000007
 30
0.0
 10
-2.3925300000000003
 20
-4.7452800000000002
 30
0.0
 10
-2.5957300000000001
 20
-5.03484
 30
0.0
 10
-2.6414500000000003
 20
-5.3320200000000009
 30
0.0
 10
-2.6414500000000003
 20
-5.3320200000000009
 30
0.0
 10
-2.6414500000000003
 20
-5.3320200000000009
 30
0.0
 10
-2.6947900000000002
 20
-5.3777400000000002
 30
0.0
 10
-2.6947900000000002
 20
-5.3777400000000002
 30
0.0
 10
-2.6947900000000002
 20
-5.3777400000000002
 30
0.0
 10
-2.5779500000000004
 20
-5.0780200000000004
 30
0.0
 10
-2.5576300000000001
 20
-4.7275
 30
0.0
 10
-2.3391900000000003
 20
-4.4709600000000007
 30
0.0
  0
ENDSEC
  0
SECTION
  2
OBJECTS
  0
DICTIONARY
  5
19
100
AcDbDictionary
280
     0
281
     1
  3
ACAD_GROUP
350
1A
  3
ACAD_MLINESTYLE
350
1B
  3
ACAD_LAYOUT
350
1E
  3
ACAD_PLOTSETTINGS
350
22
  3
ACAD_PLOTSTYLENAME
350
1F
  3
ACAD_WIPEOUT_VARS
350
23
  0
DICTIONARY
  5
1A
102
{ACAD_REACTORS
330
19
102
}
100
AcDbDictionary
280
     0
281
     1
  0
DICTIONARY
  5
1B
102
{ACAD_REACTORS
330
19
102
}
100
AcDbDictionary
280
     0
281
     1
  3
Standard
350
1C
  0
MLINESTYLE
  5
1C
102
{ACAD_REACTORS
330
1B
102
}
100
AcDbMlineStyle
  2
Standard
 70
     0
  3

 62
     0
 51
90.0
 52
90.0
 71
     2
 49
0.5
 62
   256
  6
BYLAYER
 49
-0.5
 62
   256
  6
BYLAYER
  0
ACDBDICTIONARYWDFLT
  5
1F
102
{ACAD_REACTORS
330
19
102
}
100
AcDbDictionary
281
     1
  3
Normal
350
1D
100
AcDbDictionaryWithDefault
340
1D
  0
ACDBPLACEHOLDER
  5
1D
102
{ACAD_REACTORS
330
1F
102
}
  0
LAYOUT
  5
20
102
{ACAD_REACTORS
330
1E
102
}
100
AcDbPlotSettings
  1

  2

  4

  6

 40
0.0
 41
0.0
 42
0.0
 43
0.0
 44
0.0
 45
0.0
 46
0.0
 47
0.0
 48
0.0
 49
0.0
140
0.0
141
0.0
142
1.0
143
1.0
 70
  1024
 72
     0
 73
     0
 74
     0
  7

 75
     0
147
1.0
148
0.0
149
0.0
100
AcDbLayout
  1
Model
 70
     0
 71
     0
 10
0.0
 20
0.0
 11
0.0
 21
0.0
 12
0.0
 22
0.0
 32
0.0
 14
0.0
 24
0.0
 34
0.0
 15
0.0
 25
0.0
 35
0.0
146
0.0
 13
0.0
 23
0.0
 33
0.0
 16
0.0
 26
0.0
 36
0.0
 17
0.0
 27
0.0
 37
0.0
 76
     0
330
A
331
0
345
0
346
0
  0
LAYOUT
  5
21
102
{ACAD_REACTORS
330
1E
102
}
100
AcDbPlotSettings
  1

  2

  4

  6

 40
0.0
 41
0.0
 42
0.0
 43
0.0
 44
0.0
 45
0.0
 46
0.0
 47
0.0
 48
0.0
 49
0.0
140
0.0
141
0.0
142
1.0
143
1.0
 70
     0
 72
     0
 73
     0
 74
     0
  7

 75
     0
147
1.0
148
0.0
149
0.0
100
AcDbLayout
  1
Layout1
 70
     0
 71
     0
 10
0.0
 20
0.0
 11
0.0
 21
0.0
 12
0.0
 22
0.0
 32
0.0
 14
0.0
 24
0.0
 34
0.0
 15
0.0
 25
0.0
 35
0.0
146
0.0
 13
0.0
 23
0.0
 33
0.0
 16
0.0
 26
0.0
 36
0.0
 17
0.0
 27
0.0
 37
0.0
 76
     0
330
B
331
0
345
0
346
0
  0
DICTIONARY
  5
1E
102
{ACAD_REACTORS
330
19
102
}
100
AcDbDictionary
280
     0
281
     1
  3
Layout1
350
21
  3
Model
350
20
  0
DICTIONARY
  5
22
102
{ACAD_REACTORS
330
19
102
}
100
AcDbDictionary
280
     0
281
     1
  0
WIPEOUTVARIABLES
  5
23
100
AcDbWipeoutVariables
 70
     1
  0
ENDSEC
  0
EOF
