  0
SECTION
  2
HEADER
  9
$ACADVER
  1
AC1015
  9
$ACADMAINTVER
 70
     6
  9
$DWGCODEPAGE
  3
DOS850
  9
$INSBASE
 10
0.0
 20
0.0
 30
0.0
  9
$EXTMIN
 10
-5.49325
 20
-4.5878
 30
1.000000E+20
  9
$EXTMAX
 10
5.49802
 20
4.58159
 30
-1.000000E+20
  9
$LIMMIN
 10
0.0
 20
0.0
  9
$LIMMAX
 10
0.0
 20
0.0
  9
$ORTHOMODE
 70
     0
  9
$REGENMODE
 70
     1
  9
$FILLMODE
 70
     1
  9
$QTEXTMODE
 70
     0
  9
$MIRRTEXT
 70
     1
  9
$LTSCALE
 40
1.0
  9
$ATTMODE
 70
     1
  9
$TEXTSIZE
 40
0.2
  9
$TRACEWID
 40
0.05
  9
$TEXTSTYLE
  7
Standard
  9
$CLAYER
  8
0
  9
$CELTYPE
  6
Continuous
  9
$CECOLOR
 62
   256
  9
$CELTSCALE
 40
1.0
  9
$DISPSILH
 70
     0
  9
$DIMSCALE
 40
1.0
  9
$DIMASZ
 40
0.18
  9
$DIMEXO
 40
0.0625
  9
$DIMDLI
 40
0.38
  9
$DIMRND
 40
0.0
  9
$DIMDLE
 40
0.0
  9
$DIMEXE
 40
0.18
  9
$DIMTP
 40
0.0
  9
$DIMTM
 40
0.0
  9
$DIMTXT
 40
0.18
  9
$DIMCEN
 40
0.09
  9
$DIMTSZ
 40
0.0
  9
$DIMTOL
 70
     0
  9
$DIMLIM
 70
     0
  9
$DIMTIH
 70
     1
  9
$DIMTOH
 70
     1
  9
$DIMSE1
 70
     0
  9
$DIMSE2
 70
     0
  9
$DIMTAD
 70
     0
  9
$DIMZIN
 70
     0
  9
$DIMBLK
  1

  9
$DIMASO
 70
     1
  9
$DIMSHO
 70
     1
  9
$DIMPOST
  1

  9
$DIMAPOST
  1

  9
$DIMALT
 70
     0
  9
$DIMALTD
 70
     2
  9
$DIMALTF
 40
25.4
  9
$DIMLFAC
 40
1.0
  9
$DIMTOFL
 70
     0
  9
$DIMTVP
 40
0.0
  9
$DIMTIX
 70
     0
  9
$DIMSOXD
 70
     0
  9
$DIMSAH
 70
     0
  9
$DIMBLK1
  1

  9
$DIMBLK2
  1

  9
$DIMSTYLE
  2
Standard
  9
$DIMCLRD
 70
     0
  9
$DIMCLRE
 70
     0
  9
$DIMCLRT
 70
     0
  9
$DIMTFAC
 40
1.0
  9
$DIMGAP
 40
0.09
  9
$DIMJUST
 70
     0
  9
$DIMSD1
 70
     0
  9
$DIMSD2
 70
     0
  9
$DIMTOLJ
 70
     1
  9
$DIMTZIN
 70
     0
  9
$DIMALTZ
 70
     0
  9
$DIMALTTZ
 70
     0
  9
$DIMUPT
 70
     0
  9
$DIMDEC
 70
     4
  9
$DIMTDEC
 70
     4
  9
$DIMALTU
 70
     2
  9
$DIMALTTD
 70
     2
  9
$DIMTXSTY
  7
Standard
  9
$DIMAUNIT
 70
     0
  9
$DIMADEC
 70
     0
  9
$DIMALTRND
 40
0.0
  9
$DIMAZIN
 70
     0
  9
$DIMDSEP
 70
     0
  9
$DIMATFIT
 70
     3
  9
$DIMFRAC
 70
     0
  9
$DIMLDRBLK
  1

  9
$DIMLUNIT
 70
     2
  9
$DIMLWD
 70
     0
  9
$DIMLWE
 70
     0
  9
$DIMTMOVE
 70
     0
  9
$LUNITS
 70
     2
  9
$LUPREC
 70
     4
  9
$SKETCHINC
 40
0.1
  9
$FILLETRAD
 40
0.0
  9
$AUNITS
 70
     0
  9
$AUPREC
 70
     0
  9
$MENU
  1
acad
  9
$ELEVATION
 40
0.0
  9
$PELEVATION
 40
0.0
  9
$THICKNESS
 40
0.0
  9
$LIMCHECK
 70
     0
  9
$CHAMFERA
 40
0.0
  9
$CHAMFERB
 40
0.0
  9
$CHAMFERC
 40
0.0
  9
$CHAMFERD
 40
0.0
  9
$SKPOLY
 70
     0
  9
$TDCREATE
 40
0.000000000
  9
$TDUCREATE
 40
0.000000000
  9
$TDUPDATE
 40
0.000000000
  9
$TDUUPDATE
 40
0.000000000
  9
$TDINDWG
 40
0.0000000000
  9
$TDUSRTIMER
 40
0.0000000000
  9
$USRTIMER
 70
     1
  9
$ANGBASE
 50
0.0
  9
$ANGDIR
 70
     0
  9
$PDMODE
 70
     0
  9
$PDSIZE
 40
0.0
  9
$PLINEWID
 40
0.0
  9
$SPLFRAME
 70
     0
  9
$SPLINETYPE
 70
     6
  9
$SPLINESEGS
 70
     8
  9
$HANDSEED
  5
4A
  9
$SURFTAB1
 70
     6
  9
$SURFTAB2
 70
     6
  9
$SURFTYPE
 70
     6
  9
$SURFU
 70
     6
  9
$SURFV
 70
     6
  9
$UCSBASE
  2

  9
$UCSNAME
  2

  9
$UCSORG
 10
0.0
 20
0.0
 30
0.0
  9
$UCSXDIR
 10
1.0
 20
0.0
 30
0.0
  9
$UCSYDIR
 10
0.0
 20
1.0
 30
0.0
  9
$UCSORTHOREF
  2

  9
$UCSORTHOVIEW
 70
     0
  9
$UCSORGTOP
 10
0.0
 20
0.0
 30
0.0
  9
$UCSORGBOTTOM
 10
0.0
 20
0.0
 30
0.0
  9
$UCSORGLEFT
 10
0.0
 20
0.0
 30
0.0
  9
$UCSORGRIGHT
 10
0.0
 20
0.0
 30
0.0
  9
$UCSORGFRONT
 10
0.0
 20
0.0
 30
0.0
  9
$UCSORGBACK
 10
0.0
 20
0.0
 30
0.0
  9
$PUCSBASE
  2

  9
$PUCSNAME
  2

  9
$PUCSORG
 10
0.0
 20
0.0
 30
0.0
  9
$PUCSXDIR
 10
1.0
 20
0.0
 30
0.0
  9
$PUCSYDIR
 10
0.0
 20
1.0
 30
0.0
  9
$PUCSORTHOREF
  2

  9
$PUCSORTHOVIEW
 70
     0
  9
$PUCSORGTOP
 10
0.0
 20
0.0
 30
0.0
  9
$PUCSORGBOTTOM
 10
0.0
 20
0.0
 30
0.0
  9
$PUCSORGLEFT
 10
0.0
 20
0.0
 30
0.0
  9
$PUCSORGRIGHT
 10
0.0
 20
0.0
 30
0.0
  9
$PUCSORGFRONT
 10
0.0
 20
0.0
 30
0.0
  9
$PUCSORGBACK
 10
0.0
 20
0.0
 30
0.0
  9
$USERI1
 70
     0
  9
$USERI2
 70
     0
  9
$USERI3
 70
     0
  9
$USERI4
 70
     0
  9
$USERI5
 70
     0
  9
$USERR1
 40
0.0
  9
$USERR2
 40
0.0
  9
$USERR3
 40
0.0
  9
$USERR4
 40
0.0
  9
$USERR5
 40
0.0
  9
$WORLDVIEW
 70
     1
  9
$SHADEDGE
 70
     3
  9
$SHADEDIF
 70
    70
  9
$TILEMODE
 70
     1
  9
$MAXACTVP
 70
    16
  9
$PINSBASE
 10
0.0
 20
0.0
 30
0.0
  9
$PLIMCHECK
 70
     0
  9
$PEXTMIN
 10
1.000000E+20
 20
1.000000E+20
 30
1.000000E+20
  9
$PEXTMAX
 10
-1.000000E+20
 20
-1.000000E+20
 30
-1.000000E+20
  9
$PLIMMIN
 10
0.0
 20
0.0
  9
$PLIMMAX
 10
12.0
 20
9.0
  9
$UNITMODE
 70
     0
  9
$VISRETAIN
 70
     0
  9
$PLINEGEN
 70
     1
  9
$PSLTSCALE
 70
     0
  9
$TREEDEPTH
 70
  3020
  9
$CMLSTYLE
  2
Standard
  9
$CMLJUST
 70
     0
  9
$CMLSCALE
 40
1.0
  9
$PROXYGRAPHICS
 70
     0
  9
$MEASUREMENT
 70
     0
  9
$CELWEIGHT
370
     0
  9
$ENDCAPS
280
     0
  9
$JOINSTYLE
280
     0
  9
$LWDISPLAY
290
     0
  9
$INSUNITS
 70
     5
  9
$HYPERLINKBASE
  1

  9
$XEDIT
290
     1
  9
$CEPSNTYPE
380
     0
  9
$PSTYLEMODE
290
     1
  9
$FINGERPRINTGUID
  2

  9
$VERSIONGUID
  2

  9
$EXTNAMES
290
     1
  9
$PSVPSCALE
 40
0.0
  0
ENDSEC
  0
SECTION
  2
CLASSES
  0
CLASS
  1
LWPOLYLINE
  2
AcDbPolyline
  3
AutoCAD 2000
 90
    32768
280
     0
281
     1
  0
CLASS
  1
IMAGE
  2
AcDbRasterImage
  3
ISM
 90
    32895
280
     0
281
     1
  0
CLASS
  1
OLE2FRAME
  2
AcDbOle2Frame
  3
AutoCAD 2000
 90
    32768
280
     0
281
     1
  0
CLASS
  1
HATCH
  2
AcDbHatch
  3
AutoCAD 2000
 90
    32768
280
     0
281
     1
  0
CLASS
  1
DICTIONARYVAR
  2
AcDbDictionaryVar
  3
AutoCAD 2000
 90
    32768
280
     0
281
     0
  0
CLASS
  1
RASTERVARIABLES
  2
AcDbRasterVariables
  3
ISM
 90
    32768
280
     0
281
     0
  0
CLASS
  1
IMAGEDEF
  2
AcDbRasterImageDef
  3
ISM
 90
    32768
280
     0
281
     0
  0
CLASS
  1
IMAGEDEF_REACTOR
  2
AcDbRasterImageDefReactor
  3
ISM
 90
    32769
280
     0
281
     0
  0
CLASS
  1
IDBUFFER
  2
AcDbIdBuffer
  3
AutoCAD 2000
 90
    32768
280
     0
281
     0
  0
CLASS
  1
SPATIAL_FILTER
  2
AcDbSpatialFilter
  3
AutoCAD 2000
 90
    32768
280
     0
281
     0
  0
CLASS
  1
XRECORD
  2
AcDbXrecord
  3
AutoCAD 2000
 90
    32768
280
     0
281
     0
  0
CLASS
  1
SORTENTSTABLE
  2
AcDbSortentsTable
  3
AutoCAD 2000
 90
    32768
280
     0
281
     0
  0
CLASS
  1
LAYER_INDEX
  2
AcDbLayerIndex
  3
AutoCAD 2000
 90
    32768
280
     0
281
     0
  0
CLASS
  1
SPATIAL_INDEX
  2
AcDbSpatialIndex
  3
AutoCAD 2000
 90
    32768
280
     0
281
     0
  0
CLASS
  1
OBJECT_PTR
  2
CAseDLPNTableRecord
  3
"ASE-LPNTableRecord"
 90
    32769
280
     0
281
     0
  0
CLASS
  1
LAYOUT
  2
AcDbLayout
  3
AutoCAD 2000
 90
        0
280
     0
281
     0
  0
CLASS
  1
PLOTSETTINGS
  2
AcDbPlotSettings
  3
AutoCAD 2000
 90
    32768
280
     0
281
     0
  0
CLASS
  1
ACDBDICTIONARYWDFLT
  2
AcDbDictionaryWithDefault
  3
AutoCAD 2000
 90
        0
280
     0
281
     0
  0
CLASS
  1
ACDBPLACEHOLDER
  2
AcDbPlaceHolder
  3
AutoCAD 2000
 90
        0
280
     0
281
     0
  0
CLASS
  1
VBA_PROJECT
  2
AcDbVbaProject
  3
acadvba
 90
    32768
280
     0
281
     0
  0
CLASS
  1
WIPEOUT
  2
AcDbWipeout
  3
WipeOut|AutoCAD Express Tool|expresstools@autodesk.com
 90
    32895
280
     0
281
     1
  0
CLASS
  1
WIPEOUTVARIABLES
  2
AcDbWipeoutVariables
  3
WipeOut|AutoCAD Express Tool|expresstools@autodesk.com
 90
        0
280
     0
281
     0
  0
CLASS
  1
RTEXT
  2
RText
  3
RText|AutoCAD Express Tool|expresstools@autodesk.com
 90
    32768
280
     0
281
     1
  0
CLASS
  1
ARCALIGNEDTEXT
  2
AcDbArcAlignedText
  3
ATEXT|AutoCAD Express Tool|expresstools@autodesk.com
 90
    32768
280
     0
281
     1
  0
ENDSEC
  0
SECTION
  2
TABLES
  0
TABLE
  2
VPORT
  5
7
100
AcDbSymbolTable
 70
     1
  0
VPORT
  5
15
100
AcDbSymbolTableRecord
100
AcDbViewportTableRecord
  2
*ACTIVE
 70
     0
 10
0.0
 20
0.0
 11
1.0
 21
1.0
 12
6.591288
 22
4.579184
 13
0.0
 23
0.0
 14
1.0
 24
1.0
 15
0.0
 25
0.0
 16
0.0
 26
0.0
 36
1.0
 17
0.0
 27
0.0
 37
0.0
 40
9.158369
 41
0.688564
 42
50.0
 43
0.0
 44
0.0
 50
0.0
 51
0.0
 71
     0
 72
   100
 73
     1
 74
     1
 75
     0
 76
     0
 77
     0
 78
     0
281
     0
 65
     0
110
0.0
120
0.0
130
0.0
111
1.0
121
0.0
131
0.0
112
0.0
122
1.0
132
0.0
345
0
346
0
 79
     0
146
0.0
  0
ENDTAB
  0
TABLE
  2
LTYPE
  5
4
100
AcDbSymbolTable
 70
     3
  0
LTYPE
  5
11
100
AcDbSymbolTableRecord
100
AcDbLinetypeTableRecord
  2
ByBlock
 70
    64
  3

 72
    65
 73
     0
 40
0.0
  0
LTYPE
  5
12
100
AcDbSymbolTableRecord
100
AcDbLinetypeTableRecord
  2
ByLayer
 70
    64
  3

 72
    65
 73
     0
 40
0.0
  0
LTYPE
  5
13
100
AcDbSymbolTableRecord
100
AcDbLinetypeTableRecord
  2
Continuous
 70
    64
  3
Solid line
 72
    65
 73
     0
 40
0.0
  0
ENDTAB
  0
TABLE
  2
LAYER
  5
2
100
AcDbSymbolTable
 70
     2
  0
LAYER
  5
14
100
AcDbSymbolTableRecord
100
AcDbLayerTableRecord
  2
0
 70
     0
 62
     7
  6
Continuous
290
     1
370
    -3
390
1D
  0
LAYER
  5
24
100
AcDbSymbolTableRecord
100
AcDbLayerTableRecord
  2
Ebene 1
 70
     0
 62
     7
  6
Continuous
290
     1
370
    -3
390
1F
  0
ENDTAB
  0
TABLE
  2
STYLE
  5
3
100
AcDbSymbolTable
 70
     1
  0
STYLE
  5
17
100
AcDbSymbolTableRecord
100
AcDbTextStyleTableRecord
  2
Standard
 70
     0
 40
0.0
 41
1.0
 50
0.0
 71
     0
 42
0.0
  3
txt
  4

  0
ENDTAB
  0
TABLE
  2
VIEW
  5
5
100
AcDbSymbolTable
 70
     0
  0
ENDTAB
  0
TABLE
  2
UCS
  5
6
100
AcDbSymbolTable
 70
     0
  0
ENDTAB
  0
TABLE
  2
APPID
  5
8
100
AcDbSymbolTable
 70
     1
  0
APPID
  5
16
100
AcDbSymbolTableRecord
100
AcDbRegAppTableRecord
  2
ACAD
 70
     0
  0
ENDTAB
  0
TABLE
  2
DIMSTYLE
  5
9
100
AcDbSymbolTable
 70
     1
100
AcDbDimStyleTable
 71
     0
  0
DIMSTYLE
105
18
100
AcDbSymbolTableRecord
100
AcDbDimStyleTableRecord
  2
Standard
 70
     0
  3

  4

 40
1.0
 41
0.18
 42
0.0625
 43
0.38
 44
0.18
 45
0.0
 46
0.0
 47
0.0
 48
0.0
 71
     0
 72
     0
 73
     1
 74
     1
 75
     0
 76
     0
 77
     0
 78
     0
 79
     0
140
0.18
141
0.09
142
0.0
143
25.4
144
1.0
145
0.0
146
1.0
147
0.09
148
0.0
170
     0
171
     2
172
     0
173
     0
174
     0
175
     0
176
     0
177
     0
178
     0
179
     0
271
     4
272
     4
273
     2
274
     2
275
     0
276
     0
277
     2
278
    46
279
     0
280
     0
281
     0
282
     0
283
     1
284
     0
285
     0
286
     0
288
     0
340
17
341
0
342
0
343
0
344
0
371
    -2
372
    -2
  0
ENDTAB
  0
TABLE
  2
BLOCK_RECORD
  5
1
100
AcDbSymbolTable
 70
     0
  0
BLOCK_RECORD
  5
A
100
AcDbSymbolTableRecord
100
AcDbBlockTableRecord
  2
*MODEL_SPACE
340
20
  0
BLOCK_RECORD
  5
B
100
AcDbSymbolTableRecord
100
AcDbBlockTableRecord
  2
*PAPER_SPACE
340
21
  0
ENDTAB
  0
ENDSEC
  0
SECTION
  2
BLOCKS
  0
BLOCK
  5
D
100
AcDbEntity
  8
0
100
AcDbBlockBegin
  2
*MODEL_SPACE
 70
     0
 10
0.0
 20
0.0
 30
0.0
  3
*MODEL_SPACE
  1

  0
ENDBLK
  5
E
100
AcDbEntity
  8
0
100
AcDbBlockEnd
  0
BLOCK
  5
F
100
AcDbEntity
 67
     1
  8
0
100
AcDbBlockBegin
  2
*PAPER_SPACE
 70
     0
 10
0.0
 20
0.0
 30
0.0
  3
*PAPER_SPACE
  1

  0
ENDBLK
  5
10
100
AcDbEntity
 67
     1
  8
0
100
AcDbBlockEnd
  0
ENDSEC
  0
SECTION
  2
ENTITIES
  0
SPLINE
  5
25
100
AcDbEntity
  8
Ebene 1
100
AcDbSpline
210
0.0
220
0.0
230
1.0
 70
     1
 71
     3
 72
   152
 73
   148
 74
     0
 42
0.0000000001
 43
0.0000000001
 40
0.0
 40
0.0
 40
0.0
 40
0.0
 40
0.027027027027027
 40
0.027027027027027
 40
0.027027027027027
 40
0.027027027027027
 40
0.0540540540540541
 40
0.0540540540540541
 40
0.0540540540540541
 40
0.0540540540540541
 40
0.0810810810810811
 40
0.0810810810810811
 40
0.0810810810810811
 40
0.0810810810810811
 40
0.1081081081081081
 40
0.1081081081081081
 40
0.1081081081081081
 40
0.1081081081081081
 40
0.1351351351351351
 40
0.1351351351351351
 40
0.1351351351351351
 40
0.1351351351351351
 40
0.1621621621621622
 40
0.1621621621621622
 40
0.1621621621621622
 40
0.1621621621621622
 40
0.1891891891891892
 40
0.1891891891891892
 40
0.1891891891891892
 40
0.1891891891891892
 40
0.2162162162162162
 40
0.2162162162162162
 40
0.2162162162162162
 40
0.2162162162162162
 40
0.2432432432432433
 40
0.2432432432432433
 40
0.2432432432432433
 40
0.2432432432432433
 40
0.2702702702702703
 40
0.2702702702702703
 40
0.2702702702702703
 40
0.2702702702702703
 40
0.2972972972972973
 40
0.2972972972972973
 40
0.2972972972972973
 40
0.2972972972972973
 40
0.3243243243243243
 40
0.3243243243243243
 40
0.3243243243243243
 40
0.3243243243243243
 40
0.3513513513513514
 40
0.3513513513513514
 40
0.3513513513513514
 40
0.3513513513513514
 40
0.3783783783783784
 40
0.3783783783783784
 40
0.3783783783783784
 40
0.3783783783783784
 40
0.4054054054054054
 40
0.4054054054054054
 40
0.4054054054054054
 40
0.4054054054054054
 40
0.4324324324324325
 40
0.4324324324324325
 40
0.4324324324324325
 40
0.4324324324324325
 40
0.4594594594594595
 40
0.4594594594594595
 40
0.4594594594594595
 40
0.4594594594594595
 40
0.4864864864864865
 40
0.4864864864864865
 40
0.4864864864864865
 40
0.4864864864864865
 40
0.5135135135135136
 40
0.5135135135135136
 40
0.5135135135135136
 40
0.5135135135135136
 40
0.5405405405405406
 40
0.5405405405405406
 40
0.5405405405405406
 40
0.5405405405405406
 40
0.5675675675675675
 40
0.5675675675675675
 40
0.5675675675675675
 40
0.5675675675675675
 40
0.5945945945945945
 40
0.5945945945945945
 40
0.5945945945945945
 40
0.5945945945945945
 40
0.6216216216216215
 40
0.6216216216216215
 40
0.6216216216216215
 40
0.6216216216216215
 40
0.6486486486486485
 40
0.6486486486486485
 40
0.6486486486486485
 40
0.6486486486486485
 40
0.6756756756756754
 40
0.6756756756756754
 40
0.6756756756756754
 40
0.6756756756756754
 40
0.7027027027027024
 40
0.7027027027027024
 40
0.7027027027027024
 40
0.7027027027027024
 40
0.7297297297297294
 40
0.7297297297297294
 40
0.7297297297297294
 40
0.7297297297297294
 40
0.7567567567567564
 40
0.7567567567567564
 40
0.7567567567567564
 40
0.7567567567567564
 40
0.7837837837837833
 40
0.7837837837837833
 40
0.7837837837837833
 40
0.7837837837837833
 40
0.8108108108108103
 40
0.8108108108108103
 40
0.8108108108108103
 40
0.8108108108108103
 40
0.8378378378378373
 40
0.8378378378378373
 40
0.8378378378378373
 40
0.8378378378378373
 40
0.8648648648648643
 40
0.8648648648648643
 40
0.8648648648648643
 40
0.8648648648648643
 40
0.8918918918918912
 40
0.8918918918918912
 40
0.8918918918918912
 40
0.8918918918918912
 40
0.9189189189189182
 40
0.9189189189189182
 40
0.9189189189189182
 40
0.9189189189189182
 40
0.9459459459459452
 40
0.9459459459459452
 40
0.9459459459459452
 40
0.9459459459459452
 40
0.9729729729729721
 40
0.9729729729729721
 40
0.9729729729729721
 40
0.9729729729729721
 40
1.0
 40
1.0
 40
1.0
 40
1.0
 10
4.6153200000000005
 20
-2.4211800000000001
 30
0.0
 10
4.6051600000000006
 20
-2.6548600000000002
 30
0.0
 10
4.3841800000000006
 20
-3.1476200000000003
 30
0.0
 10
4.4248200000000004
 20
-2.6574000000000004
 30
0.0
 10
4.4248200000000004
 20
-2.6574000000000004
 30
0.0
 10
4.49594
 20
-2.0274800000000002
 30
0.0
 10
4.1352600000000006
 20
-1.4026400000000001
 30
0.0
 10
3.8355400000000004
 20
-2.2332200000000002
 30
0.0
 10
3.8355400000000004
 20
-2.2332200000000002
 30
0.0
 10
3.8406200000000004
 20
-1.7379200000000001
 30
0.0
 10
3.7314000000000003
 20
-1.8446000000000002
 30
0.0
 10
3.4215200000000001
 20
-1.4788400000000002
 30
0.0
 10
3.4215200000000001
 20
-1.4788400000000002
 30
0.0
 10
3.3554800000000005
 20
-1.6566400000000001
 30
0.0
 10
3.3504000000000005
 20
-1.9208000000000001
 30
0.0
 10
3.1649800000000003
 20
-2.0173200000000002
 30
0.0
 10
3.1649800000000003
 20
-2.0173200000000002
 30
0.0
 10
3.3783400000000001
 20
-1.3061200000000002
 30
0.0
 10
2.5807800000000003
 20
-1.0902200000000002
 30
0.0
 10
2.2023200000000003
 20
-1.6210800000000001
 30
0.0
 10
2.2023200000000003
 20
-1.6210800000000001
 30
0.0
 10
2.2023200000000003
 20
-1.6210800000000001
 30
0.0
 10
2.2429600000000001
 20
-1.2756400000000001
 30
0.0
 10
2.2429600000000001
 20
-1.2756400000000001
 30
0.0
 10
2.2429600000000001
 20
-1.2756400000000001
 30
0.0
 10
1.8391000000000002
 20
-1.2350000000000001
 30
0.0
 10
1.4504800000000002
 20
-1.3188200000000001
 30
0.0
 10
1.3946000000000001
 20
-1.7811000000000001
 30
0.0
 10
1.3946000000000001
 20
-1.7811000000000001
 30
0.0
 10
1.3539600000000001
 20
-1.3061200000000002
 30
0.0
 10
0.68086
 20
-2.3195800000000002
 30
0.0
 10
1.0466200000000001
 20
-2.5202400000000003
 30
0.0
 10
1.0466200000000001
 20
-2.5202400000000003
 30
0.0
 10
1.1761600000000001
 20
-2.6142200000000004
 30
0.0
 10
1.2523600000000001
 20
-2.4262600000000001
 30
0.0
 10
1.3844400000000001
 20
-2.4313400000000001
 30
0.0
 10
1.3844400000000001
 20
-2.4313400000000001
 30
0.0
 10
1.3336400000000002
 20
-2.6345400000000003
 30
0.0
 10
1.3717400000000002
 20
-2.7209000000000003
 30
0.0
 10
1.5724
 20
-2.6015200000000003
 30
0.0
 10
1.5724
 20
-2.6015200000000003
 30
0.0
 10
1.5927200000000001
 20
-3.1349200000000002
 30
0.0
 10
2.1743800000000002
 20
-2.3297400000000001
 30
0.0
 10
2.5172800000000004
 20
-2.4465800000000004
 30
0.0
 10
2.5172800000000004
 20
-2.4465800000000004
 30
0.0
 10
2.0423
 20
-3.0079200000000004
 30
0.0
 10
2.7230200000000004
 20
-3.4295600000000004
 30
0.0
 10
3.1345000000000001
 20
-3.0587200000000001
 30
0.0
 10
3.1345000000000001
 20
-3.0587200000000001
 30
0.0
 10
3.3097600000000003
 20
-3.0892000000000004
 30
0.0
 10
3.05322
 20
-3.3076400000000001
 30
0.0
 10
3.1853000000000002
 20
-3.2898600000000005
 30
0.0
 10
3.1853000000000002
 20
-3.2898600000000005
 30
0.0
 10
3.3300800000000002
 20
-3.1476200000000003
 30
0.0
 10
3.4520000000000004
 20
-2.9774400000000001
 30
0.0
 10
3.5866200000000004
 20
-2.8225000000000002
 30
0.0
 10
3.5866200000000004
 20
-2.8225000000000002
 30
0.0
 10
3.6856800000000005
 20
-2.9977600000000004
 30
0.0
 10
3.6628200000000004
 20
-3.2695400000000001
 30
0.0
 10
3.5815400000000004
 20
-3.4575000000000005
 30
0.0
 10
3.5815400000000004
 20
-3.4575000000000005
 30
0.0
 10
3.7212400000000003
 20
-3.5260800000000003
 30
0.0
 10
3.9498400000000005
 20
-3.2136600000000004
 30
0.0
 10
4.0235000000000003
 20
-3.3863800000000004
 30
0.0
 10
4.0235000000000003
 20
-3.3863800000000004
 30
0.0
 10
3.7695000000000003
 20
-4.0264600000000002
 30
0.0
 10
4.49594
 20
-3.3457400000000002
 30
0.0
 10
4.76518
 20
-3.3025600000000002
 30
0.0
 10
4.76518
 20
-3.3025600000000002
 30
0.0
 10
4.67882
 20
-3.6861000000000002
 30
0.0
 10
4.4807000000000006
 20
-3.8385000000000002
 30
0.0
 10
4.8947200000000004
 20
-3.8207200000000001
 30
0.0
 10
4.8947200000000004
 20
-3.8207200000000001
 30
0.0
 10
4.59246
 20
-4.0620200000000004
 30
0.0
 10
4.29528
 20
-4.30586
 30
0.0
 10
3.9777800000000005
 20
-4.52684
 30
0.0
 10
3.9777800000000005
 20
-4.52684
 30
0.0
 10
3.6958400000000005
 20
-4.5827200000000001
 30
0.0
 10
3.4139000000000004
 20
-4.5801800000000004
 30
0.0
 10
3.1319600000000003
 20
-4.5878000000000005
 30
0.0
 10
3.1319600000000003
 20
-4.5878000000000005
 30
0.0
 10
1.7908400000000002
 20
-4.2245800000000004
 30
0.0
 10
0.44464
 20
-4.2068000000000003
 30
0.0
 10
-0.9244100000000001
 20
-4.3211000000000004
 30
0.0
 10
-0.9244100000000001
 20
-4.3211000000000004
 30
0.0
 10
-1.6660900000000001
 20
-3.8385000000000002
 30
0.0
 10
-2.73543
 20
-3.9045400000000003
 30
0.0
 10
-3.4288500000000002
 20
-3.3559000000000001
 30
0.0
 10
-3.4288500000000002
 20
-3.3559000000000001
 30
0.0
 10
-3.7158700000000002
 20
-2.7869400000000004
 30
0.0
 10
-3.5990300000000004
 20
-2.14432
 30
0.0
 10
-3.9444700000000004
 20
-1.9055600000000001
 30
0.0
 10
-3.9444700000000004
 20
-1.9055600000000001
 30
0.0
 10
-4.4118300000000001
 20
-1.5804400000000001
 30
0.0
 10
-4.6709100000000001
 20
-1.3035800000000002
 30
0.0
 10
-4.1400500000000005
 20
-0.7447800000000001
 30
0.0
 10
-4.1400500000000005
 20
-0.7447800000000001
 30
0.0
 10
-5.2881300000000007
 20
-0.2444
 30
0.0
 10
-5.7123100000000004
 20
1.3354700000000002
 30
0.0
 10
-5.3871900000000004
 20
2.46577
 30
0.0
 10
-5.3871900000000004
 20
2.46577
 30
0.0
 10
-4.7928300000000004
 20
3.4081100000000002
 30
0.0
 10
-3.4720300000000002
 20
3.6341700000000001
 30
0.0
 10
-2.4636500000000003
 20
3.6875100000000005
 30
0.0
 10
-2.4636500000000003
 20
3.6875100000000005
 30
0.0
 10
-1.9048500000000002
 20
4.2082100000000002
 30
0.0
 10
-1.0996700000000001
 20
4.3961700000000006
 30
0.0
 10
-0.37831
 20
4.5815900000000003
 30
0.0
 10
-0.37831
 20
4.5815900000000003
 30
0.0
 10
-0.37831
 20
4.5815900000000003
 30
0.0
 10
-0.31481
 20
3.9796100000000005
 30
0.0
 10
-0.31481
 20
3.9796100000000005
 30
0.0
 10
-0.31481
 20
3.9796100000000005
 30
0.0
 10
-0.46467
 20
3.6189300000000002
 30
0.0
 10
-0.5434100000000001
 20
3.3446100000000003
 30
0.0
 10
0.14746
 20
2.8239100000000001
 30
0.0
 10
0.14746
 20
2.8239100000000001
 30
0.0
 10
0.14746
 20
2.8239100000000001
 30
0.0
 10
1.8340200000000002
 20
3.2455500000000002
 30
0.0
 10
1.8340200000000002
 20
3.2455500000000002
 30
0.0
 10
1.8340200000000002
 20
3.2455500000000002
 30
0.0
 10
1.6613000000000002
 20
2.4352900000000002
 30
0.0
 10
2.5909400000000002
 20
1.5234300000000001
 30
0.0
 10
3.5180400000000005
 20
1.6910700000000001
 30
0.0
 10
3.5180400000000005
 20
1.6910700000000001
 30
0.0
 10
4.0870000000000006
 20
1.7596500000000002
 30
0.0
 10
4.4019600000000008
 20
1.7190100000000001
 30
0.0
 10
4.71692
 20
1.6021700000000001
 30
0.0
 10
4.71692
 20
1.6021700000000001
 30
0.0
 10
4.9226600000000005
 20
0.49219
 30
0.0
 10
4.8210600000000001
 20
0.34995
 30
0.0
 10
5.3468400000000003
 20
-0.52634
 30
0.0
 10
5.3468400000000003
 20
-0.52634
 30
0.0
 10
5.3341400000000005
 20
-1.3010400000000002
 30
0.0
 10
5.6008400000000007
 20
-2.0655800000000002
 30
0.0
 10
5.4535200000000001
 20
-2.8377400000000002
 30
0.0
 10
5.4535200000000001
 20
-2.8377400000000002
 30
0.0
 10
5.34938
 20
-2.7285200000000001
 30
0.0
 10
5.3544600000000004
 20
-2.5202400000000003
 30
0.0
 10
5.2554000000000007
 20
-2.3754600000000003
 30
0.0
 10
5.2554000000000007
 20
-2.3754600000000003
 30
0.0
 10
5.0141
 20
-1.8573000000000002
 30
0.0
 10
5.06236
 20
-2.9342600000000001
 30
0.0
 10
4.8667800000000003
 20
-2.6675600000000004
 30
0.0
 10
4.8667800000000003
 20
-2.6675600000000004
 30
0.0
 10
4.8388400000000003
 20
-2.48468
 30
0.0
 10
4.6889800000000008
 20
-1.5067800000000002
 30
0.0
 10
4.6153200000000005
 20
-2.4211800000000001
 30
0.0
  0
SPLINE
  5
26
100
AcDbEntity
  8
Ebene 1
100
AcDbSpline
210
0.0
220
0.0
230
1.0
 70
     1
 71
     3
 72
    16
 73
    12
 74
     0
 42
0.0000000001
 43
0.0000000001
 40
0.0
 40
0.0
 40
0.0
 40
0.0
 40
0.3333333333333333
 40
0.3333333333333333
 40
0.3333333333333333
 40
0.3333333333333333
 40
0.6666666666666666
 40
0.6666666666666666
 40
0.6666666666666666
 40
0.6666666666666666
 40
1.0
 40
1.0
 40
1.0
 40
1.0
 10
-1.9378700000000002
 20
-0.8387600000000001
 30
0.0
 10
-2.3061700000000003
 20
-0.9251200000000001
 30
0.0
 10
-2.7125700000000004
 20
-1.0292600000000001
 30
0.0
 10
-3.0884900000000002
 20
-1.0318000000000001
 30
0.0
 10
-3.0884900000000002
 20
-1.0318000000000001
 30
0.0
 10
-3.2053300000000005
 20
-1.4636
 30
0.0
 10
-2.7709900000000003
 20
-1.7023600000000001
 30
0.0
 10
-2.39507
 20
-1.5499600000000002
 30
0.0
 10
-2.39507
 20
-1.5499600000000002
 30
0.0
 10
-2.1664700000000003
 20
-1.3899400000000002
 30
0.0
 10
-1.9683500000000003
 20
-1.07498
 30
0.0
 10
-1.9378700000000002
 20
-0.8387600000000001
 30
0.0
  0
SPLINE
  5
27
100
AcDbEntity
  8
Ebene 1
 62
     7
100
AcDbSpline
210
0.0
220
0.0
230
1.0
 70
     1
 71
     3
 72
   252
 73
   248
 74
     0
 42
0.0000000001
 43
0.0000000001
 40
0.0
 40
0.0
 40
0.0
 40
0.0
 40
0.0161290322580645
 40
0.0161290322580645
 40
0.0161290322580645
 40
0.0161290322580645
 40
0.032258064516129
 40
0.032258064516129
 40
0.032258064516129
 40
0.032258064516129
 40
0.0483870967741935
 40
0.0483870967741935
 40
0.0483870967741935
 40
0.0483870967741935
 40
0.0645161290322581
 40
0.0645161290322581
 40
0.0645161290322581
 40
0.0645161290322581
 40
0.0806451612903226
 40
0.0806451612903226
 40
0.0806451612903226
 40
0.0806451612903226
 40
0.0967741935483871
 40
0.0967741935483871
 40
0.0967741935483871
 40
0.0967741935483871
 40
0.1129032258064516
 40
0.1129032258064516
 40
0.1129032258064516
 40
0.1129032258064516
 40
0.1290322580645161
 40
0.1290322580645161
 40
0.1290322580645161
 40
0.1290322580645161
 40
0.1451612903225806
 40
0.1451612903225806
 40
0.1451612903225806
 40
0.1451612903225806
 40
0.1612903225806451
 40
0.1612903225806451
 40
0.1612903225806451
 40
0.1612903225806451
 40
0.1774193548387096
 40
0.1774193548387096
 40
0.1774193548387096
 40
0.1774193548387096
 40
0.1935483870967741
 40
0.1935483870967741
 40
0.1935483870967741
 40
0.1935483870967741
 40
0.2096774193548386
 40
0.2096774193548386
 40
0.2096774193548386
 40
0.2096774193548386
 40
0.2258064516129031
 40
0.2258064516129031
 40
0.2258064516129031
 40
0.2258064516129031
 40
0.2419354838709676
 40
0.2419354838709676
 40
0.2419354838709676
 40
0.2419354838709676
 40
0.2580645161290321
 40
0.2580645161290321
 40
0.2580645161290321
 40
0.2580645161290321
 40
0.2741935483870966
 40
0.2741935483870966
 40
0.2741935483870966
 40
0.2741935483870966
 40
0.2903225806451611
 40
0.2903225806451611
 40
0.2903225806451611
 40
0.2903225806451611
 40
0.3064516129032257
 40
0.3064516129032257
 40
0.3064516129032257
 40
0.3064516129032257
 40
0.3225806451612902
 40
0.3225806451612902
 40
0.3225806451612902
 40
0.3225806451612902
 40
0.3387096774193547
 40
0.3387096774193547
 40
0.3387096774193547
 40
0.3387096774193547
 40
0.3548387096774192
 40
0.3548387096774192
 40
0.3548387096774192
 40
0.3548387096774192
 40
0.3709677419354837
 40
0.3709677419354837
 40
0.3709677419354837
 40
0.3709677419354837
 40
0.3870967741935482
 40
0.3870967741935482
 40
0.3870967741935482
 40
0.3870967741935482
 40
0.4032258064516127
 40
0.4032258064516127
 40
0.4032258064516127
 40
0.4032258064516127
 40
0.4193548387096772
 40
0.4193548387096772
 40
0.4193548387096772
 40
0.4193548387096772
 40
0.4354838709677417
 40
0.4354838709677417
 40
0.4354838709677417
 40
0.4354838709677417
 40
0.4516129032258062
 40
0.4516129032258062
 40
0.4516129032258062
 40
0.4516129032258062
 40
0.4677419354838707
 40
0.4677419354838707
 40
0.4677419354838707
 40
0.4677419354838707
 40
0.4838709677419352
 40
0.4838709677419352
 40
0.4838709677419352
 40
0.4838709677419352
 40
0.4999999999999997
 40
0.4999999999999997
 40
0.4999999999999997
 40
0.4999999999999997
 40
0.5161290322580642
 40
0.5161290322580642
 40
0.5161290322580642
 40
0.5161290322580642
 40
0.5322580645161287
 40
0.5322580645161287
 40
0.5322580645161287
 40
0.5322580645161287
 40
0.5483870967741932
 40
0.5483870967741932
 40
0.5483870967741932
 40
0.5483870967741932
 40
0.5645161290322577
 40
0.5645161290322577
 40
0.5645161290322577
 40
0.5645161290322577
 40
0.5806451612903222
 40
0.5806451612903222
 40
0.5806451612903222
 40
0.5806451612903222
 40
0.5967741935483867
 40
0.5967741935483867
 40
0.5967741935483867
 40
0.5967741935483867
 40
0.6129032258064512
 40
0.6129032258064512
 40
0.6129032258064512
 40
0.6129032258064512
 40
0.6290322580645157
 40
0.6290322580645157
 40
0.6290322580645157
 40
0.6290322580645157
 40
0.6451612903225802
 40
0.6451612903225802
 40
0.6451612903225802
 40
0.6451612903225802
 40
0.6612903225806447
 40
0.6612903225806447
 40
0.6612903225806447
 40
0.6612903225806447
 40
0.6774193548387092
 40
0.6774193548387092
 40
0.6774193548387092
 40
0.6774193548387092
 40
0.6935483870967737
 40
0.6935483870967737
 40
0.6935483870967737
 40
0.6935483870967737
 40
0.7096774193548382
 40
0.7096774193548382
 40
0.7096774193548382
 40
0.7096774193548382
 40
0.7258064516129027
 40
0.7258064516129027
 40
0.7258064516129027
 40
0.7258064516129027
 40
0.7419354838709672
 40
0.7419354838709672
 40
0.7419354838709672
 40
0.7419354838709672
 40
0.7580645161290317
 40
0.7580645161290317
 40
0.7580645161290317
 40
0.7580645161290317
 40
0.7741935483870962
 40
0.7741935483870962
 40
0.7741935483870962
 40
0.7741935483870962
 40
0.7903225806451607
 40
0.7903225806451607
 40
0.7903225806451607
 40
0.7903225806451607
 40
0.8064516129032252
 40
0.8064516129032252
 40
0.8064516129032252
 40
0.8064516129032252
 40
0.8225806451612897
 40
0.8225806451612897
 40
0.8225806451612897
 40
0.8225806451612897
 40
0.8387096774193542
 40
0.8387096774193542
 40
0.8387096774193542
 40
0.8387096774193542
 40
0.8548387096774187
 40
0.8548387096774187
 40
0.8548387096774187
 40
0.8548387096774187
 40
0.8709677419354832
 40
0.8709677419354832
 40
0.8709677419354832
 40
0.8709677419354832
 40
0.8870967741935477
 40
0.8870967741935477
 40
0.8870967741935477
 40
0.8870967741935477
 40
0.9032258064516122
 40
0.9032258064516122
 40
0.9032258064516122
 40
0.9032258064516122
 40
0.9193548387096767
 40
0.9193548387096767
 40
0.9193548387096767
 40
0.9193548387096767
 40
0.9354838709677412
 40
0.9354838709677412
 40
0.9354838709677412
 40
0.9354838709677412
 40
0.9516129032258057
 40
0.9516129032258057
 40
0.9516129032258057
 40
0.9516129032258057
 40
0.9677419354838702
 40
0.9677419354838702
 40
0.9677419354838702
 40
0.9677419354838702
 40
0.9838709677419347
 40
0.9838709677419347
 40
0.9838709677419347
 40
0.9838709677419347
 40
1.0
 40
1.0
 40
1.0
 40
1.0
 10
5.1665000000000001
 20
-0.3536200000000001
 30
0.0
 10
5.2909600000000001
 20
-0.57206
 30
0.0
 10
5.2960400000000005
 20
-0.8362200000000001
 30
0.0
 10
5.2960400000000005
 20
-1.07752
 30
0.0
 10
5.2960400000000005
 20
-1.07752
 30
0.0
 10
5.2960400000000005
 20
-1.07752
 30
0.0
 10
5.2223800000000002
 20
-0.8717800000000001
 30
0.0
 10
5.2223800000000002
 20
-0.8717800000000001
 30
0.0
 10
5.2223800000000002
 20
-0.8717800000000001
 30
0.0
 10
5.2223800000000002
 20
-0.8717800000000001
 30
0.0
 10
5.2808000000000002
 20
-1.3416800000000002
 30
0.0
 10
5.2808000000000002
 20
-1.3416800000000002
 30
0.0
 10
5.2808000000000002
 20
-1.3416800000000002
 30
0.0
 10
5.2808000000000002
 20
-1.3416800000000002
 30
0.0
 10
5.1665000000000001
 20
-1.37978
 30
0.0
 10
5.1665000000000001
 20
-1.37978
 30
0.0
 10
5.1665000000000001
 20
-1.37978
 30
0.0
 10
5.1614200000000006
 20
-1.2705600000000001
 30
0.0
 10
5.1411000000000007
 20
-1.1765800000000002
 30
0.0
 10
5.1131600000000006
 20
-1.0927600000000002
 30
0.0
 10
5.1131600000000006
 20
-1.0927600000000002
 30
0.0
 10
5.0699800000000002
 20
-1.21214
 30
0.0
 10
5.0750600000000006
 20
-1.3391400000000002
 30
0.0
 10
5.06236
 20
-1.46106
 30
0.0
 10
5.06236
 20
-1.46106
 30
0.0
 10
4.9937800000000001
 20
-1.4382000000000001
 30
0.0
 10
4.9633000000000003
 20
-1.2705600000000001
 30
0.0
 10
4.8769400000000003
 20
-1.3467600000000002
 30
0.0
 10
4.8769400000000003
 20
-1.3467600000000002
 30
0.0
 10
4.6737400000000004
 20
-1.7303000000000002
 30
0.0
 10
4.7448600000000001
 20
-1.1842000000000001
 30
0.0
 10
4.6940600000000003
 20
-1.0089400000000002
 30
0.0
 10
4.6940600000000003
 20
-1.0089400000000002
 30
0.0
 10
4.7067600000000001
 20
-0.9429000000000001
 30
0.0
 10
4.7016800000000005
 20
-0.6406400000000001
 30
0.0
 10
4.6762800000000002
 20
-0.8362200000000001
 30
0.0
 10
4.6762800000000002
 20
-0.8362200000000001
 30
0.0
 10
4.6051600000000006
 20
-1.1105400000000001
 30
0.0
 10
4.6762800000000002
 20
-1.3950200000000001
 30
0.0
 10
4.6381800000000002
 20
-1.6668000000000001
 30
0.0
 10
4.6381800000000002
 20
-1.6668000000000001
 30
0.0
 10
4.4070400000000003
 20
-1.4280400000000002
 30
0.0
 10
4.3486200000000004
 20
-1.3162800000000001
 30
0.0
 10
4.3765600000000004
 20
-0.8692400000000001
 30
0.0
 10
4.3765600000000004
 20
-0.8692400000000001
 30
0.0
 10
4.3283000000000005
 20
-1.0597400000000001
 30
0.0
 10
4.3257600000000007
 20
-1.2604000000000002
 30
0.0
 10
4.3079800000000006
 20
-1.4534400000000001
 30
0.0
 10
4.3079800000000006
 20
-1.4534400000000001
 30
0.0
 10
4.2825800000000003
 20
-1.5271000000000001
 30
0.0
 10
4.2902000000000005
 20
-1.6083800000000001
 30
0.0
 10
4.28512
 20
-1.6795000000000002
 30
0.0
 10
4.28512
 20
-1.6795000000000002
 30
0.0
 10
4.0260400000000001
 20
-1.6160000000000001
 30
0.0
 10
4.1352600000000006
 20
-0.54666
 30
0.0
 10
4.0590600000000006
 20
-1.24516
 30
0.0
 10
4.0590600000000006
 20
-1.24516
 30
0.0
 10
4.0565199999999999
 20
-1.3035800000000002
 30
0.0
 10
3.9828600000000005
 20
-1.2350000000000001
 30
0.0
 10
3.9574600000000002
 20
-1.2756400000000001
 30
0.0
 10
3.9574600000000002
 20
-1.2756400000000001
 30
0.0
 10
3.7669600000000001
 20
-1.6185400000000001
 30
0.0
 10
3.8380800000000002
 20
-0.6457200000000001
 30
0.0
 10
3.7364800000000002
 20
-1.0470400000000002
 30
0.0
 10
3.7364800000000002
 20
-1.0470400000000002
 30
0.0
 10
3.7364800000000002
 20
-1.0470400000000002
 30
0.0
 10
3.7415600000000002
 20
-1.2248400000000002
 30
0.0
 10
3.7415600000000002
 20
-1.2248400000000002
 30
0.0
 10
3.7415600000000002
 20
-1.2248400000000002
 30
0.0
 10
3.7009200000000004
 20
-1.2604000000000002
 30
0.0
 10
3.6475800000000005
 20
-1.3493000000000002
 30
0.0
 10
3.6247200000000004
 20
-1.4432800000000001
 30
0.0
 10
3.6247200000000004
 20
-1.4432800000000001
 30
0.0
 10
3.2437200000000002
 20
-1.0495800000000002
 30
0.0
 10
3.3351600000000001
 20
-0.8590800000000001
 30
0.0
 10
3.0176600000000002
 20
-0.3841000000000001
 30
0.0
 10
3.0176600000000002
 20
-0.3841000000000001
 30
0.0
 10
2.9668600000000001
 20
-0.6025400000000001
 30
0.0
 10
3.2107000000000001
 20
-0.88956
 30
0.0
 10
3.0633800000000004
 20
-1.1308600000000002
 30
0.0
 10
3.0633800000000004
 20
-1.1308600000000002
 30
0.0
 10
2.6163400000000001
 20
-1.42042
 30
0.0
 10
2.6849200000000004
 20
-0.9352800000000001
 30
0.0
 10
2.4106000000000001
 20
-0.8514600000000001
 30
0.0
 10
2.4106000000000001
 20
-0.8514600000000001
 30
0.0
 10
2.2886800000000003
 20
-1.0445
 30
0.0
 10
2.0016600000000002
 20
-1.1842000000000001
 30
0.0
 10
1.7476600000000002
 20
-1.1105400000000001
 30
0.0
 10
1.7476600000000002
 20
-1.1105400000000001
 30
0.0
 10
1.8060800000000001
 20
-0.86416
 30
0.0
 10
1.7984600000000002
 20
-0.8667
 30
0.0
 10
1.5038200000000002
 20
-0.84638
 30
0.0
 10
1.5038200000000002
 20
-0.84638
 30
0.0
 10
1.7019400000000002
 20
-0.21138
 30
0.0
 10
1.3666600000000002
 20
-1.0673600000000001
 30
0.0
 10
1.1736200000000001
 20
-1.1918200000000001
 30
0.0
 10
1.1736200000000001
 20
-1.1918200000000001
 30
0.0
 10
1.4657200000000001
 20
-0.7244600000000001
 30
0.0
 10
0.72404
 20
-0.9454400000000001
 30
0.0
 10
1.1634600000000002
 20
-0.40696
 30
0.0
 10
1.1634600000000002
 20
-0.40696
 30
0.0
 10
0.9399400000000001
 20
-0.52634
 30
0.0
 10
1.02122
 20
-0.9530600000000001
 30
0.0
 10
0.6884800000000001
 20
-0.8768600000000001
 30
0.0
 10
0.6884800000000001
 20
-0.8768600000000001
 30
0.0
 10
0.42178
 20
-0.9378200000000001
 30
0.0
 10
1.1583800000000002
 20
-0.1428
 30
0.0
 10
0.7469
 20
-0.55428
 30
0.0
 10
0.7469
 20
-0.55428
 30
0.0
 10
0.7469
 20
-0.55428
 30
0.0
 10
0.5564
 20
-0.8108200000000001
 30
0.0
 10
0.5564
 20
-0.8108200000000001
 30
0.0
 10
0.5564
 20
-0.8108200000000001
 30
0.0
 10
0.47004
 20
-1.07498
 30
0.0
 10
0.15762
 20
-1.1486400000000001
 30
0.0
 10
-0.05827
 20
-1.0267200000000001
 30
0.0
 10
-0.05827
 20
-1.0267200000000001
 30
0.0
 10
0.12206
 20
-0.8387600000000001
 30
0.0
 10
-0.13193
 20
-0.5974600000000001
 30
0.0
 10
-0.3325900000000001
 20
-0.72192
 30
0.0
 10
-0.3325900000000001
 20
-0.72192
 30
0.0
 10
-0.12939
 20
-0.26726
 30
0.0
 10
0.4294000000000001
 20
-0.06914
 30
0.0
 10
0.8408800000000001
 20
-0.0031
 30
0.0
 10
0.8408800000000001
 20
-0.0031
 30
0.0
 10
0.8408800000000001
 20
-0.0031
 30
0.0
 10
0.2897
 20
0.03753
 30
0.0
 10
0.2897
 20
0.03753
 30
0.0
 10
0.2897
 20
0.03753
 30
0.0
 10
-0.51039
 20
-0.7676400000000001
 30
0.0
 10
-1.54671
 20
0.37281
 30
0.0
 10
-2.6185900000000002
 20
0.06293
 30
0.0
 10
-2.6185900000000002
 20
0.06293
 30
0.0
 10
-2.1867900000000002
 20
0.02737
 30
0.0
 10
-1.67117
 20
-0.0412
 30
0.0
 10
-1.2368300000000001
 20
-0.22154
 30
0.0
 10
-1.2368300000000001
 20
-0.22154
 30
0.0
 10
-0.99553
 20
-0.32822
 30
0.0
 10
-1.3917700000000002
 20
-0.33838
 30
0.0
 10
-1.4882900000000001
 20
-0.3536200000000001
 30
0.0
 10
-1.4882900000000001
 20
-0.3536200000000001
 30
0.0
 10
-2.1588500000000002
 20
-0.3079
 30
0.0
 10
-2.9919700000000002
 20
-0.52634
 30
0.0
 10
-3.5253700000000001
 20
-0.01834
 30
0.0
 10
-3.5253700000000001
 20
-0.01834
 30
0.0
 10
-4.1730700000000001
 20
0.63697
 30
0.0
 10
-3.3247100000000001
 20
1.0941700000000001
 30
0.0
 10
-2.82179
 20
1.23641
 30
0.0
 10
-2.82179
 20
1.23641
 30
0.0
 10
-3.6142700000000003
 20
1.2237100000000001
 30
0.0
 10
-4.1603700000000003
 20
1.4345300000000001
 30
0.0
 10
-4.4829500000000007
 20
1.1170300000000002
 30
0.0
 10
-4.4829500000000007
 20
1.1170300000000002
 30
0.0
 10
-3.2840700000000003
 20
1.4167500000000002
 30
0.0
 10
-3.9368500000000002
 20
-0.7498600000000001
 30
0.0
 10
-4.9528500000000006
 20
0.11627
 30
0.0
 10
-4.9528500000000006
 20
0.11627
 30
0.0
 10
-5.0950900000000008
 20
0.35249
 30
0.0
 10
-5.1001700000000003
 20
0.55315
 30
0.0
 10
-4.8334700000000002
 20
0.3169300000000001
 30
0.0
 10
-4.8334700000000002
 20
0.3169300000000001
 30
0.0
 10
-4.7420300000000006
 20
0.2737500000000001
 30
0.0
 10
-4.6505900000000002
 20
0.17723
 30
0.0
 10
-4.5515300000000005
 20
0.18739
 30
0.0
 10
-4.5515300000000005
 20
0.18739
 30
0.0
 10
-5.2932100000000002
 20
0.8046100000000001
 30
0.0
 10
-5.8748700000000005
 20
2.13557
 30
0.0
 10
-4.9579300000000002
 20
2.9102700000000001
 30
0.0
 10
-4.9579300000000002
 20
2.9102700000000001
 30
0.0
 10
-4.72933
 20
3.1160100000000002
 30
0.0
 10
-4.1375100000000007
 20
3.3166700000000002
 30
0.0
 10
-4.6328100000000001
 20
2.9509100000000004
 30
0.0
 10
-4.6328100000000001
 20
2.9509100000000004
 30
0.0
 10
-4.7623500000000005
 20
2.80105
 30
0.0
 10
-4.9071300000000004
 20
2.6537300000000004
 30
0.0
 10
-5.0036500000000004
 20
2.4937100000000001
 30
0.0
 10
-5.0036500000000004
 20
2.4937100000000001
 30
0.0
 10
-4.39405
 20
3.0906100000000003
 30
0.0
 10
-2.9157700000000002
 20
4.0227900000000005
 30
0.0
 10
-2.2985500000000001
 20
3.2353900000000002
 30
0.0
 10
-2.2985500000000001
 20
3.2353900000000002
 30
0.0
 10
-2.1486900000000002
 20
2.9788500000000004
 30
0.0
 10
-2.2452100000000002
 20
3.4792300000000003
 30
0.0
 10
-2.2858500000000004
 20
3.6036900000000003
 30
0.0
 10
-2.2858500000000004
 20
3.6036900000000003
 30
0.0
 10
-2.05471
 20
4.0634300000000003
 30
0.0
 10
-2.1258300000000001
 20
3.2684100000000003
 30
0.0
 10
-2.09789
 20
3.0880700000000001
 30
0.0
 10
-2.09789
 20
3.0880700000000001
 30
0.0
 10
-2.09789
 20
3.0880700000000001
 30
0.0
 10
-1.8057900000000002
 20
3.0398100000000001
 30
0.0
 10
-1.8057900000000002
 20
3.0398100000000001
 30
0.0
 10
-1.8057900000000002
 20
3.0398100000000001
 30
0.0
 10
-2.2045700000000004
 20
3.3471500000000001
 30
0.0
 10
-1.9658100000000001
 20
4.2539300000000004
 30
0.0
 10
-1.2571500000000002
 20
4.1650300000000007
 30
0.0
 10
-1.2571500000000002
 20
4.1650300000000007
 30
0.0
 10
-1.3079500000000002
 20
4.0431100000000004
 30
0.0
 10
-1.37653
 20
3.9034100000000005
 30
0.0
 10
-1.38161
 20
3.7687900000000005
 30
0.0
 10
-1.38161
 20
3.7687900000000005
 30
0.0
 10
-1.37399
 20
3.5249500000000005
 30
0.0
 10
-1.29271
 20
3.2023700000000002
 30
0.0
 10
-1.50353
 20
3.0194900000000002
 30
0.0
 10
-1.50353
 20
3.0194900000000002
 30
0.0
 10
-0.9802900000000001
 20
2.7070700000000003
 30
0.0
 10
-1.1606300000000001
 20
2.9585300000000001
 30
0.0
 10
-1.25207
 20
3.4462100000000002
 30
0.0
 10
-1.25207
 20
3.4462100000000002
 30
0.0
 10
-1.2673100000000002
 20
3.7865700000000002
 30
0.0
 10
-1.1326900000000002
 20
4.1853500000000006
 30
0.0
 10
-0.7669300000000001
 20
4.3098100000000006
 30
0.0
 10
-0.7669300000000001
 20
4.3098100000000006
 30
0.0
 10
0.09666
 20
3.9694500000000001
 30
0.0
 10
-1.33081
 20
2.7604100000000003
 30
0.0
 10
-0.7288300000000001
 20
2.2270100000000004
 30
0.0
 10
-0.7288300000000001
 20
2.2270100000000004
 30
0.0
 10
-0.59167
 20
2.2676500000000002
 30
0.0
 10
-0.8177300000000001
 20
3.0753700000000004
 30
0.0
 10
-0.4900700000000001
 20
3.3242900000000004
 30
0.0
 10
-0.4900700000000001
 20
3.3242900000000004
 30
0.0
 10
0.5564
 20
2.12033
 30
0.0
 10
2.5147400000000002
 20
1.4827900000000001
 30
0.0
 10
4.1073200000000005
 20
1.4675500000000001
 30
0.0
 10
4.1073200000000005
 20
1.4675500000000001
 30
0.0
 10
4.1073200000000005
 20
1.4675500000000001
 30
0.0
 10
4.3029000000000002
 20
1.2897500000000002
 30
0.0
 10
4.3029000000000002
 20
1.2897500000000002
 30
0.0
 10
4.3029000000000002
 20
1.2897500000000002
 30
0.0
 10
3.1040200000000002
 20
1.7037700000000002
 30
0.0
 10
4.2495600000000007
 20
-0.10216
 30
0.0
 10
4.8718600000000007
 20
-0.28758
 30
0.0
 10
4.8718600000000007
 20
-0.28758
 30
0.0
 10
4.8718600000000007
 20
-0.28758
 30
0.0
 10
4.9429800000000004
 20
0.08833
 30
0.0
 10
4.9429800000000004
 20
0.08833
 30
0.0
 10
4.9429800000000004
 20
0.08833
 30
0.0
 10
5.0090200000000005
 20
-0.08184
 30
0.0
 10
5.1080800000000002
 20
-0.2571
 30
0.0
 10
5.1157000000000004
 20
-0.4476000000000001
 30
0.0
 10
5.1157000000000004
 20
-0.4476000000000001
 30
0.0
 10
5.1157000000000004
 20
-0.4476000000000001
 30
0.0
 10
5.1334800000000005
 20
-0.5644400000000001
 30
0.0
 10
5.1334800000000005
 20
-0.5644400000000001
 30
0.0
 10
5.1334800000000005
 20
-0.5644400000000001
 30
0.0
 10
5.1461800000000002
 20
-0.8997200000000001
 30
0.0
 10
5.2096800000000005
 20
-0.49332
 30
0.0
 10
5.1665000000000001
 20
-0.3536200000000001
 30
0.0
  0
SPLINE
  5
28
100
AcDbEntity
  8
Ebene 1
 62
     7
100
AcDbSpline
210
0.0
220
0.0
230
1.0
 70
     1
 71
     3
 72
    16
 73
    12
 74
     0
 42
0.0000000001
 43
0.0000000001
 40
0.0
 40
0.0
 40
0.0
 40
0.0
 40
0.3333333333333333
 40
0.3333333333333333
 40
0.3333333333333333
 40
0.3333333333333333
 40
0.6666666666666666
 40
0.6666666666666666
 40
0.6666666666666666
 40
0.6666666666666666
 40
1.0
 40
1.0
 40
1.0
 40
1.0
 10
1.6359000000000001
 20
3.0906100000000003
 30
0.0
 10
1.7146400000000002
 20
2.9483700000000002
 30
0.0
 10
1.6257400000000002
 20
2.7350100000000004
 30
0.0
 10
1.5927200000000001
 20
2.5749900000000001
 30
0.0
 10
1.5927200000000001
 20
2.5749900000000001
 30
0.0
 10
1.4149200000000002
 20
2.6435700000000004
 30
0.0
 10
1.2396600000000002
 20
2.7223100000000002
 30
0.0
 10
1.0567800000000001
 20
2.71469
 30
0.0
 10
1.0567800000000001
 20
2.71469
 30
0.0
 10
1.1812400000000001
 20
2.9026500000000004
 30
0.0
 10
1.4327000000000001
 20
2.9915500000000002
 30
0.0
 10
1.6359000000000001
 20
3.0906100000000003
 30
0.0
  0
SPLINE
  5
29
100
AcDbEntity
  8
Ebene 1
 62
     7
100
AcDbSpline
210
0.0
220
0.0
230
1.0
 70
     1
 71
     3
 72
    12
 73
     8
 74
     0
 42
0.0000000001
 43
0.0000000001
 40
0.0
 40
0.0
 40
0.0
 40
0.0
 40
0.5
 40
0.5
 40
0.5
 40
0.5
 40
1.0
 40
1.0
 40
1.0
 40
1.0
 10
0.41162
 20
2.7908900000000001
 30
0.0
 10
0.48528
 20
2.8366100000000003
 30
0.0
 10
0.59196
 20
2.8797900000000003
 30
0.0
 10
0.6732400000000001
 20
2.8670900000000001
 30
0.0
 10
0.6732400000000001
 20
2.8670900000000001
 30
0.0
 10
0.6961000000000001
 20
2.71977
 30
0.0
 10
0.5005200000000001
 20
2.80105
 30
0.0
 10
0.41162
 20
2.7908900000000001
 30
0.0
  0
SPLINE
  5
2A
100
AcDbEntity
  8
Ebene 1
 62
     7
100
AcDbSpline
210
0.0
220
0.0
230
1.0
 70
     1
 71
     3
 72
    24
 73
    20
 74
     0
 42
0.0000000001
 43
0.0000000001
 40
0.0
 40
0.0
 40
0.0
 40
0.0
 40
0.2
 40
0.2
 40
0.2
 40
0.2
 40
0.4
 40
0.4
 40
0.4
 40
0.4
 40
0.6000000000000001
 40
0.6000000000000001
 40
0.6000000000000001
 40
0.6000000000000001
 40
0.8
 40
0.8
 40
0.8
 40
0.8
 40
1.0
 40
1.0
 40
1.0
 40
1.0
 10
1.8873600000000001
 20
2.3438500000000002
 30
0.0
 10
1.9432400000000001
 20
2.2955900000000002
 30
0.0
 10
2.0880200000000002
 20
2.3235300000000003
 30
0.0
 10
2.0321400000000001
 20
2.22193
 30
0.0
 10
2.0321400000000001
 20
2.22193
 30
0.0
 10
2.0321400000000001
 20
2.22193
 30
0.0
 10
2.0194400000000003
 20
2.0847700000000002
 30
0.0
 10
2.0194400000000003
 20
2.0847700000000002
 30
0.0
 10
2.0194400000000003
 20
2.0847700000000002
 30
0.0
 10
1.8492600000000001
 20
2.1406500000000004
 30
0.0
 10
1.6359000000000001
 20
2.17367
 30
0.0
 10
1.52668
 20
2.3133700000000004
 30
0.0
 10
1.52668
 20
2.3133700000000004
 30
0.0
 10
1.5495400000000001
 20
2.3768700000000003
 30
0.0
 10
1.6384400000000001
 20
2.34639
 30
0.0
 10
1.6867000000000001
 20
2.3540100000000002
 30
0.0
 10
1.6867000000000001
 20
2.3540100000000002
 30
0.0
 10
1.6867000000000001
 20
2.3540100000000002
 30
0.0
 10
1.8873600000000001
 20
2.3438500000000002
 30
0.0
 10
1.8873600000000001
 20
2.3438500000000002
 30
0.0
  0
SPLINE
  5
2B
100
AcDbEntity
  8
Ebene 1
 62
     7
100
AcDbSpline
210
0.0
220
0.0
230
1.0
 70
     1
 71
     3
 72
    16
 73
    12
 74
     0
 42
0.0000000001
 43
0.0000000001
 40
0.0
 40
0.0
 40
0.0
 40
0.0
 40
0.3333333333333333
 40
0.3333333333333333
 40
0.3333333333333333
 40
0.3333333333333333
 40
0.6666666666666666
 40
0.6666666666666666
 40
0.6666666666666666
 40
0.6666666666666666
 40
1.0
 40
1.0
 40
1.0
 40
1.0
 10
4.2495600000000007
 20
1.4573900000000002
 30
0.0
 10
4.34354
 20
1.4319900000000001
 30
0.0
 10
4.5416600000000003
 20
1.3430900000000001
 30
0.0
 10
4.4045000000000005
 20
1.2643500000000001
 30
0.0
 10
4.4045000000000005
 20
1.2643500000000001
 30
0.0
 10
4.3460800000000006
 20
1.31769
 30
0.0
 10
4.2902000000000005
 20
1.3964300000000001
 30
0.0
 10
4.2140000000000004
 20
1.4370700000000001
 30
0.0
 10
4.2140000000000004
 20
1.4370700000000001
 30
0.0
 10
4.2140000000000004
 20
1.4370700000000001
 30
0.0
 10
4.2495600000000007
 20
1.4573900000000002
 30
0.0
 10
4.2495600000000007
 20
1.4573900000000002
 30
0.0
  0
SPLINE
  5
2C
100
AcDbEntity
  8
Ebene 1
100
AcDbSpline
210
0.0
220
0.0
230
1.0
 70
     1
 71
     3
 72
    20
 73
    16
 74
     0
 42
0.0000000001
 43
0.0000000001
 40
0.0
 40
0.0
 40
0.0
 40
0.0
 40
0.25
 40
0.25
 40
0.25
 40
0.25
 40
0.5
 40
0.5
 40
0.5
 40
0.5
 40
0.75
 40
0.75
 40
0.75
 40
0.75
 40
1.0
 40
1.0
 40
1.0
 40
1.0
 10
-2.7201900000000001
 20
3.2861900000000004
 30
0.0
 10
-2.5423900000000001
 20
3.2023700000000002
 30
0.0
 10
-2.3391900000000003
 20
3.1287100000000003
 30
0.0
 10
-2.27569
 20
2.9153500000000001
 30
0.0
 10
-2.27569
 20
2.9153500000000001
 30
0.0
 10
-2.2553700000000001
 20
2.2828900000000001
 30
0.0
 10
-2.8294100000000002
 20
1.8028300000000002
 30
0.0
 10
-3.2459700000000002
 20
1.4167500000000002
 30
0.0
 10
-3.2459700000000002
 20
1.4167500000000002
 30
0.0
 10
-3.6599900000000005
 20
1.39897
 30
0.0
 10
-4.1400500000000005
 20
1.3761100000000002
 30
0.0
 10
-4.4829500000000007
 20
1.6580500000000002
 30
0.0
 10
-4.4829500000000007
 20
1.6580500000000002
 30
0.0
 10
-5.0900100000000004
 20
2.7959700000000001
 30
0.0
 10
-3.6117300000000001
 20
3.3674700000000004
 30
0.0
 10
-2.7201900000000001
 20
3.2861900000000004
 30
0.0
  0
SPLINE
  5
2D
100
AcDbEntity
  8
Ebene 1
100
AcDbSpline
210
0.0
220
0.0
230
1.0
 70
     1
 71
     3
 72
    48
 73
    44
 74
     0
 42
0.0000000001
 43
0.0000000001
 40
0.0
 40
0.0
 40
0.0
 40
0.0
 40
0.0909090909090909
 40
0.0909090909090909
 40
0.0909090909090909
 40
0.0909090909090909
 40
0.1818181818181818
 40
0.1818181818181818
 40
0.1818181818181818
 40
0.1818181818181818
 40
0.2727272727272727
 40
0.2727272727272727
 40
0.2727272727272727
 40
0.2727272727272727
 40
0.3636363636363637
 40
0.3636363636363637
 40
0.3636363636363637
 40
0.3636363636363637
 40
0.4545454545454546
 40
0.4545454545454546
 40
0.4545454545454546
 40
0.4545454545454546
 40
0.5454545454545455
 40
0.5454545454545455
 40
0.5454545454545455
 40
0.5454545454545455
 40
0.6363636363636365
 40
0.6363636363636365
 40
0.6363636363636365
 40
0.6363636363636365
 40
0.7272727272727274
 40
0.7272727272727274
 40
0.7272727272727274
 40
0.7272727272727274
 40
0.8181818181818183
 40
0.8181818181818183
 40
0.8181818181818183
 40
0.8181818181818183
 40
0.9090909090909093
 40
0.9090909090909093
 40
0.9090909090909093
 40
0.9090909090909093
 40
1.0
 40
1.0
 40
1.0
 40
1.0
 10
-1.4070100000000001
 20
2.8543900000000004
 30
0.0
 10
-1.0285500000000001
 20
2.5851500000000001
 30
0.0
 10
-0.8558300000000001
 20
2.08731
 30
0.0
 10
-0.5154700000000001
 20
1.7647300000000001
 30
0.0
 10
-0.5154700000000001
 20
1.7647300000000001
 30
0.0
 10
-0.25639
 20
1.4218300000000001
 30
0.0
 10
0.24652
 20
1.1221100000000002
 30
0.0
 10
0.66054
 20
1.3964300000000001
 30
0.0
 10
0.66054
 20
1.3964300000000001
 30
0.0
 10
0.7469
 20
1.4142100000000002
 30
0.0
 10
0.8154800000000001
 20
1.5335900000000002
 30
0.0
 10
0.9018400000000001
 20
1.4827900000000001
 30
0.0
 10
0.9018400000000001
 20
1.4827900000000001
 30
0.0
 10
0.6478400000000001
 20
1.0078100000000001
 30
0.0
 10
0.01792
 20
1.10687
 30
0.0
 10
-0.38339
 20
1.2973700000000001
 30
0.0
 10
-0.38339
 20
1.2973700000000001
 30
0.0
 10
-0.9802900000000001
 20
1.2135500000000001
 30
0.0
 10
-1.8083300000000002
 20
0.9417700000000001
 30
0.0
 10
-2.1156700000000002
 20
1.6351900000000001
 30
0.0
 10
-2.1156700000000002
 20
1.6351900000000001
 30
0.0
 10
-2.1156700000000002
 20
1.6351900000000001
 30
0.0
 10
-2.2350500000000002
 20
1.8866500000000002
 30
0.0
 10
-2.2350500000000002
 20
1.8866500000000002
 30
0.0
 10
-2.2350500000000002
 20
1.8866500000000002
 30
0.0
 10
-2.0420100000000003
 20
1.52851
 30
0.0
 10
-1.6102100000000001
 20
1.1678300000000001
 30
0.0
 10
-1.1453900000000001
 20
1.3481700000000001
 30
0.0
 10
-1.1453900000000001
 20
1.3481700000000001
 30
0.0
 10
-1.1453900000000001
 20
1.3481700000000001
 30
0.0
 10
-0.91171
 20
1.3964300000000001
 30
0.0
 10
-0.91171
 20
1.3964300000000001
 30
0.0
 10
-0.91171
 20
1.3964300000000001
 30
0.0
 10
-1.4806700000000002
 20
1.3786500000000002
 30
0.0
 10
-2.31887
 20
2.5597500000000002
 30
0.0
 10
-1.4806700000000002
 20
2.6994500000000001
 30
0.0
 10
-1.4806700000000002
 20
2.6994500000000001
 30
0.0
 10
-1.5771900000000001
 20
2.8518500000000002
 30
0.0
 10
-1.9607300000000001
 20
2.6791300000000002
 30
0.0
 10
-2.01153
 20
2.9229700000000003
 30
0.0
 10
-2.01153
 20
2.9229700000000003
 30
0.0
 10
-1.8362700000000001
 20
2.8543900000000004
 30
0.0
 10
-1.5975100000000002
 20
2.84423
 30
0.0
 10
-1.4070100000000001
 20
2.8543900000000004
 30
0.0
  0
SPLINE
  5
2E
100
AcDbEntity
  8
Ebene 1
100
AcDbSpline
210
0.0
220
0.0
230
1.0
 70
     1
 71
     3
 72
    48
 73
    44
 74
     0
 42
0.0000000001
 43
0.0000000001
 40
0.0
 40
0.0
 40
0.0
 40
0.0
 40
0.0909090909090909
 40
0.0909090909090909
 40
0.0909090909090909
 40
0.0909090909090909
 40
0.1818181818181818
 40
0.1818181818181818
 40
0.1818181818181818
 40
0.1818181818181818
 40
0.2727272727272727
 40
0.2727272727272727
 40
0.2727272727272727
 40
0.2727272727272727
 40
0.3636363636363637
 40
0.3636363636363637
 40
0.3636363636363637
 40
0.3636363636363637
 40
0.4545454545454546
 40
0.4545454545454546
 40
0.4545454545454546
 40
0.4545454545454546
 40
0.5454545454545455
 40
0.5454545454545455
 40
0.5454545454545455
 40
0.5454545454545455
 40
0.6363636363636365
 40
0.6363636363636365
 40
0.6363636363636365
 40
0.6363636363636365
 40
0.7272727272727274
 40
0.7272727272727274
 40
0.7272727272727274
 40
0.7272727272727274
 40
0.8181818181818183
 40
0.8181818181818183
 40
0.8181818181818183
 40
0.8181818181818183
 40
0.9090909090909093
 40
0.9090909090909093
 40
0.9090909090909093
 40
0.9090909090909093
 40
1.0
 40
1.0
 40
1.0
 40
1.0
 10
2.0727800000000003
 20
1.6174100000000002
 30
0.0
 10
2.2632800000000004
 20
1.5640700000000001
 30
0.0
 10
2.4436200000000001
 20
1.4954900000000002
 30
0.0
 10
2.6061800000000002
 20
1.40151
 30
0.0
 10
2.6061800000000002
 20
1.40151
 30
0.0
 10
2.6061800000000002
 20
1.40151
 30
0.0
 10
2.8627200000000004
 20
1.2541900000000001
 30
0.0
 10
2.8627200000000004
 20
1.2541900000000001
 30
0.0
 10
2.8627200000000004
 20
1.2541900000000001
 30
0.0
 10
2.9389200000000004
 20
1.19323
 30
0.0
 10
3.0862400000000001
 20
1.1424300000000001
 30
0.0
 10
3.0989400000000002
 20
1.0484500000000001
 30
0.0
 10
3.0989400000000002
 20
1.0484500000000001
 30
0.0
 10
2.8373200000000001
 20
1.2033900000000002
 30
0.0
 10
2.5401400000000001
 20
1.3761100000000002
 30
0.0
 10
2.2429600000000001
 20
1.4396100000000001
 30
0.0
 10
2.2429600000000001
 20
1.4396100000000001
 30
0.0
 10
2.2429600000000001
 20
1.4396100000000001
 30
0.0
 10
2.3953600000000002
 20
1.3659500000000002
 30
0.0
 10
2.3953600000000002
 20
1.3659500000000002
 30
0.0
 10
2.3953600000000002
 20
1.3659500000000002
 30
0.0
 10
2.3953600000000002
 20
1.3659500000000002
 30
0.0
 10
2.5909400000000002
 20
1.2262500000000001
 30
0.0
 10
2.5909400000000002
 20
1.2262500000000001
 30
0.0
 10
2.5909400000000002
 20
1.2262500000000001
 30
0.0
 10
2.8957400000000004
 20
0.9874900000000001
 30
0.0
 10
3.2716600000000002
 20
0.5912500000000001
 30
0.0
 10
3.0710000000000002
 20
0.16707
 30
0.0
 10
3.0710000000000002
 20
0.16707
 30
0.0
 10
2.8043
 20
-0.23678
 30
0.0
 10
2.3039200000000002
 20
0.00197
 30
0.0
 10
1.9356200000000001
 20
0.13405
 30
0.0
 10
1.9356200000000001
 20
0.13405
 30
0.0
 10
1.5571600000000001
 20
0.32455
 30
0.0
 10
1.27014
 20
0.6547500000000001
 30
0.0
 10
0.9755
 20
0.9519300000000001
 30
0.0
 10
0.9755
 20
0.9519300000000001
 30
0.0
 10
0.93486
 20
1.1754500000000001
 30
0.0
 10
1.0567800000000001
 20
1.36087
 30
0.0
 10
1.1355200000000001
 20
1.5539100000000001
 30
0.0
 10
1.1355200000000001
 20
1.5539100000000001
 30
0.0
 10
1.4250800000000001
 20
1.6504300000000001
 30
0.0
 10
1.7756000000000001
 20
1.61487
 30
0.0
 10
2.0727800000000003
 20
1.6174100000000002
 30
0.0
  0
SPLINE
  5
2F
100
AcDbEntity
  8
Ebene 1
 62
     7
100
AcDbSpline
210
0.0
220
0.0
230
1.0
 70
     1
 71
     3
 72
    12
 73
     8
 74
     0
 42
0.0000000001
 43
0.0000000001
 40
0.0
 40
0.0
 40
0.0
 40
0.0
 40
0.5
 40
0.5
 40
0.5
 40
0.5
 40
1.0
 40
1.0
 40
1.0
 40
1.0
 10
-1.4044700000000001
 20
2.3006700000000002
 30
0.0
 10
-1.0514100000000002
 20
2.22193
 30
0.0
 10
-0.7974100000000001
 20
1.9526900000000003
 30
0.0
 10
-0.57643
 20
1.6783700000000001
 30
0.0
 10
-0.57643
 20
1.6783700000000001
 30
0.0
 10
-0.9345700000000001
 20
1.6834500000000001
 30
0.0
 10
-1.3079500000000002
 20
1.9603100000000002
 30
0.0
 10
-1.4044700000000001
 20
2.3006700000000002
 30
0.0
  0
SPLINE
  5
30
100
AcDbEntity
  8
Ebene 1
 62
     7
100
AcDbSpline
210
0.0
220
0.0
230
1.0
 70
     1
 71
     3
 72
     8
 73
     4
 74
     0
 42
0.0000000001
 43
0.0000000001
 40
0.0
 40
0.0
 40
0.0
 40
0.0
 40
1.0
 40
1.0
 40
1.0
 40
1.0
 10
5.1665000000000001
 20
-0.3536200000000001
 30
0.0
 10
5.1334800000000005
 20
-0.34346
 30
0.0
 10
5.1792000000000007
 20
-0.32314
 30
0.0
 10
5.1665000000000001
 20
-0.3536200000000001
 30
0.0
  0
SPLINE
  5
31
100
AcDbEntity
  8
Ebene 1
 62
     7
100
AcDbSpline
210
0.0
220
0.0
230
1.0
 70
     1
 71
     3
 72
    28
 73
    24
 74
     0
 42
0.0000000001
 43
0.0000000001
 40
0.0
 40
0.0
 40
0.0
 40
0.0
 40
0.1666666666666667
 40
0.1666666666666667
 40
0.1666666666666667
 40
0.1666666666666667
 40
0.3333333333333333
 40
0.3333333333333333
 40
0.3333333333333333
 40
0.3333333333333333
 40
0.5
 40
0.5
 40
0.5
 40
0.5
 40
0.6666666666666666
 40
0.6666666666666666
 40
0.6666666666666666
 40
0.6666666666666666
 40
0.8333333333333333
 40
0.8333333333333333
 40
0.8333333333333333
 40
0.8333333333333333
 40
1.0
 40
1.0
 40
1.0
 40
1.0
 10
5.2325400000000002
 20
-1.4432800000000001
 30
0.0
 10
5.4408200000000004
 20
-1.7658600000000002
 30
0.0
 10
5.4332000000000003
 20
-2.1976600000000004
 30
0.0
 10
5.4128800000000004
 20
-2.56596
 30
0.0
 10
5.4128800000000004
 20
-2.56596
 30
0.0
 10
5.3620800000000006
 20
-2.35514
 30
0.0
 10
5.1512600000000006
 20
-2.1646400000000003
 30
0.0
 10
5.1207800000000008
 20
-1.9690600000000003
 30
0.0
 10
5.1207800000000008
 20
-1.9690600000000003
 30
0.0
 10
5.1207800000000008
 20
-1.9690600000000003
 30
0.0
 10
5.3443000000000005
 20
-2.3246600000000002
 30
0.0
 10
5.3443000000000005
 20
-2.3246600000000002
 30
0.0
 10
5.3443000000000005
 20
-2.3246600000000002
 30
0.0
 10
5.3443000000000005
 20
-2.3246600000000002
 30
0.0
 10
5.38748
 20
-2.4186400000000003
 30
0.0
 10
5.38748
 20
-2.4186400000000003
 30
0.0
 10
5.38748
 20
-2.4186400000000003
 30
0.0
 10
5.3316000000000008
 20
-2.1240000000000001
 30
0.0
 10
5.1487200000000009
 20
-1.8446000000000002
 30
0.0
 10
5.1512600000000006
 20
-1.5220200000000002
 30
0.0
 10
5.1512600000000006
 20
-1.5220200000000002
 30
0.0
 10
5.1512600000000006
 20
-1.5220200000000002
 30
0.0
 10
5.2325400000000002
 20
-1.4432800000000001
 30
0.0
 10
5.2325400000000002
 20
-1.4432800000000001
 30
0.0
  0
SPLINE
  5
32
100
AcDbEntity
  8
Ebene 1
 62
     7
100
AcDbSpline
210
0.0
220
0.0
230
1.0
 70
     1
 71
     3
 72
    24
 73
    20
 74
     0
 42
0.0000000001
 43
0.0000000001
 40
0.0
 40
0.0
 40
0.0
 40
0.0
 40
0.2
 40
0.2
 40
0.2
 40
0.2
 40
0.4
 40
0.4
 40
0.4
 40
0.4
 40
0.6000000000000001
 40
0.6000000000000001
 40
0.6000000000000001
 40
0.6000000000000001
 40
0.8
 40
0.8
 40
0.8
 40
0.8
 40
1.0
 40
1.0
 40
1.0
 40
1.0
 10
4.8718600000000007
 20
-1.4737600000000002
 30
0.0
 10
5.1919000000000004
 20
-1.66934
 30
0.0
 10
4.9912400000000003
 20
-2.0452600000000003
 30
0.0
 10
4.9633000000000003
 20
-2.30688
 30
0.0
 10
4.9633000000000003
 20
-2.30688
 30
0.0
 10
4.9633000000000003
 20
-2.30688
 30
0.0
 10
4.7804200000000003
 20
-1.8827000000000003
 30
0.0
 10
4.7804200000000003
 20
-1.8827000000000003
 30
0.0
 10
4.7804200000000003
 20
-1.8827000000000003
 30
0.0
 10
4.8363000000000005
 20
-1.8598400000000002
 30
0.0
 10
4.8312200000000001
 20
-2.0224000000000002
 30
0.0
 10
4.9074200000000001
 20
-1.9766800000000002
 30
0.0
 10
4.9074200000000001
 20
-1.9766800000000002
 30
0.0
 10
4.9074200000000001
 20
-1.9766800000000002
 30
0.0
 10
4.7753400000000008
 20
-1.6185400000000001
 30
0.0
 10
4.7753400000000008
 20
-1.6185400000000001
 30
0.0
 10
4.7753400000000008
 20
-1.6185400000000001
 30
0.0
 10
4.7753400000000008
 20
-1.6185400000000001
 30
0.0
 10
4.8718600000000007
 20
-1.4737600000000002
 30
0.0
 10
4.8718600000000007
 20
-1.4737600000000002
 30
0.0
  0
SPLINE
  5
33
100
AcDbEntity
  8
Ebene 1
 62
     7
100
AcDbSpline
210
0.0
220
0.0
230
1.0
 70
     1
 71
     3
 72
    12
 73
     8
 74
     0
 42
0.0000000001
 43
0.0000000001
 40
0.0
 40
0.0
 40
0.0
 40
0.0
 40
0.5
 40
0.5
 40
0.5
 40
0.5
 40
1.0
 40
1.0
 40
1.0
 40
1.0
 10
3.3046800000000003
 20
-1.08768
 30
0.0
 10
3.3046800000000003
 20
-1.08768
 30
0.0
 10
3.2488000000000001
 20
-1.5779000000000001
 30
0.0
 10
3.2488000000000001
 20
-1.5779000000000001
 30
0.0
 10
3.2488000000000001
 20
-1.5779000000000001
 30
0.0
 10
3.1776800000000001
 20
-1.4128000000000001
 30
0.0
 10
3.13958
 20
-1.2146800000000002
 30
0.0
 10
3.3046800000000003
 20
-1.08768
 30
0.0
  0
SPLINE
  5
34
100
AcDbEntity
  8
Ebene 1
 62
     7
100
AcDbSpline
210
0.0
220
0.0
230
1.0
 70
     1
 71
     3
 72
    20
 73
    16
 74
     0
 42
0.0000000001
 43
0.0000000001
 40
0.0
 40
0.0
 40
0.0
 40
0.0
 40
0.25
 40
0.25
 40
0.25
 40
0.25
 40
0.5
 40
0.5
 40
0.5
 40
0.5
 40
0.75
 40
0.75
 40
0.75
 40
0.75
 40
1.0
 40
1.0
 40
1.0
 40
1.0
 10
3.9498400000000005
 20
-1.3620000000000001
 30
0.0
 10
3.9981000000000004
 20
-1.3696200000000001
 30
0.0
 10
4.0082599999999999
 20
-1.4077200000000001
 30
0.0
 10
4.0285800000000007
 20
-1.4331200000000002
 30
0.0
 10
4.0285800000000007
 20
-1.4331200000000002
 30
0.0
 10
4.0057200000000002
 20
-1.6058400000000002
 30
0.0
 10
3.9955600000000002
 20
-1.7938000000000001
 30
0.0
 10
3.8812600000000002
 20
-1.9411200000000002
 30
0.0
 10
3.8812600000000002
 20
-1.9411200000000002
 30
0.0
 10
3.8406200000000004
 20
-1.8598400000000002
 30
0.0
 10
3.8787200000000004
 20
-1.7684000000000002
 30
0.0
 10
3.9320600000000003
 20
-1.6972800000000001
 30
0.0
 10
3.9320600000000003
 20
-1.6972800000000001
 30
0.0
 10
3.8888800000000003
 20
-1.5804400000000001
 30
0.0
 10
3.8304600000000004
 20
-1.4458200000000001
 30
0.0
 10
3.9498400000000005
 20
-1.3620000000000001
 30
0.0
  0
SPLINE
  5
35
100
AcDbEntity
  8
Ebene 1
 62
     7
100
AcDbSpline
210
0.0
220
0.0
230
1.0
 70
     1
 71
     3
 72
    12
 73
     8
 74
     0
 42
0.0000000001
 43
0.0000000001
 40
0.0
 40
0.0
 40
0.0
 40
0.0
 40
0.5
 40
0.5
 40
0.5
 40
0.5
 40
1.0
 40
1.0
 40
1.0
 40
1.0
 10
4.4527600000000005
 20
-1.6287
 30
0.0
 10
4.6356400000000004
 20
-1.9106400000000001
 30
0.0
 10
4.59246
 20
-2.2179800000000003
 30
0.0
 10
4.4934000000000003
 20
-2.5050000000000003
 30
0.0
 10
4.4934000000000003
 20
-2.5050000000000003
 30
0.0
 10
4.5467400000000007
 20
-2.2256
 30
0.0
 10
4.3917999999999999
 20
-1.9004800000000002
 30
0.0
 10
4.4527600000000005
 20
-1.6287
 30
0.0
  0
SPLINE
  5
36
100
AcDbEntity
  8
Ebene 1
 62
     7
100
AcDbSpline
210
0.0
220
0.0
230
1.0
 70
     1
 71
     3
 72
    12
 73
     8
 74
     0
 42
0.0000000001
 43
0.0000000001
 40
0.0
 40
0.0
 40
0.0
 40
0.0
 40
0.5
 40
0.5
 40
0.5
 40
0.5
 40
1.0
 40
1.0
 40
1.0
 40
1.0
 10
3.7212400000000003
 20
-1.33406
 30
0.0
 10
3.7669600000000001
 20
-1.4534400000000001
 30
0.0
 10
3.7618800000000001
 20
-1.6058400000000002
 30
0.0
 10
3.7136200000000001
 20
-1.7328400000000002
 30
0.0
 10
3.7136200000000001
 20
-1.7328400000000002
 30
0.0
 10
3.6475800000000005
 20
-1.6007600000000002
 30
0.0
 10
3.6653600000000002
 20
-1.4712200000000002
 30
0.0
 10
3.7212400000000003
 20
-1.33406
 30
0.0
  0
SPLINE
  5
37
100
AcDbEntity
  8
Ebene 1
 62
     7
100
AcDbSpline
210
0.0
220
0.0
230
1.0
 70
     1
 71
     3
 72
    20
 73
    16
 74
     0
 42
0.0000000001
 43
0.0000000001
 40
0.0
 40
0.0
 40
0.0
 40
0.0
 40
0.25
 40
0.25
 40
0.25
 40
0.25
 40
0.5
 40
0.5
 40
0.5
 40
0.5
 40
0.75
 40
0.75
 40
0.75
 40
0.75
 40
1.0
 40
1.0
 40
1.0
 40
1.0
 10
2.4360000000000004
 20
-0.99116
 30
0.0
 10
2.5477600000000002
 20
-0.9733800000000001
 30
0.0
 10
2.5147400000000002
 20
-1.1791200000000002
 30
0.0
 10
2.4334600000000002
 20
-1.20198
 30
0.0
 10
2.4334600000000002
 20
-1.20198
 30
0.0
 10
2.4309200000000004
 20
-1.2654800000000002
 30
0.0
 10
2.3674200000000001
 20
-1.3366
 30
0.0
 10
2.3267800000000003
 20
-1.3670800000000001
 30
0.0
 10
2.3267800000000003
 20
-1.3670800000000001
 30
0.0
 10
2.3572600000000001
 20
-1.25024
 30
0.0
 10
2.3852000000000002
 20
-1.1308600000000002
 30
0.0
 10
2.3953600000000002
 20
-1.0114800000000002
 30
0.0
 10
2.3953600000000002
 20
-1.0114800000000002
 30
0.0
 10
2.3953600000000002
 20
-1.0114800000000002
 30
0.0
 10
2.4360000000000004
 20
-0.99116
 30
0.0
 10
2.4360000000000004
 20
-0.99116
 30
0.0
  0
SPLINE
  5
38
100
AcDbEntity
  8
Ebene 1
 62
     7
100
AcDbSpline
210
0.0
220
0.0
230
1.0
 70
     1
 71
     3
 72
    16
 73
    12
 74
     0
 42
0.0000000001
 43
0.0000000001
 40
0.0
 40
0.0
 40
0.0
 40
0.0
 40
0.3333333333333333
 40
0.3333333333333333
 40
0.3333333333333333
 40
0.3333333333333333
 40
0.6666666666666666
 40
0.6666666666666666
 40
0.6666666666666666
 40
0.6666666666666666
 40
1.0
 40
1.0
 40
1.0
 40
1.0
 10
1.5622400000000001
 20
-0.9378200000000001
 30
0.0
 10
1.5622400000000001
 20
-0.9378200000000001
 30
0.0
 10
1.6384400000000001
 20
-0.9683000000000001
 30
0.0
 10
1.6384400000000001
 20
-0.9683000000000001
 30
0.0
 10
1.6384400000000001
 20
-0.9683000000000001
 30
0.0
 10
1.6740000000000002
 20
-1.1740400000000002
 30
0.0
 10
1.4504800000000002
 20
-1.33406
 30
0.0
 10
1.3768200000000002
 20
-1.50424
 30
0.0
 10
1.3768200000000002
 20
-1.50424
 30
0.0
 10
1.3742800000000002
 20
-1.3264400000000001
 30
0.0
 10
1.3463400000000001
 20
-1.0191000000000001
 30
0.0
 10
1.5622400000000001
 20
-0.9378200000000001
 30
0.0
  0
SPLINE
  5
39
100
AcDbEntity
  8
Ebene 1
 62
     7
100
AcDbSpline
210
0.0
220
0.0
230
1.0
 70
     1
 71
     3
 72
    20
 73
    16
 74
     0
 42
0.0000000001
 43
0.0000000001
 40
0.0
 40
0.0
 40
0.0
 40
0.0
 40
0.25
 40
0.25
 40
0.25
 40
0.25
 40
0.5
 40
0.5
 40
0.5
 40
0.5
 40
0.75
 40
0.75
 40
0.75
 40
0.75
 40
1.0
 40
1.0
 40
1.0
 40
1.0
 10
1.0796400000000002
 20
-0.9454400000000001
 30
0.0
 10
1.10758
 20
-0.9556000000000001
 30
0.0
 10
1.14314
 20
-0.9581400000000001
 30
0.0
 10
1.1533
 20
-0.99116
 30
0.0
 10
1.1533
 20
-0.99116
 30
0.0
 10
1.1279000000000001
 20
-1.25278
 30
0.0
 10
0.8866000000000001
 20
-1.4001000000000001
 30
0.0
 10
0.86882
 20
-1.6490200000000002
 30
0.0
 10
0.86882
 20
-1.6490200000000002
 30
0.0
 10
0.86882
 20
-1.6490200000000002
 30
0.0
 10
0.7926200000000001
 20
-1.7480800000000001
 30
0.0
 10
0.7926200000000001
 20
-1.7480800000000001
 30
0.0
 10
0.7926200000000001
 20
-1.7480800000000001
 30
0.0
 10
0.7723000000000001
 20
-1.4890000000000001
 30
0.0
 10
0.8231000000000001
 20
-1.08006
 30
0.0
 10
1.0796400000000002
 20
-0.9454400000000001
 30
0.0
  0
SPLINE
  5
3A
100
AcDbEntity
  8
Ebene 1
 62
     7
100
AcDbSpline
210
0.0
220
0.0
230
1.0
 70
     1
 71
     3
 72
    16
 73
    12
 74
     0
 42
0.0000000001
 43
0.0000000001
 40
0.0
 40
0.0
 40
0.0
 40
0.0
 40
0.3333333333333333
 40
0.3333333333333333
 40
0.3333333333333333
 40
0.3333333333333333
 40
0.6666666666666666
 40
0.6666666666666666
 40
0.6666666666666666
 40
0.6666666666666666
 40
1.0
 40
1.0
 40
1.0
 40
1.0
 10
0.7570600000000001
 20
-1.0089400000000002
 30
0.0
 10
0.7570600000000001
 20
-1.0089400000000002
 30
0.0
 10
0.8180200000000001
 20
-1.0318000000000001
 30
0.0
 10
0.8180200000000001
 20
-1.0318000000000001
 30
0.0
 10
0.8180200000000001
 20
-1.0318000000000001
 30
0.0
 10
0.76722
 20
-1.3645400000000001
 30
0.0
 10
0.53354
 20
-1.5982200000000002
 30
0.0
 10
0.3455800000000001
 20
-1.8268200000000001
 30
0.0
 10
0.3455800000000001
 20
-1.8268200000000001
 30
0.0
 10
0.3252600000000001
 20
-1.5169400000000002
 30
0.0
 10
0.4192400000000001
 20
-1.0572000000000001
 30
0.0
 10
0.7570600000000001
 20
-1.0089400000000002
 30
0.0
  0
SPLINE
  5
3B
100
AcDbEntity
  8
Ebene 1
 62
     7
100
AcDbSpline
210
0.0
220
0.0
230
1.0
 70
     1
 71
     3
 72
    16
 73
    12
 74
     0
 42
0.0000000001
 43
0.0000000001
 40
0.0
 40
0.0
 40
0.0
 40
0.0
 40
0.3333333333333333
 40
0.3333333333333333
 40
0.3333333333333333
 40
0.3333333333333333
 40
0.6666666666666666
 40
0.6666666666666666
 40
0.6666666666666666
 40
0.6666666666666666
 40
1.0
 40
1.0
 40
1.0
 40
1.0
 10
-0.42149
 20
-0.6127
 30
0.0
 10
-0.4062500000000001
 20
-0.6228600000000001
 30
0.0
 10
-0.39863
 20
-0.6406400000000001
 30
0.0
 10
-0.40117
 20
-0.65842
 30
0.0
 10
-0.40117
 20
-0.65842
 30
0.0
 10
-0.5408700000000001
 20
-0.8311400000000001
 30
0.0
 10
-0.59167
 20
-0.94798
 30
0.0
 10
-0.7796300000000001
 20
-1.0724400000000001
 30
0.0
 10
-0.7796300000000001
 20
-1.0724400000000001
 30
0.0
 10
-0.82281
 20
-0.7879600000000001
 30
0.0
 10
-0.66025
 20
-0.6889000000000001
 30
0.0
 10
-0.42149
 20
-0.6127
 30
0.0
  0
SPLINE
  5
3C
100
AcDbEntity
  8
Ebene 1
 62
     7
100
AcDbSpline
210
0.0
220
0.0
230
1.0
 70
     1
 71
     3
 72
   184
 73
   180
 74
     0
 42
0.0000000001
 43
0.0000000001
 40
0.0
 40
0.0
 40
0.0
 40
0.0
 40
0.0222222222222222
 40
0.0222222222222222
 40
0.0222222222222222
 40
0.0222222222222222
 40
0.0444444444444444
 40
0.0444444444444444
 40
0.0444444444444444
 40
0.0444444444444444
 40
0.0666666666666667
 40
0.0666666666666667
 40
0.0666666666666667
 40
0.0666666666666667
 40
0.0888888888888889
 40
0.0888888888888889
 40
0.0888888888888889
 40
0.0888888888888889
 40
0.1111111111111111
 40
0.1111111111111111
 40
0.1111111111111111
 40
0.1111111111111111
 40
0.1333333333333333
 40
0.1333333333333333
 40
0.1333333333333333
 40
0.1333333333333333
 40
0.1555555555555556
 40
0.1555555555555556
 40
0.1555555555555556
 40
0.1555555555555556
 40
0.1777777777777778
 40
0.1777777777777778
 40
0.1777777777777778
 40
0.1777777777777778
 40
0.2
 40
0.2
 40
0.2
 40
0.2
 40
0.2222222222222222
 40
0.2222222222222222
 40
0.2222222222222222
 40
0.2222222222222222
 40
0.2444444444444445
 40
0.2444444444444445
 40
0.2444444444444445
 40
0.2444444444444445
 40
0.2666666666666667
 40
0.2666666666666667
 40
0.2666666666666667
 40
0.2666666666666667
 40
0.2888888888888889
 40
0.2888888888888889
 40
0.2888888888888889
 40
0.2888888888888889
 40
0.3111111111111111
 40
0.3111111111111111
 40
0.3111111111111111
 40
0.3111111111111111
 40
0.3333333333333333
 40
0.3333333333333333
 40
0.3333333333333333
 40
0.3333333333333333
 40
0.3555555555555555
 40
0.3555555555555555
 40
0.3555555555555555
 40
0.3555555555555555
 40
0.3777777777777777
 40
0.3777777777777777
 40
0.3777777777777777
 40
0.3777777777777777
 40
0.3999999999999999
 40
0.3999999999999999
 40
0.3999999999999999
 40
0.3999999999999999
 40
0.4222222222222221
 40
0.4222222222222221
 40
0.4222222222222221
 40
0.4222222222222221
 40
0.4444444444444443
 40
0.4444444444444443
 40
0.4444444444444443
 40
0.4444444444444443
 40
0.4666666666666665
 40
0.4666666666666665
 40
0.4666666666666665
 40
0.4666666666666665
 40
0.4888888888888887
 40
0.4888888888888887
 40
0.4888888888888887
 40
0.4888888888888887
 40
0.5111111111111109
 40
0.5111111111111109
 40
0.5111111111111109
 40
0.5111111111111109
 40
0.5333333333333331
 40
0.5333333333333331
 40
0.5333333333333331
 40
0.5333333333333331
 40
0.5555555555555554
 40
0.5555555555555554
 40
0.5555555555555554
 40
0.5555555555555554
 40
0.5777777777777776
 40
0.5777777777777776
 40
0.5777777777777776
 40
0.5777777777777776
 40
0.5999999999999999
 40
0.5999999999999999
 40
0.5999999999999999
 40
0.5999999999999999
 40
0.6222222222222221
 40
0.6222222222222221
 40
0.6222222222222221
 40
0.6222222222222221
 40
0.6444444444444444
 40
0.6444444444444444
 40
0.6444444444444444
 40
0.6444444444444444
 40
0.6666666666666666
 40
0.6666666666666666
 40
0.6666666666666666
 40
0.6666666666666666
 40
0.6888888888888889
 40
0.6888888888888889
 40
0.6888888888888889
 40
0.6888888888888889
 40
0.7111111111111111
 40
0.7111111111111111
 40
0.7111111111111111
 40
0.7111111111111111
 40
0.7333333333333334
 40
0.7333333333333334
 40
0.7333333333333334
 40
0.7333333333333334
 40
0.7555555555555557
 40
0.7555555555555557
 40
0.7555555555555557
 40
0.7555555555555557
 40
0.7777777777777779
 40
0.7777777777777779
 40
0.7777777777777779
 40
0.7777777777777779
 40
0.8000000000000002
 40
0.8000000000000002
 40
0.8000000000000002
 40
0.8000000000000002
 40
0.8222222222222224
 40
0.8222222222222224
 40
0.8222222222222224
 40
0.8222222222222224
 40
0.8444444444444447
 40
0.8444444444444447
 40
0.8444444444444447
 40
0.8444444444444447
 40
0.8666666666666669
 40
0.8666666666666669
 40
0.8666666666666669
 40
0.8666666666666669
 40
0.8888888888888892
 40
0.8888888888888892
 40
0.8888888888888892
 40
0.8888888888888892
 40
0.9111111111111114
 40
0.9111111111111114
 40
0.9111111111111114
 40
0.9111111111111114
 40
0.9333333333333337
 40
0.9333333333333337
 40
0.9333333333333337
 40
0.9333333333333337
 40
0.9555555555555559
 40
0.9555555555555559
 40
0.9555555555555559
 40
0.9555555555555559
 40
0.9777777777777782
 40
0.9777777777777782
 40
0.9777777777777782
 40
0.9777777777777782
 40
1.0
 40
1.0
 40
1.0
 40
1.0
 10
-0.9421900000000001
 20
-0.4476000000000001
 30
0.0
 10
-0.82789
 20
-1.37216
 30
0.0
 10
-2.2985500000000001
 20
-1.8369800000000001
 30
0.0
 10
-2.2477500000000004
 20
-2.8682200000000004
 30
0.0
 10
-2.2477500000000004
 20
-2.8682200000000004
 30
0.0
 10
-2.0775700000000001
 20
-2.6599400000000002
 30
0.0
 10
-2.0089900000000003
 20
-2.1544800000000004
 30
0.0
 10
-1.7194300000000002
 20
-1.9284200000000002
 30
0.0
 10
-1.7194300000000002
 20
-1.9284200000000002
 30
0.0
 10
-1.7600700000000002
 20
-2.2103600000000001
 30
0.0
 10
-1.4374900000000002
 20
-2.3780000000000001
 30
0.0
 10
-1.2368300000000001
 20
-2.5100800000000003
 30
0.0
 10
-1.2368300000000001
 20
-2.5100800000000003
 30
0.0
 10
-1.3028700000000002
 20
-2.8809200000000001
 30
0.0
 10
-1.5390900000000001
 20
-3.4194000000000004
 30
0.0
 10
-1.1606300000000001
 20
-2.8656800000000002
 30
0.0
 10
-1.1606300000000001
 20
-2.8656800000000002
 30
0.0
 10
-1.0082300000000002
 20
-2.7640800000000003
 30
0.0
 10
-0.7669300000000001
 20
-2.7361400000000002
 30
0.0
 10
-0.9269500000000001
 20
-2.9774400000000001
 30
0.0
 10
-0.9269500000000001
 20
-2.9774400000000001
 30
0.0
 10
-1.1606300000000001
 20
-3.3127200000000001
 30
0.0
 10
-0.9447300000000001
 20
-3.1831800000000001
 30
0.0
 10
-0.7491500000000001
 20
-2.9926800000000005
 30
0.0
 10
-0.7491500000000001
 20
-2.9926800000000005
 30
0.0
 10
-0.67803
 20
-2.9342600000000001
 30
0.0
 10
-0.3757700000000001
 20
-2.8707600000000002
 30
0.0
 10
-0.44435
 20
-3.0257000000000001
 30
0.0
 10
-0.44435
 20
-3.0257000000000001
 30
0.0
 10
-0.44435
 20
-3.0257000000000001
 30
0.0
 10
-0.54849
 20
-3.2314400000000001
 30
0.0
 10
-0.54849
 20
-3.2314400000000001
 30
0.0
 10
-0.54849
 20
-3.2314400000000001
 30
0.0
 10
-0.23353
 20
-3.2060400000000002
 30
0.0
 10
-0.28941
 20
-3.0739600000000005
 30
0.0
 10
-0.09891
 20
-3.0130000000000003
 30
0.0
 10
-0.09891
 20
-3.0130000000000003
 30
0.0
 10
0.4725800000000001
 20
-2.8301200000000004
 30
0.0
 10
1.0364600000000002
 20
-2.85806
 30
0.0
 10
1.1253600000000001
 20
-3.1222200000000004
 30
0.0
 10
1.1253600000000001
 20
-3.1222200000000004
 30
0.0
 10
1.14568
 20
-3.1831800000000001
 30
0.0
 10
1.0847200000000001
 20
-3.2543000000000002
 30
0.0
 10
1.0567800000000001
 20
-3.3406600000000002
 30
0.0
 10
1.0567800000000001
 20
-3.3406600000000002
 30
0.0
 10
1.0415400000000001
 20
-3.3889200000000002
 30
0.0
 10
0.9678800000000001
 20
-3.5413200000000002
 30
0.0
 10
1.14314
 20
-3.4473400000000001
 30
0.0
 10
1.14314
 20
-3.4473400000000001
 30
0.0
 10
1.7425800000000002
 20
-2.8555200000000003
 30
0.0
 10
2.13374
 20
-3.0358600000000004
 30
0.0
 10
1.4911200000000002
 20
-3.4524200000000005
 30
0.0
 10
1.4911200000000002
 20
-3.4524200000000005
 30
0.0
 10
1.3463400000000001
 20
-3.6657800000000003
 30
0.0
 10
1.8238600000000003
 20
-3.2873200000000002
 30
0.0
 10
1.9711800000000002
 20
-3.2517600000000004
 30
0.0
 10
1.9711800000000002
 20
-3.2517600000000004
 30
0.0
 10
2.2505800000000002
 20
-3.15524
 30
0.0
 10
2.8754200000000001
 20
-3.1450800000000001
 30
0.0
 10
2.7509600000000001
 20
-3.5591000000000004
 30
0.0
 10
2.7509600000000001
 20
-3.5591000000000004
 30
0.0
 10
3.0227400000000002
 20
-3.3686000000000003
 30
0.0
 10
3.1700600000000003
 20
-3.4092400000000005
 30
0.0
 10
3.2665800000000003
 20
-3.7267400000000004
 30
0.0
 10
3.2665800000000003
 20
-3.7267400000000004
 30
0.0
 10
3.2665800000000003
 20
-3.7267400000000004
 30
0.0
 10
3.0151200000000005
 20
-3.8893000000000004
 30
0.0
 10
3.0151200000000005
 20
-3.8893000000000004
 30
0.0
 10
3.0151200000000005
 20
-3.8893000000000004
 30
0.0
 10
2.7077800000000001
 20
-4.2525200000000005
 30
0.0
 10
3.6552000000000002
 20
-3.4117800000000003
 30
0.0
 10
3.7695000000000003
 20
-3.8207200000000001
 30
0.0
 10
3.7695000000000003
 20
-3.8207200000000001
 30
0.0
 10
3.5256600000000002
 20
-3.9655000000000005
 30
0.0
 10
3.2411800000000004
 20
-4.2068000000000003
 30
0.0
 10
3.6907600000000005
 20
-3.9909000000000003
 30
0.0
 10
3.6907600000000005
 20
-3.9909000000000003
 30
0.0
 10
3.6907600000000005
 20
-3.9909000000000003
 30
0.0
 10
3.8990400000000003
 20
-3.8791400000000005
 30
0.0
 10
3.8990400000000003
 20
-3.8791400000000005
 30
0.0
 10
3.8990400000000003
 20
-3.8791400000000005
 30
0.0
 10
4.0412800000000004
 20
-4.04678
 30
0.0
 10
3.8304600000000004
 20
-4.1382200000000005
 30
0.0
 10
3.7060000000000004
 20
-4.2220400000000007
 30
0.0
 10
3.7060000000000004
 20
-4.2220400000000007
 30
0.0
 10
3.3300800000000002
 20
-4.4760400000000002
 30
0.0
 10
2.2734400000000003
 20
-4.4227000000000007
 30
0.0
 10
2.2226400000000002
 20
-4.2144200000000005
 30
0.0
 10
2.2226400000000002
 20
-4.2144200000000005
 30
0.0
 10
2.3953600000000002
 20
-4.1153599999999999
 30
0.0
 10
1.7857600000000002
 20
-4.0213800000000006
 30
0.0
 10
1.6232000000000002
 20
-3.9604200000000005
 30
0.0
 10
1.6232000000000002
 20
-3.9604200000000005
 30
0.0
 10
1.6232000000000002
 20
-3.9604200000000005
 30
0.0
 10
1.4936600000000002
 20
-3.9502600000000001
 30
0.0
 10
1.4936600000000002
 20
-3.9502600000000001
 30
0.0
 10
1.4936600000000002
 20
-3.9502600000000001
 30
0.0
 10
1.3539600000000001
 20
-4.0137600000000004
 30
0.0
 10
1.7425800000000002
 20
-4.04678
 30
0.0
 10
1.8289400000000002
 20
-4.1077400000000006
 30
0.0
 10
1.8289400000000002
 20
-4.1077400000000006
 30
0.0
 10
0.99582
 20
-4.1483800000000004
 30
0.0
 10
0.08142
 20
-3.7038800000000003
 30
0.0
 10
-0.72121
 20
-4.0518600000000005
 30
0.0
 10
-0.72121
 20
-4.0518600000000005
 30
0.0
 10
-0.72121
 20
-4.0518600000000005
 30
0.0
 10
-0.28687
 20
-4.01884
 30
0.0
 10
-0.28687
 20
-4.01884
 30
0.0
 10
-0.28687
 20
-4.01884
 30
0.0
 10
-0.04811
 20
-4.0036000000000005
 30
0.0
 10
0.18048
 20
-4.0620200000000004
 30
0.0
 10
0.4167
 20
-4.1001200000000004
 30
0.0
 10
0.4167
 20
-4.1001200000000004
 30
0.0
 10
0.31256
 20
-4.1991800000000001
 30
0.0
 10
-0.52563
 20
-4.1407600000000002
 30
0.0
 10
-0.9167900000000001
 20
-4.1788600000000002
 30
0.0
 10
-0.9167900000000001
 20
-4.1788600000000002
 30
0.0
 10
-1.08443
 20
-4.1128200000000001
 30
0.0
 10
-1.2622300000000002
 20
-4.0340800000000003
 30
0.0
 10
-1.4044700000000001
 20
-3.9477200000000003
 30
0.0
 10
-1.4044700000000001
 20
-3.9477200000000003
 30
0.0
 10
-0.7262900000000001
 20
-3.8385000000000002
 30
0.0
 10
-0.00747
 20
-3.7089600000000003
 30
0.0
 10
0.658
 20
-3.8105600000000002
 30
0.0
 10
0.658
 20
-3.8105600000000002
 30
0.0
 10
-0.31989
 20
-3.4905200000000001
 30
0.0
 10
-1.3917700000000002
 20
-3.9578800000000003
 30
0.0
 10
-2.39507
 20
-3.6505400000000003
 30
0.0
 10
-2.39507
 20
-3.6505400000000003
 30
0.0
 10
-2.1766300000000003
 20
-3.4803600000000001
 30
0.0
 10
-1.6102100000000001
 20
-3.4752800000000001
 30
0.0
 10
-1.54925
 20
-3.3076400000000001
 30
0.0
 10
-1.54925
 20
-3.3076400000000001
 30
0.0
 10
-2.1182100000000004
 20
-3.3736800000000002
 30
0.0
 10
-2.73543
 20
-3.7140400000000002
 30
0.0
 10
-3.2713700000000001
 20
-3.3432000000000004
 30
0.0
 10
-3.2713700000000001
 20
-3.3432000000000004
 30
0.0
 10
-3.7209500000000002
 20
-2.7945600000000002
 30
0.0
 10
-3.3424900000000002
 20
-1.7785600000000001
 30
0.0
 10
-3.9749500000000002
 20
-1.33406
 30
0.0
 10
-3.9749500000000002
 20
-1.33406
 30
0.0
 10
-3.9927300000000003
 20
-1.4712200000000002
 30
0.0
 10
-3.7260300000000002
 20
-1.9462000000000002
 30
0.0
 10
-3.8860500000000004
 20
-1.8522200000000002
 30
0.0
 10
-3.8860500000000004
 20
-1.8522200000000002
 30
0.0
 10
-3.9343100000000004
 20
-1.8014200000000002
 30
0.0
 10
-3.9851100000000002
 20
-1.7480800000000001
 30
0.0
 10
-4.0536900000000005
 20
-1.7303000000000002
 30
0.0
 10
-4.0536900000000005
 20
-1.7303000000000002
 30
0.0
 10
-4.1629100000000001
 20
-1.6566400000000001
 30
0.0
 10
-4.26959
 20
-1.5575800000000002
 30
0.0
 10
-4.3000700000000007
 20
-1.4229600000000002
 30
0.0
 10
-4.3000700000000007
 20
-1.4229600000000002
 30
0.0
 10
-4.3203900000000006
 20
-0.9048000000000001
 30
0.0
 10
-3.7971500000000002
 20
-0.5873
 30
0.0
 10
-3.6701500000000005
 20
-0.12756
 30
0.0
 10
-3.6701500000000005
 20
-0.12756
 30
0.0
 10
-3.4923500000000001
 20
-0.25456
 30
0.0
 10
-3.2637500000000004
 20
-0.3739400000000001
 30
0.0
 10
-3.0681700000000003
 20
-0.45268
 30
0.0
 10
-3.0681700000000003
 20
-0.45268
 30
0.0
 10
-3.3196300000000001
 20
-1.0191000000000001
 30
0.0
 10
-3.3424900000000002
 20
-2.1290800000000001
 30
0.0
 10
-2.52461
 20
-2.23068
 30
0.0
 10
-2.52461
 20
-2.23068
 30
0.0
 10
-2.4026900000000002
 20
-2.2484600000000001
 30
0.0
 10
-2.3341100000000004
 20
-2.2179800000000003
 30
0.0
 10
-2.2502900000000001
 20
-2.1417800000000002
 30
0.0
 10
-2.2502900000000001
 20
-2.1417800000000002
 30
0.0
 10
-2.0318500000000004
 20
-1.9919200000000001
 30
0.0
 10
-2.7252700000000001
 20
-2.23068
 30
0.0
 10
-2.8725900000000002
 20
-1.9639800000000001
 30
0.0
 10
-2.8725900000000002
 20
-1.9639800000000001
 30
0.0
 10
-2.8979900000000001
 20
-1.9131800000000001
 30
0.0
 10
-2.9741900000000001
 20
-1.79634
 30
0.0
 10
-2.8929100000000001
 20
-1.7785600000000001
 30
0.0
 10
-2.8929100000000001
 20
-1.7785600000000001
 30
0.0
 10
-1.6965700000000001
 20
-2.1671800000000001
 30
0.0
 10
-2.0293100000000002
 20
-0.08184
 30
0.0
 10
-0.9421900000000001
 20
-0.4476000000000001
 30
0.0
  0
SPLINE
  5
3D
100
AcDbEntity
  8
Ebene 1
 62
     7
100
AcDbSpline
210
0.0
220
0.0
230
1.0
 70
     1
 71
     3
 72
    12
 73
     8
 74
     0
 42
0.0000000001
 43
0.0000000001
 40
0.0
 40
0.0
 40
0.0
 40
0.0
 40
0.5
 40
0.5
 40
0.5
 40
0.5
 40
1.0
 40
1.0
 40
1.0
 40
1.0
 10
-0.13447
 20
-0.7295400000000001
 30
0.0
 10
0.08142
 20
-0.8971800000000001
 30
0.0
 10
-0.27417
 20
-1.0572000000000001
 30
0.0
 10
-0.39101
 20
-1.1816600000000002
 30
0.0
 10
-0.39101
 20
-1.1816600000000002
 30
0.0
 10
-0.3757700000000001
 20
-1.0140200000000001
 30
0.0
 10
-0.29957
 20
-0.7981200000000001
 30
0.0
 10
-0.13447
 20
-0.7295400000000001
 30
0.0
  0
SPLINE
  5
3E
100
AcDbEntity
  8
Ebene 1
 62
     7
100
AcDbSpline
210
0.0
220
0.0
230
1.0
 70
     1
 71
     3
 72
    20
 73
    16
 74
     0
 42
0.0000000001
 43
0.0000000001
 40
0.0
 40
0.0
 40
0.0
 40
0.0
 40
0.25
 40
0.25
 40
0.25
 40
0.25
 40
0.5
 40
0.5
 40
0.5
 40
0.5
 40
0.75
 40
0.75
 40
0.75
 40
0.75
 40
1.0
 40
1.0
 40
1.0
 40
1.0
 10
0.28716
 20
-1.1842000000000001
 30
0.0
 10
0.28716
 20
-1.1842000000000001
 30
0.0
 10
0.34812
 20
-1.20706
 30
0.0
 10
0.34812
 20
-1.20706
 30
0.0
 10
0.34812
 20
-1.20706
 30
0.0
 10
0.3557400000000001
 20
-1.49916
 30
0.0
 10
0.1246
 20
-1.8649200000000001
 30
0.0
 10
-0.19035
 20
-1.8547600000000002
 30
0.0
 10
-0.19035
 20
-1.8547600000000002
 30
0.0
 10
-0.38085
 20
-1.6464800000000002
 30
0.0
 10
-0.24369
 20
-1.3289800000000001
 30
0.0
 10
-0.09383
 20
-1.1359400000000002
 30
0.0
 10
-0.09383
 20
-1.1359400000000002
 30
0.0
 10
0.02808
 20
-1.16642
 30
0.0
 10
0.16778
 20
-1.21214
 30
0.0
 10
0.28716
 20
-1.1842000000000001
 30
0.0
  0
SPLINE
  5
3F
100
AcDbEntity
  8
Ebene 1
 62
     7
100
AcDbSpline
210
0.0
220
0.0
230
1.0
 70
     1
 71
     3
 72
    24
 73
    20
 74
     0
 42
0.0000000001
 43
0.0000000001
 40
0.0
 40
0.0
 40
0.0
 40
0.0
 40
0.2
 40
0.2
 40
0.2
 40
0.2
 40
0.4
 40
0.4
 40
0.4
 40
0.4
 40
0.6000000000000001
 40
0.6000000000000001
 40
0.6000000000000001
 40
0.6000000000000001
 40
0.8
 40
0.8
 40
0.8
 40
0.8
 40
1.0
 40
1.0
 40
1.0
 40
1.0
 10
-1.0488700000000002
 20
-1.2781800000000001
 30
0.0
 10
-1.0641100000000001
 20
-1.4407400000000001
 30
0.0
 10
-1.2749300000000001
 20
-1.54234
 30
0.0
 10
-1.3536700000000002
 20
-1.6947400000000001
 30
0.0
 10
-1.3536700000000002
 20
-1.6947400000000001
 30
0.0
 10
-1.3943100000000002
 20
-1.8598400000000002
 30
0.0
 10
-1.3130300000000001
 20
-2.02494
 30
0.0
 10
-1.2571500000000002
 20
-2.1722600000000001
 30
0.0
 10
-1.2571500000000002
 20
-2.1722600000000001
 30
0.0
 10
-1.2622300000000002
 20
-2.2154400000000001
 30
0.0
 10
-1.24953
 20
-2.2535400000000001
 30
0.0
 10
-1.29271
 20
-2.2814800000000002
 30
0.0
 10
-1.29271
 20
-2.2814800000000002
 30
0.0
 10
-1.5670300000000001
 20
-2.27894
 30
0.0
 10
-1.58735
 20
-1.9487400000000001
 30
0.0
 10
-1.5543300000000002
 20
-1.7607800000000002
 30
0.0
 10
-1.5543300000000002
 20
-1.7607800000000002
 30
0.0
 10
-1.3689100000000001
 20
-1.6185400000000001
 30
0.0
 10
-1.21143
 20
-1.4432800000000001
 30
0.0
 10
-1.0488700000000002
 20
-1.2781800000000001
 30
0.0
  0
SPLINE
  5
40
100
AcDbEntity
  8
Ebene 1
 62
     7
100
AcDbSpline
210
0.0
220
0.0
230
1.0
 70
     1
 71
     3
 72
    12
 73
     8
 74
     0
 42
0.0000000001
 43
0.0000000001
 40
0.0
 40
0.0
 40
0.0
 40
0.0
 40
0.5
 40
0.5
 40
0.5
 40
0.5
 40
1.0
 40
1.0
 40
1.0
 40
1.0
 10
3.5739200000000002
 20
-2.9622000000000002
 30
0.0
 10
3.6450400000000003
 20
-3.2212800000000001
 30
0.0
 10
3.5485200000000003
 20
-3.5210000000000004
 30
0.0
 10
3.2945200000000003
 20
-3.6454600000000004
 30
0.0
 10
3.2945200000000003
 20
-3.6454600000000004
 30
0.0
 10
3.1929200000000004
 20
-3.3762200000000004
 30
0.0
 10
3.4697800000000001
 20
-3.1781000000000001
 30
0.0
 10
3.5739200000000002
 20
-2.9622000000000002
 30
0.0
  0
SPLINE
  5
41
100
AcDbEntity
  8
Ebene 1
 62
     7
100
AcDbSpline
210
0.0
220
0.0
230
1.0
 70
     1
 71
     3
 72
    24
 73
    20
 74
     0
 42
0.0000000001
 43
0.0000000001
 40
0.0
 40
0.0
 40
0.0
 40
0.0
 40
0.2
 40
0.2
 40
0.2
 40
0.2
 40
0.4
 40
0.4
 40
0.4
 40
0.4
 40
0.6000000000000001
 40
0.6000000000000001
 40
0.6000000000000001
 40
0.6000000000000001
 40
0.8
 40
0.8
 40
0.8
 40
0.8
 40
1.0
 40
1.0
 40
1.0
 40
1.0
 10
2.2759800000000001
 20
-2.5913600000000003
 30
0.0
 10
2.2861400000000001
 20
-2.5964400000000003
 30
0.0
 10
2.3140800000000001
 20
-2.5989800000000001
 30
0.0
 10
2.3039200000000002
 20
-2.6193000000000004
 30
0.0
 10
2.3039200000000002
 20
-2.6193000000000004
 30
0.0
 10
2.2023200000000003
 20
-2.8098000000000001
 30
0.0
 10
2.1642200000000003
 20
-3.2162000000000002
 30
0.0
 10
1.8695800000000002
 20
-3.1171400000000005
 30
0.0
 10
1.8695800000000002
 20
-3.1171400000000005
 30
0.0
 10
1.9153000000000002
 20
-2.9418800000000003
 30
0.0
 10
2.0753200000000001
 20
-2.8453600000000003
 30
0.0
 10
2.20486
 20
-2.73868
 30
0.0
 10
2.20486
 20
-2.73868
 30
0.0
 10
2.1159600000000003
 20
-2.60406
 30
0.0
 10
1.9330800000000001
 20
-2.7818600000000004
 30
0.0
 10
1.8365600000000002
 20
-2.8275800000000002
 30
0.0
 10
1.8365600000000002
 20
-2.8275800000000002
 30
0.0
 10
1.9153000000000002
 20
-2.6675600000000004
 30
0.0
 10
2.12866
 20
-2.64724
 30
0.0
 10
2.2759800000000001
 20
-2.5913600000000003
 30
0.0
  0
SPLINE
  5
42
100
AcDbEntity
  8
Ebene 1
 62
     7
100
AcDbSpline
210
0.0
220
0.0
230
1.0
 70
     1
 71
     3
 72
    12
 73
     8
 74
     0
 42
0.0000000001
 43
0.0000000001
 40
0.0
 40
0.0
 40
0.0
 40
0.0
 40
0.5
 40
0.5
 40
0.5
 40
0.5
 40
1.0
 40
1.0
 40
1.0
 40
1.0
 10
3.9676200000000001
 20
-3.3863800000000004
 30
0.0
 10
3.9650800000000004
 20
-3.5057600000000004
 30
0.0
 10
3.8990400000000003
 20
-3.7648400000000004
 30
0.0
 10
3.7314000000000003
 20
-3.7267400000000004
 30
0.0
 10
3.7314000000000003
 20
-3.7267400000000004
 30
0.0
 10
3.6882200000000003
 20
-3.5667200000000001
 30
0.0
 10
3.8558600000000003
 20
-3.4702000000000002
 30
0.0
 10
3.9676200000000001
 20
-3.3863800000000004
 30
0.0
  0
SPLINE
  5
43
100
AcDbEntity
  8
Ebene 1
 62
     7
100
AcDbSpline
210
0.0
220
0.0
230
1.0
 70
     1
 71
     3
 72
    12
 73
     8
 74
     0
 42
0.0000000001
 43
0.0000000001
 40
0.0
 40
0.0
 40
0.0
 40
0.0
 40
0.5
 40
0.5
 40
0.5
 40
0.5
 40
1.0
 40
1.0
 40
1.0
 40
1.0
 10
4.4654600000000002
 20
-3.5514800000000002
 30
0.0
 10
4.3689400000000003
 20
-3.6353000000000004
 30
0.0
 10
4.2292400000000008
 20
-3.7089600000000003
 30
0.0
 10
4.1022400000000001
 20
-3.7064200000000005
 30
0.0
 10
4.1022400000000001
 20
-3.7064200000000005
 30
0.0
 10
4.2165400000000002
 20
-3.6505400000000003
 30
0.0
 10
4.34354
 20
-3.5768800000000005
 30
0.0
 10
4.4654600000000002
 20
-3.5514800000000002
 30
0.0
  0
SPLINE
  5
44
100
AcDbEntity
  8
Ebene 1
 62
     7
100
AcDbSpline
210
0.0
220
0.0
230
1.0
 70
     1
 71
     3
 72
    12
 73
     8
 74
     0
 42
0.0000000001
 43
0.0000000001
 40
0.0
 40
0.0
 40
0.0
 40
0.0
 40
0.5
 40
0.5
 40
0.5
 40
0.5
 40
1.0
 40
1.0
 40
1.0
 40
1.0
 10
3.1040200000000002
 20
-3.1577800000000003
 30
0.0
 10
3.1294200000000001
 20
-3.2238200000000004
 30
0.0
 10
2.9897200000000002
 20
-3.3660600000000005
 30
0.0
 10
2.9338400000000004
 20
-3.3000200000000004
 30
0.0
 10
2.9338400000000004
 20
-3.3000200000000004
 30
0.0
 10
2.9617800000000001
 20
-3.2339800000000003
 30
0.0
 10
3.0278200000000002
 20
-3.15524
 30
0.0
 10
3.1040200000000002
 20
-3.1577800000000003
 30
0.0
  0
SPLINE
  5
45
100
AcDbEntity
  8
Ebene 1
 62
     7
100
AcDbSpline
210
0.0
220
0.0
230
1.0
 70
     1
 71
     3
 72
    16
 73
    12
 74
     0
 42
0.0000000001
 43
0.0000000001
 40
0.0
 40
0.0
 40
0.0
 40
0.0
 40
0.3333333333333333
 40
0.3333333333333333
 40
0.3333333333333333
 40
0.3333333333333333
 40
0.6666666666666666
 40
0.6666666666666666
 40
0.6666666666666666
 40
0.6666666666666666
 40
1.0
 40
1.0
 40
1.0
 40
1.0
 10
1.5393800000000002
 20
-2.7005800000000004
 30
0.0
 10
1.5393800000000002
 20
-2.7005800000000004
 30
0.0
 10
1.52922
 20
-2.8021800000000003
 30
0.0
 10
1.52922
 20
-2.8021800000000003
 30
0.0
 10
1.52922
 20
-2.8021800000000003
 30
0.0
 10
1.6460600000000001
 20
-2.9139400000000002
 30
0.0
 10
1.4631800000000001
 20
-3.11206
 30
0.0
 10
1.32094
 20
-3.0460200000000004
 30
0.0
 10
1.32094
 20
-3.0460200000000004
 30
0.0
 10
1.3412600000000001
 20
-2.8987000000000003
 30
0.0
 10
1.4149200000000002
 20
-2.7539200000000004
 30
0.0
 10
1.5393800000000002
 20
-2.7005800000000004
 30
0.0
  0
SPLINE
  5
46
100
AcDbEntity
  8
Ebene 1
 62
     7
100
AcDbSpline
210
0.0
220
0.0
230
1.0
 70
     1
 71
     3
 72
    16
 73
    12
 74
     0
 42
0.0000000001
 43
0.0000000001
 40
0.0
 40
0.0
 40
0.0
 40
0.0
 40
0.3333333333333333
 40
0.3333333333333333
 40
0.3333333333333333
 40
0.3333333333333333
 40
0.6666666666666666
 40
0.6666666666666666
 40
0.6666666666666666
 40
0.6666666666666666
 40
1.0
 40
1.0
 40
1.0
 40
1.0
 10
4.4172000000000002
 20
-3.7013400000000005
 30
0.0
 10
4.4400600000000008
 20
-3.7038800000000003
 30
0.0
 10
4.4273600000000002
 20
-3.7292800000000002
 30
0.0
 10
4.4222800000000007
 20
-3.7394400000000001
 30
0.0
 10
4.4222800000000007
 20
-3.7394400000000001
 30
0.0
 10
4.33338
 20
-3.7978600000000005
 30
0.0
 10
4.2368600000000001
 20
-4.0264600000000002
 30
0.0
 10
4.1428799999999999
 20
-3.8816800000000002
 30
0.0
 10
4.1428799999999999
 20
-3.8816800000000002
 30
0.0
 10
4.1428799999999999
 20
-3.8816800000000002
 30
0.0
 10
4.4172000000000002
 20
-3.7013400000000005
 30
0.0
 10
4.4172000000000002
 20
-3.7013400000000005
 30
0.0
  0
SPLINE
  5
47
100
AcDbEntity
  8
Ebene 1
 62
     7
100
AcDbSpline
210
0.0
220
0.0
230
1.0
 70
     1
 71
     3
 72
    20
 73
    16
 74
     0
 42
0.0000000001
 43
0.0000000001
 40
0.0
 40
0.0
 40
0.0
 40
0.0
 40
0.25
 40
0.25
 40
0.25
 40
0.25
 40
0.5
 40
0.5
 40
0.5
 40
0.5
 40
0.75
 40
0.75
 40
0.75
 40
0.75
 40
1.0
 40
1.0
 40
1.0
 40
1.0
 10
-0.74153
 20
-2.0224000000000002
 30
0.0
 10
-0.7364500000000001
 20
-2.0274800000000002
 30
0.0
 10
-0.7034300000000001
 20
-2.0300200000000004
 30
0.0
 10
-0.71613
 20
-2.0452600000000003
 30
0.0
 10
-0.71613
 20
-2.0452600000000003
 30
0.0
 10
-0.90917
 20
-2.2129000000000003
 30
0.0
 10
-0.8431300000000001
 20
-2.5126200000000001
 30
0.0
 10
-0.9396500000000001
 20
-2.7285200000000001
 30
0.0
 10
-0.9396500000000001
 20
-2.7285200000000001
 30
0.0
 10
-1.0158500000000001
 20
-2.7336
 30
0.0
 10
-1.0920500000000002
 20
-2.7082000000000002
 30
0.0
 10
-1.1479300000000001
 20
-2.6599400000000002
 30
0.0
 10
-1.1479300000000001
 20
-2.6599400000000002
 30
0.0
 10
-1.1758700000000002
 20
-2.3703800000000004
 30
0.0
 10
-1.0260100000000001
 20
-2.1240000000000001
 30
0.0
 10
-0.74153
 20
-2.0224000000000002
 30
0.0
  0
SPLINE
  5
48
100
AcDbEntity
  8
Ebene 1
 62
     7
100
AcDbSpline
210
0.0
220
0.0
230
1.0
 70
     1
 71
     3
 72
    16
 73
    12
 74
     0
 42
0.0000000001
 43
0.0000000001
 40
0.0
 40
0.0
 40
0.0
 40
0.0
 40
0.3333333333333333
 40
0.3333333333333333
 40
0.3333333333333333
 40
0.3333333333333333
 40
0.6666666666666666
 40
0.6666666666666666
 40
0.6666666666666666
 40
0.6666666666666666
 40
1.0
 40
1.0
 40
1.0
 40
1.0
 10
-0.35799
 20
-2.4262600000000001
 30
0.0
 10
-0.26655
 20
-2.6167600000000002
 30
0.0
 10
-0.42403
 20
-2.9977600000000004
 30
0.0
 10
-0.67803
 20
-2.8377400000000002
 30
0.0
 10
-0.67803
 20
-2.8377400000000002
 30
0.0
 10
-0.67803
 20
-2.8377400000000002
 30
0.0
 10
-0.75931
 20
-2.8225000000000002
 30
0.0
 10
-0.75931
 20
-2.8225000000000002
 30
0.0
 10
-0.75931
 20
-2.8225000000000002
 30
0.0
 10
-0.73899
 20
-2.6320000000000001
 30
0.0
 10
-0.5383300000000001
 20
-2.4923000000000002
 30
0.0
 10
-0.35799
 20
-2.4262600000000001
 30
0.0
  0
SPLINE
  5
49
100
AcDbEntity
  8
Ebene 1
 62
     7
100
AcDbSpline
210
0.0
220
0.0
230
1.0
 70
     1
 71
     3
 72
    16
 73
    12
 74
     0
 42
0.0000000001
 43
0.0000000001
 40
0.0
 40
0.0
 40
0.0
 40
0.0
 40
0.3333333333333333
 40
0.3333333333333333
 40
0.3333333333333333
 40
0.3333333333333333
 40
0.6666666666666666
 40
0.6666666666666666
 40
0.6666666666666666
 40
0.6666666666666666
 40
1.0
 40
1.0
 40
1.0
 40
1.0
 10
0.04332
 20
-2.3526000000000002
 30
0.0
 10
0.08142
 20
-2.4313400000000001
 30
0.0
 10
-0.04049
 20
-2.7996400000000001
 30
0.0
 10
-0.09129
 20
-2.8834600000000004
 30
0.0
 10
-0.09129
 20
-2.8834600000000004
 30
0.0
 10
-0.3325900000000001
 20
-2.9418800000000003
 30
0.0
 10
-0.3224300000000001
 20
-2.6142200000000004
 30
0.0
 10
-0.07859
 20
-2.6243800000000004
 30
0.0
 10
-0.07859
 20
-2.6243800000000004
 30
0.0
 10
-0.07859
 20
-2.6243800000000004
 30
0.0
 10
0.04332
 20
-2.3526000000000002
 30
0.0
 10
0.04332
 20
-2.3526000000000002
 30
0.0
  0
ENDSEC
  0
SECTION
  2
OBJECTS
  0
DICTIONARY
  5
19
100
AcDbDictionary
280
     0
281
     1
  3
ACAD_GROUP
350
1A
  3
ACAD_MLINESTYLE
350
1B
  3
ACAD_LAYOUT
350
1E
  3
ACAD_PLOTSETTINGS
350
22
  3
ACAD_PLOTSTYLENAME
350
1F
  3
ACAD_WIPEOUT_VARS
350
23
  0
DICTIONARY
  5
1A
102
{ACAD_REACTORS
330
19
102
}
100
AcDbDictionary
280
     0
281
     1
  0
DICTIONARY
  5
1B
102
{ACAD_REACTORS
330
19
102
}
100
AcDbDictionary
280
     0
281
     1
  3
Standard
350
1C
  0
MLINESTYLE
  5
1C
102
{ACAD_REACTORS
330
1B
102
}
100
AcDbMlineStyle
  2
Standard
 70
     0
  3

 62
     0
 51
90.0
 52
90.0
 71
     2
 49
0.5
 62
   256
  6
BYLAYER
 49
-0.5
 62
   256
  6
BYLAYER
  0
ACDBDICTIONARYWDFLT
  5
1F
102
{ACAD_REACTORS
330
19
102
}
100
AcDbDictionary
281
     1
  3
Normal
350
1D
100
AcDbDictionaryWithDefault
340
1D
  0
ACDBPLACEHOLDER
  5
1D
102
{ACAD_REACTORS
330
1F
102
}
  0
LAYOUT
  5
20
102
{ACAD_REACTORS
330
1E
102
}
100
AcDbPlotSettings
  1

  2

  4

  6

 40
0.0
 41
0.0
 42
0.0
 43
0.0
 44
0.0
 45
0.0
 46
0.0
 47
0.0
 48
0.0
 49
0.0
140
0.0
141
0.0
142
1.0
143
1.0
 70
  1024
 72
     0
 73
     0
 74
     0
  7

 75
     0
147
1.0
148
0.0
149
0.0
100
AcDbLayout
  1
Model
 70
     0
 71
     0
 10
0.0
 20
0.0
 11
0.0
 21
0.0
 12
0.0
 22
0.0
 32
0.0
 14
0.0
 24
0.0
 34
0.0
 15
0.0
 25
0.0
 35
0.0
146
0.0
 13
0.0
 23
0.0
 33
0.0
 16
0.0
 26
0.0
 36
0.0
 17
0.0
 27
0.0
 37
0.0
 76
     0
330
A
331
0
345
0
346
0
  0
LAYOUT
  5
21
102
{ACAD_REACTORS
330
1E
102
}
100
AcDbPlotSettings
  1

  2

  4

  6

 40
0.0
 41
0.0
 42
0.0
 43
0.0
 44
0.0
 45
0.0
 46
0.0
 47
0.0
 48
0.0
 49
0.0
140
0.0
141
0.0
142
1.0
143
1.0
 70
     0
 72
     0
 73
     0
 74
     0
  7

 75
     0
147
1.0
148
0.0
149
0.0
100
AcDbLayout
  1
Layout1
 70
     0
 71
     0
 10
0.0
 20
0.0
 11
0.0
 21
0.0
 12
0.0
 22
0.0
 32
0.0
 14
0.0
 24
0.0
 34
0.0
 15
0.0
 25
0.0
 35
0.0
146
0.0
 13
0.0
 23
0.0
 33
0.0
 16
0.0
 26
0.0
 36
0.0
 17
0.0
 27
0.0
 37
0.0
 76
     0
330
B
331
0
345
0
346
0
  0
DICTIONARY
  5
1E
102
{ACAD_REACTORS
330
19
102
}
100
AcDbDictionary
280
     0
281
     1
  3
Layout1
350
21
  3
Model
350
20
  0
DICTIONARY
  5
22
102
{ACAD_REACTORS
330
19
102
}
100
AcDbDictionary
280
     0
281
     1
  0
WIPEOUTVARIABLES
  5
23
100
AcDbWipeoutVariables
 70
     1
  0
ENDSEC
  0
EOF
